  0
SECTION
  2
HEADER
  9
$ACADVER
  1
AC1015
  9
$ACADMAINTVER
 70
    20
  9
$DWGCODEPAGE
  3
ANSI_932
  9
$INSBASE
 10
0.0
 20
0.0
 30
0.0
  9
$EXTMIN
 10
2.516479937495319
 20
-6.870731622786479
 30
-0.000000000000013
  9
$EXTMAX
 10
187.75894209016
 20
264.9250012657054
 30
0.0000000000000023
  9
$LIMMIN
 10
0.0
 20
0.0
  9
$LIMMAX
 10
190.0
 20
257.0
  9
$ORTHOMODE
 70
     0
  9
$REGENMODE
 70
     1
  9
$FILLMODE
 70
     1
  9
$QTEXTMODE
 70
     0
  9
$MIRRTEXT
 70
     1
  9
$LTSCALE
 40
1.0
  9
$ATTMODE
 70
     1
  9
$TEXTSIZE
 40
0.2
  9
$TRACEWID
 40
1.0
  9
$TEXTSTYLE
  7
BIGFONT
  9
$CLAYER
  8
0
  9
$CELTYPE
  6
BYLAYER
  9
$CECOLOR
 62
   256
  9
$CELTSCALE
 40
1.0
  9
$DISPSILH
 70
     0
  9
$DIMSCALE
 40
1.0
  9
$DIMASZ
 40
2.5
  9
$DIMEXO
 40
0.625
  9
$DIMDLI
 40
3.75
  9
$DIMRND
 40
0.0
  9
$DIMDLE
 40
0.0
  9
$DIMEXE
 40
1.25
  9
$DIMTP
 40
0.0
  9
$DIMTM
 40
0.0
  9
$DIMTXT
 40
2.5
  9
$DIMCEN
 40
2.5
  9
$DIMTSZ
 40
0.0
  9
$DIMTOL
 70
     0
  9
$DIMLIM
 70
     0
  9
$DIMTIH
 70
     0
  9
$DIMTOH
 70
     0
  9
$DIMSE1
 70
     0
  9
$DIMSE2
 70
     0
  9
$DIMTAD
 70
     1
  9
$DIMZIN
 70
     8
  9
$DIMBLK
  1

  9
$DIMASO
 70
     1
  9
$DIMSHO
 70
     1
  9
$DIMPOST
  1

  9
$DIMAPOST
  1

  9
$DIMALT
 70
     0
  9
$DIMALTD
 70
     4
  9
$DIMALTF
 40
0.0394
  9
$DIMLFAC
 40
1.0
  9
$DIMTOFL
 70
     1
  9
$DIMTVP
 40
0.0
  9
$DIMTIX
 70
     0
  9
$DIMSOXD
 70
     0
  9
$DIMSAH
 70
     0
  9
$DIMBLK1
  1

  9
$DIMBLK2
  1

  9
$DIMSTYLE
  2
STANDARD
  9
$DIMCLRD
 70
     0
  9
$DIMCLRE
 70
     0
  9
$DIMCLRT
 70
     0
  9
$DIMTFAC
 40
1.0
  9
$DIMGAP
 40
0.625
  9
$DIMJUST
 70
     0
  9
$DIMSD1
 70
     0
  9
$DIMSD2
 70
     0
  9
$DIMTOLJ
 70
     1
  9
$DIMTZIN
 70
     0
  9
$DIMALTZ
 70
     0
  9
$DIMALTTZ
 70
     0
  9
$DIMUPT
 70
     0
  9
$DIMDEC
 70
     4
  9
$DIMTDEC
 70
     4
  9
$DIMALTU
 70
     8
  9
$DIMALTTD
 70
     4
  9
$DIMTXSTY
  7
STANDARD
  9
$DIMAUNIT
 70
     0
  9
$DIMADEC
 70
     0
  9
$DIMALTRND
 40
0.0
  9
$DIMAZIN
 70
     0
  9
$DIMDSEP
 70
    46
  9
$DIMATFIT
 70
     3
  9
$DIMFRAC
 70
     0
  9
$DIMLDRBLK
  1

  9
$DIMLUNIT
 70
     2
  9
$DIMLWD
 70
    -2
  9
$DIMLWE
 70
    -2
  9
$DIMTMOVE
 70
     0
  9
$LUNITS
 70
     2
  9
$LUPREC
 70
     4
  9
$SKETCHINC
 40
1.0
  9
$FILLETRAD
 40
10.0
  9
$AUNITS
 70
     0
  9
$AUPREC
 70
     0
  9
$MENU
  1
acad
  9
$ELEVATION
 40
0.0
  9
$PELEVATION
 40
0.0
  9
$THICKNESS
 40
0.0
  9
$LIMCHECK
 70
     0
  9
$CHAMFERA
 40
10.0
  9
$CHAMFERB
 40
10.0
  9
$CHAMFERC
 40
20.0
  9
$CHAMFERD
 40
0.0
  9
$SKPOLY
 70
     0
  9
$TDCREATE
 40
2447852.052997998
  9
$TDUCREATE
 40
2447851.677997998
  9
$TDUPDATE
 40
2456553.564670579
  9
$TDUUPDATE
 40
2456553.189670579
  9
$TDINDWG
 40
0.0195025231
  9
$TDUSRTIMER
 40
0.0195025231
  9
$USRTIMER
 70
     1
  9
$ANGBASE
 50
0.0
  9
$ANGDIR
 70
     0
  9
$PDMODE
 70
     0
  9
$PDSIZE
 40
0.0
  9
$PLINEWID
 40
0.0
  9
$SPLFRAME
 70
     0
  9
$SPLINETYPE
 70
     6
  9
$SPLINESEGS
 70
     8
  9
$HANDSEED
  5
100001E3
  9
$SURFTAB1
 70
     6
  9
$SURFTAB2
 70
     6
  9
$SURFTYPE
 70
     6
  9
$SURFU
 70
     6
  9
$SURFV
 70
     6
  9
$UCSBASE
  2

  9
$UCSNAME
  2

  9
$UCSORG
 10
0.0
 20
0.0
 30
0.0
  9
$UCSXDIR
 10
1.0
 20
0.0
 30
0.0
  9
$UCSYDIR
 10
0.0
 20
1.0
 30
0.0
  9
$UCSORTHOREF
  2

  9
$UCSORTHOVIEW
 70
     0
  9
$UCSORGTOP
 10
0.0
 20
0.0
 30
0.0
  9
$UCSORGBOTTOM
 10
0.0
 20
0.0
 30
0.0
  9
$UCSORGLEFT
 10
0.0
 20
0.0
 30
0.0
  9
$UCSORGRIGHT
 10
0.0
 20
0.0
 30
0.0
  9
$UCSORGFRONT
 10
0.0
 20
0.0
 30
0.0
  9
$UCSORGBACK
 10
0.0
 20
0.0
 30
0.0
  9
$PUCSBASE
  2

  9
$PUCSNAME
  2

  9
$PUCSORG
 10
0.0
 20
0.0
 30
0.0
  9
$PUCSXDIR
 10
1.0
 20
0.0
 30
0.0
  9
$PUCSYDIR
 10
0.0
 20
1.0
 30
0.0
  9
$PUCSORTHOREF
  2

  9
$PUCSORTHOVIEW
 70
     0
  9
$PUCSORGTOP
 10
0.0
 20
0.0
 30
0.0
  9
$PUCSORGBOTTOM
 10
0.0
 20
0.0
 30
0.0
  9
$PUCSORGLEFT
 10
0.0
 20
0.0
 30
0.0
  9
$PUCSORGRIGHT
 10
0.0
 20
0.0
 30
0.0
  9
$PUCSORGFRONT
 10
0.0
 20
0.0
 30
0.0
  9
$PUCSORGBACK
 10
0.0
 20
0.0
 30
0.0
  9
$USERI1
 70
     0
  9
$USERI2
 70
     0
  9
$USERI3
 70
     0
  9
$USERI4
 70
     0
  9
$USERI5
 70
     0
  9
$USERR1
 40
0.0
  9
$USERR2
 40
0.0
  9
$USERR3
 40
0.0
  9
$USERR4
 40
0.0
  9
$USERR5
 40
0.0
  9
$WORLDVIEW
 70
     1
  9
$SHADEDGE
 70
     3
  9
$SHADEDIF
 70
    70
  9
$TILEMODE
 70
     1
  9
$MAXACTVP
 70
    48
  9
$PINSBASE
 10
0.0
 20
0.0
 30
0.0
  9
$PLIMCHECK
 70
     0
  9
$PEXTMIN
 10
1.000000000000000E+20
 20
1.000000000000000E+20
 30
1.000000000000000E+20
  9
$PEXTMAX
 10
-1.000000000000000E+20
 20
-1.000000000000000E+20
 30
-1.000000000000000E+20
  9
$PLIMMIN
 10
0.0
 20
0.0
  9
$PLIMMAX
 10
190.0
 20
257.0
  9
$UNITMODE
 70
     0
  9
$VISRETAIN
 70
     1
  9
$PLINEGEN
 70
     0
  9
$PSLTSCALE
 70
     1
  9
$TREEDEPTH
 70
  3020
  9
$CMLSTYLE
  2
Standard
  9
$CMLJUST
 70
     0
  9
$CMLSCALE
 40
20.0
  9
$PROXYGRAPHICS
 70
     1
  9
$MEASUREMENT
 70
     1
  9
$CELWEIGHT
370
    -1
  9
$ENDCAPS
280
     0
  9
$JOINSTYLE
280
     0
  9
$LWDISPLAY
290
     1
  9
$INSUNITS
 70
     0
  9
$HYPERLINKBASE
  1

  9
$STYLESHEET
  1

  9
$XEDIT
290
     1
  9
$CEPSNTYPE
380
     0
  9
$PSTYLEMODE
290
     1
  9
$FINGERPRINTGUID
  2
{01801163-5BC0-459E-B9C7-2188C09ED432}
  9
$VERSIONGUID
  2
{B724B124-DDE8-49ED-9A4D-BEBE10703BDE}
  9
$EXTNAMES
290
     1
  9
$PSVPSCALE
 40
0.0
  9
$OLESTARTUP
290
     0
  0
ENDSEC
  0
SECTION
  2
CLASSES
  0
CLASS
  1
ACDBDICTIONARYWDFLT
  2
AcDbDictionaryWithDefault
  3
ObjectDBX Classes
 90
        0
280
     0
281
     0
  0
CLASS
  1
MATERIAL
  2
AcDbMaterial
  3
ObjectDBX Classes
 90
     1153
280
     0
281
     0
  0
CLASS
  1
VISUALSTYLE
  2
AcDbVisualStyle
  3
ObjectDBX Classes
 90
     4095
280
     0
281
     0
  0
CLASS
  1
TABLESTYLE
  2
AcDbTableStyle
  3
ObjectDBX Classes
 90
     4095
280
     0
281
     0
  0
CLASS
  1
SCALE
  2
AcDbScale
  3
ObjectDBX Classes
 90
     1153
280
     0
281
     0
  0
CLASS
  1
MLEADERSTYLE
  2
AcDbMLeaderStyle
  3
ACDB_MLEADERSTYLE_CLASS
 90
     4095
280
     0
281
     0
  0
CLASS
  1
DICTIONARYVAR
  2
AcDbDictionaryVar
  3
ObjectDBX Classes
 90
        0
280
     0
281
     0
  0
CLASS
  1
CELLSTYLEMAP
  2
AcDbCellStyleMap
  3
ObjectDBX Classes
 90
     1152
280
     0
281
     0
  0
CLASS
  1
ACDBPLACEHOLDER
  2
AcDbPlaceHolder
  3
ObjectDBX Classes
 90
        0
280
     0
281
     0
  0
CLASS
  1
LAYOUT
  2
AcDbLayout
  3
ObjectDBX Classes
 90
        0
280
     0
281
     0
  0
ENDSEC
  0
SECTION
  2
TABLES
  0
TABLE
  2
VPORT
  5
A2
102
{ACAD_XDICTIONARY
360
10000156
102
}
330
0
100
AcDbSymbolTable
 70
     1
  0
VPORT
  5
A5
330
A2
100
AcDbSymbolTableRecord
100
AcDbViewportTableRecord
  2
*ACTIVE
 70
     0
 10
0.0
 20
0.0
 11
1.0
 21
1.0
 12
95.13771101382763
 22
129.0271348214594
 13
0.0
 23
0.0
 14
10.0
 24
10.0
 15
10.0
 25
10.0
 16
0.0
 26
0.0
 36
1.0
 17
0.0
 27
0.0
 37
0.0
 40
273.7942309244366
 41
1.779141104294478
 42
50.0
 43
0.0
 44
0.0
 50
0.0
 51
0.0
 71
     0
 72
   100
 73
     1
 74
     1
 75
     0
 76
     0
 77
     0
 78
     0
281
     0
 65
     1
110
0.0
120
0.0
130
0.0
111
1.0
121
0.0
131
0.0
112
0.0
122
1.0
132
0.0
 79
     0
146
0.0
  0
ENDTAB
  0
TABLE
  2
LTYPE
  5
A8
330
0
100
AcDbSymbolTable
 70
     9
  0
LTYPE
  5
AB
330
A8
100
AcDbSymbolTableRecord
100
AcDbLinetypeTableRecord
  2
BYBLOCK
 70
     0
  3
BYBLOCK
 72
    65
 73
     0
 40
0.0
  0
LTYPE
  5
AE
330
A8
100
AcDbSymbolTableRecord
100
AcDbLinetypeTableRecord
  2
BYLAYER
 70
     0
  3
BYLAYER
 72
    65
 73
     0
 40
0.0
  0
LTYPE
  5
B1
330
A8
100
AcDbSymbolTableRecord
100
AcDbLinetypeTableRecord
  2
CONTINUOUS
 70
     0
  3
実線
 72
    65
 73
     0
 40
0.0
  0
LTYPE
  5
B4
330
A8
100
AcDbSymbolTableRecord
100
AcDbLinetypeTableRecord
  2
DASHED
 70
     0
  3
__ __ __ __ __ __ __ __ __ __ __ __ __ __ __
 72
    65
 73
     2
 40
0.75
 49
0.5
 74
     0
 49
-0.25
 74
     0
  0
LTYPE
  5
B7
330
A8
100
AcDbSymbolTableRecord
100
AcDbLinetypeTableRecord
  2
HIDDEN
 70
     0
  3
_ _ _ _ _ _ _ _ _ _ _ _ _ _ _ _ _ _ _ _ _ _ _
 72
    65
 73
     2
 40
0.375
 49
0.25
 74
     0
 49
-0.125
 74
     0
  0
LTYPE
  5
BA
330
A8
100
AcDbSymbolTableRecord
100
AcDbLinetypeTableRecord
  2
CENTER
 70
     0
  3
____ _ ____ _ ____ _ ____ _ ____ _ ____ _ ____
 72
    65
 73
     4
 40
2.0
 49
1.25
 74
     0
 49
-0.25
 74
     0
 49
0.25
 74
     0
 49
-0.25
 74
     0
  0
LTYPE
  5
BD
330
A8
100
AcDbSymbolTableRecord
100
AcDbLinetypeTableRecord
  2
PHANTOM
 70
     0
  3
_____ _ _ _____ _ _ _____ _ _ _____ _ _ ____
 72
    65
 73
     6
 40
2.5
 49
1.25
 74
     0
 49
-0.25
 74
     0
 49
0.25
 74
     0
 49
-0.25
 74
     0
 49
0.25
 74
     0
 49
-0.25
 74
     0
  0
LTYPE
  5
C0
330
A8
100
AcDbSymbolTableRecord
100
AcDbLinetypeTableRecord
  2
DOT
 70
     0
  3
...............................................
 72
    65
 73
     2
 40
0.25
 49
0.0
 74
     0
 49
-0.25
 74
     0
  0
LTYPE
  5
C3
330
A8
100
AcDbSymbolTableRecord
100
AcDbLinetypeTableRecord
  2
DASHDOT
 70
     0
  3
__ . __ . __ . __ . __ . __ . __ . __ . __ . __
 72
    65
 73
     4
 40
1.0
 49
0.5
 74
     0
 49
-0.25
 74
     0
 49
0.0
 74
     0
 49
-0.25
 74
     0
  0
LTYPE
  5
C6
330
A8
100
AcDbSymbolTableRecord
100
AcDbLinetypeTableRecord
  2
BORDER
 70
     0
  3
__ __ . __ __ . __ __ . __ __ . __ __ . __ __
 72
    65
 73
     6
 40
1.75
 49
0.5
 74
     0
 49
-0.25
 74
     0
 49
0.5
 74
     0
 49
-0.25
 74
     0
 49
0.0
 74
     0
 49
-0.25
 74
     0
  0
LTYPE
  5
C9
330
A8
100
AcDbSymbolTableRecord
100
AcDbLinetypeTableRecord
  2
DIVIDE
 70
     0
  3
__ . . __ . . __ . . __ . . __ . . __ . . __
 72
    65
 73
     6
 40
1.25
 49
0.5
 74
     0
 49
-0.25
 74
     0
 49
0.0
 74
     0
 49
-0.25
 74
     0
 49
0.0
 74
     0
 49
-0.25
 74
     0
  0
ENDTAB
  0
TABLE
  2
LAYER
  5
CC
330
0
100
AcDbSymbolTable
 70
    14
  0
LAYER
  5
CF
102
{ACAD_XDICTIONARY
360
1000005A
102
}
330
CC
100
AcDbSymbolTableRecord
100
AcDbLayerTableRecord
  2
0
 70
     0
 62
     7
  6
CONTINUOUS
370
    -3
390
10000002
  0
LAYER
  5
D2
102
{ACAD_XDICTIONARY
360
1000005C
102
}
330
CC
100
AcDbSymbolTableRecord
100
AcDbLayerTableRecord
  2
B
 70
     0
 62
     7
  6
CONTINUOUS
370
    -3
390
10000002
  0
LAYER
  5
D5
102
{ACAD_XDICTIONARY
360
1000005E
102
}
330
CC
100
AcDbSymbolTableRecord
100
AcDbLayerTableRecord
  2
C
 70
     0
 62
     7
  6
CONTINUOUS
370
    -3
390
10000002
  0
LAYER
  5
D8
102
{ACAD_XDICTIONARY
360
10000060
102
}
330
CC
100
AcDbSymbolTableRecord
100
AcDbLayerTableRecord
  2
D
 70
     0
 62
     7
  6
CONTINUOUS
370
    -3
390
10000002
  0
LAYER
  5
DB
102
{ACAD_XDICTIONARY
360
10000062
102
}
330
CC
100
AcDbSymbolTableRecord
100
AcDbLayerTableRecord
  2
E
 70
     0
 62
     7
  6
CONTINUOUS
370
    -3
390
10000002
  0
LAYER
  5
DE
102
{ACAD_XDICTIONARY
360
10000064
102
}
330
CC
100
AcDbSymbolTableRecord
100
AcDbLayerTableRecord
  2
F
 70
     0
 62
     7
  6
CONTINUOUS
370
    -3
390
10000002
  0
LAYER
  5
E1
102
{ACAD_XDICTIONARY
360
10000066
102
}
330
CC
100
AcDbSymbolTableRecord
100
AcDbLayerTableRecord
  2
G
 70
     0
 62
     7
  6
CONTINUOUS
370
    -3
390
10000002
  0
LAYER
  5
E4
102
{ACAD_XDICTIONARY
360
10000068
102
}
330
CC
100
AcDbSymbolTableRecord
100
AcDbLayerTableRecord
  2
H
 70
     0
 62
     7
  6
CONTINUOUS
370
    -3
390
10000002
  0
LAYER
  5
E7
102
{ACAD_XDICTIONARY
360
1000006A
102
}
330
CC
100
AcDbSymbolTableRecord
100
AcDbLayerTableRecord
  2
I
 70
     0
 62
     7
  6
CONTINUOUS
370
    -3
390
10000002
  0
LAYER
  5
EA
102
{ACAD_XDICTIONARY
360
1000006C
102
}
330
CC
100
AcDbSymbolTableRecord
100
AcDbLayerTableRecord
  2
J
 70
     0
 62
     7
  6
CONTINUOUS
370
    -3
390
10000002
  0
LAYER
  5
ED
102
{ACAD_XDICTIONARY
360
1000006E
102
}
330
CC
100
AcDbSymbolTableRecord
100
AcDbLayerTableRecord
  2
K
 70
     0
 62
     7
  6
CONTINUOUS
370
    -3
390
10000002
  0
LAYER
  5
F0
102
{ACAD_XDICTIONARY
360
10000070
102
}
330
CC
100
AcDbSymbolTableRecord
100
AcDbLayerTableRecord
  2
L
 70
     0
 62
     7
  6
CONTINUOUS
370
    -3
390
10000002
  0
LAYER
  5
F3
102
{ACAD_XDICTIONARY
360
10000072
102
}
330
CC
100
AcDbSymbolTableRecord
100
AcDbLayerTableRecord
  2
M
 70
     0
 62
     7
  6
CONTINUOUS
370
    -3
390
10000002
  0
LAYER
  5
F6
102
{ACAD_XDICTIONARY
360
10000074
102
}
330
CC
100
AcDbSymbolTableRecord
100
AcDbLayerTableRecord
  2
N
 70
     0
 62
     7
  6
CONTINUOUS
370
    -3
390
10000002
  0
ENDTAB
  0
TABLE
  2
STYLE
  5
F9
330
0
100
AcDbSymbolTable
 70
     2
  0
STYLE
  5
FC
330
F9
100
AcDbSymbolTableRecord
100
AcDbTextStyleTableRecord
  2
STANDARD
 70
     0
 40
0.0
 41
0.5
 50
0.0
 71
     0
 42
0.3
  3
txt
  4

  0
STYLE
  5
FF
330
F9
100
AcDbSymbolTableRecord
100
AcDbTextStyleTableRecord
  2
BIGFONT
 70
     0
 40
0.0
 41
1.0
 50
0.0
 71
     0
 42
0.2
  3
txt.shx
  4
bigfont
  0
ENDTAB
  0
TABLE
  2
VIEW
  5
102
330
0
100
AcDbSymbolTable
 70
     0
  0
ENDTAB
  0
TABLE
  2
UCS
  5
105
330
0
100
AcDbSymbolTable
 70
     0
  0
ENDTAB
  0
TABLE
  2
APPID
  5
108
330
0
100
AcDbSymbolTable
 70
     5
  0
APPID
  5
10B
330
108
100
AcDbSymbolTableRecord
100
AcDbRegAppTableRecord
  2
ACAD
 70
     0
  0
APPID
  5
10E
330
108
100
AcDbSymbolTableRecord
100
AcDbRegAppTableRecord
  2
CONTENTTABDATA
 70
     0
  0
APPID
  5
111
330
108
100
AcDbSymbolTableRecord
100
AcDbRegAppTableRecord
  2
CONTENTCURRENTTAB
 70
     0
  0
APPID
  5
10000052
330
108
100
AcDbSymbolTableRecord
100
AcDbRegAppTableRecord
  2
ACAD_MLEADERVER
 70
     0
  0
APPID
  5
100000AE
330
108
100
AcDbSymbolTableRecord
100
AcDbRegAppTableRecord
  2
ACAD_EXEMPT_FROM_CAD_STANDARDS
 70
     0
  0
ENDTAB
  0
TABLE
  2
DIMSTYLE
  5
114
330
0
100
AcDbSymbolTable
 70
     1
100
AcDbDimStyleTable
 71
     1
340
117
  0
DIMSTYLE
105
117
330
114
100
AcDbSymbolTableRecord
100
AcDbDimStyleTableRecord
  2
STANDARD
 70
     0
340
FC
  0
ENDTAB
  0
TABLE
  2
BLOCK_RECORD
  5
11A
330
0
100
AcDbSymbolTable
 70
     0
  0
BLOCK_RECORD
  5
11D
330
11A
100
AcDbSymbolTableRecord
100
AcDbBlockTableRecord
  2
*MODEL_SPACE
340
10000054
  0
BLOCK_RECORD
  5
120
330
11A
100
AcDbSymbolTableRecord
100
AcDbBlockTableRecord
  2
*PAPER_SPACE
340
10000055
  0
ENDTAB
  0
ENDSEC
  0
SECTION
  2
BLOCKS
  0
BLOCK
  5
123
330
11D
100
AcDbEntity
  8
0
100
AcDbBlockBegin
  2
*MODEL_SPACE
 70
     0
 10
0.0
 20
0.0
 30
0.0
  3
*MODEL_SPACE
  1
 
  0
ENDBLK
  5
126
330
11D
100
AcDbEntity
  8
0
100
AcDbBlockEnd
  0
BLOCK
  5
129
330
120
100
AcDbEntity
 67
     1
  8
0
100
AcDbBlockBegin
  2
*PAPER_SPACE
 70
     0
 10
0.0
 20
0.0
 30
0.0
  3
*PAPER_SPACE
  1
 
  0
ENDBLK
  5
12C
330
120
100
AcDbEntity
 67
     1
  8
0
100
AcDbBlockEnd
  0
ENDSEC
  0
SECTION
  2
ENTITIES
  0
LINE
  5
132
330
11D
100
AcDbEntity
  8
0
370
    20
100
AcDbLine
 10
66.625
 20
216.7111691310872
 30
0.0
 11
79.25
 21
223.6861691310872
 31
0.0
  0
CIRCLE
  5
135
330
11D
100
AcDbEntity
  8
0
370
    20
100
AcDbCircle
 10
81.45000000000001
 20
224.8861691310872
 30
0.0
 40
2.5
  0
MTEXT
  5
138
330
11D
100
AcDbEntity
  8
0
100
AcDbMText
 10
80.525
 20
226.8111691310872
 30
0.0
 40
3.5
 41
3.149999999999999
 71
     1
 72
     5
  1
\fＭＳ ゴシック|b0|i0|c128|p49;\T0.9100;1
  7
BIGFONT
 73
     1
 44
0.6
1001
ACAD
1000
MTEXTBEGIN
1070
    73
1070
     1
1070
    44
1040
0.6
1070
    74
1070
     0
1000
MTEXTEND
  0
LINE
  5
13B
330
11D
100
AcDbEntity
  8
0
370
    20
100
AcDbLine
 10
25.125
 20
152.4861691310872
 30
0.0
 11
25.125
 21
227.1611691310872
 31
0.0
  0
LINE
  5
13E
330
11D
100
AcDbEntity
  8
0
370
    20
100
AcDbLine
 10
27.8
 20
229.8111691310872
 30
0.0
 11
69.125
 21
229.8111691310872
 31
0.0
  0
ARC
  5
141
330
11D
100
AcDbEntity
  8
0
370
    20
100
AcDbCircle
 10
27.8
 20
227.1611691310872
 30
0.0
 40
2.649999999999999
100
AcDbArc
 50
90.0
 51
180.0
  0
LINE
  5
144
330
11D
100
AcDbEntity
  8
0
370
    20
100
AcDbLine
 10
71.79999999999998
 20
227.1611691310872
 30
0.0
 11
71.79999999999998
 21
152.4861691310872
 31
0.0
  0
ARC
  5
147
330
11D
100
AcDbEntity
  8
0
370
    20
100
AcDbCircle
 10
69.125
 20
227.1611691310872
 30
0.0
 40
2.649999999999999
100
AcDbArc
 50
0.0
 51
90.0
  0
ARC
  5
14A
330
11D
100
AcDbEntity
  8
0
370
    20
100
AcDbCircle
 10
69.125
 20
152.4861691310872
 30
0.0
 40
2.649999999999999
100
AcDbArc
 50
270.0
 51
0.0
  0
LINE
  5
14D
330
11D
100
AcDbEntity
  8
0
370
    20
100
AcDbLine
 10
27.8
 20
149.8111691310872
 30
0.0
 11
69.125
 21
149.8111691310872
 31
0.0
  0
ARC
  5
150
330
11D
100
AcDbEntity
  8
0
370
    20
100
AcDbCircle
 10
27.8
 20
152.4861691310872
 30
0.0
 40
2.649999999999999
100
AcDbArc
 50
180.0
 51
270.0
  0
LINE
  5
153
330
11D
100
AcDbEntity
  8
0
370
    20
100
AcDbLine
 10
34.125
 20
214.1611691310872
 30
0.0
 11
62.8
 21
214.1611691310872
 31
0.0
  0
LINE
  5
156
330
11D
100
AcDbEntity
  8
0
370
    20
100
AcDbLine
 10
34.125
 20
213.4861691310872
 30
0.0
 11
62.8
 21
213.4861691310872
 31
0.0
  0
LINE
  5
159
330
11D
100
AcDbEntity
  8
0
370
    20
100
AcDbLine
 10
63.79999999999999
 20
213.1611691310872
 30
0.0
 11
63.79999999999999
 21
166.4861691310872
 31
0.0
  0
LINE
  5
15C
330
11D
100
AcDbEntity
  8
0
370
    20
100
AcDbLine
 10
63.125
 20
213.1611691310872
 30
0.0
 11
63.125
 21
166.4861691310872
 31
0.0
  0
LINE
  5
15F
330
11D
100
AcDbEntity
  8
0
370
    20
100
AcDbLine
 10
62.8
 20
165.4861691310872
 30
0.0
 11
34.125
 21
165.4861691310872
 31
0.0
  0
LINE
  5
162
330
11D
100
AcDbEntity
  8
0
370
    20
100
AcDbLine
 10
62.8
 20
166.1611691310872
 30
0.0
 11
34.125
 21
166.1611691310872
 31
0.0
  0
LINE
  5
165
330
11D
100
AcDbEntity
  8
0
370
    20
100
AcDbLine
 10
33.125
 20
166.4861691310872
 30
0.0
 11
33.125
 21
213.1611691310872
 31
0.0
  0
LINE
  5
168
330
11D
100
AcDbEntity
  8
0
370
    20
100
AcDbLine
 10
33.8
 20
166.4861691310872
 30
0.0
 11
33.8
 21
213.1611691310872
 31
0.0
  0
ARC
  5
16B
330
11D
100
AcDbEntity
  8
0
370
    20
100
AcDbCircle
 10
34.125
 20
213.1611691310872
 30
0.0
 40
1.0
100
AcDbArc
 50
90.0
 51
180.0
  0
ARC
  5
16E
330
11D
100
AcDbEntity
  8
0
370
    20
100
AcDbCircle
 10
34.125
 20
213.1611691310872
 30
0.0
 40
0.325
100
AcDbArc
 50
90.0
 51
180.0
  0
ARC
  5
171
330
11D
100
AcDbEntity
  8
0
370
    20
100
AcDbCircle
 10
62.8
 20
213.1611691310872
 30
0.0
 40
1.0
100
AcDbArc
 50
0.0
 51
90.0
  0
ARC
  5
174
330
11D
100
AcDbEntity
  8
0
370
    20
100
AcDbCircle
 10
62.8
 20
213.1611691310872
 30
0.0
 40
0.325
100
AcDbArc
 50
0.0
 51
90.0
  0
ARC
  5
177
330
11D
100
AcDbEntity
  8
0
370
    20
100
AcDbCircle
 10
62.8
 20
166.4861691310872
 30
0.0
 40
1.0
100
AcDbArc
 50
270.0
 51
0.0
  0
ARC
  5
17A
330
11D
100
AcDbEntity
  8
0
370
    20
100
AcDbCircle
 10
62.8
 20
166.4861691310872
 30
0.0
 40
0.325
100
AcDbArc
 50
270.0
 51
0.0
  0
ARC
  5
17D
330
11D
100
AcDbEntity
  8
0
370
    20
100
AcDbCircle
 10
34.125
 20
166.4861691310872
 30
0.0
 40
1.0
100
AcDbArc
 50
180.0
 51
270.0
  0
ARC
  5
180
330
11D
100
AcDbEntity
  8
0
370
    20
100
AcDbCircle
 10
34.125
 20
166.4861691310872
 30
0.0
 40
0.325
100
AcDbArc
 50
180.0
 51
270.0
  0
LINE
  5
183
330
11D
100
AcDbEntity
  8
0
370
    20
100
AcDbLine
 10
44.79999999999999
 20
173.4111691310872
 30
0.0
 11
44.79999999999999
 21
178.9111691310872
 31
0.0
  0
LINE
  5
186
330
11D
100
AcDbEntity
  8
0
370
    20
100
AcDbLine
 10
45.725
 20
179.8111691310872
 30
0.0
 11
51.225
 21
179.8111691310872
 31
0.0
  0
LINE
  5
189
330
11D
100
AcDbEntity
  8
0
370
    20
100
AcDbLine
 10
52.125
 20
178.9111691310872
 30
0.0
 11
52.125
 21
173.4111691310872
 31
0.0
  0
LINE
  5
18C
330
11D
100
AcDbEntity
  8
0
370
    20
100
AcDbLine
 10
51.225
 20
172.4861691310872
 30
0.0
 11
45.725
 21
172.4861691310872
 31
0.0
  0
ARC
  5
18F
330
11D
100
AcDbEntity
  8
0
370
    20
100
AcDbCircle
 10
45.725
 20
178.9111691310872
 30
0.0
 40
0.9
100
AcDbArc
 50
90.0
 51
180.0
  0
ARC
  5
192
330
11D
100
AcDbEntity
  8
0
370
    20
100
AcDbCircle
 10
51.225
 20
178.9111691310872
 30
0.0
 40
0.9
100
AcDbArc
 50
0.0
 51
90.0
  0
ARC
  5
195
330
11D
100
AcDbEntity
  8
0
370
    20
100
AcDbCircle
 10
51.225
 20
173.4111691310872
 30
0.0
 40
0.9
100
AcDbArc
 50
270.0
 51
0.0
  0
ARC
  5
198
330
11D
100
AcDbEntity
  8
0
370
    20
100
AcDbCircle
 10
45.725
 20
173.4111691310872
 30
0.0
 40
0.9
100
AcDbArc
 50
180.0
 51
270.0
  0
ARC
  5
19B
330
11D
100
AcDbEntity
  8
0
370
    20
100
AcDbCircle
 10
42.54999999999999
 20
173.4111691310872
 30
0.0
 40
0.9
100
AcDbArc
 50
270.0
 51
0.0
  0
ARC
  5
19E
330
11D
100
AcDbEntity
  8
0
370
    20
100
AcDbCircle
 10
42.54999999999999
 20
178.9111691310872
 30
0.0
 40
0.9
100
AcDbArc
 50
0.0
 51
90.0
  0
LINE
  5
1A1
330
11D
100
AcDbEntity
  8
0
370
    20
100
AcDbLine
 10
36.125
 20
173.4111691310872
 30
0.0
 11
36.125
 21
178.9111691310872
 31
0.0
  0
LINE
  5
1A4
330
11D
100
AcDbEntity
  8
0
370
    20
100
AcDbLine
 10
43.475
 20
178.9111691310872
 30
0.0
 11
43.475
 21
173.4111691310872
 31
0.0
  0
LINE
  5
1A7
330
11D
100
AcDbEntity
  8
0
370
    20
100
AcDbLine
 10
42.54999999999999
 20
172.4861691310872
 30
0.0
 11
37.05
 21
172.4861691310872
 31
0.0
  0
ARC
  5
1AA
330
11D
100
AcDbEntity
  8
0
370
    20
100
AcDbCircle
 10
37.05
 20
173.4111691310872
 30
0.0
 40
0.9
100
AcDbArc
 50
180.0
 51
270.0
  0
LINE
  5
1AD
330
11D
100
AcDbEntity
  8
0
370
    20
100
AcDbLine
 10
37.05
 20
179.8111691310872
 30
0.0
 11
42.54999999999999
 21
179.8111691310872
 31
0.0
  0
ARC
  5
1B0
330
11D
100
AcDbEntity
  8
0
370
    20
100
AcDbCircle
 10
37.05
 20
178.9111691310872
 30
0.0
 40
0.9
100
AcDbArc
 50
90.0
 51
180.0
  0
ARC
  5
1B3
330
11D
100
AcDbEntity
  8
0
370
    20
100
AcDbCircle
 10
54.375
 20
173.4111691310872
 30
0.0
 40
0.9
100
AcDbArc
 50
180.0
 51
270.0
  0
ARC
  5
1B6
330
11D
100
AcDbEntity
  8
0
370
    20
100
AcDbCircle
 10
54.375
 20
178.9111691310872
 30
0.0
 40
0.9
100
AcDbArc
 50
90.0
 51
180.0
  0
LINE
  5
1B9
330
11D
100
AcDbEntity
  8
0
370
    20
100
AcDbLine
 10
60.8
 20
173.4111691310872
 30
0.0
 11
60.8
 21
178.9111691310872
 31
0.0
  0
LINE
  5
1BC
330
11D
100
AcDbEntity
  8
0
370
    20
100
AcDbLine
 10
54.375
 20
172.4861691310872
 30
0.0
 11
59.875
 21
172.4861691310872
 31
0.0
  0
ARC
  5
1BF
330
11D
100
AcDbEntity
  8
0
370
    20
100
AcDbCircle
 10
59.875
 20
173.4111691310872
 30
0.0
 40
0.9
100
AcDbArc
 50
270.0
 51
0.0
  0
LINE
  5
1C2
330
11D
100
AcDbEntity
  8
0
370
    20
100
AcDbLine
 10
59.875
 20
179.8111691310872
 30
0.0
 11
54.375
 21
179.8111691310872
 31
0.0
  0
ARC
  5
1C5
330
11D
100
AcDbEntity
  8
0
370
    20
100
AcDbCircle
 10
59.875
 20
178.9111691310872
 30
0.0
 40
0.9
100
AcDbArc
 50
0.0
 51
90.0
  0
LINE
  5
1C8
330
11D
100
AcDbEntity
  8
0
370
    20
100
AcDbLine
 10
53.475
 20
178.9111691310872
 30
0.0
 11
53.475
 21
173.4111691310872
 31
0.0
  0
ARC
  5
1CB
330
11D
100
AcDbEntity
  8
0
370
    20
100
AcDbCircle
 10
51.225
 20
182.0611691310872
 30
0.0
 40
0.9
100
AcDbArc
 50
270.0
 51
0.0
  0
ARC
  5
1CE
330
11D
100
AcDbEntity
  8
0
370
    20
100
AcDbCircle
 10
51.225
 20
187.5611691310872
 30
0.0
 40
0.9
100
AcDbArc
 50
0.0
 51
90.0
  0
ARC
  5
1D1
330
11D
100
AcDbEntity
  8
0
370
    20
100
AcDbCircle
 10
42.54999999999999
 20
182.0611691310872
 30
0.0
 40
0.9
100
AcDbArc
 50
270.0
 51
0.0
  0
ARC
  5
1D4
330
11D
100
AcDbEntity
  8
0
370
    20
100
AcDbCircle
 10
42.54999999999999
 20
187.5611691310872
 30
0.0
 40
0.9
100
AcDbArc
 50
0.0
 51
90.0
  0
LINE
  5
1D7
330
11D
100
AcDbEntity
  8
0
370
    20
100
AcDbLine
 10
36.125
 20
182.0611691310872
 30
0.0
 11
36.125
 21
187.5611691310872
 31
0.0
  0
LINE
  5
1DA
330
11D
100
AcDbEntity
  8
0
370
    20
100
AcDbLine
 10
42.54999999999999
 20
181.1611691310872
 30
0.0
 11
37.05
 21
181.1611691310872
 31
0.0
  0
ARC
  5
1DD
330
11D
100
AcDbEntity
  8
0
370
    20
100
AcDbCircle
 10
37.05
 20
182.0611691310872
 30
0.0
 40
0.9
100
AcDbArc
 50
180.0
 51
270.0
  0
LINE
  5
1E0
330
11D
100
AcDbEntity
  8
0
370
    20
100
AcDbLine
 10
37.05
 20
188.4861691310872
 30
0.0
 11
42.54999999999999
 21
188.4861691310872
 31
0.0
  0
ARC
  5
1E3
330
11D
100
AcDbEntity
  8
0
370
    20
100
AcDbCircle
 10
37.05
 20
187.5611691310872
 30
0.0
 40
0.9
100
AcDbArc
 50
90.0
 51
180.0
  0
LINE
  5
1E6
330
11D
100
AcDbEntity
  8
0
370
    20
100
AcDbLine
 10
43.45
 20
187.5611691310872
 30
0.0
 11
43.45
 21
182.0611691310872
 31
0.0
  0
LINE
  5
1E9
330
11D
100
AcDbEntity
  8
0
370
    20
100
AcDbLine
 10
44.79999999999999
 20
182.0611691310872
 30
0.0
 11
44.79999999999999
 21
187.5611691310872
 31
0.0
  0
LINE
  5
1EC
330
11D
100
AcDbEntity
  8
0
370
    20
100
AcDbLine
 10
52.125
 20
187.5611691310872
 30
0.0
 11
52.125
 21
182.0611691310872
 31
0.0
  0
LINE
  5
1EF
330
11D
100
AcDbEntity
  8
0
370
    20
100
AcDbLine
 10
51.225
 20
181.1611691310872
 30
0.0
 11
45.7
 21
181.1611691310872
 31
0.0
  0
ARC
  5
1F2
330
11D
100
AcDbEntity
  8
0
370
    20
100
AcDbCircle
 10
45.7
 20
182.0611691310872
 30
0.0
 40
0.9
100
AcDbArc
 50
180.0
 51
270.0
  0
LINE
  5
1F5
330
11D
100
AcDbEntity
  8
0
370
    20
100
AcDbLine
 10
45.725
 20
188.4861691310872
 30
0.0
 11
51.225
 21
188.4861691310872
 31
0.0
  0
ARC
  5
1F8
330
11D
100
AcDbEntity
  8
0
370
    20
100
AcDbCircle
 10
45.725
 20
187.5611691310872
 30
0.0
 40
0.9
100
AcDbArc
 50
90.0
 51
180.0
  0
LINE
  5
1FB
330
11D
100
AcDbEntity
  8
0
370
    20
100
AcDbLine
 10
53.475
 20
187.5611691310872
 30
0.0
 11
53.475
 21
182.0611691310872
 31
0.0
  0
LINE
  5
1FE
330
11D
100
AcDbEntity
  8
0
370
    20
100
AcDbLine
 10
60.8
 20
182.0611691310872
 30
0.0
 11
60.8
 21
187.5611691310872
 31
0.0
  0
LINE
  5
201
330
11D
100
AcDbEntity
  8
0
370
    20
100
AcDbLine
 10
54.375
 20
181.1611691310872
 30
0.0
 11
59.875
 21
181.1611691310872
 31
0.0
  0
ARC
  5
204
330
11D
100
AcDbEntity
  8
0
370
    20
100
AcDbCircle
 10
54.375
 20
182.0611691310872
 30
0.0
 40
0.9
100
AcDbArc
 50
180.0
 51
270.0
  0
ARC
  5
207
330
11D
100
AcDbEntity
  8
0
370
    20
100
AcDbCircle
 10
59.875
 20
182.0611691310872
 30
0.0
 40
0.9
100
AcDbArc
 50
270.0
 51
0.0
  0
LINE
  5
20A
330
11D
100
AcDbEntity
  8
0
370
    20
100
AcDbLine
 10
59.875
 20
188.4861691310872
 30
0.0
 11
54.375
 21
188.4861691310872
 31
0.0
  0
ARC
  5
20D
330
11D
100
AcDbEntity
  8
0
370
    20
100
AcDbCircle
 10
54.375
 20
187.5611691310872
 30
0.0
 40
0.9
100
AcDbArc
 50
90.0
 51
180.0
  0
ARC
  5
210
330
11D
100
AcDbEntity
  8
0
370
    20
100
AcDbCircle
 10
59.875
 20
187.5611691310872
 30
0.0
 40
0.9
100
AcDbArc
 50
0.0
 51
90.0
  0
ARC
  5
213
330
11D
100
AcDbEntity
  8
0
370
    20
100
AcDbCircle
 10
51.225
 20
190.7361691310872
 30
0.0
 40
0.9
100
AcDbArc
 50
270.0
 51
0.0
  0
ARC
  5
216
330
11D
100
AcDbEntity
  8
0
370
    20
100
AcDbCircle
 10
51.225
 20
196.2361691310872
 30
0.0
 40
0.9
100
AcDbArc
 50
0.0
 51
90.0
  0
ARC
  5
219
330
11D
100
AcDbEntity
  8
0
370
    20
100
AcDbCircle
 10
42.54999999999999
 20
190.7361691310872
 30
0.0
 40
0.9
100
AcDbArc
 50
270.0
 51
0.0
  0
ARC
  5
21C
330
11D
100
AcDbEntity
  8
0
370
    20
100
AcDbCircle
 10
42.54999999999999
 20
196.2361691310872
 30
0.0
 40
0.9
100
AcDbArc
 50
0.0
 51
90.0
  0
LINE
  5
21F
330
11D
100
AcDbEntity
  8
0
370
    20
100
AcDbLine
 10
36.125
 20
190.7361691310872
 30
0.0
 11
36.125
 21
196.2361691310872
 31
0.0
  0
LINE
  5
222
330
11D
100
AcDbEntity
  8
0
370
    20
100
AcDbLine
 10
42.54999999999999
 20
189.8111691310872
 30
0.0
 11
37.05
 21
189.8111691310872
 31
0.0
  0
ARC
  5
225
330
11D
100
AcDbEntity
  8
0
370
    20
100
AcDbCircle
 10
37.05
 20
190.7361691310872
 30
0.0
 40
0.9
100
AcDbArc
 50
180.0
 51
270.0
  0
LINE
  5
228
330
11D
100
AcDbEntity
  8
0
370
    20
100
AcDbLine
 10
37.05
 20
197.1611691310872
 30
0.0
 11
42.54999999999999
 21
197.1611691310872
 31
0.0
  0
ARC
  5
22B
330
11D
100
AcDbEntity
  8
0
370
    20
100
AcDbCircle
 10
37.05
 20
196.2361691310872
 30
0.0
 40
0.9
100
AcDbArc
 50
90.0
 51
180.0
  0
LINE
  5
22E
330
11D
100
AcDbEntity
  8
0
370
    20
100
AcDbLine
 10
43.475
 20
196.2361691310872
 30
0.0
 11
43.475
 21
190.7361691310872
 31
0.0
  0
LINE
  5
231
330
11D
100
AcDbEntity
  8
0
370
    20
100
AcDbLine
 10
44.79999999999999
 20
190.7361691310872
 30
0.0
 11
44.79999999999999
 21
196.2361691310872
 31
0.0
  0
LINE
  5
234
330
11D
100
AcDbEntity
  8
0
370
    20
100
AcDbLine
 10
52.125
 20
196.2361691310872
 30
0.0
 11
52.125
 21
190.7361691310872
 31
0.0
  0
LINE
  5
237
330
11D
100
AcDbEntity
  8
0
370
    20
100
AcDbLine
 10
51.225
 20
189.8111691310872
 30
0.0
 11
45.725
 21
189.8111691310872
 31
0.0
  0
ARC
  5
23A
330
11D
100
AcDbEntity
  8
0
370
    20
100
AcDbCircle
 10
45.725
 20
190.7361691310872
 30
0.0
 40
0.9
100
AcDbArc
 50
180.0
 51
270.0
  0
LINE
  5
23D
330
11D
100
AcDbEntity
  8
0
370
    20
100
AcDbLine
 10
45.725
 20
197.1611691310872
 30
0.0
 11
51.225
 21
197.1611691310872
 31
0.0
  0
ARC
  5
240
330
11D
100
AcDbEntity
  8
0
370
    20
100
AcDbCircle
 10
45.725
 20
196.2361691310872
 30
0.0
 40
0.9
100
AcDbArc
 50
90.0
 51
180.0
  0
LINE
  5
243
330
11D
100
AcDbEntity
  8
0
370
    20
100
AcDbLine
 10
53.475
 20
196.2361691310872
 30
0.0
 11
53.475
 21
190.7361691310872
 31
0.0
  0
LINE
  5
246
330
11D
100
AcDbEntity
  8
0
370
    20
100
AcDbLine
 10
60.8
 20
190.7361691310872
 30
0.0
 11
60.8
 21
196.2361691310872
 31
0.0
  0
LINE
  5
249
330
11D
100
AcDbEntity
  8
0
370
    20
100
AcDbLine
 10
54.375
 20
189.8111691310872
 30
0.0
 11
59.875
 21
189.8111691310872
 31
0.0
  0
ARC
  5
24C
330
11D
100
AcDbEntity
  8
0
370
    20
100
AcDbCircle
 10
54.375
 20
190.7361691310872
 30
0.0
 40
0.9
100
AcDbArc
 50
180.0
 51
270.0
  0
ARC
  5
24F
330
11D
100
AcDbEntity
  8
0
370
    20
100
AcDbCircle
 10
59.875
 20
190.7361691310872
 30
0.0
 40
0.9
100
AcDbArc
 50
270.0
 51
0.0
  0
LINE
  5
252
330
11D
100
AcDbEntity
  8
0
370
    20
100
AcDbLine
 10
59.875
 20
197.1611691310872
 30
0.0
 11
54.375
 21
197.1611691310872
 31
0.0
  0
ARC
  5
255
330
11D
100
AcDbEntity
  8
0
370
    20
100
AcDbCircle
 10
54.375
 20
196.2361691310872
 30
0.0
 40
0.9
100
AcDbArc
 50
90.0
 51
180.0
  0
ARC
  5
258
330
11D
100
AcDbEntity
  8
0
370
    20
100
AcDbCircle
 10
59.875
 20
196.2361691310872
 30
0.0
 40
0.9
100
AcDbArc
 50
0.0
 51
90.0
  0
ARC
  5
25B
330
11D
100
AcDbEntity
  8
0
370
    20
100
AcDbCircle
 10
51.225
 20
204.9111691310872
 30
0.0
 40
0.9
100
AcDbArc
 50
0.0
 51
90.0
  0
ARC
  5
25E
330
11D
100
AcDbEntity
  8
0
370
    20
100
AcDbCircle
 10
51.225
 20
199.4111691310872
 30
0.0
 40
0.9
100
AcDbArc
 50
270.0
 51
0.0
  0
ARC
  5
261
330
11D
100
AcDbEntity
  8
0
370
    20
100
AcDbCircle
 10
42.54999999999999
 20
204.9111691310872
 30
0.0
 40
0.9
100
AcDbArc
 50
0.0
 51
90.0
  0
ARC
  5
264
330
11D
100
AcDbEntity
  8
0
370
    20
100
AcDbCircle
 10
42.54999999999999
 20
199.4111691310872
 30
0.0
 40
0.9
100
AcDbArc
 50
270.0
 51
0.0
  0
ARC
  5
267
330
11D
100
AcDbEntity
  8
0
370
    20
100
AcDbCircle
 10
37.05
 20
204.9111691310872
 30
0.0
 40
0.9
100
AcDbArc
 50
90.0
 51
180.0
  0
LINE
  5
26A
330
11D
100
AcDbEntity
  8
0
370
    20
100
AcDbLine
 10
42.54999999999999
 20
198.4861691310872
 30
0.0
 11
37.05
 21
198.4861691310872
 31
0.0
  0
LINE
  5
26D
330
11D
100
AcDbEntity
  8
0
370
    20
100
AcDbLine
 10
36.125
 20
199.4111691310872
 30
0.0
 11
36.125
 21
204.9111691310872
 31
0.0
  0
ARC
  5
270
330
11D
100
AcDbEntity
  8
0
370
    20
100
AcDbCircle
 10
37.05
 20
199.4111691310872
 30
0.0
 40
0.9
100
AcDbArc
 50
180.0
 51
270.0
  0
LINE
  5
273
330
11D
100
AcDbEntity
  8
0
370
    20
100
AcDbLine
 10
37.05
 20
205.8111691310872
 30
0.0
 11
42.54999999999999
 21
205.8111691310872
 31
0.0
  0
ARC
  5
276
330
11D
100
AcDbEntity
  8
0
370
    20
100
AcDbCircle
 10
45.725
 20
204.9111691310872
 30
0.0
 40
0.9
100
AcDbArc
 50
90.0
 51
180.0
  0
LINE
  5
279
330
11D
100
AcDbEntity
  8
0
370
    20
100
AcDbLine
 10
51.225
 20
198.4861691310872
 30
0.0
 11
45.725
 21
198.4861691310872
 31
0.0
  0
LINE
  5
27C
330
11D
100
AcDbEntity
  8
0
370
    20
100
AcDbLine
 10
44.79999999999999
 20
199.4111691310872
 30
0.0
 11
44.79999999999999
 21
204.9111691310872
 31
0.0
  0
LINE
  5
27F
330
11D
100
AcDbEntity
  8
0
370
    20
100
AcDbLine
 10
43.475
 20
204.9111691310872
 30
0.0
 11
43.475
 21
199.4111691310872
 31
0.0
  0
ARC
  5
282
330
11D
100
AcDbEntity
  8
0
370
    20
100
AcDbCircle
 10
45.725
 20
199.4111691310872
 30
0.0
 40
0.9
100
AcDbArc
 50
180.0
 51
270.0
  0
LINE
  5
285
330
11D
100
AcDbEntity
  8
0
370
    20
100
AcDbLine
 10
52.125
 20
204.9111691310872
 30
0.0
 11
52.125
 21
199.4111691310872
 31
0.0
  0
LINE
  5
288
330
11D
100
AcDbEntity
  8
0
370
    20
100
AcDbLine
 10
45.725
 20
205.8111691310872
 30
0.0
 11
51.225
 21
205.8111691310872
 31
0.0
  0
ARC
  5
28B
330
11D
100
AcDbEntity
  8
0
370
    20
100
AcDbCircle
 10
59.875
 20
204.9111691310872
 30
0.0
 40
0.9
100
AcDbArc
 50
0.0
 51
90.0
  0
ARC
  5
28E
330
11D
100
AcDbEntity
  8
0
370
    20
100
AcDbCircle
 10
54.375
 20
204.9111691310872
 30
0.0
 40
0.9
100
AcDbArc
 50
90.0
 51
180.0
  0
LINE
  5
291
330
11D
100
AcDbEntity
  8
0
370
    20
100
AcDbLine
 10
54.375
 20
198.4861691310872
 30
0.0
 11
59.875
 21
198.4861691310872
 31
0.0
  0
LINE
  5
294
330
11D
100
AcDbEntity
  8
0
370
    20
100
AcDbLine
 10
53.475
 20
204.9111691310872
 30
0.0
 11
53.475
 21
199.4111691310872
 31
0.0
  0
ARC
  5
297
330
11D
100
AcDbEntity
  8
0
370
    20
100
AcDbCircle
 10
54.375
 20
199.4111691310872
 30
0.0
 40
0.9
100
AcDbArc
 50
180.0
 51
270.0
  0
LINE
  5
29A
330
11D
100
AcDbEntity
  8
0
370
    20
100
AcDbLine
 10
60.8
 20
199.4111691310872
 30
0.0
 11
60.8
 21
204.9111691310872
 31
0.0
  0
ARC
  5
29D
330
11D
100
AcDbEntity
  8
0
370
    20
100
AcDbCircle
 10
59.875
 20
199.4111691310872
 30
0.0
 40
0.9
100
AcDbArc
 50
270.0
 51
0.0
  0
LINE
  5
2A0
330
11D
100
AcDbEntity
  8
0
370
    20
100
AcDbLine
 10
59.875
 20
205.8111691310872
 30
0.0
 11
54.375
 21
205.8111691310872
 31
0.0
  0
LINE
  5
2A3
330
11D
100
AcDbEntity
  8
0
370
    20
100
AcDbLine
 10
33.8
 20
207.8111691310872
 30
0.0
 11
63.125
 21
207.8111691310872
 31
0.0
  0
CIRCLE
  5
2A6
330
11D
100
AcDbEntity
  8
0
370
    20
100
AcDbCircle
 10
48.475
 20
209.4861691310872
 30
0.0
 40
1.0
  0
CIRCLE
  5
2A9
330
11D
100
AcDbEntity
  8
0
370
    20
100
AcDbCircle
 10
39.8
 20
209.4861691310872
 30
0.0
 40
1.0
  0
CIRCLE
  5
2AC
330
11D
100
AcDbEntity
  8
0
370
    20
100
AcDbCircle
 10
57.125
 20
209.4861691310872
 30
0.0
 40
1.0
  0
LINE
  5
2AF
330
11D
100
AcDbEntity
  8
0
370
    20
100
AcDbLine
 10
95.12500000000001
 20
229.8111691310872
 30
0.0
 11
96.475
 21
229.8111691310872
 31
0.0
  0
ARC
  5
2B2
330
11D
100
AcDbEntity
  8
0
370
    20
100
AcDbCircle
 10
95.12500000000001
 20
227.1611691310872
 30
0.0
 40
2.649999999999999
100
AcDbArc
 50
90.0
 51
180.0
  0
LINE
  5
2B5
330
11D
100
AcDbEntity
  8
0
370
    20
100
AcDbLine
 10
96.475
 20
229.8111691310872
 30
0.0
 11
96.475
 21
149.8111691310872
 31
0.0
  0
LINE
  5
2B8
330
11D
100
AcDbEntity
  8
0
370
    20
100
AcDbLine
 10
96.475
 20
149.8111691310872
 30
0.0
 11
95.12500000000001
 21
149.8111691310872
 31
0.0
  0
ARC
  5
2BB
330
11D
100
AcDbEntity
  8
0
370
    20
100
AcDbCircle
 10
95.12500000000001
 20
152.4861691310872
 30
0.0
 40
2.649999999999999
100
AcDbArc
 50
180.0
 51
270.0
  0
LINE
  5
2BE
330
11D
100
AcDbEntity
  8
0
370
    20
100
AcDbLine
 10
92.45
 20
152.4861691310872
 30
0.0
 11
92.45
 21
227.1611691310872
 31
0.0
  0
LINE
  5
2C1
330
11D
100
AcDbEntity
  8
0
370
    20
100
AcDbLine
 10
119.8
 20
212.8111691310872
 30
0.0
 11
119.8
 21
166.8111691310872
 31
0.0
  0
LINE
  5
2C4
330
11D
100
AcDbEntity
  8
0
370
    20
100
AcDbLine
 10
119.8
 20
166.8111691310872
 30
0.0
 11
96.475
 21
166.8111691310872
 31
0.0
  0
LINE
  5
2C7
330
11D
100
AcDbEntity
  8
0
370
    20
100
AcDbLine
 10
119.8
 20
212.8111691310872
 30
0.0
 11
96.475
 21
212.8111691310872
 31
0.0
  0
LINE
  5
2CA
330
11D
100
AcDbEntity
  8
0
370
    20
100
AcDbLine
 10
27.725
 20
229.8111691310872
 30
0.0
 11
17.2
 21
229.8111691310872
 31
0.0
  0
LINE
  5
2CD
330
11D
100
AcDbEntity
  8
0
370
    20
100
AcDbLine
 10
27.725
 20
149.8111691310872
 30
0.0
 11
17.2
 21
149.8111691310872
 31
0.0
  0
LINE
  5
2D0
330
11D
100
AcDbEntity
  8
0
370
    20
100
AcDbLine
 10
18.2
 20
226.8111691310872
 30
0.0
 11
18.2
 21
152.8111691310872
 31
0.0
  0
HATCH
  5
2D3
330
11D
100
AcDbEntity
  8
0
100
AcDbHatch
 10
0.0
 20
0.0
 30
0.0
210
0.0
220
0.0
230
1.0
  2
SOLID
 70
     1
 71
     0
 91
        1
 92
        7
 72
     0
 73
     1
 93
        3
 10
17.7
 20
226.8111691310872
 10
18.7
 20
226.8111691310872
 10
18.2
 20
229.8111691310872
 97
        1
330
2D6
 75
     0
 76
     1
 47
0.651316
 98
        1
 10
0.0
 20
-13.66383086891278
  0
LWPOLYLINE
  5
2D6
330
11D
100
AcDbEntity
  8
0
100
AcDbPolyline
 90
        4
 70
     0
 43
0.2
 10
17.7
 20
226.8111691310872
 10
18.7
 20
226.8111691310872
 10
18.2
 20
229.8111691310872
 10
17.7
 20
226.8111691310872
  0
HATCH
  5
2E1
330
11D
100
AcDbEntity
  8
0
100
AcDbHatch
 10
0.0
 20
0.0
 30
0.0
210
0.0
220
0.0
230
1.0
  2
SOLID
 70
     1
 71
     0
 91
        1
 92
        7
 72
     0
 73
     1
 93
        3
 10
17.7
 20
152.8111691310872
 10
18.7
 20
152.8111691310872
 10
18.2
 20
149.8111691310872
 97
        1
330
2E4
 75
     0
 76
     1
 47
0.651316
 98
        1
 10
0.0
 20
-13.66383086891278
  0
LWPOLYLINE
  5
2E4
330
11D
100
AcDbEntity
  8
0
100
AcDbPolyline
 90
        4
 70
     0
 43
0.2
 10
17.7
 20
152.8111691310872
 10
18.7
 20
152.8111691310872
 10
18.2
 20
149.8111691310872
 10
17.7
 20
152.8111691310872
  0
MTEXT
  5
2EF
330
11D
100
AcDbEntity
  8
0
100
AcDbMText
 10
13.7
 20
185.7861691310872
 30
0.0
 40
3.5
 41
9.449999999999999
 71
     1
 72
     5
  1
\fＭＳ ゴシック|b0|i0|c128|p49;\T0.9100;120
  7
BIGFONT
 11
0.0
 21
1.0
 31
0.0
 73
     1
 44
0.6
1001
ACAD
1000
MTEXTBEGIN
1070
    73
1070
     1
1070
    44
1040
0.6
1070
    74
1070
     0
1000
MTEXTEND
  0
LINE
  5
2F2
330
11D
100
AcDbEntity
  8
0
370
    20
100
AcDbLine
 10
92.45
 20
227.2111691310872
 30
0.0
 11
92.45
 21
235.4611691310872
 31
0.0
  0
LINE
  5
2F5
330
11D
100
AcDbEntity
  8
0
370
    20
100
AcDbLine
 10
96.475
 20
213.3111691310872
 30
0.0
 11
96.475
 21
235.4611691310872
 31
0.0
  0
LINE
  5
2F8
330
11D
100
AcDbEntity
  8
0
370
    20
100
AcDbLine
 10
89.45
 20
234.4611691310872
 30
0.0
 11
86.45000000000001
 21
234.4611691310872
 31
0.0
  0
LINE
  5
2FB
330
11D
100
AcDbEntity
  8
0
370
    20
100
AcDbLine
 10
99.47499999999999
 20
234.4611691310872
 30
0.0
 11
102.475
 21
234.4611691310872
 31
0.0
  0
MTEXT
  5
2FE
330
11D
100
AcDbEntity
  8
0
100
AcDbMText
 10
92.375
 20
239.0111691310872
 30
0.0
 40
3.5
 41
3.149999999999999
 71
     1
 72
     5
  1
\fＭＳ ゴシック|b0|i0|c128|p49;\T0.9100;6
  7
BIGFONT
 73
     1
 44
0.6
1001
ACAD
1000
MTEXTBEGIN
1070
    73
1070
     1
1070
    44
1040
0.6
1070
    74
1070
     0
1000
MTEXTEND
  0
LINE
  5
301
330
11D
100
AcDbEntity
  8
0
370
    20
100
AcDbLine
 10
92.45
 20
234.4611691310872
 30
0.0
 11
96.475
 21
234.4611691310872
 31
0.0
  0
HATCH
  5
304
330
11D
100
AcDbEntity
  8
0
100
AcDbHatch
 10
0.0
 20
0.0
 30
0.0
210
0.0
220
0.0
230
1.0
  2
SOLID
 70
     1
 71
     0
 91
        1
 92
        7
 72
     0
 73
     1
 93
        3
 10
89.45
 20
234.9611691310872
 10
89.45
 20
233.9611691310872
 10
92.45
 20
234.4611691310872
 97
        1
330
307
 75
     0
 76
     1
 47
0.651316
 98
        1
 10
0.0
 20
-13.66383086891278
  0
LWPOLYLINE
  5
307
330
11D
100
AcDbEntity
  8
0
100
AcDbPolyline
 90
        4
 70
     0
 43
0.2
 10
89.45
 20
234.9611691310872
 10
89.45
 20
233.9611691310872
 10
92.45
 20
234.4611691310872
 10
89.45
 20
234.9611691310872
  0
HATCH
  5
312
330
11D
100
AcDbEntity
  8
0
100
AcDbHatch
 10
0.0
 20
0.0
 30
0.0
210
0.0
220
0.0
230
1.0
  2
SOLID
 70
     1
 71
     0
 91
        1
 92
        7
 72
     0
 73
     1
 93
        3
 10
99.47499999999999
 20
234.9611691310872
 10
99.47499999999999
 20
233.9611691310872
 10
96.475
 20
234.4611691310872
 97
        1
330
315
 75
     0
 76
     1
 47
0.651316
 98
        1
 10
0.0
 20
-13.66383086891278
  0
LWPOLYLINE
  5
315
330
11D
100
AcDbEntity
  8
0
100
AcDbPolyline
 90
        4
 70
     0
 43
0.2
 10
99.47499999999999
 20
234.9611691310872
 10
99.47499999999999
 20
233.9611691310872
 10
96.475
 20
234.4611691310872
 10
99.47499999999999
 20
234.9611691310872
  0
LINE
  5
320
330
11D
100
AcDbEntity
  8
0
370
    20
100
AcDbLine
 10
96.475
 20
212.8861691310872
 30
0.0
 11
96.475
 21
235.4611691310872
 31
0.0
  0
LINE
  5
323
330
11D
100
AcDbEntity
  8
0
370
    20
100
AcDbLine
 10
119.8
 20
212.8861691310872
 30
0.0
 11
119.8
 21
235.4611691310872
 31
0.0
  0
LINE
  5
326
330
11D
100
AcDbEntity
  8
0
370
    20
100
AcDbLine
 10
99.47499999999999
 20
234.4611691310872
 30
0.0
 11
116.8
 21
234.4611691310872
 31
0.0
  0
HATCH
  5
329
330
11D
100
AcDbEntity
  8
0
100
AcDbHatch
 10
0.0
 20
0.0
 30
0.0
210
0.0
220
0.0
230
1.0
  2
SOLID
 70
     1
 71
     0
 91
        1
 92
        7
 72
     0
 73
     1
 93
        3
 10
99.47499999999999
 20
234.9611691310872
 10
99.47499999999999
 20
233.9611691310872
 10
96.475
 20
234.4611691310872
 97
        1
330
32C
 75
     0
 76
     1
 47
0.651316
 98
        1
 10
0.0
 20
-13.66383086891278
  0
LWPOLYLINE
  5
32C
330
11D
100
AcDbEntity
  8
0
100
AcDbPolyline
 90
        4
 70
     0
 43
0.2
 10
99.47499999999999
 20
234.9611691310872
 10
99.47499999999999
 20
233.9611691310872
 10
96.475
 20
234.4611691310872
 10
99.47499999999999
 20
234.9611691310872
  0
HATCH
  5
337
330
11D
100
AcDbEntity
  8
0
100
AcDbHatch
 10
0.0
 20
0.0
 30
0.0
210
0.0
220
0.0
230
1.0
  2
SOLID
 70
     1
 71
     0
 91
        1
 92
        7
 72
     0
 73
     1
 93
        3
 10
116.8
 20
234.9611691310872
 10
116.8
 20
233.9611691310872
 10
119.8
 20
234.4611691310872
 97
        1
330
33A
 75
     0
 76
     1
 47
0.651316
 98
        1
 10
0.0
 20
-13.66383086891278
  0
LWPOLYLINE
  5
33A
330
11D
100
AcDbEntity
  8
0
100
AcDbPolyline
 90
        4
 70
     0
 43
0.2
 10
116.8
 20
234.9611691310872
 10
116.8
 20
233.9611691310872
 10
119.8
 20
234.4611691310872
 10
116.8
 20
234.9611691310872
  0
MTEXT
  5
345
330
11D
100
AcDbEntity
  8
0
100
AcDbMText
 10
105.15
 20
238.9611691310872
 30
0.0
 40
3.5
 41
6.299999999999998
 71
     1
 72
     5
  1
\fＭＳ ゴシック|b0|i0|c128|p49;\T0.9100;28
  7
BIGFONT
 73
     1
 44
0.6
1001
ACAD
1000
MTEXTBEGIN
1070
    73
1070
     1
1070
    44
1040
0.6
1070
    74
1070
     0
1000
MTEXTEND
  0
LINE
  5
348
330
11D
100
AcDbEntity
  8
0
370
    20
100
AcDbLine
 10
25.125
 20
227.8861691310872
 30
0.0
 11
25.125
 21
235.4611691310872
 31
0.0
  0
LINE
  5
34B
330
11D
100
AcDbEntity
  8
0
370
    20
100
AcDbLine
 10
71.79999999999998
 20
227.8861691310872
 30
0.0
 11
71.79999999999998
 21
235.4611691310872
 31
0.0
  0
LINE
  5
34E
330
11D
100
AcDbEntity
  8
0
370
    20
100
AcDbLine
 10
28.125
 20
234.4611691310872
 30
0.0
 11
68.79999999999999
 21
234.4611691310872
 31
0.0
  0
HATCH
  5
351
330
11D
100
AcDbEntity
  8
0
100
AcDbHatch
 10
0.0
 20
0.0
 30
0.0
210
0.0
220
0.0
230
1.0
  2
SOLID
 70
     1
 71
     0
 91
        1
 92
        7
 72
     0
 73
     1
 93
        3
 10
28.125
 20
234.9611691310872
 10
28.125
 20
233.9611691310872
 10
25.125
 20
234.4611691310872
 97
        1
330
354
 75
     0
 76
     1
 47
0.651316
 98
        1
 10
0.0
 20
-13.66383086891278
  0
LWPOLYLINE
  5
354
330
11D
100
AcDbEntity
  8
0
100
AcDbPolyline
 90
        4
 70
     0
 43
0.2
 10
28.125
 20
234.9611691310872
 10
28.125
 20
233.9611691310872
 10
25.125
 20
234.4611691310872
 10
28.125
 20
234.9611691310872
  0
HATCH
  5
35F
330
11D
100
AcDbEntity
  8
0
100
AcDbHatch
 10
0.0
 20
0.0
 30
0.0
210
0.0
220
0.0
230
1.0
  2
SOLID
 70
     1
 71
     0
 91
        1
 92
        7
 72
     0
 73
     1
 93
        3
 10
68.79999999999999
 20
234.9611691310872
 10
68.79999999999999
 20
233.9611691310872
 10
71.79999999999998
 20
234.4611691310872
 97
        1
330
362
 75
     0
 76
     1
 47
0.651316
 98
        1
 10
0.0
 20
-13.66383086891278
  0
LWPOLYLINE
  5
362
330
11D
100
AcDbEntity
  8
0
100
AcDbPolyline
 90
        4
 70
     0
 43
0.2
 10
68.79999999999999
 20
234.9611691310872
 10
68.79999999999999
 20
233.9611691310872
 10
71.79999999999998
 20
234.4611691310872
 10
68.79999999999999
 20
234.9611691310872
  0
MTEXT
  5
36D
330
11D
100
AcDbEntity
  8
0
100
AcDbMText
 10
45.49999999999999
 20
238.9611691310872
 30
0.0
 40
3.5
 41
6.299999999999998
 71
     1
 72
     5
  1
\fＭＳ ゴシック|b0|i0|c128|p49;\T0.9100;70
  7
BIGFONT
 73
     1
 44
0.6
1001
ACAD
1000
MTEXTBEGIN
1070
    73
1070
     1
1070
    44
1040
0.6
1070
    74
1070
     0
1000
MTEXTEND
  0
LINE
  5
370
330
11D
100
AcDbEntity
  8
0
370
    20
100
AcDbLine
 10
95.12500000000001
 20
229.8111691310872
 30
0.0
 11
95.12500000000001
 21
149.8111691310872
 31
0.0
  0
LINE
  5
373
330
11D
100
AcDbEntity
  8
0
370
    20
100
AcDbLine
 10
71.79999999999998
 20
140.4861691310872
 30
0.0
 11
71.79999999999998
 21
139.1611691310872
 31
0.0
  0
ARC
  5
376
330
11D
100
AcDbEntity
  8
0
370
    20
100
AcDbCircle
 10
69.125
 20
140.4861691310872
 30
0.0
 40
2.649999999999999
100
AcDbArc
 50
0.0
 51
90.0
  0
LINE
  5
379
330
11D
100
AcDbEntity
  8
0
370
    20
100
AcDbLine
 10
71.79999999999998
 20
139.1611691310872
 30
0.0
 11
25.125
 21
139.1611691310872
 31
0.0
  0
LINE
  5
37C
330
11D
100
AcDbEntity
  8
0
370
    20
100
AcDbLine
 10
25.125
 20
139.1611691310872
 30
0.0
 11
25.125
 21
140.4861691310872
 31
0.0
  0
ARC
  5
37F
330
11D
100
AcDbEntity
  8
0
370
    20
100
AcDbCircle
 10
27.8
 20
140.4861691310872
 30
0.0
 40
2.649999999999999
100
AcDbArc
 50
90.0
 51
180.0
  0
LINE
  5
382
330
11D
100
AcDbEntity
  8
0
370
    20
100
AcDbLine
 10
27.8
 20
143.1611691310872
 30
0.0
 11
69.125
 21
143.1611691310872
 31
0.0
  0
LINE
  5
385
330
11D
100
AcDbEntity
  8
0
370
    20
100
AcDbLine
 10
63.79999999999999
 20
115.8111691310872
 30
0.0
 11
33.125
 21
115.8111691310872
 31
0.0
  0
LINE
  5
388
330
11D
100
AcDbEntity
  8
0
370
    20
100
AcDbLine
 10
33.125
 20
115.8111691310872
 30
0.0
 11
33.125
 21
139.1611691310872
 31
0.0
  0
LINE
  5
38B
330
11D
100
AcDbEntity
  8
0
370
    20
100
AcDbLine
 10
63.79999999999999
 20
115.8111691310872
 30
0.0
 11
63.79999999999999
 21
139.1611691310872
 31
0.0
  0
LINE
  5
38E
330
11D
100
AcDbEntity
  8
0
370
    20
100
AcDbLine
 10
33.125
 20
115.7611691310872
 30
0.0
 11
33.125
 21
107.7611691310872
 31
0.0
  0
LINE
  5
391
330
11D
100
AcDbEntity
  8
0
370
    20
100
AcDbLine
 10
63.79999999999999
 20
115.7611691310872
 30
0.0
 11
63.79999999999999
 21
107.7611691310872
 31
0.0
  0
LINE
  5
394
330
11D
100
AcDbEntity
  8
0
370
    20
100
AcDbLine
 10
36.125
 20
108.7611691310872
 30
0.0
 11
60.8
 21
108.7611691310872
 31
0.0
  0
HATCH
  5
397
330
11D
100
AcDbEntity
  8
0
100
AcDbHatch
 10
0.0
 20
0.0
 30
0.0
210
0.0
220
0.0
230
1.0
  2
SOLID
 70
     1
 71
     0
 91
        1
 92
        7
 72
     0
 73
     1
 93
        3
 10
36.125
 20
109.2611691310872
 10
36.125
 20
108.2611691310872
 10
33.125
 20
108.7611691310872
 97
        1
330
39A
 75
     0
 76
     1
 47
0.651316
 98
        1
 10
0.0
 20
-13.66383086891278
  0
LWPOLYLINE
  5
39A
330
11D
100
AcDbEntity
  8
0
100
AcDbPolyline
 90
        4
 70
     0
 43
0.2
 10
36.125
 20
109.2611691310872
 10
36.125
 20
108.2611691310872
 10
33.125
 20
108.7611691310872
 10
36.125
 20
109.2611691310872
  0
HATCH
  5
3A5
330
11D
100
AcDbEntity
  8
0
100
AcDbHatch
 10
0.0
 20
0.0
 30
0.0
210
0.0
220
0.0
230
1.0
  2
SOLID
 70
     1
 71
     0
 91
        1
 92
        7
 72
     0
 73
     1
 93
        3
 10
60.8
 20
109.2611691310872
 10
60.8
 20
108.2611691310872
 10
63.79999999999999
 20
108.7611691310872
 97
        1
330
3A8
 75
     0
 76
     1
 47
0.651316
 98
        1
 10
0.0
 20
-13.66383086891278
  0
LWPOLYLINE
  5
3A8
330
11D
100
AcDbEntity
  8
0
100
AcDbPolyline
 90
        4
 70
     0
 43
0.2
 10
60.8
 20
109.2611691310872
 10
60.8
 20
108.2611691310872
 10
63.79999999999999
 20
108.7611691310872
 10
60.8
 20
109.2611691310872
  0
MTEXT
  5
3B3
330
11D
100
AcDbEntity
  8
0
100
AcDbMText
 10
45.475
 20
113.2611691310872
 30
0.0
 40
3.5
 41
6.299999999999998
 71
     1
 72
     5
  1
\fＭＳ ゴシック|b0|i0|c128|p49;\T0.9100;43
  7
BIGFONT
 73
     1
 44
0.6
1001
ACAD
1000
MTEXTBEGIN
1070
    73
1070
     1
1070
    44
1040
0.6
1070
    74
1070
     0
1000
MTEXTEND
  0
LINE
  5
3B6
330
11D
100
AcDbEntity
  8
0
370
    20
100
AcDbLine
 10
71.79999999999998
 20
140.4861691310872
 30
0.0
 11
25.125
 21
140.4861691310872
 31
0.0
  0
MTEXT
  5
3B9
330
11D
100
AcDbEntity
  8
0
100
AcDbMText
 10
133.625
 20
149.2861691310872
 30
0.0
 40
2.625
 41
12.6
 71
     1
 72
     5
  1
\fＭＳ ゴシック|b0|i0|c128|p49;\T1.4384;番号
  7
BIGFONT
 73
     1
 44
0.7800000000000002
1001
ACAD
1000
MTEXTBEGIN
1070
    73
1070
     1
1070
    44
1040
0.7800000000000002
1070
    74
1070
     0
1000
MTEXTEND
  0
MTEXT
  5
3BC
330
11D
100
AcDbEntity
  8
0
100
AcDbMText
 10
40.89999999999998
 20
82.80731398946835
 30
0.0
 40
2.625
 41
85.05
 71
     1
 72
     5
  1
\fＭＳ ゴシック|b0|i0|c128|p49;\T1.4384;暗証番号自在設定（8桁 MAX）
  7
BIGFONT
 73
     1
 44
0.7800000000000002
1001
ACAD
1000
MTEXTBEGIN
1070
    73
1070
     1
1070
    44
1040
0.7800000000000002
1070
    74
1070
     0
1000
MTEXTEND
  0
LINE
  5
3C5
330
11D
100
AcDbEntity
  8
0
370
    20
100
AcDbLine
 10
131.45
 20
114.4861691310872
 30
0.0
 11
183.075
 21
114.4861691310872
 31
0.0
  0
LINE
  5
3C8
330
11D
100
AcDbEntity
  8
0
370
    20
100
AcDbLine
 10
131.45
 20
108.4861691310872
 30
0.0
 11
183.075
 21
108.4861691310872
 31
0.0
  0
LINE
  5
3CB
330
11D
100
AcDbEntity
  8
0
370
    20
100
AcDbLine
 10
131.45
 20
132.4861691310872
 30
0.0
 11
183.075
 21
132.4861691310872
 31
0.0
  0
LINE
  5
3CE
330
11D
100
AcDbEntity
  8
0
370
    20
100
AcDbLine
 10
131.45
 20
138.4861691310872
 30
0.0
 11
183.075
 21
138.4611691310872
 31
0.0
  0
LINE
  5
3D1
330
11D
100
AcDbEntity
  8
0
370
    20
100
AcDbLine
 10
131.45
 20
150.4861691310872
 30
0.0
 11
183.075
 21
150.4861691310872
 31
0.0
  0
LINE
  5
3D4
330
11D
100
AcDbEntity
  8
0
370
    20
100
AcDbLine
 10
131.45
 20
144.4861691310872
 30
0.0
 11
183.075
 21
144.4861691310872
 31
0.0
  0
LINE
  5
3D7
330
11D
100
AcDbEntity
  8
0
370
    20
100
AcDbLine
 10
131.45
 20
126.4861691310872
 30
0.0
 11
183.075
 21
126.4861691310872
 31
0.0
  0
LINE
  5
3DA
330
11D
100
AcDbEntity
  8
0
370
    20
100
AcDbLine
 10
131.45
 20
120.4861691310872
 30
0.0
 11
183.075
 21
120.4861691310872
 31
0.0
  0
MTEXT
  5
3DD
330
11D
100
AcDbEntity
  8
0
100
AcDbMText
 10
40.89999999999998
 20
88.80731398946835
 30
0.0
 40
2.625
 41
103.95
 71
     1
 72
     5
  1
\fＭＳ ゴシック|b0|i0|c128|p49;\T1.4384;タクトスイッチ耐久性　100万回以上
  7
BIGFONT
 73
     1
 44
0.7800000000000002
1001
ACAD
1000
MTEXTBEGIN
1070
    73
1070
     1
1070
    44
1040
0.7800000000000002
1070
    74
1070
     0
1000
MTEXTEND
  0
LINE
  5
3E0
330
11D
100
AcDbEntity
  8
0
370
    20
100
AcDbLine
 10
9.0
 20
96.00731398946834
 30
0.0
 11
123.45
 21
96.00731398946834
 31
0.0
  0
LINE
  5
3E3
330
11D
100
AcDbEntity
  8
0
370
    20
100
AcDbLine
 10
9.0
 20
66.00731398946834
 30
0.0
 11
123.45
 21
66.00731398946834
 31
0.0
  0
LINE
  5
3E6
330
11D
100
AcDbEntity
  8
0
370
    20
100
AcDbLine
 10
39.0
 20
90.00731398946834
 30
0.0
 11
123.45
 21
90.00731398946834
 31
0.0
  0
LINE
  5
3E9
330
11D
100
AcDbEntity
  8
0
370
    20
100
AcDbLine
 10
39.0
 20
84.00731398946835
 30
0.0
 11
123.45
 21
84.00731398946835
 31
0.0
  0
LINE
  5
3EC
330
11D
100
AcDbEntity
  8
0
370
    20
100
AcDbLine
 10
9.0
 20
78.00731398946834
 30
0.0
 11
123.45
 21
78.00731398946834
 31
0.0
  0
LINE
  5
3EF
330
11D
100
AcDbEntity
  8
0
370
    20
100
AcDbLine
 10
39.0
 20
72.00731398946834
 30
0.0
 11
123.45
 21
72.00731398946834
 31
0.0
  0
LINE
  5
3F2
330
11D
100
AcDbEntity
  8
0
370
    20
100
AcDbLine
 10
9.0
 20
54.00731398946835
 30
0.0
 11
123.45
 21
54.00731398946835
 31
0.0
  0
MTEXT
  5
3F5
330
11D
100
AcDbEntity
  8
0
100
AcDbMText
 10
11.8
 20
95.08231398946835
 30
0.0
 40
2.625
 41
31.5
 71
     1
 72
     5
  1
\fＭＳ ゴシック|b0|i0|c128|p49;\T1.4384;仕　　　様
  7
BIGFONT
 73
     1
 44
0.7800000000000002
1001
ACAD
1000
MTEXTBEGIN
1070
    73
1070
     1
1070
    44
1040
0.7800000000000002
1070
    74
1070
     0
1000
MTEXTEND
  0
MTEXT
  5
3F8
330
11D
100
AcDbEntity
  8
0
100
AcDbMText
 10
11.9
 20
76.80731398946836
 30
0.0
 40
2.625
 41
31.5
 71
     1
 72
     5
  1
\fＭＳ ゴシック|b0|i0|c128|p49;\T1.4384;機　　　能
  7
BIGFONT
 73
     1
 44
0.7800000000000002
1001
ACAD
1000
MTEXTBEGIN
1070
    73
1070
     1
1070
    44
1040
0.7800000000000002
1070
    74
1070
     0
1000
MTEXTEND
  0
MTEXT
  5
3FB
330
11D
100
AcDbEntity
  8
0
100
AcDbMText
 10
11.9
 20
64.80731398946834
 30
0.0
 40
2.625
 41
25.2
 71
     1
 72
     5
  1
\fＭＳ ゴシック|b0|i0|c128|p49;\T1.4384;表 示 灯
  7
BIGFONT
 73
     1
 44
0.7800000000000002
1001
ACAD
1000
MTEXTBEGIN
1070
    73
1070
     1
1070
    44
1040
0.7800000000000002
1070
    74
1070
     0
1000
MTEXTEND
  0
LINE
  5
3FE
330
11D
100
AcDbEntity
  8
0
370
    20
100
AcDbLine
 10
9.0
 20
96.00731398946834
 30
0.0
 11
9.0
 21
54.00731398946835
 31
0.0
  0
MTEXT
  5
401
330
11D
100
AcDbEntity
  8
0
100
AcDbMText
 10
11.8
 20
101.0823139894683
 30
0.0
 40
2.625
 41
25.2
 71
     1
 72
     5
  1
\fＭＳ ゴシック|b0|i0|c128|p49;\T1.4384;テンキー
  7
BIGFONT
 73
     1
 44
0.7800000000000002
1001
ACAD
1000
MTEXTBEGIN
1070
    73
1070
     1
1070
    44
1040
0.7800000000000002
1070
    74
1070
     0
1000
MTEXTEND
  0
LINE
  5
404
330
11D
100
AcDbEntity
  8
0
370
    20
100
AcDbLine
 10
39.0
 20
96.00731398946834
 30
0.0
 11
39.0
 21
54.00731398946835
 31
0.0
  0
MTEXT
  5
407
330
11D
100
AcDbEntity
  8
0
100
AcDbMText
 10
40.89999999999998
 20
64.80731398946834
 30
0.0
 40
2.0
 41
151.2
 71
     1
 72
     5
  1
\fＭＳ ゴシック|b0|i0|c128|p49;\T1.4384;電源（赤）　OK（緑）　NG（赤点滅）　エラー音有り
  7
BIGFONT
 73
     1
 44
0.7800000000000002
1001
ACAD
1000
MTEXTBEGIN
1070
    73
1070
     1
1070
    44
1040
0.7800000000000002
1070
    74
1070
     0
1000
MTEXTEND
  0
MTEXT
  5
40A
330
11D
100
AcDbEntity
  8
0
100
AcDbMText
 10
40.89999999999998
 20
94.80731398946835
 30
0.0
 40
2.625
 41
69.29999999999999
 71
     1
 72
     5
  1
\fＭＳ ゴシック|b0|i0|c128|p49;\T1.4384;樹脂フイルム式、12キー
  7
BIGFONT
 73
     1
 44
0.7800000000000002
1001
ACAD
1000
MTEXTBEGIN
1070
    73
1070
     1
1070
    44
1040
0.7800000000000002
1070
    74
1070
     0
1000
MTEXTEND
  0
CIRCLE
  5
40D
330
11D
100
AcDbEntity
  8
0
370
    20
100
AcDbCircle
 10
137.45
 20
129.4861691310872
 30
0.0
 40
2.5
  0
MTEXT
  5
410
330
11D
100
AcDbEntity
  8
0
100
AcDbMText
 10
136.65
 20
131.2361691310872
 30
0.0
 40
3.5
 41
3.149999999999999
 71
     1
 72
     5
  1
\fＭＳ ゴシック|b0|i0|c128|p49;\T0.9100;3
  7
BIGFONT
 73
     1
 44
0.6
1001
ACAD
1000
MTEXTBEGIN
1070
    73
1070
     1
1070
    44
1040
0.6
1070
    74
1070
     0
1000
MTEXTEND
  0
LINE
  5
413
330
11D
100
AcDbEntity
  8
0
370
    20
100
AcDbLine
 10
131.45
 20
150.4861691310872
 30
0.0
 11
131.45
 21
102.4861691310872
 31
0.0
  0
MTEXT
  5
416
330
11D
100
AcDbEntity
  8
0
100
AcDbMText
 10
136.65
 20
107.2361691310872
 30
0.0
 40
3.5
 41
3.149999999999999
 71
     1
 72
     5
  1
\fＭＳ ゴシック|b0|i0|c128|p49;\T0.9100;7
  7
BIGFONT
 73
     1
 44
0.6
1001
ACAD
1000
MTEXTBEGIN
1070
    73
1070
     1
1070
    44
1040
0.6
1070
    74
1070
     0
1000
MTEXTEND
  0
CIRCLE
  5
419
330
11D
100
AcDbEntity
  8
0
370
    20
100
AcDbCircle
 10
137.45
 20
105.4861691310872
 30
0.0
 40
2.5
  0
MTEXT
  5
41C
330
11D
100
AcDbEntity
  8
0
100
AcDbMText
 10
136.65
 20
119.2361691310872
 30
0.0
 40
3.5
 41
3.149999999999999
 71
     1
 72
     5
  1
\fＭＳ ゴシック|b0|i0|c128|p49;\T0.9100;5
  7
BIGFONT
 73
     1
 44
0.6
1001
ACAD
1000
MTEXTBEGIN
1070
    73
1070
     1
1070
    44
1040
0.6
1070
    74
1070
     0
1000
MTEXTEND
  0
CIRCLE
  5
41F
330
11D
100
AcDbEntity
  8
0
370
    20
100
AcDbCircle
 10
137.45
 20
117.4861691310872
 30
0.0
 40
2.5
  0
CIRCLE
  5
422
330
11D
100
AcDbEntity
  8
0
370
    20
100
AcDbCircle
 10
137.45
 20
111.4861691310872
 30
0.0
 40
2.5
  0
MTEXT
  5
425
330
11D
100
AcDbEntity
  8
0
100
AcDbMText
 10
136.65
 20
113.2361691310872
 30
0.0
 40
3.5
 41
3.149999999999999
 71
     1
 72
     5
  1
\fＭＳ ゴシック|b0|i0|c128|p49;\T0.9100;6
  7
BIGFONT
 73
     1
 44
0.6
1001
ACAD
1000
MTEXTBEGIN
1070
    73
1070
     1
1070
    44
1040
0.6
1070
    74
1070
     0
1000
MTEXTEND
  0
CIRCLE
  5
428
330
11D
100
AcDbEntity
  8
0
370
    20
100
AcDbCircle
 10
137.45
 20
123.4861691310872
 30
0.0
 40
2.5
  0
MTEXT
  5
42B
330
11D
100
AcDbEntity
  8
0
100
AcDbMText
 10
136.65
 20
125.2361691310872
 30
0.0
 40
3.5
 41
3.149999999999999
 71
     1
 72
     5
  1
\fＭＳ ゴシック|b0|i0|c128|p49;\T0.9100;4
  7
BIGFONT
 73
     1
 44
0.6
1001
ACAD
1000
MTEXTBEGIN
1070
    73
1070
     1
1070
    44
1040
0.6
1070
    74
1070
     0
1000
MTEXTEND
  0
MTEXT
  5
42E
330
11D
100
AcDbEntity
  8
0
100
AcDbMText
 10
136.375
 20
143.2361691310872
 30
0.0
 40
3.5
 41
3.149999999999999
 71
     1
 72
     5
  1
\fＭＳ ゴシック|b0|i0|c128|p49;\T0.9100;1
  7
BIGFONT
 73
     1
 44
0.6
1001
ACAD
1000
MTEXTBEGIN
1070
    73
1070
     1
1070
    44
1040
0.6
1070
    74
1070
     0
1000
MTEXTEND
  0
CIRCLE
  5
431
330
11D
100
AcDbEntity
  8
0
370
    20
100
AcDbCircle
 10
137.45
 20
141.4861691310872
 30
0.0
 40
2.5
  0
CIRCLE
  5
434
330
11D
100
AcDbEntity
  8
0
370
    20
100
AcDbCircle
 10
137.45
 20
135.4861691310872
 30
0.0
 40
2.5
  0
MTEXT
  5
437
330
11D
100
AcDbEntity
  8
0
100
AcDbMText
 10
136.65
 20
137.2361691310872
 30
0.0
 40
3.5
 41
3.149999999999999
 71
     1
 72
     5
  1
\fＭＳ ゴシック|b0|i0|c128|p49;\T0.9100;2
  7
BIGFONT
 73
     1
 44
0.6
1001
ACAD
1000
MTEXTBEGIN
1070
    73
1070
     1
1070
    44
1040
0.6
1070
    74
1070
     0
1000
MTEXTEND
  0
MTEXT
  5
43D
330
11D
100
AcDbEntity
  8
0
100
AcDbMText
 10
145.375
 20
131.2861691310872
 30
0.0
 40
2.299999999999999
 41
63.0
 71
     1
 72
     5
  1
\fＭＳ ゴシック|b0|i0|c128|p49;\T1.4384;OK表示ランプ（緑色）
  7
BIGFONT
 73
     1
 44
0.7800000000000002
1001
ACAD
1000
MTEXTBEGIN
1070
    73
1070
     1
1070
    44
1040
0.7800000000000002
1070
    74
1070
     0
1000
MTEXTEND
  0
MTEXT
  5
443
330
11D
100
AcDbEntity
  8
0
100
AcDbMText
 10
11.9
 20
58.80731398946834
 30
0.0
 40
2.625
 41
31.5
 71
     1
 72
     5
  1
\fＭＳ ゴシック|b0|i0|c128|p49;\T1.4384;定　　　格
  7
BIGFONT
 73
     1
 44
0.7800000000000002
1001
ACAD
1000
MTEXTBEGIN
1070
    73
1070
     1
1070
    44
1040
0.7800000000000002
1070
    74
1070
     0
1000
MTEXTEND
  0
MTEXT
  5
446
330
11D
100
AcDbEntity
  8
0
100
AcDbMText
 10
145.375
 20
143.2861691310872
 30
0.0
 40
2.625
 41
44.1
 71
     1
 72
     5
  1
\fＭＳ ゴシック|b0|i0|c128|p49;\T1.4384;カバープレート
  7
BIGFONT
 73
     1
 44
0.7800000000000002
1001
ACAD
1000
MTEXTBEGIN
1070
    73
1070
     1
1070
    44
1040
0.7800000000000002
1070
    74
1070
     0
1000
MTEXTEND
  0
MTEXT
  5
449
330
11D
100
AcDbEntity
  8
0
100
AcDbMText
 10
155.375
 20
149.2861691310872
 30
0.0
 40
2.625
 41
25.2
 71
     1
 72
     5
  1
\fＭＳ ゴシック|b0|i0|c128|p49;\T1.4384;　名　称
  7
BIGFONT
 73
     1
 44
0.7800000000000002
1001
ACAD
1000
MTEXTBEGIN
1070
    73
1070
     1
1070
    44
1040
0.7800000000000002
1070
    74
1070
     0
1000
MTEXTEND
  0
MTEXT
  5
44F
330
11D
100
AcDbEntity
  8
0
100
AcDbMText
 10
145.375
 20
119.2861691310872
 30
0.0
 40
2.625
 41
40.95
 71
     1
 72
     5
  1
\fＭＳ ゴシック|b0|i0|c128|p49;\T1.4384;設定スイッチ1
  7
BIGFONT
 73
     1
 44
0.7800000000000002
1001
ACAD
1000
MTEXTBEGIN
1070
    73
1070
     1
1070
    44
1040
0.7800000000000002
1070
    74
1070
     0
1000
MTEXTEND
  0
MTEXT
  5
452
330
11D
100
AcDbEntity
  8
0
100
AcDbMText
 10
145.375
 20
124.7861691310872
 30
0.0
 40
2.299999999999999
 41
37.8
 71
     1
 72
     5
  1
{\fMS Gothic|b0|i0|c128|p49;\T1.4384;NG表示ランプ(赤色）}
  7
BIGFONT
 73
     1
 44
0.7800000000000002
1001
ACAD
1000
MTEXTBEGIN
1070
    73
1070
     1
1070
    44
1040
0.7800000000000002
1070
    74
1070
     0
1000
MTEXTEND
  0
LINE
  5
455
330
11D
100
AcDbEntity
  8
0
370
    20
100
AcDbLine
 10
143.45
 20
150.4861691310872
 30
0.0
 11
143.45
 21
102.4861691310872
 31
0.0
  0
LINE
  5
458
330
11D
100
AcDbEntity
  8
0
370
    20
100
AcDbLine
 10
123.45
 20
96.00731398946834
 30
0.0
 11
123.45
 21
54.00731398946835
 31
0.0
  0
LINE
  5
45B
330
11D
100
AcDbEntity
  8
0
370
    20
100
AcDbLine
 10
183.075
 20
150.4861691310872
 30
0.0
 11
183.075
 21
102.4861691310872
 31
0.0
  0
LINE
  5
45E
330
11D
100
AcDbEntity
  8
0
370
    20
100
AcDbLine
 10
59.125
 20
118.4861691310872
 30
0.0
 11
59.125
 21
123.8111691310872
 31
0.0
  0
LINE
  5
461
330
11D
100
AcDbEntity
  8
0
370
    20
100
AcDbLine
 10
49.8
 20
118.4861691310872
 30
0.0
 11
49.8
 21
123.8111691310872
 31
0.0
  0
LINE
  5
464
330
11D
100
AcDbEntity
  8
0
370
    20
100
AcDbLine
 10
59.125
 20
118.4861691310872
 30
0.0
 11
49.8
 21
118.4861691310872
 31
0.0
  0
LINE
  5
467
330
11D
100
AcDbEntity
  8
0
370
    20
100
AcDbLine
 10
59.125
 20
123.8111691310872
 30
0.0
 11
49.8
 21
123.8111691310872
 31
0.0
  0
LINE
  5
46A
330
11D
100
AcDbEntity
  8
0
370
    20
100
AcDbLine
 10
111.8
 20
192.8111691310872
 30
0.0
 11
111.8
 21
178.1611691310872
 31
0.0
  0
LINE
  5
46D
330
11D
100
AcDbEntity
  8
0
370
    20
100
AcDbLine
 10
117.125
 20
192.8111691310872
 30
0.0
 11
117.125
 21
178.1611691310872
 31
0.0
  0
LINE
  5
470
330
11D
100
AcDbEntity
  8
0
370
    20
100
AcDbLine
 10
117.125
 20
178.1611691310872
 30
0.0
 11
111.8
 21
178.1611691310872
 31
0.0
  0
LINE
  5
473
330
11D
100
AcDbEntity
  8
0
370
    20
100
AcDbLine
 10
117.125
 20
192.8111691310872
 30
0.0
 11
111.8
 21
192.8111691310872
 31
0.0
  0
LINE
  5
476
330
11D
100
AcDbEntity
  8
0
370
    20
100
AcDbLine
 10
111.8
 20
208.8111691310872
 30
0.0
 11
111.8
 21
195.4861691310872
 31
0.0
  0
LINE
  5
479
330
11D
100
AcDbEntity
  8
0
370
    20
100
AcDbLine
 10
117.125
 20
208.8111691310872
 30
0.0
 11
117.125
 21
195.4861691310872
 31
0.0
  0
LINE
  5
47C
330
11D
100
AcDbEntity
  8
0
370
    20
100
AcDbLine
 10
117.125
 20
195.4861691310872
 30
0.0
 11
111.8
 21
195.4861691310872
 31
0.0
  0
LINE
  5
47F
330
11D
100
AcDbEntity
  8
0
370
    20
100
AcDbLine
 10
117.125
 20
208.8111691310872
 30
0.0
 11
111.8
 21
208.8111691310872
 31
0.0
  0
LINE
  5
482
330
11D
100
AcDbEntity
  8
0
370
    20
100
AcDbLine
 10
40.25
 20
210.3861691310872
 30
0.0
 11
45.825
 21
221.5361691310872
 31
0.0
  0
CIRCLE
  5
485
330
11D
100
AcDbEntity
  8
0
370
    20
100
AcDbCircle
 10
46.92499999999999
 20
223.7861691310872
 30
0.0
 40
2.5
  0
MTEXT
  5
488
330
11D
100
AcDbEntity
  8
0
100
AcDbMText
 10
38.325
 20
212.6361691310872
 30
0.0
 40
1.125
 41
5.4
 71
     1
 72
     5
  1
\fＭＳ ゴシック|b0|i0|c128|p49;\T1.4384;電源
  7
BIGFONT
 73
     1
 44
0.7800000000000002
1001
ACAD
1000
MTEXTBEGIN
1070
    73
1070
     1
1070
    44
1040
0.7800000000000002
1070
    74
1070
     0
1000
MTEXTEND
  0
MTEXT
  5
48B
330
11D
100
AcDbEntity
  8
0
100
AcDbMText
 10
47.62499999999999
 20
212.6361691310872
 30
0.0
 40
1.5
 41
2.7
 71
     1
 72
     5
  1
\fＭＳ ゴシック|b0|i0|c128|p49;\T0.9100;OK
  7
BIGFONT
 73
     1
 44
0.6
1001
ACAD
1000
MTEXTBEGIN
1070
    73
1070
     1
1070
    44
1040
0.6
1070
    74
1070
     0
1000
MTEXTEND
  0
MTEXT
  5
48E
330
11D
100
AcDbEntity
  8
0
100
AcDbMText
 10
56.27500000000001
 20
212.6361691310872
 30
0.0
 40
1.5
 41
2.7
 71
     1
 72
     5
  1
\fＭＳ ゴシック|b0|i0|c128|p49;\T0.9100;NG
  7
BIGFONT
 73
     1
 44
0.6
1001
ACAD
1000
MTEXTBEGIN
1070
    73
1070
     1
1070
    44
1040
0.6
1070
    74
1070
     0
1000
MTEXTEND
  0
MTEXT
  5
491
330
11D
100
AcDbEntity
  8
0
100
AcDbMText
 10
35.95000000000001
 20
171.5861691310872
 30
0.0
 40
1.5
 41
10.8
 71
     1
 72
     5
  1
{\fMS Gothic|b0|i0|c128|p49;\T0.91;CB-TKRF}
  7
BIGFONT
 73
     1
 44
0.6
1001
ACAD
1000
MTEXTBEGIN
1070
    73
1070
     1
1070
    44
1040
0.6
1070
    74
1070
     0
1000
MTEXTEND
  0
CIRCLE
  5
494
330
11D
100
AcDbEntity
  8
0
370
    20
100
AcDbCircle
 10
55.6
 20
223.7861691310872
 30
0.0
 40
2.5
  0
LINE
  5
497
330
11D
100
AcDbEntity
  8
0
370
    20
100
AcDbLine
 10
48.9
 20
210.3861691310872
 30
0.0
 11
54.475
 21
221.5361691310872
 31
0.0
  0
CIRCLE
  5
49A
330
11D
100
AcDbEntity
  8
0
370
    20
100
AcDbCircle
 10
64.27500000000001
 20
223.7861691310872
 30
0.0
 40
2.5
  0
LINE
  5
49D
330
11D
100
AcDbEntity
  8
0
370
    20
100
AcDbLine
 10
57.575
 20
210.3861691310872
 30
0.0
 11
63.15
 21
221.5361691310872
 31
0.0
  0
CIRCLE
  5
4A6
330
11D
100
AcDbEntity
  8
0
370
    20
100
AcDbCircle
 10
60.5
 20
134.6861691310872
 30
0.0
 40
2.5
  0
LINE
  5
4A9
330
11D
100
AcDbEntity
  8
0
370
    20
100
AcDbLine
 10
53.825
 20
121.2861691310872
 30
0.0
 11
59.4
 21
132.4361691310872
 31
0.0
  0
LINE
  5
4AC
330
11D
100
AcDbEntity
  8
0
370
    20
100
AcDbLine
 10
131.45
 20
102.4861691310872
 30
0.0
 11
183.075
 21
102.4861691310872
 31
0.0
  0
MTEXT
  5
4AF
330
11D
100
AcDbEntity
  8
0
100
AcDbMText
 10
145.375
 20
113.2861691310872
 30
0.0
 40
2.625
 41
40.95
 71
     1
 72
     5
  1
\fＭＳ ゴシック|b0|i0|c128|p49;\T1.4384;設定スイッチ2
  7
BIGFONT
 73
     1
 44
0.7800000000000002
1001
ACAD
1000
MTEXTBEGIN
1070
    73
1070
     1
1070
    44
1040
0.7800000000000002
1070
    74
1070
     0
1000
MTEXTEND
  0
MTEXT
  5
4B5
330
11D
100
AcDbEntity
  8
0
100
AcDbMText
 10
145.375
 20
107.2861691310872
 30
0.0
 40
2.625
 41
37.8
 71
     1
 72
     5
  1
\fＭＳ ゴシック|b0|i0|c128|p49;\T1.4384;接続コネクタ
  7
BIGFONT
 73
     1
 44
0.7800000000000002
1001
ACAD
1000
MTEXTBEGIN
1070
    73
1070
     1
1070
    44
1040
0.7800000000000002
1070
    74
1070
     0
1000
MTEXTEND
  0
MTEXT
  5
4B8
330
11D
100
AcDbEntity
  8
0
100
AcDbMText
 10
46.12499999999999
 20
225.5361691310872
 30
0.0
 40
3.5
 41
3.149999999999999
 71
     1
 72
     5
  1
\fＭＳ ゴシック|b0|i0|c128|p49;\T0.9100;2
  7
BIGFONT
 73
     1
 44
0.6
1001
ACAD
1000
MTEXTBEGIN
1070
    73
1070
     1
1070
    44
1040
0.6
1070
    74
1070
     0
1000
MTEXTEND
  0
MTEXT
  5
4BB
330
11D
100
AcDbEntity
  8
0
100
AcDbMText
 10
54.8
 20
225.5361691310872
 30
0.0
 40
3.5
 41
3.149999999999999
 71
     1
 72
     5
  1
\fＭＳ ゴシック|b0|i0|c128|p49;\T0.9100;3
  7
BIGFONT
 73
     1
 44
0.6
1001
ACAD
1000
MTEXTBEGIN
1070
    73
1070
     1
1070
    44
1040
0.6
1070
    74
1070
     0
1000
MTEXTEND
  0
MTEXT
  5
4BE
330
11D
100
AcDbEntity
  8
0
100
AcDbMText
 10
63.475
 20
225.5361691310872
 30
0.0
 40
3.5
 41
3.149999999999999
 71
     1
 72
     5
  1
\fＭＳ ゴシック|b0|i0|c128|p49;\T0.9100;4
  7
BIGFONT
 73
     1
 44
0.6
1001
ACAD
1000
MTEXTBEGIN
1070
    73
1070
     1
1070
    44
1040
0.6
1070
    74
1070
     0
1000
MTEXTEND
  0
MTEXT
  5
4C1
330
11D
100
AcDbEntity
  8
0
100
AcDbMText
 10
149.9486633895669
 20
223.3953874174849
 30
0.0
 40
3.5
 41
3.149999999999999
 71
     1
 72
     5
  1
\fＭＳ ゴシック|b0|i0|c128|p49;\T0.9100;5
  7
BIGFONT
 73
     1
 44
0.6
1001
ACAD
1000
MTEXTBEGIN
1070
    73
1070
     1
1070
    44
1040
0.6
1070
    74
1070
     0
1000
MTEXTEND
  0
LINE
  5
4C7
330
11D
100
AcDbEntity
  8
0
370
    20
100
AcDbLine
 10
9.0
 20
60.00731398946834
 30
0.0
 11
123.45
 21
60.00731398946834
 31
0.0
  0
LINE
  5
4D0
330
11D
100
AcDbEntity
  8
0
370
    20
100
AcDbLine
 10
183.075
 20
92.15000000000001
 30
0.0
 11
183.075
 21
14.15
 31
0.0
  0
MTEXT
  5
4D3
330
11D
100
AcDbEntity
  8
0
100
AcDbMText
 10
38.65
 20
204.3111691310872
 30
0.0
 40
4.0
 41
3.6
 71
     1
 72
     5
  1
\fＭＳ ゴシック|b0|i0|c128|p49;\T0.9100;1
  7
BIGFONT
 73
     1
 44
0.6
1001
ACAD
1000
MTEXTBEGIN
1070
    73
1070
     1
1070
    44
1040
0.6
1070
    74
1070
     0
1000
MTEXTEND
  0
MTEXT
  5
4D6
330
11D
100
AcDbEntity
  8
0
100
AcDbMText
 10
47.575
 20
204.3111691310872
 30
0.0
 40
4.0
 41
3.6
 71
     1
 72
     5
  1
\fＭＳ ゴシック|b0|i0|c128|p49;\T0.9100;2
  7
BIGFONT
 73
     1
 44
0.6
1001
ACAD
1000
MTEXTBEGIN
1070
    73
1070
     1
1070
    44
1040
0.6
1070
    74
1070
     0
1000
MTEXTEND
  0
MTEXT
  5
4D9
330
11D
100
AcDbEntity
  8
0
100
AcDbMText
 10
56.25
 20
204.3111691310872
 30
0.0
 40
4.0
 41
3.6
 71
     1
 72
     5
  1
\fＭＳ ゴシック|b0|i0|c128|p49;\T0.9100;3
  7
BIGFONT
 73
     1
 44
0.6
1001
ACAD
1000
MTEXTBEGIN
1070
    73
1070
     1
1070
    44
1040
0.6
1070
    74
1070
     0
1000
MTEXTEND
  0
MTEXT
  5
4DC
330
11D
100
AcDbEntity
  8
0
100
AcDbMText
 10
38.925
 20
195.6361691310872
 30
0.0
 40
4.0
 41
3.6
 71
     1
 72
     5
  1
\fＭＳ ゴシック|b0|i0|c128|p49;\T0.9100;4
  7
BIGFONT
 73
     1
 44
0.6
1001
ACAD
1000
MTEXTBEGIN
1070
    73
1070
     1
1070
    44
1040
0.6
1070
    74
1070
     0
1000
MTEXTEND
  0
MTEXT
  5
4DF
330
11D
100
AcDbEntity
  8
0
100
AcDbMText
 10
47.575
 20
195.6361691310872
 30
0.0
 40
4.0
 41
3.6
 71
     1
 72
     5
  1
\fＭＳ ゴシック|b0|i0|c128|p49;\T0.9100;5
  7
BIGFONT
 73
     1
 44
0.6
1001
ACAD
1000
MTEXTBEGIN
1070
    73
1070
     1
1070
    44
1040
0.6
1070
    74
1070
     0
1000
MTEXTEND
  0
MTEXT
  5
4E2
330
11D
100
AcDbEntity
  8
0
100
AcDbMText
 10
56.25
 20
195.6361691310872
 30
0.0
 40
4.0
 41
3.6
 71
     1
 72
     5
  1
\fＭＳ ゴシック|b0|i0|c128|p49;\T0.9100;6
  7
BIGFONT
 73
     1
 44
0.6
1001
ACAD
1000
MTEXTBEGIN
1070
    73
1070
     1
1070
    44
1040
0.6
1070
    74
1070
     0
1000
MTEXTEND
  0
MTEXT
  5
4E5
330
11D
100
AcDbEntity
  8
0
100
AcDbMText
 10
56.25
 20
186.9861691310872
 30
0.0
 40
4.0
 41
3.6
 71
     1
 72
     5
  1
\fＭＳ ゴシック|b0|i0|c128|p49;\T0.9100;9
  7
BIGFONT
 73
     1
 44
0.6
1001
ACAD
1000
MTEXTBEGIN
1070
    73
1070
     1
1070
    44
1040
0.6
1070
    74
1070
     0
1000
MTEXTEND
  0
MTEXT
  5
4E8
330
11D
100
AcDbEntity
  8
0
100
AcDbMText
 10
47.575
 20
186.9861691310872
 30
0.0
 40
4.0
 41
3.6
 71
     1
 72
     5
  1
\fＭＳ ゴシック|b0|i0|c128|p49;\T0.9100;8
  7
BIGFONT
 73
     1
 44
0.6
1001
ACAD
1000
MTEXTBEGIN
1070
    73
1070
     1
1070
    44
1040
0.6
1070
    74
1070
     0
1000
MTEXTEND
  0
MTEXT
  5
4EB
330
11D
100
AcDbEntity
  8
0
100
AcDbMText
 10
38.925
 20
186.9861691310872
 30
0.0
 40
4.0
 41
3.6
 71
     1
 72
     5
  1
\fＭＳ ゴシック|b0|i0|c128|p49;\T0.9100;7
  7
BIGFONT
 73
     1
 44
0.6
1001
ACAD
1000
MTEXTBEGIN
1070
    73
1070
     1
1070
    44
1040
0.6
1070
    74
1070
     0
1000
MTEXTEND
  0
MTEXT
  5
4EE
330
11D
100
AcDbEntity
  8
0
100
AcDbMText
 10
38.925
 20
178.3111691310872
 30
0.0
 40
4.0
 41
3.6
 71
     1
 72
     5
  1
\fＭＳ ゴシック|b0|i0|c128|p49;\T0.9100;R
  7
BIGFONT
 73
     1
 44
0.6
1001
ACAD
1000
MTEXTBEGIN
1070
    73
1070
     1
1070
    44
1040
0.6
1070
    74
1070
     0
1000
MTEXTEND
  0
MTEXT
  5
4F1
330
11D
100
AcDbEntity
  8
0
100
AcDbMText
 10
47.575
 20
178.3111691310872
 30
0.0
 40
4.0
 41
3.6
 71
     1
 72
     5
  1
\fＭＳ ゴシック|b0|i0|c128|p49;\T0.9100;0
  7
BIGFONT
 73
     1
 44
0.6
1001
ACAD
1000
MTEXTBEGIN
1070
    73
1070
     1
1070
    44
1040
0.6
1070
    74
1070
     0
1000
MTEXTEND
  0
MTEXT
  5
4F4
330
11D
100
AcDbEntity
  8
0
100
AcDbMText
 10
56.25
 20
178.3111691310872
 30
0.0
 40
4.0
 41
3.6
 71
     1
 72
     5
  1
\fＭＳ ゴシック|b0|i0|c128|p49;\T0.9100;C
  7
BIGFONT
 73
     1
 44
0.6
1001
ACAD
1000
MTEXTBEGIN
1070
    73
1070
     1
1070
    44
1040
0.6
1070
    74
1070
     0
1000
MTEXTEND
  0
LINE
  5
4F7
330
11D
100
AcDbEntity
  8
0
370
    20
100
AcDbLine
 10
2.524999999999999
 20
1.149999999999999
 30
0.0
 11
187.75
 21
1.149999999999999
 31
0.0
  0
LINE
  5
4FA
330
11D
100
AcDbEntity
  8
0
370
    20
100
AcDbLine
 10
3.299999999999998
 20
9.15
 30
0.0
 11
187.75
 21
9.15
 31
0.0
  0
LINE
  5
4FD
330
11D
100
AcDbEntity
  8
0
370
    20
100
AcDbLine
 10
102.8
 20
9.15
 30
0.0
 11
102.8
 21
-6.849999999999998
 31
0.0
  0
LINE
  5
500
330
11D
100
AcDbEntity
  8
0
370
    20
100
AcDbLine
 10
92.77500000000001
 20
9.15
 30
0.0
 11
92.77500000000001
 21
-6.849999999999998
 31
0.0
  0
LINE
  5
503
330
11D
100
AcDbEntity
  8
0
370
    20
100
AcDbLine
 10
13.15
 20
9.15
 30
0.0
 11
13.15
 21
-6.849999999999998
 31
0.0
  0
LINE
  5
506
330
11D
100
AcDbEntity
  8
0
370
    20
100
AcDbLine
 10
2.524999999999999
 20
-6.849999999999998
 30
0.0
 11
187.75
 21
-6.849999999999998
 31
0.0
  0
LINE
  5
509
330
11D
100
AcDbEntity
  8
0
370
    20
100
AcDbLine
 10
187.75
 20
-6.849999999999998
 30
0.0
 11
187.75
 21
264.925
 31
0.0
  0
LINE
  5
50C
330
11D
100
AcDbEntity
  8
0
370
    20
100
AcDbLine
 10
187.75
 20
264.925
 30
0.0
 11
2.524999999999999
 21
264.925
 31
0.0
  0
LINE
  5
50F
330
11D
100
AcDbEntity
  8
0
370
    20
100
AcDbLine
 10
2.524999999999999
 20
264.925
 30
0.0
 11
2.524999999999999
 21
-6.849999999999998
 31
0.0
  0
LINE
  5
512
330
11D
100
AcDbEntity
  8
0
370
    20
100
AcDbLine
 10
2.524999999999999
 20
9.15
 30
0.0
 11
187.75
 21
9.15
 31
0.0
  0
MTEXT
  5
515
330
11D
100
AcDbEntity
  8
0
100
AcDbMText
 10
30.15
 20
7.299999999999998
 30
0.0
 40
2.737499999999998
 41
22.995
 71
     1
 72
     5
  1
\fＭＳ ゴシック|b0|i0|c128|p49;\T1.4384;単位 mm
  7
BIGFONT
 73
     1
 44
0.7800000000000002
1001
ACAD
1000
MTEXTBEGIN
1070
    73
1070
     1
1070
    44
1040
0.7800000000000002
1070
    74
1070
     0
1000
MTEXTEND
  0
MTEXT
  5
518
330
11D
100
AcDbEntity
  8
0
100
AcDbMText
 10
44.42499999999999
 20
7.299999999999998
 30
0.0
 40
3.649999999999999
 41
6.57
 71
     1
 72
     5
  1
\fＭＳ ゴシック|b0|i0|c128|p49;\T1.0200;　
  7
BIGFONT
 73
     1
 44
0.6
1001
ACAD
1000
MTEXTBEGIN
1070
    73
1070
     1
1070
    44
1040
0.6
1070
    74
1070
     0
1000
MTEXTEND
  0
MTEXT
  5
51B
330
11D
100
AcDbEntity
  8
0
100
AcDbMText
 10
112.95
 20
-2.125
 30
0.0
 40
3.5
 41
6.299999999999998
 71
     1
 72
     5
  1
\fＭＳ ゴシック|b0|i0|c128|p49;\T1.0200;　
  7
BIGFONT
 73
     1
 44
0.6
1001
ACAD
1000
MTEXTBEGIN
1070
    73
1070
     1
1070
    44
1040
0.6
1070
    74
1070
     0
1000
MTEXTEND
  0
MTEXT
  5
51E
330
11D
100
AcDbEntity
  8
0
100
AcDbMText
 10
119.775
 20
-0.975
 30
0.0
 40
2.737499999999998
 41
72.27
 71
     1
 72
     5
  1
\fＭＳ ゴシック|b0|i0|c128|p49;\T1.4384;　日本電子工業株式会社
  7
BIGFONT
 73
     1
 44
0.7800000000000002
1001
ACAD
1000
MTEXTBEGIN
1070
    73
1070
     1
1070
    44
1040
0.7800000000000002
1070
    74
1070
     0
1000
MTEXTEND
  0
LINE
  5
521
330
11D
100
AcDbEntity
  8
0
370
    20
100
AcDbLine
 10
2.524999999999999
 20
254.9
 30
0.0
 11
187.75
 21
254.9
 31
0.0
  0
MTEXT
  5
524
330
11D
100
AcDbEntity
  8
0
100
AcDbMText
 10
30.15
 20
-0.975
 30
0.0
 40
2.737499999999998
 41
52.56
 71
     1
 72
     5
  1
\fＭＳ ゴシック|b0|i0|c128|p49;\T1.4384;尺度　　　２／３
  7
BIGFONT
 73
     1
 44
0.7800000000000002
1001
ACAD
1000
MTEXTBEGIN
1070
    73
1070
     1
1070
    44
1040
0.7800000000000002
1070
    74
1070
     0
1000
MTEXTEND
  0
LINE
  5
527
330
11D
100
AcDbEntity
  8
0
370
    20
100
AcDbLine
 10
157.825
 20
9.15
 30
0.0
 11
157.825
 21
1.149999999999999
 31
0.0
  0
LINE
  5
52A
330
11D
100
AcDbEntity
  8
0
370
    20
100
AcDbLine
 10
142.8
 20
9.15
 30
0.0
 11
142.8
 21
1.149999999999999
 31
0.0
  0
MTEXT
  5
52D
330
11D
100
AcDbEntity
  8
0
100
AcDbMText
 10
145.375
 20
7.299999999999998
 30
0.0
 40
2.737499999999998
 41
13.14
 71
     1
 72
     5
  1
\fＭＳ ゴシック|b0|i0|c128|p49;\T1.4384;図番
  7
BIGFONT
 73
     1
 44
0.7800000000000002
1001
ACAD
1000
MTEXTBEGIN
1070
    73
1070
     1
1070
    44
1040
0.7800000000000002
1070
    74
1070
     0
1000
MTEXTEND
  0
MTEXT
  5
530
330
11D
100
AcDbEntity
  8
0
100
AcDbMText
 10
161.675
 20
7.299999999999998
 30
0.0
 40
3.649999999999999
 41
19.71
 71
     1
 72
     5
  1
{\fMS Gothic|b0|i0|c128|p49;\T0.91;RF-005B}
  7
BIGFONT
 73
     1
 44
0.6
1001
ACAD
1000
MTEXTBEGIN
1070
    73
1070
     1
1070
    44
1040
0.6
1070
    74
1070
     0
1000
MTEXTEND
  0
MTEXT
  5
533
330
11D
100
AcDbEntity
  8
0
100
AcDbMText
 10
40.89999999999998
 20
76.80731398946836
 30
0.0
 40
2.625
 41
100.8
 71
     1
 72
     5
  1
\fＭＳ ゴシック|b0|i0|c128|p49;\T1.4384;マイコン通信型マルチドロップ配線
  7
BIGFONT
 73
     1
 44
0.7800000000000002
1001
ACAD
1000
MTEXTBEGIN
1070
    73
1070
     1
1070
    44
1040
0.7800000000000002
1070
    74
1070
     0
1000
MTEXTEND
  0
MTEXT
  5
536
330
11D
100
AcDbEntity
  8
0
100
AcDbMText
 10
40.89999999999998
 20
70.80731398946834
 30
0.0
 40
2.625
 41
49.81626780756178
 71
     1
 72
     5
  1
{\fMS Gothic|b0|i0|c128|p49;\T1.4384;通信方式：RS485　準拠}
  7
BIGFONT
 73
     1
 44
0.7800000000000002
1001
ACAD
1000
MTEXTBEGIN
1070
    73
1070
     1
1070
    44
1040
0.7800000000000002
1070
    74
1070
     0
1000
MTEXTEND
  0
LINE
  5
539
330
11D
100
AcDbEntity
  8
0
370
    20
100
AcDbLine
 10
129.45
 20
92.125
 30
0.0
 11
129.45
 21
14.15
 31
0.0
  0
LINE
  5
53C
330
11D
100
AcDbEntity
  8
0
370
    20
100
AcDbLine
 10
129.45
 20
92.15000000000001
 30
0.0
 11
183.075
 21
92.15000000000001
 31
0.0
  0
LINE
  5
53F
330
11D
100
AcDbEntity
  8
0
370
    20
100
AcDbLine
 10
129.45
 20
14.15
 30
0.0
 11
183.075
 21
14.15
 31
0.0
  0
LINE
  5
542
330
11D
100
AcDbEntity
  8
0
370
    20
100
AcDbLine
 10
143.775
 20
70.425
 30
0.0
 11
143.775
 21
25.425
 31
0.0
  0
LINE
  5
545
330
11D
100
AcDbEntity
  8
0
370
    20
100
AcDbLine
 10
168.775
 20
25.425
 30
0.0
 11
168.775
 21
70.425
 31
0.0
  0
LINE
  5
548
330
11D
100
AcDbEntity
  8
0
370
    20
100
AcDbLine
 10
143.775
 20
25.425
 30
0.0
 11
168.775
 21
25.425
 31
0.0
  0
ARC
  5
54B
330
11D
100
AcDbEntity
  8
0
370
    20
100
AcDbCircle
 10
156.275
 20
27.05
 30
0.0
 40
1.625
100
AcDbArc
 50
360.0
 51
180.0
  0
CIRCLE
  5
54E
330
11D
100
AcDbEntity
  8
0
370
    20
100
AcDbCircle
 10
156.275
 20
27.05
 30
0.0
 40
0.75
  0
LINE
  5
551
330
11D
100
AcDbEntity
  8
0
370
    20
100
AcDbLine
 10
154.65
 20
27.05
 30
0.0
 11
154.65
 21
25.425
 31
0.0
  0
LINE
  5
554
330
11D
100
AcDbEntity
  8
0
370
    20
100
AcDbLine
 10
157.9
 20
27.05
 30
0.0
 11
157.9
 21
25.425
 31
0.0
  0
LINE
  5
557
330
11D
100
AcDbEntity
  8
0
370
    20
100
AcDbLine
 10
168.775
 20
70.425
 30
0.0
 11
143.775
 21
70.425
 31
0.0
  0
CIRCLE
  5
55A
330
11D
100
AcDbEntity
  8
0
370
    20
100
AcDbCircle
 10
156.275
 20
68.79999999999999
 30
0.0
 40
0.75
  0
ARC
  5
55D
330
11D
100
AcDbEntity
  8
0
370
    20
100
AcDbCircle
 10
156.275
 20
68.79999999999999
 30
0.0
 40
1.625
100
AcDbArc
 50
180.0
 51
360.0
  0
LINE
  5
560
330
11D
100
AcDbEntity
  8
0
370
    20
100
AcDbLine
 10
154.65
 20
68.79999999999999
 30
0.0
 11
154.65
 21
70.425
 31
0.0
  0
LINE
  5
563
330
11D
100
AcDbEntity
  8
0
370
    20
100
AcDbLine
 10
157.9
 20
68.79999999999999
 30
0.0
 11
157.9
 21
70.425
 31
0.0
  0
LINE
  5
566
330
11D
100
AcDbEntity
  8
0
370
    20
100
AcDbLine
 10
168.825
 20
25.425
 30
0.0
 11
176.75
 21
25.425
 31
0.0
  0
LINE
  5
569
330
11D
100
AcDbEntity
  8
0
370
    20
100
AcDbLine
 10
168.825
 20
70.425
 30
0.0
 11
176.75
 21
70.425
 31
0.0
  0
LINE
  5
56C
330
11D
100
AcDbEntity
  8
0
370
    20
100
AcDbLine
 10
175.75
 20
28.425
 30
0.0
 11
175.75
 21
67.42499999999999
 31
0.0
  0
HATCH
  5
56F
330
11D
100
AcDbEntity
  8
0
100
AcDbHatch
 10
0.0
 20
0.0
 30
0.0
210
0.0
220
0.0
230
1.0
  2
SOLID
 70
     1
 71
     0
 91
        1
 92
        7
 72
     0
 73
     1
 93
        3
 10
175.25
 20
28.425
 10
176.25
 20
28.425
 10
175.75
 20
25.425
 97
        1
330
572
 75
     0
 76
     1
 47
0.651316
 98
        1
 10
0.0
 20
0.0
  0
LWPOLYLINE
  5
572
330
11D
100
AcDbEntity
  8
0
100
AcDbPolyline
 90
        4
 70
     0
 43
0.2
 10
175.25
 20
28.425
 10
176.25
 20
28.425
 10
175.75
 20
25.425
 10
175.25
 20
28.425
  0
HATCH
  5
57D
330
11D
100
AcDbEntity
  8
0
100
AcDbHatch
 10
0.0
 20
0.0
 30
0.0
210
0.0
220
0.0
230
1.0
  2
SOLID
 70
     1
 71
     0
 91
        1
 92
        7
 72
     0
 73
     1
 93
        3
 10
175.25
 20
67.42499999999999
 10
176.25
 20
67.42499999999999
 10
175.75
 20
70.425
 97
        1
330
580
 75
     0
 76
     1
 47
0.651316
 98
        1
 10
0.0
 20
0.0
  0
LWPOLYLINE
  5
580
330
11D
100
AcDbEntity
  8
0
100
AcDbPolyline
 90
        4
 70
     0
 43
0.2
 10
175.25
 20
67.42499999999999
 10
176.25
 20
67.42499999999999
 10
175.75
 20
70.425
 10
175.25
 20
67.42499999999999
  0
MTEXT
  5
58B
330
11D
100
AcDbEntity
  8
0
100
AcDbMText
 10
171.25
 20
44.95
 30
0.0
 40
3.5
 41
6.299999999999998
 71
     1
 72
     5
  1
\fＭＳ ゴシック|b0|i0|c128|p49;\T0.9100;90
  7
BIGFONT
 11
0.0
 21
1.0
 31
0.0
 73
     1
 44
0.6
1001
ACAD
1000
MTEXTBEGIN
1070
    73
1070
     1
1070
    44
1040
0.6
1070
    74
1070
     0
1000
MTEXTEND
  0
LINE
  5
58E
330
11D
100
AcDbEntity
  8
0
370
    20
100
AcDbLine
 10
156.325
 20
27.05
 30
0.0
 11
166.175
 21
27.05
 31
0.0
  0
LINE
  5
591
330
11D
100
AcDbEntity
  8
0
370
    20
100
AcDbLine
 10
156.325
 20
68.79999999999999
 30
0.0
 11
166.175
 21
68.79999999999999
 31
0.0
  0
LINE
  5
594
330
11D
100
AcDbEntity
  8
0
370
    20
100
AcDbLine
 10
165.175
 20
30.05
 30
0.0
 11
165.175
 21
65.8
 31
0.0
  0
HATCH
  5
597
330
11D
100
AcDbEntity
  8
0
100
AcDbHatch
 10
0.0
 20
0.0
 30
0.0
210
0.0
220
0.0
230
1.0
  2
SOLID
 70
     1
 71
     0
 91
        1
 92
        7
 72
     0
 73
     1
 93
        3
 10
164.675
 20
30.05
 10
165.675
 20
30.05
 10
165.175
 20
27.05
 97
        1
330
59A
 75
     0
 76
     1
 47
0.651316
 98
        1
 10
0.0
 20
0.0
  0
LWPOLYLINE
  5
59A
330
11D
100
AcDbEntity
  8
0
100
AcDbPolyline
 90
        4
 70
     0
 43
0.2
 10
164.675
 20
30.05
 10
165.675
 20
30.05
 10
165.175
 20
27.05
 10
164.675
 20
30.05
  0
HATCH
  5
5A5
330
11D
100
AcDbEntity
  8
0
100
AcDbHatch
 10
0.0
 20
0.0
 30
0.0
210
0.0
220
0.0
230
1.0
  2
SOLID
 70
     1
 71
     0
 91
        1
 92
        7
 72
     0
 73
     1
 93
        3
 10
164.675
 20
65.8
 10
165.675
 20
65.8
 10
165.175
 20
68.79999999999999
 97
        1
330
5A8
 75
     0
 76
     1
 47
0.651316
 98
        1
 10
0.0
 20
0.0
  0
LWPOLYLINE
  5
5A8
330
11D
100
AcDbEntity
  8
0
100
AcDbPolyline
 90
        4
 70
     0
 43
0.2
 10
164.675
 20
65.8
 10
165.675
 20
65.8
 10
165.175
 20
68.79999999999999
 10
164.675
 20
65.8
  0
MTEXT
  5
5B3
330
11D
100
AcDbEntity
  8
0
100
AcDbMText
 10
160.675
 20
42.85
 30
0.0
 40
3.5
 41
12.6
 71
     1
 72
     5
  1
\fＭＳ ゴシック|b0|i0|c128|p49;\T0.9100;83.5
  7
BIGFONT
 11
0.0
 21
1.0
 31
0.0
 73
     1
 44
0.6
1001
ACAD
1000
MTEXTBEGIN
1070
    73
1070
     1
1070
    44
1040
0.6
1070
    74
1070
     0
1000
MTEXTEND
  0
LINE
  5
5B6
330
11D
100
AcDbEntity
  8
0
370
    20
100
AcDbLine
 10
143.775
 20
25.35
 30
0.0
 11
143.775
 21
19.6
 31
0.0
  0
LINE
  5
5B9
330
11D
100
AcDbEntity
  8
0
370
    20
100
AcDbLine
 10
168.775
 20
25.35
 30
0.0
 11
168.775
 21
19.6
 31
0.0
  0
LINE
  5
5BC
330
11D
100
AcDbEntity
  8
0
370
    20
100
AcDbLine
 10
146.775
 20
20.6
 30
0.0
 11
165.775
 21
20.6
 31
0.0
  0
HATCH
  5
5BF
330
11D
100
AcDbEntity
  8
0
100
AcDbHatch
 10
0.0
 20
0.0
 30
0.0
210
0.0
220
0.0
230
1.0
  2
SOLID
 70
     1
 71
     0
 91
        1
 92
        7
 72
     0
 73
     1
 93
        3
 10
146.775
 20
21.1
 10
146.775
 20
20.1
 10
143.775
 20
20.6
 97
        1
330
5C2
 75
     0
 76
     1
 47
0.651316
 98
        1
 10
0.0
 20
0.0
  0
LWPOLYLINE
  5
5C2
330
11D
100
AcDbEntity
  8
0
100
AcDbPolyline
 90
        4
 70
     0
 43
0.2
 10
146.775
 20
21.1
 10
146.775
 20
20.1
 10
143.775
 20
20.6
 10
146.775
 20
21.1
  0
HATCH
  5
5CD
330
11D
100
AcDbEntity
  8
0
100
AcDbHatch
 10
0.0
 20
0.0
 30
0.0
210
0.0
220
0.0
230
1.0
  2
SOLID
 70
     1
 71
     0
 91
        1
 92
        7
 72
     0
 73
     1
 93
        3
 10
165.775
 20
21.1
 10
165.775
 20
20.1
 10
168.775
 20
20.6
 97
        1
330
5D0
 75
     0
 76
     1
 47
0.651316
 98
        1
 10
0.0
 20
0.0
  0
LWPOLYLINE
  5
5D0
330
11D
100
AcDbEntity
  8
0
100
AcDbPolyline
 90
        4
 70
     0
 43
0.2
 10
165.775
 20
21.1
 10
165.775
 20
20.1
 10
168.775
 20
20.6
 10
165.775
 20
21.1
  0
MTEXT
  5
5DB
330
11D
100
AcDbEntity
  8
0
100
AcDbMText
 10
153.3
 20
25.1
 30
0.0
 40
3.5
 41
6.299999999999998
 71
     1
 72
     5
  1
\fＭＳ ゴシック|b0|i0|c128|p49;\T0.9100;50
  7
BIGFONT
 73
     1
 44
0.6
1001
ACAD
1000
MTEXTBEGIN
1070
    73
1070
     1
1070
    44
1040
0.6
1070
    74
1070
     0
1000
MTEXTEND
  0
MTEXT
  5
5DE
330
11D
100
AcDbEntity
  8
0
100
AcDbMText
 10
131.1
 20
90.22499999999999
 30
0.0
 40
2.625
 41
63.0
 71
     1
 72
     5
  1
\fＭＳ ゴシック|b0|i0|c128|p49;\T1.4384;機器取付用開口部寸法
  7
BIGFONT
 73
     1
 44
0.7800000000000002
1001
ACAD
1000
MTEXTBEGIN
1070
    73
1070
     1
1070
    44
1040
0.7800000000000002
1070
    74
1070
     0
1000
MTEXTEND
  0
MTEXT
  5
5E1
330
11D
100
AcDbEntity
  8
0
100
AcDbMText
 10
147.925
 20
84.82499999999998
 30
0.0
 40
2.0
 41
37.8
 71
     1
 72
     5
  1
{\fMS Gothic|b0|i0|c128|p49;\T1.4384;1個用スイッチボックス}
  7
BIGFONT
 73
     1
 44
0.7800000000000002
1001
ACAD
1000
MTEXTBEGIN
1070
    73
1070
     1
1070
    44
1040
0.7800000000000002
1070
    74
1070
     0
1000
MTEXTEND
  0
MTEXT
  5
5E4
330
11D
100
AcDbEntity
  8
0
100
AcDbMText
 10
147.925
 20
80.975
 30
0.0
 40
2.299999999999999
 41
24.3
 71
     1
 72
     5
  1
\fＭＳ ゴシック|b0|i0|c128|p49;\T0.9100;JIS C8336
  7
BIGFONT
 73
     1
 44
0.6
1001
ACAD
1000
MTEXTBEGIN
1070
    73
1070
     1
1070
    44
1040
0.6
1070
    74
1070
     0
1000
MTEXTEND
  0
MTEXT
  5
5E7
330
11D
100
AcDbEntity
  8
0
100
AcDbMText
 10
132.475
 20
40.1
 30
0.0
 40
3.0
 41
5.4
 71
     1
 72
     5
  1
\fＭＳ ゴシック|b0|i0|c128|p49;\T0.9100;M4
  7
BIGFONT
 73
     1
 44
0.6
1001
ACAD
1000
MTEXTBEGIN
1070
    73
1070
     1
1070
    44
1040
0.6
1070
    74
1070
     0
1000
MTEXTEND
  0
MTEXT
  5
5EA
330
11D
100
AcDbEntity
  8
0
100
AcDbMText
 10
147.925
 20
76.84999999999998
 30
0.0
 40
2.0
 41
48.6
 71
     1
 72
     5
  1
{\fMS Gothic|b0|i0|c128|p49;\T1.4384;DS4911（ﾊﾟﾅｿﾆｯｸ電工）}
  7
BIGFONT
 73
     1
 44
0.7800000000000002
1001
ACAD
1000
MTEXTBEGIN
1070
    73
1070
     1
1070
    44
1040
0.7800000000000002
1070
    74
1070
     0
1000
MTEXTEND
  0
MTEXT
  5
5ED
330
11D
100
AcDbEntity
  8
0
100
AcDbMText
 10
145.025
 20
18.625
 30
0.0
 40
2.25
 41
35.1
 71
     1
 72
     5
  1
\fＭＳ ゴシック|b0|i0|c128|p49;\T1.4384;(尺度　１／2)
  7
BIGFONT
 73
     1
 44
0.7800000000000002
1001
ACAD
1000
MTEXTBEGIN
1070
    73
1070
     1
1070
    44
1040
0.7800000000000002
1070
    74
1070
     0
1000
MTEXTEND
  0
LWPOLYLINE
  5
5F0
330
11D
100
AcDbEntity
  8
0
100
AcDbPolyline
 90
        3
 70
     0
 43
0.2
 10
154.65
 20
68.79999999999999
 10
134.075
 20
82.05
 10
146.425
 20
82.05
  0
LWPOLYLINE
  5
5F9
330
11D
100
AcDbEntity
  8
0
100
AcDbPolyline
 90
        3
 70
     0
 43
0.2
 10
154.65
 20
27.05
 10
142.3
 20
38.475
 10
139.3
 20
38.475
  0
LINE
  5
602
330
11D
100
AcDbEntity
  8
0
370
    20
100
AcDbLine
 10
114.45
 20
202.1611691310872
 30
0.0
 11
148.7
 21
220.0611691310872
 31
0.0
  0
CIRCLE
  5
605
330
11D
100
AcDbEntity
  8
0
370
    20
100
AcDbCircle
 10
150.925
 20
221.2111691310872
 30
0.0
 40
2.5
  0
LINE
  5
608
330
11D
100
AcDbEntity
  8
0
370
    20
100
AcDbLine
 10
119.85
 20
166.8111691310872
 30
0.0
 11
158.975
 21
166.8111691310872
 31
0.0
  0
LINE
  5
60B
330
11D
100
AcDbEntity
  8
0
370
    20
100
AcDbLine
 10
119.85
 20
212.8111691310872
 30
0.0
 11
158.975
 21
212.8111691310872
 31
0.0
  0
LINE
  5
60E
330
11D
100
AcDbEntity
  8
0
370
    20
100
AcDbLine
 10
157.975
 20
169.8111691310872
 30
0.0
 11
157.975
 21
209.8111691310872
 31
0.0
  0
HATCH
  5
611
330
11D
100
AcDbEntity
  8
0
100
AcDbHatch
 10
0.0
 20
0.0
 30
0.0
210
0.0
220
0.0
230
1.0
  2
SOLID
 70
     1
 71
     0
 91
        1
 92
        7
 72
     0
 73
     1
 93
        3
 10
157.475
 20
169.8111691310872
 10
158.475
 20
169.8111691310872
 10
157.975
 20
166.8111691310872
 97
        1
330
614
 75
     0
 76
     1
 47
0.651316
 98
        1
 10
0.0
 20
-13.66383086891278
  0
LWPOLYLINE
  5
614
330
11D
100
AcDbEntity
  8
0
100
AcDbPolyline
 90
        4
 70
     0
 43
0.2
 10
157.475
 20
169.8111691310872
 10
158.475
 20
169.8111691310872
 10
157.975
 20
166.8111691310872
 10
157.475
 20
169.8111691310872
  0
HATCH
  5
61F
330
11D
100
AcDbEntity
  8
0
100
AcDbHatch
 10
0.0
 20
0.0
 30
0.0
210
0.0
220
0.0
230
1.0
  2
SOLID
 70
     1
 71
     0
 91
        1
 92
        7
 72
     0
 73
     1
 93
        3
 10
157.475
 20
209.8111691310872
 10
158.475
 20
209.8111691310872
 10
157.975
 20
212.8111691310872
 97
        1
330
622
 75
     0
 76
     1
 47
0.651316
 98
        1
 10
0.0
 20
-13.66383086891278
  0
LWPOLYLINE
  5
622
330
11D
100
AcDbEntity
  8
0
100
AcDbPolyline
 90
        4
 70
     0
 43
0.2
 10
157.475
 20
209.8111691310872
 10
158.475
 20
209.8111691310872
 10
157.975
 20
212.8111691310872
 10
157.475
 20
209.8111691310872
  0
MTEXT
  5
62D
330
11D
100
AcDbEntity
  8
0
100
AcDbMText
 10
153.475
 20
186.8361691310872
 30
0.0
 40
3.5
 41
6.299999999999998
 71
     1
 72
     5
  1
\fＭＳ ゴシック|b0|i0|c128|p49;\T0.9100;69
  7
BIGFONT
 11
0.0
 21
1.0
 31
0.0
 73
     1
 44
0.6
1001
ACAD
1000
MTEXTBEGIN
1070
    73
1070
     1
1070
    44
1040
0.6
1070
    74
1070
     0
1000
MTEXTEND
  0
LINE
  5
630
330
11D
100
AcDbEntity
  8
0
370
    20
100
AcDbLine
 10
114.45
 20
188.8861691310872
 30
0.0
 11
148.7
 21
206.7861691310872
 31
0.0
  0
CIRCLE
  5
633
330
11D
100
AcDbEntity
  8
0
370
    20
100
AcDbCircle
 10
150.925
 20
207.9611691310872
 30
0.0
 40
2.5
  0
MTEXT
  5
63C
330
11D
100
AcDbEntity
  8
0
100
AcDbMText
 10
122.825
 20
236.8111691310872
 30
0.0
 40
2.25
 41
67.5
 71
     1
 72
     5
  1
\fＭＳ ゴシック|b0|i0|c128|p49;\T1.4384;4×4用アウトレットBOX対応
  7
BIGFONT
 73
     1
 44
0.7800000000000002
1001
ACAD
1000
MTEXTBEGIN
1070
    73
1070
     1
1070
    44
1040
0.7800000000000002
1070
    74
1070
     0
1000
MTEXTEND
  0
LWPOLYLINE
  5
63F
330
11D
100
AcDbEntity
  8
0
100
AcDbPolyline
 90
        3
 70
     0
 43
0.2
 10
127.5
 20
225.8111691310872
 10
123.15
 20
232.4111691310872
 10
181.25
 20
232.4111691310872
  0
MTEXT
  5
648
330
11D
100
AcDbEntity
  8
0
100
AcDbMText
 10
131.925
 20
231.0111691310872
 30
0.0
 40
2.25
 41
40.49999999999999
 71
     1
 72
     5
  1
\fＭＳ ゴシック|b0|i0|c128|p49;\T1.4384;(1ヶ用塗りしろ)
  7
BIGFONT
 73
     1
 44
0.7800000000000002
1001
ACAD
1000
MTEXTBEGIN
1070
    73
1070
     1
1070
    44
1040
0.7800000000000002
1070
    74
1070
     0
1000
MTEXTEND
  0
LINE
  5
64B
330
11D
100
AcDbEntity
  8
0
 62
     7
370
    20
100
AcDbLine
 10
104.8
 20
225.8111691310872
 30
0.0
 11
137.475
 21
225.8111691310872
 31
0.0
  0
LINE
  5
64E
330
11D
100
AcDbEntity
  8
0
 62
     7
370
    20
100
AcDbLine
 10
104.8
 20
153.8111691310872
 30
0.0
 11
137.45
 21
153.8111691310872
 31
0.0
  0
LINE
  5
651
330
11D
100
AcDbEntity
  8
0
 62
     7
370
    20
100
AcDbLine
 10
140.8
 20
222.4861691310872
 30
0.0
 11
140.8
 21
157.1611691310872
 31
0.0
  0
ARC
  5
654
330
11D
100
AcDbEntity
  8
0
 62
     7
370
    20
100
AcDbCircle
 10
137.475
 20
157.1611691310872
 30
0.0
 40
3.325
100
AcDbArc
 50
270.0
 51
0.0
  0
ARC
  5
657
330
11D
100
AcDbEntity
  8
0
 62
     7
370
    20
100
AcDbCircle
 10
137.475
 20
222.4861691310872
 30
0.0
 40
3.325
100
AcDbArc
 50
0.0
 51
90.0
  0
LINE
  5
65A
330
11D
100
AcDbEntity
  8
0
 62
     7
370
    20
100
AcDbLine
 10
101.475
 20
221.8361691310872
 30
0.0
 11
98.125
 21
221.8111691310872
 31
0.0
  0
ARC
  5
65D
330
11D
100
AcDbEntity
  8
0
 62
     7
370
    20
100
AcDbCircle
 10
98.125
 20
220.1611691310872
 30
0.0
 40
1.649999999999999
100
AcDbArc
 50
90.01562499999998
 51
180.0
  0
LINE
  5
660
330
11D
100
AcDbEntity
  8
0
 62
     7
370
    20
100
AcDbLine
 10
98.125
 20
157.8111691310872
 30
0.0
 11
101.45
 21
157.8361691310872
 31
0.0
  0
ARC
  5
663
330
11D
100
AcDbEntity
  8
0
 62
     7
370
    20
100
AcDbCircle
 10
98.125
 20
159.4861691310872
 30
0.0
 40
1.649999999999999
100
AcDbArc
 50
180.0
 51
270.015625
  0
LINE
  5
666
330
11D
100
AcDbEntity
  8
0
 62
     7
370
    20
100
AcDbLine
 10
104.8
 20
226.4861691310872
 30
0.0
 11
104.8
 21
153.1611691310872
 31
0.0
  0
ARC
  5
669
330
11D
100
AcDbEntity
  8
0
 62
     7
370
    20
100
AcDbCircle
 10
101.475
 20
156.1611691310871
 30
0.0
 40
1.649999999999999
100
AcDbArc
 50
0.0
 51
90.01562499999998
  0
ARC
  5
66C
330
11D
100
AcDbEntity
  8
0
 62
     7
370
    20
100
AcDbCircle
 10
101.475
 20
223.4861691310872
 30
0.0
 40
1.649999999999999
100
AcDbArc
 50
270.015625
 51
0.0
  0
LINE
  5
66F
330
11D
100
AcDbEntity
  8
0
 62
     7
370
    20
100
AcDbLine
 10
96.475
 20
220.1611691310872
 30
0.0
 11
96.475
 21
159.4861691310872
 31
0.0
  0
LINE
  5
672
330
11D
100
AcDbEntity
  8
0
370
    20
100
AcDbLine
 10
103.125
 20
226.4861691310872
 30
0.0
 11
104.8
 21
226.4861691310872
 31
0.0
  0
LINE
  5
675
330
11D
100
AcDbEntity
  8
0
370
    20
100
AcDbLine
 10
103.125
 20
153.1611691310872
 30
0.0
 11
104.8
 21
153.1611691310872
 31
0.0
  0
LINE
  5
678
330
11D
100
AcDbEntity
  8
0
 62
     7
370
    20
100
AcDbLine
 10
103.125
 20
226.4861691310872
 30
0.0
 11
103.125
 21
153.1611691310872
 31
0.0
  0
HATCH
  5
67B
330
11D
100
AcDbEntity
  8
0
100
AcDbHatch
 10
0.0
 20
0.0
 30
0.0
210
0.0
220
0.0
230
1.0
  2
SOLID
 70
     1
 71
     0
 91
        1
 92
        7
 72
     0
 73
     1
 93
        3
 10
118.15
 20
-1.55
 10
118.175
 20
-1.9
 10
120.7
 20
-1.9
 97
        1
330
67E
 75
     0
 76
     1
 47
0.651316
 98
        1
 10
0.0
 20
0.0
  0
LWPOLYLINE
  5
67E
330
11D
100
AcDbEntity
  8
0
100
AcDbPolyline
 90
        4
 70
     0
 43
0.2
 10
118.15
 20
-1.55
 10
118.175
 20
-1.9
 10
120.7
 20
-1.9
 10
118.15
 20
-1.55
  0
HATCH
  5
689
330
11D
100
AcDbEntity
  8
0
100
AcDbHatch
 10
0.0
 20
0.0
 30
0.0
210
0.0
220
0.0
230
1.0
  2
SOLID
 70
     1
 71
     0
 91
        1
 92
        7
 72
     0
 73
     1
 93
        3
 10
118.175
 20
-1.9
 10
118.4
 20
-1.925
 10
120.925
 20
-1.925
 97
        1
330
68C
 75
     0
 76
     1
 47
0.651316
 98
        1
 10
0.0
 20
0.0
  0
LWPOLYLINE
  5
68C
330
11D
100
AcDbEntity
  8
0
100
AcDbPolyline
 90
        4
 70
     0
 43
0.2
 10
118.175
 20
-1.9
 10
118.4
 20
-1.925
 10
120.925
 20
-1.925
 10
118.175
 20
-1.9
  0
HATCH
  5
697
330
11D
100
AcDbEntity
  8
0
100
AcDbHatch
 10
0.0
 20
0.0
 30
0.0
210
0.0
220
0.0
230
1.0
  2
SOLID
 70
     1
 71
     0
 91
        1
 92
        7
 72
     0
 73
     1
 93
        3
 10
118.175
 20
-1.9
 10
120.7
 20
-1.9
 10
120.925
 20
-1.925
 97
        1
330
69A
 75
     0
 76
     1
 47
0.651316
 98
        1
 10
0.0
 20
0.0
  0
LWPOLYLINE
  5
69A
330
11D
100
AcDbEntity
  8
0
100
AcDbPolyline
 90
        4
 70
     0
 43
0.2
 10
118.175
 20
-1.9
 10
120.7
 20
-1.9
 10
120.925
 20
-1.925
 10
118.175
 20
-1.9
  0
HATCH
  5
6A5
330
11D
100
AcDbEntity
  8
0
100
AcDbHatch
 10
0.0
 20
0.0
 30
0.0
210
0.0
220
0.0
230
1.0
  2
SOLID
 70
     1
 71
     0
 91
        1
 92
        7
 72
     0
 73
     1
 93
        3
 10
118.4
 20
-1.925
 10
120.425
 20
-2.174999999999998
 10
120.775
 20
-2.174999999999998
 97
        1
330
6A8
 75
     0
 76
     1
 47
0.651316
 98
        1
 10
0.0
 20
0.0
  0
LWPOLYLINE
  5
6A8
330
11D
100
AcDbEntity
  8
0
100
AcDbPolyline
 90
        4
 70
     0
 43
0.2
 10
118.4
 20
-1.925
 10
120.425
 20
-2.174999999999998
 10
120.775
 20
-2.174999999999998
 10
118.4
 20
-1.925
  0
HATCH
  5
6B3
330
11D
100
AcDbEntity
  8
0
100
AcDbHatch
 10
0.0
 20
0.0
 30
0.0
210
0.0
220
0.0
230
1.0
  2
SOLID
 70
     1
 71
     0
 91
        1
 92
        7
 72
     0
 73
     1
 93
        3
 10
118.4
 20
-1.925
 10
120.925
 20
-1.925
 10
120.775
 20
-2.174999999999998
 97
        1
330
6B6
 75
     0
 76
     1
 47
0.651316
 98
        1
 10
0.0
 20
0.0
  0
LWPOLYLINE
  5
6B6
330
11D
100
AcDbEntity
  8
0
100
AcDbPolyline
 90
        4
 70
     0
 43
0.2
 10
118.4
 20
-1.925
 10
120.925
 20
-1.925
 10
120.775
 20
-2.174999999999998
 10
118.4
 20
-1.925
  0
HATCH
  5
6C1
330
11D
100
AcDbEntity
  8
0
100
AcDbHatch
 10
0.0
 20
0.0
 30
0.0
210
0.0
220
0.0
230
1.0
  2
SOLID
 70
     1
 71
     0
 91
        1
 92
        7
 72
     0
 73
     1
 93
        3
 10
120.425
 20
-2.174999999999998
 10
119.25
 20
-4.025
 10
119.725
 20
-4.025
 97
        1
330
6C4
 75
     0
 76
     1
 47
0.651316
 98
        1
 10
0.0
 20
0.0
  0
LWPOLYLINE
  5
6C4
330
11D
100
AcDbEntity
  8
0
100
AcDbPolyline
 90
        4
 70
     0
 43
0.2
 10
120.425
 20
-2.174999999999998
 10
119.25
 20
-4.025
 10
119.725
 20
-4.025
 10
120.425
 20
-2.174999999999998
  0
HATCH
  5
6CF
330
11D
100
AcDbEntity
  8
0
100
AcDbHatch
 10
0.0
 20
0.0
 30
0.0
210
0.0
220
0.0
230
1.0
  2
SOLID
 70
     1
 71
     0
 91
        1
 92
        7
 72
     0
 73
     1
 93
        3
 10
120.425
 20
-2.174999999999998
 10
120.775
 20
-2.174999999999998
 10
119.725
 20
-4.025
 97
        1
330
6D2
 75
     0
 76
     1
 47
0.651316
 98
        1
 10
0.0
 20
0.0
  0
LWPOLYLINE
  5
6D2
330
11D
100
AcDbEntity
  8
0
100
AcDbPolyline
 90
        4
 70
     0
 43
0.2
 10
120.425
 20
-2.174999999999998
 10
120.775
 20
-2.174999999999998
 10
119.725
 20
-4.025
 10
120.425
 20
-2.174999999999998
  0
HATCH
  5
6DD
330
11D
100
AcDbEntity
  8
0
100
AcDbHatch
 10
0.0
 20
0.0
 30
0.0
210
0.0
220
0.0
230
1.0
  2
SOLID
 70
     1
 71
     0
 91
        1
 92
        7
 72
     0
 73
     1
 93
        3
 10
119.25
 20
-4.025
 10
118.25
 20
-4.25
 10
119.6
 20
-4.25
 97
        1
330
6E0
 75
     0
 76
     1
 47
0.651316
 98
        1
 10
0.0
 20
0.0
  0
LWPOLYLINE
  5
6E0
330
11D
100
AcDbEntity
  8
0
100
AcDbPolyline
 90
        4
 70
     0
 43
0.2
 10
119.25
 20
-4.025
 10
118.25
 20
-4.25
 10
119.6
 20
-4.25
 10
119.25
 20
-4.025
  0
HATCH
  5
6EB
330
11D
100
AcDbEntity
  8
0
100
AcDbHatch
 10
0.0
 20
0.0
 30
0.0
210
0.0
220
0.0
230
1.0
  2
SOLID
 70
     1
 71
     0
 91
        1
 92
        7
 72
     0
 73
     1
 93
        3
 10
119.25
 20
-4.025
 10
119.725
 20
-4.025
 10
119.6
 20
-4.25
 97
        1
330
6EE
 75
     0
 76
     1
 47
0.651316
 98
        1
 10
0.0
 20
0.0
  0
LWPOLYLINE
  5
6EE
330
11D
100
AcDbEntity
  8
0
100
AcDbPolyline
 90
        4
 70
     0
 43
0.2
 10
119.25
 20
-4.025
 10
119.725
 20
-4.025
 10
119.6
 20
-4.25
 10
119.25
 20
-4.025
  0
HATCH
  5
6F9
330
11D
100
AcDbEntity
  8
0
100
AcDbHatch
 10
0.0
 20
0.0
 30
0.0
210
0.0
220
0.0
230
1.0
  2
SOLID
 70
     1
 71
     0
 91
        1
 92
        7
 72
     0
 73
     1
 93
        3
 10
118.25
 20
-4.25
 10
115.975
 20
-4.75
 10
117.55
 20
-4.75
 97
        1
330
6FC
 75
     0
 76
     1
 47
0.651316
 98
        1
 10
0.0
 20
0.0
  0
LWPOLYLINE
  5
6FC
330
11D
100
AcDbEntity
  8
0
100
AcDbPolyline
 90
        4
 70
     0
 43
0.2
 10
118.25
 20
-4.25
 10
115.975
 20
-4.75
 10
117.55
 20
-4.75
 10
118.25
 20
-4.25
  0
HATCH
  5
707
330
11D
100
AcDbEntity
  8
0
100
AcDbHatch
 10
0.0
 20
0.0
 30
0.0
210
0.0
220
0.0
230
1.0
  2
SOLID
 70
     1
 71
     0
 91
        1
 92
        7
 72
     0
 73
     1
 93
        3
 10
118.25
 20
-4.25
 10
119.6
 20
-4.25
 10
117.55
 20
-4.75
 97
        1
330
70A
 75
     0
 76
     1
 47
0.651316
 98
        1
 10
0.0
 20
0.0
  0
LWPOLYLINE
  5
70A
330
11D
100
AcDbEntity
  8
0
100
AcDbPolyline
 90
        4
 70
     0
 43
0.2
 10
118.25
 20
-4.25
 10
119.6
 20
-4.25
 10
117.55
 20
-4.75
 10
118.25
 20
-4.25
  0
HATCH
  5
715
330
11D
100
AcDbEntity
  8
0
100
AcDbHatch
 10
0.0
 20
0.0
 30
0.0
210
0.0
220
0.0
230
1.0
  2
SOLID
 70
     1
 71
     0
 91
        1
 92
        7
 72
     0
 73
     1
 93
        3
 10
115.975
 20
-4.75
 10
117.55
 20
-4.75
 10
115.975
 20
-5.15
 97
        1
330
718
 75
     0
 76
     1
 47
0.651316
 98
        1
 10
0.0
 20
0.0
  0
LWPOLYLINE
  5
718
330
11D
100
AcDbEntity
  8
0
100
AcDbPolyline
 90
        4
 70
     0
 43
0.2
 10
115.975
 20
-4.75
 10
117.55
 20
-4.75
 10
115.975
 20
-5.15
 10
115.975
 20
-4.75
  0
LINE
  5
723
330
11D
100
AcDbEntity
  8
0
370
    20
100
AcDbLine
 10
118.15
 20
-1.55
 30
0.0
 11
118.175
 21
-1.9
 31
0.0
  0
LINE
  5
726
330
11D
100
AcDbEntity
  8
0
370
    20
100
AcDbLine
 10
120.7
 20
-1.9
 30
0.0
 11
118.15
 21
-1.55
 31
0.0
  0
LINE
  5
729
330
11D
100
AcDbEntity
  8
0
370
    20
100
AcDbLine
 10
118.175
 20
-1.9
 30
0.0
 11
118.4
 21
-1.925
 31
0.0
  0
LINE
  5
72C
330
11D
100
AcDbEntity
  8
0
370
    20
100
AcDbLine
 10
120.7
 20
-1.9
 30
0.0
 11
120.925
 21
-1.925
 31
0.0
  0
LINE
  5
72F
330
11D
100
AcDbEntity
  8
0
370
    20
100
AcDbLine
 10
118.4
 20
-1.925
 30
0.0
 11
120.425
 21
-2.174999999999998
 31
0.0
  0
LINE
  5
732
330
11D
100
AcDbEntity
  8
0
370
    20
100
AcDbLine
 10
120.925
 20
-1.925
 30
0.0
 11
120.775
 21
-2.174999999999998
 31
0.0
  0
LINE
  5
735
330
11D
100
AcDbEntity
  8
0
370
    20
100
AcDbLine
 10
120.425
 20
-2.174999999999998
 30
0.0
 11
119.25
 21
-4.025
 31
0.0
  0
LINE
  5
738
330
11D
100
AcDbEntity
  8
0
370
    20
100
AcDbLine
 10
120.775
 20
-2.174999999999998
 30
0.0
 11
119.725
 21
-4.025
 31
0.0
  0
LINE
  5
73B
330
11D
100
AcDbEntity
  8
0
370
    20
100
AcDbLine
 10
119.25
 20
-4.025
 30
0.0
 11
118.25
 21
-4.25
 31
0.0
  0
LINE
  5
73E
330
11D
100
AcDbEntity
  8
0
370
    20
100
AcDbLine
 10
119.725
 20
-4.025
 30
0.0
 11
119.6
 21
-4.25
 31
0.0
  0
LINE
  5
741
330
11D
100
AcDbEntity
  8
0
370
    20
100
AcDbLine
 10
118.25
 20
-4.25
 30
0.0
 11
115.975
 21
-4.75
 31
0.0
  0
LINE
  5
744
330
11D
100
AcDbEntity
  8
0
370
    20
100
AcDbLine
 10
119.6
 20
-4.25
 30
0.0
 11
117.55
 21
-4.75
 31
0.0
  0
LINE
  5
747
330
11D
100
AcDbEntity
  8
0
370
    20
100
AcDbLine
 10
117.55
 20
-4.75
 30
0.0
 11
115.975
 21
-5.15
 31
0.0
  0
LINE
  5
74A
330
11D
100
AcDbEntity
  8
0
370
    20
100
AcDbLine
 10
115.975
 20
-5.15
 30
0.0
 11
115.975
 21
-4.75
 31
0.0
  0
LWPOLYLINE
  5
74D
330
11D
100
AcDbEntity
  8
0
100
AcDbPolyline
 90
        8
 70
     0
 43
0.2
 10
115.975
 20
-5.15
 10
119.6
 20
-4.25
 10
120.925
 20
-1.925
 10
118.15
 20
-1.55
 10
118.175
 20
-1.9
 10
120.425
 20
-2.174999999999998
 10
119.25
 20
-4.025
 10
115.975
 20
-4.75
  0
HATCH
  5
760
330
11D
100
AcDbEntity
  8
0
100
AcDbHatch
 10
0.0
 20
0.0
 30
0.0
210
0.0
220
0.0
230
1.0
  2
SOLID
 70
     1
 71
     0
 91
        1
 92
        7
 72
     0
 73
     1
 93
        2
 10
115.475
 20
-1.25
 10
117.0
 20
-1.25
 97
        1
330
763
 75
     0
 76
     1
 47
0.651316
 98
        1
 10
0.0
 20
0.0
  0
LWPOLYLINE
  5
763
330
11D
100
AcDbEntity
  8
0
100
AcDbPolyline
 90
        4
 70
     0
 43
0.2
 10
115.475
 20
-1.25
 10
115.475
 20
-1.25
 10
117.0
 20
-1.25
 10
115.475
 20
-1.25
  0
HATCH
  5
76E
330
11D
100
AcDbEntity
  8
0
100
AcDbHatch
 10
0.0
 20
0.0
 30
0.0
210
0.0
220
0.0
230
1.0
  2
SOLID
 70
     1
 71
     0
 91
        1
 92
        7
 72
     0
 73
     1
 93
        2
 10
115.475
 20
-1.25
 10
115.525
 20
-1.25
 97
        1
330
771
 75
     0
 76
     1
 47
0.651316
 98
        1
 10
0.0
 20
0.0
  0
LWPOLYLINE
  5
771
330
11D
100
AcDbEntity
  8
0
100
AcDbPolyline
 90
        4
 70
     0
 43
0.2
 10
115.475
 20
-1.25
 10
115.475
 20
-1.25
 10
115.525
 20
-1.25
 10
115.475
 20
-1.25
  0
HATCH
  5
77C
330
11D
100
AcDbEntity
  8
0
100
AcDbHatch
 10
0.0
 20
0.0
 30
0.0
210
0.0
220
0.0
230
1.0
  2
SOLID
 70
     1
 71
     0
 91
        1
 92
        7
 72
     0
 73
     1
 93
        3
 10
115.525
 20
-1.25
 10
115.525
 20
-1.75
 10
117.0
 20
-1.75
 97
        1
330
77F
 75
     0
 76
     1
 47
0.651316
 98
        1
 10
0.0
 20
0.0
  0
LWPOLYLINE
  5
77F
330
11D
100
AcDbEntity
  8
0
100
AcDbPolyline
 90
        4
 70
     0
 43
0.2
 10
115.525
 20
-1.25
 10
115.525
 20
-1.75
 10
117.0
 20
-1.75
 10
115.525
 20
-1.25
  0
HATCH
  5
78A
330
11D
100
AcDbEntity
  8
0
100
AcDbHatch
 10
0.0
 20
0.0
 30
0.0
210
0.0
220
0.0
230
1.0
  2
SOLID
 70
     1
 71
     0
 91
        1
 92
        7
 72
     0
 73
     1
 93
        3
 10
115.525
 20
-1.25
 10
117.0
 20
-1.25
 10
117.0
 20
-1.75
 97
        1
330
78D
 75
     0
 76
     1
 47
0.651316
 98
        1
 10
0.0
 20
0.0
  0
LWPOLYLINE
  5
78D
330
11D
100
AcDbEntity
  8
0
100
AcDbPolyline
 90
        4
 70
     0
 43
0.2
 10
115.525
 20
-1.25
 10
117.0
 20
-1.25
 10
117.0
 20
-1.75
 10
115.525
 20
-1.25
  0
HATCH
  5
798
330
11D
100
AcDbEntity
  8
0
100
AcDbHatch
 10
0.0
 20
0.0
 30
0.0
210
0.0
220
0.0
230
1.0
  2
SOLID
 70
     1
 71
     0
 91
        1
 92
        7
 72
     0
 73
     1
 93
        2
 10
116.025
 20
-1.75
 10
117.0
 20
-1.75
 97
        1
330
79B
 75
     0
 76
     1
 47
0.651316
 98
        1
 10
0.0
 20
0.0
  0
LWPOLYLINE
  5
79B
330
11D
100
AcDbEntity
  8
0
100
AcDbPolyline
 90
        4
 70
     0
 43
0.2
 10
116.025
 20
-1.75
 10
116.025
 20
-1.75
 10
117.0
 20
-1.75
 10
116.025
 20
-1.75
  0
HATCH
  5
7A6
330
11D
100
AcDbEntity
  8
0
100
AcDbHatch
 10
0.0
 20
0.0
 30
0.0
210
0.0
220
0.0
230
1.0
  2
SOLID
 70
     1
 71
     0
 91
        1
 92
        7
 72
     0
 73
     1
 93
        3
 10
115.525
 20
-1.75
 10
115.525
 20
-2.274999999999999
 10
116.025
 20
-2.274999999999999
 97
        1
330
7A9
 75
     0
 76
     1
 47
0.651316
 98
        1
 10
0.0
 20
0.0
  0
LWPOLYLINE
  5
7A9
330
11D
100
AcDbEntity
  8
0
100
AcDbPolyline
 90
        4
 70
     0
 43
0.2
 10
115.525
 20
-1.75
 10
115.525
 20
-2.274999999999999
 10
116.025
 20
-2.274999999999999
 10
115.525
 20
-1.75
  0
HATCH
  5
7B4
330
11D
100
AcDbEntity
  8
0
100
AcDbHatch
 10
0.0
 20
0.0
 30
0.0
210
0.0
220
0.0
230
1.0
  2
SOLID
 70
     1
 71
     0
 91
        1
 92
        7
 72
     0
 73
     1
 93
        3
 10
115.525
 20
-1.75
 10
116.025
 20
-1.75
 10
116.025
 20
-2.274999999999999
 97
        1
330
7B7
 75
     0
 76
     1
 47
0.651316
 98
        1
 10
0.0
 20
0.0
  0
LWPOLYLINE
  5
7B7
330
11D
100
AcDbEntity
  8
0
100
AcDbPolyline
 90
        4
 70
     0
 43
0.2
 10
115.525
 20
-1.75
 10
116.025
 20
-1.75
 10
116.025
 20
-2.274999999999999
 10
115.525
 20
-1.75
  0
HATCH
  5
7C2
330
11D
100
AcDbEntity
  8
0
100
AcDbHatch
 10
0.0
 20
0.0
 30
0.0
210
0.0
220
0.0
230
1.0
  2
SOLID
 70
     1
 71
     0
 91
        1
 92
        7
 72
     0
 73
     1
 93
        2
 10
116.025
 20
-2.274999999999999
 10
117.0
 20
-2.274999999999999
 97
        1
330
7C5
 75
     0
 76
     1
 47
0.651316
 98
        1
 10
0.0
 20
0.0
  0
LWPOLYLINE
  5
7C5
330
11D
100
AcDbEntity
  8
0
100
AcDbPolyline
 90
        4
 70
     0
 43
0.2
 10
116.025
 20
-2.274999999999999
 10
116.025
 20
-2.274999999999999
 10
117.0
 20
-2.274999999999999
 10
116.025
 20
-2.274999999999999
  0
HATCH
  5
7D0
330
11D
100
AcDbEntity
  8
0
100
AcDbHatch
 10
0.0
 20
0.0
 30
0.0
210
0.0
220
0.0
230
1.0
  2
SOLID
 70
     1
 71
     0
 91
        1
 92
        7
 72
     0
 73
     1
 93
        3
 10
115.525
 20
-2.274999999999999
 10
115.525
 20
-2.85
 10
117.0
 20
-2.85
 97
        1
330
7D3
 75
     0
 76
     1
 47
0.651316
 98
        1
 10
0.0
 20
0.0
  0
LWPOLYLINE
  5
7D3
330
11D
100
AcDbEntity
  8
0
100
AcDbPolyline
 90
        4
 70
     0
 43
0.2
 10
115.525
 20
-2.274999999999999
 10
115.525
 20
-2.85
 10
117.0
 20
-2.85
 10
115.525
 20
-2.274999999999999
  0
HATCH
  5
7DE
330
11D
100
AcDbEntity
  8
0
100
AcDbHatch
 10
0.0
 20
0.0
 30
0.0
210
0.0
220
0.0
230
1.0
  2
SOLID
 70
     1
 71
     0
 91
        1
 92
        7
 72
     0
 73
     1
 93
        3
 10
115.525
 20
-2.274999999999999
 10
117.0
 20
-2.274999999999999
 10
117.0
 20
-2.85
 97
        1
330
7E1
 75
     0
 76
     1
 47
0.651316
 98
        1
 10
0.0
 20
0.0
  0
LWPOLYLINE
  5
7E1
330
11D
100
AcDbEntity
  8
0
100
AcDbPolyline
 90
        4
 70
     0
 43
0.2
 10
115.525
 20
-2.274999999999999
 10
117.0
 20
-2.274999999999999
 10
117.0
 20
-2.85
 10
115.525
 20
-2.274999999999999
  0
HATCH
  5
7EC
330
11D
100
AcDbEntity
  8
0
100
AcDbHatch
 10
0.0
 20
0.0
 30
0.0
210
0.0
220
0.0
230
1.0
  2
SOLID
 70
     1
 71
     0
 91
        1
 92
        7
 72
     0
 73
     1
 93
        2
 10
116.025
 20
-2.85
 10
117.0
 20
-2.85
 97
        1
330
7EF
 75
     0
 76
     1
 47
0.651316
 98
        1
 10
0.0
 20
0.0
  0
LWPOLYLINE
  5
7EF
330
11D
100
AcDbEntity
  8
0
100
AcDbPolyline
 90
        4
 70
     0
 43
0.2
 10
116.025
 20
-2.85
 10
116.025
 20
-2.85
 10
117.0
 20
-2.85
 10
116.025
 20
-2.85
  0
HATCH
  5
7FA
330
11D
100
AcDbEntity
  8
0
100
AcDbHatch
 10
0.0
 20
0.0
 30
0.0
210
0.0
220
0.0
230
1.0
  2
SOLID
 70
     1
 71
     0
 91
        1
 92
        7
 72
     0
 73
     1
 93
        3
 10
115.525
 20
-2.85
 10
115.525
 20
-3.399999999999999
 10
116.025
 20
-3.399999999999999
 97
        1
330
7FD
 75
     0
 76
     1
 47
0.651316
 98
        1
 10
0.0
 20
0.0
  0
LWPOLYLINE
  5
7FD
330
11D
100
AcDbEntity
  8
0
100
AcDbPolyline
 90
        4
 70
     0
 43
0.2
 10
115.525
 20
-2.85
 10
115.525
 20
-3.399999999999999
 10
116.025
 20
-3.399999999999999
 10
115.525
 20
-2.85
  0
HATCH
  5
808
330
11D
100
AcDbEntity
  8
0
100
AcDbHatch
 10
0.0
 20
0.0
 30
0.0
210
0.0
220
0.0
230
1.0
  2
SOLID
 70
     1
 71
     0
 91
        1
 92
        7
 72
     0
 73
     1
 93
        3
 10
115.525
 20
-2.85
 10
116.025
 20
-2.85
 10
116.025
 20
-3.399999999999999
 97
        1
330
80B
 75
     0
 76
     1
 47
0.651316
 98
        1
 10
0.0
 20
0.0
  0
LWPOLYLINE
  5
80B
330
11D
100
AcDbEntity
  8
0
100
AcDbPolyline
 90
        4
 70
     0
 43
0.2
 10
115.525
 20
-2.85
 10
116.025
 20
-2.85
 10
116.025
 20
-3.399999999999999
 10
115.525
 20
-2.85
  0
HATCH
  5
816
330
11D
100
AcDbEntity
  8
0
100
AcDbHatch
 10
0.0
 20
0.0
 30
0.0
210
0.0
220
0.0
230
1.0
  2
SOLID
 70
     1
 71
     0
 91
        1
 92
        7
 72
     0
 73
     1
 93
        2
 10
116.025
 20
-3.399999999999999
 10
117.0
 20
-3.399999999999999
 97
        1
330
819
 75
     0
 76
     1
 47
0.651316
 98
        1
 10
0.0
 20
0.0
  0
LWPOLYLINE
  5
819
330
11D
100
AcDbEntity
  8
0
100
AcDbPolyline
 90
        4
 70
     0
 43
0.2
 10
116.025
 20
-3.399999999999999
 10
116.025
 20
-3.399999999999999
 10
117.0
 20
-3.399999999999999
 10
116.025
 20
-3.399999999999999
  0
HATCH
  5
824
330
11D
100
AcDbEntity
  8
0
100
AcDbHatch
 10
0.0
 20
0.0
 30
0.0
210
0.0
220
0.0
230
1.0
  2
SOLID
 70
     1
 71
     0
 91
        1
 92
        7
 72
     0
 73
     1
 93
        3
 10
115.525
 20
-3.399999999999999
 10
115.525
 20
-3.9
 10
117.0
 20
-3.9
 97
        1
330
827
 75
     0
 76
     1
 47
0.651316
 98
        1
 10
0.0
 20
0.0
  0
LWPOLYLINE
  5
827
330
11D
100
AcDbEntity
  8
0
100
AcDbPolyline
 90
        4
 70
     0
 43
0.2
 10
115.525
 20
-3.399999999999999
 10
115.525
 20
-3.9
 10
117.0
 20
-3.9
 10
115.525
 20
-3.399999999999999
  0
HATCH
  5
832
330
11D
100
AcDbEntity
  8
0
100
AcDbHatch
 10
0.0
 20
0.0
 30
0.0
210
0.0
220
0.0
230
1.0
  2
SOLID
 70
     1
 71
     0
 91
        1
 92
        7
 72
     0
 73
     1
 93
        3
 10
115.525
 20
-3.399999999999999
 10
117.0
 20
-3.399999999999999
 10
117.0
 20
-3.9
 97
        1
330
835
 75
     0
 76
     1
 47
0.651316
 98
        1
 10
0.0
 20
0.0
  0
LWPOLYLINE
  5
835
330
11D
100
AcDbEntity
  8
0
100
AcDbPolyline
 90
        4
 70
     0
 43
0.2
 10
115.525
 20
-3.399999999999999
 10
117.0
 20
-3.399999999999999
 10
117.0
 20
-3.9
 10
115.525
 20
-3.399999999999999
  0
HATCH
  5
840
330
11D
100
AcDbEntity
  8
0
100
AcDbHatch
 10
0.0
 20
0.0
 30
0.0
210
0.0
220
0.0
230
1.0
  2
SOLID
 70
     1
 71
     0
 91
        1
 92
        7
 72
     0
 73
     1
 93
        2
 10
115.525
 20
-3.9
 10
117.0
 20
-3.9
 97
        1
330
843
 75
     0
 76
     1
 47
0.651316
 98
        1
 10
0.0
 20
0.0
  0
LWPOLYLINE
  5
843
330
11D
100
AcDbEntity
  8
0
100
AcDbPolyline
 90
        4
 70
     0
 43
0.2
 10
115.525
 20
-3.9
 10
115.525
 20
-3.9
 10
117.0
 20
-3.9
 10
115.525
 20
-3.9
  0
LINE
  5
84E
330
11D
100
AcDbEntity
  8
0
370
    20
100
AcDbLine
 10
115.475
 20
-1.25
 30
0.0
 11
117.0
 21
-1.25
 31
0.0
  0
LINE
  5
851
330
11D
100
AcDbEntity
  8
0
370
    20
100
AcDbLine
 10
115.475
 20
-1.25
 30
0.0
 11
115.525
 21
-1.25
 31
0.0
  0
LINE
  5
854
330
11D
100
AcDbEntity
  8
0
370
    20
100
AcDbLine
 10
115.525
 20
-1.25
 30
0.0
 11
115.525
 21
-1.75
 31
0.0
  0
LINE
  5
857
330
11D
100
AcDbEntity
  8
0
370
    20
100
AcDbLine
 10
117.0
 20
-1.25
 30
0.0
 11
117.0
 21
-1.75
 31
0.0
  0
LINE
  5
85A
330
11D
100
AcDbEntity
  8
0
370
    20
100
AcDbLine
 10
116.025
 20
-1.75
 30
0.0
 11
117.0
 21
-1.75
 31
0.0
  0
LINE
  5
85D
330
11D
100
AcDbEntity
  8
0
370
    20
100
AcDbLine
 10
115.525
 20
-1.75
 30
0.0
 11
115.525
 21
-2.274999999999999
 31
0.0
  0
LINE
  5
860
330
11D
100
AcDbEntity
  8
0
370
    20
100
AcDbLine
 10
116.025
 20
-1.75
 30
0.0
 11
116.025
 21
-2.274999999999999
 31
0.0
  0
LINE
  5
863
330
11D
100
AcDbEntity
  8
0
370
    20
100
AcDbLine
 10
116.025
 20
-2.274999999999999
 30
0.0
 11
117.0
 21
-2.274999999999999
 31
0.0
  0
LINE
  5
866
330
11D
100
AcDbEntity
  8
0
370
    20
100
AcDbLine
 10
115.525
 20
-2.274999999999999
 30
0.0
 11
115.525
 21
-2.85
 31
0.0
  0
LINE
  5
869
330
11D
100
AcDbEntity
  8
0
370
    20
100
AcDbLine
 10
117.0
 20
-2.274999999999999
 30
0.0
 11
117.0
 21
-2.85
 31
0.0
  0
LINE
  5
86C
330
11D
100
AcDbEntity
  8
0
370
    20
100
AcDbLine
 10
116.025
 20
-2.85
 30
0.0
 11
117.0
 21
-2.85
 31
0.0
  0
LINE
  5
86F
330
11D
100
AcDbEntity
  8
0
370
    20
100
AcDbLine
 10
115.525
 20
-2.85
 30
0.0
 11
115.525
 21
-3.399999999999999
 31
0.0
  0
LINE
  5
872
330
11D
100
AcDbEntity
  8
0
370
    20
100
AcDbLine
 10
116.025
 20
-2.85
 30
0.0
 11
116.025
 21
-3.399999999999999
 31
0.0
  0
LINE
  5
875
330
11D
100
AcDbEntity
  8
0
370
    20
100
AcDbLine
 10
116.025
 20
-3.399999999999999
 30
0.0
 11
117.0
 21
-3.399999999999999
 31
0.0
  0
LINE
  5
878
330
11D
100
AcDbEntity
  8
0
370
    20
100
AcDbLine
 10
115.525
 20
-3.399999999999999
 30
0.0
 11
115.525
 21
-3.9
 31
0.0
  0
LINE
  5
87B
330
11D
100
AcDbEntity
  8
0
370
    20
100
AcDbLine
 10
117.0
 20
-3.399999999999999
 30
0.0
 11
117.0
 21
-3.9
 31
0.0
  0
LINE
  5
87E
330
11D
100
AcDbEntity
  8
0
370
    20
100
AcDbLine
 10
115.525
 20
-3.9
 30
0.0
 11
117.0
 21
-3.9
 31
0.0
  0
LWPOLYLINE
  5
881
330
11D
100
AcDbEntity
  8
0
100
AcDbPolyline
 90
       13
 70
     0
 43
0.2
 10
115.525
 20
-1.25
 10
115.525
 20
-3.9
 10
117.0
 20
-3.9
 10
117.0
 20
-3.399999999999999
 10
116.025
 20
-3.399999999999999
 10
116.025
 20
-2.85
 10
117.0
 20
-2.85
 10
117.0
 20
-2.274999999999999
 10
116.025
 20
-2.274999999999999
 10
116.025
 20
-1.75
 10
117.0
 20
-1.75
 10
117.0
 20
-1.25
 10
115.475
 20
-1.25
  0
HATCH
  5
89E
330
11D
100
AcDbEntity
  8
0
100
AcDbHatch
 10
0.0
 20
0.0
 30
0.0
210
0.0
220
0.0
230
1.0
  2
SOLID
 70
     1
 71
     0
 91
        1
 92
        7
 72
     0
 73
     1
 93
        3
 10
113.75
 20
-1.55
 10
111.2
 20
-1.9
 10
113.75
 20
-1.9
 97
        1
330
8A1
 75
     0
 76
     1
 47
0.651316
 98
        1
 10
0.0
 20
0.0
  0
LWPOLYLINE
  5
8A1
330
11D
100
AcDbEntity
  8
0
100
AcDbPolyline
 90
        4
 70
     0
 43
0.2
 10
113.75
 20
-1.55
 10
111.2
 20
-1.9
 10
113.75
 20
-1.9
 10
113.75
 20
-1.55
  0
HATCH
  5
8AC
330
11D
100
AcDbEntity
  8
0
100
AcDbHatch
 10
0.0
 20
0.0
 30
0.0
210
0.0
220
0.0
230
1.0
  2
SOLID
 70
     1
 71
     0
 91
        1
 92
        7
 72
     0
 73
     1
 93
        3
 10
111.2
 20
-1.9
 10
110.975
 20
-1.925
 10
113.525
 20
-1.925
 97
        1
330
8AF
 75
     0
 76
     1
 47
0.651316
 98
        1
 10
0.0
 20
0.0
  0
LWPOLYLINE
  5
8AF
330
11D
100
AcDbEntity
  8
0
100
AcDbPolyline
 90
        4
 70
     0
 43
0.2
 10
111.2
 20
-1.9
 10
110.975
 20
-1.925
 10
113.525
 20
-1.925
 10
111.2
 20
-1.9
  0
HATCH
  5
8BA
330
11D
100
AcDbEntity
  8
0
100
AcDbHatch
 10
0.0
 20
0.0
 30
0.0
210
0.0
220
0.0
230
1.0
  2
SOLID
 70
     1
 71
     0
 91
        1
 92
        7
 72
     0
 73
     1
 93
        3
 10
111.2
 20
-1.9
 10
113.75
 20
-1.9
 10
113.525
 20
-1.925
 97
        1
330
8BD
 75
     0
 76
     1
 47
0.651316
 98
        1
 10
0.0
 20
0.0
  0
LWPOLYLINE
  5
8BD
330
11D
100
AcDbEntity
  8
0
100
AcDbPolyline
 90
        4
 70
     0
 43
0.2
 10
111.2
 20
-1.9
 10
113.75
 20
-1.9
 10
113.525
 20
-1.925
 10
111.2
 20
-1.9
  0
HATCH
  5
8C8
330
11D
100
AcDbEntity
  8
0
100
AcDbHatch
 10
0.0
 20
0.0
 30
0.0
210
0.0
220
0.0
230
1.0
  2
SOLID
 70
     1
 71
     0
 91
        1
 92
        7
 72
     0
 73
     1
 93
        3
 10
110.975
 20
-1.925
 10
111.125
 20
-2.174999999999998
 10
111.5
 20
-2.174999999999998
 97
        1
330
8CB
 75
     0
 76
     1
 47
0.651316
 98
        1
 10
0.0
 20
0.0
  0
LWPOLYLINE
  5
8CB
330
11D
100
AcDbEntity
  8
0
100
AcDbPolyline
 90
        4
 70
     0
 43
0.2
 10
110.975
 20
-1.925
 10
111.125
 20
-2.174999999999998
 10
111.5
 20
-2.174999999999998
 10
110.975
 20
-1.925
  0
HATCH
  5
8D6
330
11D
100
AcDbEntity
  8
0
100
AcDbHatch
 10
0.0
 20
0.0
 30
0.0
210
0.0
220
0.0
230
1.0
  2
SOLID
 70
     1
 71
     0
 91
        1
 92
        7
 72
     0
 73
     1
 93
        3
 10
110.975
 20
-1.925
 10
113.525
 20
-1.925
 10
111.5
 20
-2.174999999999998
 97
        1
330
8D9
 75
     0
 76
     1
 47
0.651316
 98
        1
 10
0.0
 20
0.0
  0
LWPOLYLINE
  5
8D9
330
11D
100
AcDbEntity
  8
0
100
AcDbPolyline
 90
        4
 70
     0
 43
0.2
 10
110.975
 20
-1.925
 10
113.525
 20
-1.925
 10
111.5
 20
-2.174999999999998
 10
110.975
 20
-1.925
  0
HATCH
  5
8E4
330
11D
100
AcDbEntity
  8
0
100
AcDbHatch
 10
0.0
 20
0.0
 30
0.0
210
0.0
220
0.0
230
1.0
  2
SOLID
 70
     1
 71
     0
 91
        1
 92
        7
 72
     0
 73
     1
 93
        3
 10
111.125
 20
-2.174999999999998
 10
112.2
 20
-4.025
 10
112.675
 20
-4.025
 97
        1
330
8E7
 75
     0
 76
     1
 47
0.651316
 98
        1
 10
0.0
 20
0.0
  0
LWPOLYLINE
  5
8E7
330
11D
100
AcDbEntity
  8
0
100
AcDbPolyline
 90
        4
 70
     0
 43
0.2
 10
111.125
 20
-2.174999999999998
 10
112.2
 20
-4.025
 10
112.675
 20
-4.025
 10
111.125
 20
-2.174999999999998
  0
HATCH
  5
8F2
330
11D
100
AcDbEntity
  8
0
100
AcDbHatch
 10
0.0
 20
0.0
 30
0.0
210
0.0
220
0.0
230
1.0
  2
SOLID
 70
     1
 71
     0
 91
        1
 92
        7
 72
     0
 73
     1
 93
        3
 10
111.125
 20
-2.174999999999998
 10
111.5
 20
-2.174999999999998
 10
112.675
 20
-4.025
 97
        1
330
8F5
 75
     0
 76
     1
 47
0.651316
 98
        1
 10
0.0
 20
0.0
  0
LWPOLYLINE
  5
8F5
330
11D
100
AcDbEntity
  8
0
100
AcDbPolyline
 90
        4
 70
     0
 43
0.2
 10
111.125
 20
-2.174999999999998
 10
111.5
 20
-2.174999999999998
 10
112.675
 20
-4.025
 10
111.125
 20
-2.174999999999998
  0
HATCH
  5
900
330
11D
100
AcDbEntity
  8
0
100
AcDbHatch
 10
0.0
 20
0.0
 30
0.0
210
0.0
220
0.0
230
1.0
  2
SOLID
 70
     1
 71
     0
 91
        1
 92
        7
 72
     0
 73
     1
 93
        3
 10
112.2
 20
-4.025
 10
112.325
 20
-4.25
 10
113.675
 20
-4.25
 97
        1
330
903
 75
     0
 76
     1
 47
0.651316
 98
        1
 10
0.0
 20
0.0
  0
LWPOLYLINE
  5
903
330
11D
100
AcDbEntity
  8
0
100
AcDbPolyline
 90
        4
 70
     0
 43
0.2
 10
112.2
 20
-4.025
 10
112.325
 20
-4.25
 10
113.675
 20
-4.25
 10
112.2
 20
-4.025
  0
HATCH
  5
90E
330
11D
100
AcDbEntity
  8
0
100
AcDbHatch
 10
0.0
 20
0.0
 30
0.0
210
0.0
220
0.0
230
1.0
  2
SOLID
 70
     1
 71
     0
 91
        1
 92
        7
 72
     0
 73
     1
 93
        3
 10
112.2
 20
-4.025
 10
112.675
 20
-4.025
 10
113.675
 20
-4.25
 97
        1
330
911
 75
     0
 76
     1
 47
0.651316
 98
        1
 10
0.0
 20
0.0
  0
LWPOLYLINE
  5
911
330
11D
100
AcDbEntity
  8
0
100
AcDbPolyline
 90
        4
 70
     0
 43
0.2
 10
112.2
 20
-4.025
 10
112.675
 20
-4.025
 10
113.675
 20
-4.25
 10
112.2
 20
-4.025
  0
HATCH
  5
91C
330
11D
100
AcDbEntity
  8
0
100
AcDbHatch
 10
0.0
 20
0.0
 30
0.0
210
0.0
220
0.0
230
1.0
  2
SOLID
 70
     1
 71
     0
 91
        1
 92
        7
 72
     0
 73
     1
 93
        3
 10
112.325
 20
-4.25
 10
114.375
 20
-4.75
 10
115.975
 20
-4.75
 97
        1
330
91F
 75
     0
 76
     1
 47
0.651316
 98
        1
 10
0.0
 20
0.0
  0
LWPOLYLINE
  5
91F
330
11D
100
AcDbEntity
  8
0
100
AcDbPolyline
 90
        4
 70
     0
 43
0.2
 10
112.325
 20
-4.25
 10
114.375
 20
-4.75
 10
115.975
 20
-4.75
 10
112.325
 20
-4.25
  0
HATCH
  5
92A
330
11D
100
AcDbEntity
  8
0
100
AcDbHatch
 10
0.0
 20
0.0
 30
0.0
210
0.0
220
0.0
230
1.0
  2
SOLID
 70
     1
 71
     0
 91
        1
 92
        7
 72
     0
 73
     1
 93
        3
 10
112.325
 20
-4.25
 10
113.675
 20
-4.25
 10
115.975
 20
-4.75
 97
        1
330
92D
 75
     0
 76
     1
 47
0.651316
 98
        1
 10
0.0
 20
0.0
  0
LWPOLYLINE
  5
92D
330
11D
100
AcDbEntity
  8
0
100
AcDbPolyline
 90
        4
 70
     0
 43
0.2
 10
112.325
 20
-4.25
 10
113.675
 20
-4.25
 10
115.975
 20
-4.75
 10
112.325
 20
-4.25
  0
HATCH
  5
938
330
11D
100
AcDbEntity
  8
0
100
AcDbHatch
 10
0.0
 20
0.0
 30
0.0
210
0.0
220
0.0
230
1.0
  2
SOLID
 70
     1
 71
     0
 91
        1
 92
        7
 72
     0
 73
     1
 93
        3
 10
114.375
 20
-4.75
 10
115.975
 20
-4.75
 10
115.975
 20
-5.15
 97
        1
330
93B
 75
     0
 76
     1
 47
0.651316
 98
        1
 10
0.0
 20
0.0
  0
LWPOLYLINE
  5
93B
330
11D
100
AcDbEntity
  8
0
100
AcDbPolyline
 90
        4
 70
     0
 43
0.2
 10
114.375
 20
-4.75
 10
115.975
 20
-4.75
 10
115.975
 20
-5.15
 10
114.375
 20
-4.75
  0
LINE
  5
946
330
11D
100
AcDbEntity
  8
0
370
    20
100
AcDbLine
 10
113.75
 20
-1.55
 30
0.0
 11
111.2
 21
-1.9
 31
0.0
  0
LINE
  5
949
330
11D
100
AcDbEntity
  8
0
370
    20
100
AcDbLine
 10
113.75
 20
-1.9
 30
0.0
 11
113.75
 21
-1.55
 31
0.0
  0
LINE
  5
94C
330
11D
100
AcDbEntity
  8
0
370
    20
100
AcDbLine
 10
111.2
 20
-1.9
 30
0.0
 11
110.975
 21
-1.925
 31
0.0
  0
LINE
  5
94F
330
11D
100
AcDbEntity
  8
0
370
    20
100
AcDbLine
 10
113.75
 20
-1.9
 30
0.0
 11
113.525
 21
-1.925
 31
0.0
  0
LINE
  5
952
330
11D
100
AcDbEntity
  8
0
370
    20
100
AcDbLine
 10
110.975
 20
-1.925
 30
0.0
 11
111.125
 21
-2.174999999999998
 31
0.0
  0
LINE
  5
955
330
11D
100
AcDbEntity
  8
0
370
    20
100
AcDbLine
 10
113.525
 20
-1.925
 30
0.0
 11
111.5
 21
-2.174999999999998
 31
0.0
  0
LINE
  5
958
330
11D
100
AcDbEntity
  8
0
370
    20
100
AcDbLine
 10
111.125
 20
-2.174999999999998
 30
0.0
 11
112.2
 21
-4.025
 31
0.0
  0
LINE
  5
95B
330
11D
100
AcDbEntity
  8
0
370
    20
100
AcDbLine
 10
111.5
 20
-2.174999999999998
 30
0.0
 11
112.675
 21
-4.025
 31
0.0
  0
LINE
  5
95E
330
11D
100
AcDbEntity
  8
0
370
    20
100
AcDbLine
 10
112.2
 20
-4.025
 30
0.0
 11
112.325
 21
-4.25
 31
0.0
  0
LINE
  5
961
330
11D
100
AcDbEntity
  8
0
370
    20
100
AcDbLine
 10
112.675
 20
-4.025
 30
0.0
 11
113.675
 21
-4.25
 31
0.0
  0
LINE
  5
964
330
11D
100
AcDbEntity
  8
0
370
    20
100
AcDbLine
 10
112.325
 20
-4.25
 30
0.0
 11
114.375
 21
-4.75
 31
0.0
  0
LINE
  5
967
330
11D
100
AcDbEntity
  8
0
370
    20
100
AcDbLine
 10
113.675
 20
-4.25
 30
0.0
 11
115.975
 21
-4.75
 31
0.0
  0
LINE
  5
96A
330
11D
100
AcDbEntity
  8
0
370
    20
100
AcDbLine
 10
115.975
 20
-4.75
 30
0.0
 11
115.975
 21
-5.15
 31
0.0
  0
LINE
  5
96D
330
11D
100
AcDbEntity
  8
0
370
    20
100
AcDbLine
 10
115.975
 20
-5.15
 30
0.0
 11
114.375
 21
-4.75
 31
0.0
  0
LWPOLYLINE
  5
970
330
11D
100
AcDbEntity
  8
0
100
AcDbPolyline
 90
        8
 70
     0
 43
0.2
 10
115.975
 20
-5.15
 10
112.325
 20
-4.25
 10
110.975
 20
-1.925
 10
113.75
 20
-1.55
 10
113.75
 20
-1.9
 10
111.5
 20
-2.174999999999998
 10
112.675
 20
-4.025
 10
115.975
 20
-4.75
  0
HATCH
  5
983
330
11D
100
AcDbEntity
  8
0
100
AcDbHatch
 10
0.0
 20
0.0
 30
0.0
210
0.0
220
0.0
230
1.0
  2
SOLID
 70
     1
 71
     0
 91
        1
 92
        7
 72
     0
 73
     1
 93
        2
 10
113.875
 20
-1.25
 10
115.1
 20
-1.25
 97
        1
330
986
 75
     0
 76
     1
 47
0.651316
 98
        1
 10
0.0
 20
0.0
  0
LWPOLYLINE
  5
986
330
11D
100
AcDbEntity
  8
0
100
AcDbPolyline
 90
        4
 70
     0
 43
0.2
 10
113.875
 20
-1.25
 10
113.875
 20
-1.25
 10
115.1
 20
-1.25
 10
113.875
 20
-1.25
  0
HATCH
  5
991
330
11D
100
AcDbEntity
  8
0
100
AcDbHatch
 10
0.0
 20
0.0
 30
0.0
210
0.0
220
0.0
230
1.0
  2
SOLID
 70
     1
 71
     0
 91
        1
 92
        7
 72
     0
 73
     1
 93
        3
 10
113.875
 20
-1.25
 10
113.875
 20
-1.524999999999999
 10
115.1
 20
-1.524999999999999
 97
        1
330
994
 75
     0
 76
     1
 47
0.651316
 98
        1
 10
0.0
 20
0.0
  0
LWPOLYLINE
  5
994
330
11D
100
AcDbEntity
  8
0
100
AcDbPolyline
 90
        4
 70
     0
 43
0.2
 10
113.875
 20
-1.25
 10
113.875
 20
-1.524999999999999
 10
115.1
 20
-1.524999999999999
 10
113.875
 20
-1.25
  0
HATCH
  5
99F
330
11D
100
AcDbEntity
  8
0
100
AcDbHatch
 10
0.0
 20
0.0
 30
0.0
210
0.0
220
0.0
230
1.0
  2
SOLID
 70
     1
 71
     0
 91
        1
 92
        7
 72
     0
 73
     1
 93
        3
 10
113.875
 20
-1.25
 10
115.1
 20
-1.25
 10
115.1
 20
-1.524999999999999
 97
        1
330
9A2
 75
     0
 76
     1
 47
0.651316
 98
        1
 10
0.0
 20
0.0
  0
LWPOLYLINE
  5
9A2
330
11D
100
AcDbEntity
  8
0
100
AcDbPolyline
 90
        4
 70
     0
 43
0.2
 10
113.875
 20
-1.25
 10
115.1
 20
-1.25
 10
115.1
 20
-1.524999999999999
 10
113.875
 20
-1.25
  0
HATCH
  5
9AD
330
11D
100
AcDbEntity
  8
0
100
AcDbHatch
 10
0.0
 20
0.0
 30
0.0
210
0.0
220
0.0
230
1.0
  2
SOLID
 70
     1
 71
     0
 91
        1
 92
        7
 72
     0
 73
     1
 93
        2
 10
113.875
 20
-1.524999999999999
 10
114.65
 20
-1.524999999999999
 97
        1
330
9B0
 75
     0
 76
     1
 47
0.651316
 98
        1
 10
0.0
 20
0.0
  0
LWPOLYLINE
  5
9B0
330
11D
100
AcDbEntity
  8
0
100
AcDbPolyline
 90
        4
 70
     0
 43
0.2
 10
113.875
 20
-1.524999999999999
 10
113.875
 20
-1.524999999999999
 10
114.65
 20
-1.524999999999999
 10
113.875
 20
-1.524999999999999
  0
HATCH
  5
9BB
330
11D
100
AcDbEntity
  8
0
100
AcDbHatch
 10
0.0
 20
0.0
 30
0.0
210
0.0
220
0.0
230
1.0
  2
SOLID
 70
     1
 71
     0
 91
        1
 92
        7
 72
     0
 73
     1
 93
        3
 10
114.65
 20
-1.524999999999999
 10
114.65
 20
-3.049999999999998
 10
115.1
 20
-3.049999999999998
 97
        1
330
9BE
 75
     0
 76
     1
 47
0.651316
 98
        1
 10
0.0
 20
0.0
  0
LWPOLYLINE
  5
9BE
330
11D
100
AcDbEntity
  8
0
100
AcDbPolyline
 90
        4
 70
     0
 43
0.2
 10
114.65
 20
-1.524999999999999
 10
114.65
 20
-3.049999999999998
 10
115.1
 20
-3.049999999999998
 10
114.65
 20
-1.524999999999999
  0
HATCH
  5
9C9
330
11D
100
AcDbEntity
  8
0
100
AcDbHatch
 10
0.0
 20
0.0
 30
0.0
210
0.0
220
0.0
230
1.0
  2
SOLID
 70
     1
 71
     0
 91
        1
 92
        7
 72
     0
 73
     1
 93
        3
 10
114.65
 20
-1.524999999999999
 10
115.1
 20
-1.524999999999999
 10
115.1
 20
-3.049999999999998
 97
        1
330
9CC
 75
     0
 76
     1
 47
0.651316
 98
        1
 10
0.0
 20
0.0
  0
LWPOLYLINE
  5
9CC
330
11D
100
AcDbEntity
  8
0
100
AcDbPolyline
 90
        4
 70
     0
 43
0.2
 10
114.65
 20
-1.524999999999999
 10
115.1
 20
-1.524999999999999
 10
115.1
 20
-3.049999999999998
 10
114.65
 20
-1.524999999999999
  0
HATCH
  5
9D7
330
11D
100
AcDbEntity
  8
0
100
AcDbHatch
 10
0.0
 20
0.0
 30
0.0
210
0.0
220
0.0
230
1.0
  2
SOLID
 70
     1
 71
     0
 91
        1
 92
        7
 72
     0
 73
     1
 93
        3
 10
113.775
 20
-3.049999999999998
 10
113.775
 20
-3.225
 10
114.025
 20
-3.225
 97
        1
330
9DA
 75
     0
 76
     1
 47
0.651316
 98
        1
 10
0.0
 20
0.0
  0
LWPOLYLINE
  5
9DA
330
11D
100
AcDbEntity
  8
0
100
AcDbPolyline
 90
        4
 70
     0
 43
0.2
 10
113.775
 20
-3.049999999999998
 10
113.775
 20
-3.225
 10
114.025
 20
-3.225
 10
113.775
 20
-3.049999999999998
  0
HATCH
  5
9E5
330
11D
100
AcDbEntity
  8
0
100
AcDbHatch
 10
0.0
 20
0.0
 30
0.0
210
0.0
220
0.0
230
1.0
  2
SOLID
 70
     1
 71
     0
 91
        1
 92
        7
 72
     0
 73
     1
 93
        3
 10
114.65
 20
-3.049999999999998
 10
114.65
 20
-3.225
 10
115.1
 20
-3.225
 97
        1
330
9E8
 75
     0
 76
     1
 47
0.651316
 98
        1
 10
0.0
 20
0.0
  0
LWPOLYLINE
  5
9E8
330
11D
100
AcDbEntity
  8
0
100
AcDbPolyline
 90
        4
 70
     0
 43
0.2
 10
114.65
 20
-3.049999999999998
 10
114.65
 20
-3.225
 10
115.1
 20
-3.225
 10
114.65
 20
-3.049999999999998
  0
HATCH
  5
9F3
330
11D
100
AcDbEntity
  8
0
100
AcDbHatch
 10
0.0
 20
0.0
 30
0.0
210
0.0
220
0.0
230
1.0
  2
SOLID
 70
     1
 71
     0
 91
        1
 92
        7
 72
     0
 73
     1
 93
        3
 10
114.65
 20
-3.049999999999998
 10
115.1
 20
-3.049999999999998
 10
115.1
 20
-3.225
 97
        1
330
9F6
 75
     0
 76
     1
 47
0.651316
 98
        1
 10
0.0
 20
0.0
  0
LWPOLYLINE
  5
9F6
330
11D
100
AcDbEntity
  8
0
100
AcDbPolyline
 90
        4
 70
     0
 43
0.2
 10
114.65
 20
-3.049999999999998
 10
115.1
 20
-3.049999999999998
 10
115.1
 20
-3.225
 10
114.65
 20
-3.049999999999998
  0
HATCH
  5
A01
330
11D
100
AcDbEntity
  8
0
100
AcDbHatch
 10
0.0
 20
0.0
 30
0.0
210
0.0
220
0.0
230
1.0
  2
SOLID
 70
     1
 71
     0
 91
        1
 92
        7
 72
     0
 73
     1
 93
        3
 10
113.775
 20
-3.225
 10
113.775
 20
-3.25
 10
114.05
 20
-3.25
 97
        1
330
A04
 75
     0
 76
     1
 47
0.651316
 98
        1
 10
0.0
 20
0.0
  0
LWPOLYLINE
  5
A04
330
11D
100
AcDbEntity
  8
0
100
AcDbPolyline
 90
        4
 70
     0
 43
0.2
 10
113.775
 20
-3.225
 10
113.775
 20
-3.25
 10
114.05
 20
-3.25
 10
113.775
 20
-3.225
  0
HATCH
  5
A0F
330
11D
100
AcDbEntity
  8
0
100
AcDbHatch
 10
0.0
 20
0.0
 30
0.0
210
0.0
220
0.0
230
1.0
  2
SOLID
 70
     1
 71
     0
 91
        1
 92
        7
 72
     0
 73
     1
 93
        3
 10
113.775
 20
-3.225
 10
114.025
 20
-3.225
 10
114.05
 20
-3.25
 97
        1
330
A12
 75
     0
 76
     1
 47
0.651316
 98
        1
 10
0.0
 20
0.0
  0
LWPOLYLINE
  5
A12
330
11D
100
AcDbEntity
  8
0
100
AcDbPolyline
 90
        4
 70
     0
 43
0.2
 10
113.775
 20
-3.225
 10
114.025
 20
-3.225
 10
114.05
 20
-3.25
 10
113.775
 20
-3.225
  0
HATCH
  5
A1D
330
11D
100
AcDbEntity
  8
0
100
AcDbHatch
 10
0.0
 20
0.0
 30
0.0
210
0.0
220
0.0
230
1.0
  2
SOLID
 70
     1
 71
     0
 91
        1
 92
        7
 72
     0
 73
     1
 93
        3
 10
114.65
 20
-3.225
 10
114.65
 20
-3.25
 10
115.1
 20
-3.25
 97
        1
330
A20
 75
     0
 76
     1
 47
0.651316
 98
        1
 10
0.0
 20
0.0
  0
LWPOLYLINE
  5
A20
330
11D
100
AcDbEntity
  8
0
100
AcDbPolyline
 90
        4
 70
     0
 43
0.2
 10
114.65
 20
-3.225
 10
114.65
 20
-3.25
 10
115.1
 20
-3.25
 10
114.65
 20
-3.225
  0
HATCH
  5
A2B
330
11D
100
AcDbEntity
  8
0
100
AcDbHatch
 10
0.0
 20
0.0
 30
0.0
210
0.0
220
0.0
230
1.0
  2
SOLID
 70
     1
 71
     0
 91
        1
 92
        7
 72
     0
 73
     1
 93
        3
 10
114.65
 20
-3.225
 10
115.1
 20
-3.225
 10
115.1
 20
-3.25
 97
        1
330
A2E
 75
     0
 76
     1
 47
0.651316
 98
        1
 10
0.0
 20
0.0
  0
LWPOLYLINE
  5
A2E
330
11D
100
AcDbEntity
  8
0
100
AcDbPolyline
 90
        4
 70
     0
 43
0.2
 10
114.65
 20
-3.225
 10
115.1
 20
-3.225
 10
115.1
 20
-3.25
 10
114.65
 20
-3.225
  0
HATCH
  5
A39
330
11D
100
AcDbEntity
  8
0
100
AcDbHatch
 10
0.0
 20
0.0
 30
0.0
210
0.0
220
0.0
230
1.0
  2
SOLID
 70
     1
 71
     0
 91
        1
 92
        7
 72
     0
 73
     1
 93
        3
 10
113.775
 20
-3.25
 10
113.775
 20
-3.274999999999999
 10
114.05
 20
-3.274999999999999
 97
        1
330
A3C
 75
     0
 76
     1
 47
0.651316
 98
        1
 10
0.0
 20
0.0
  0
LWPOLYLINE
  5
A3C
330
11D
100
AcDbEntity
  8
0
100
AcDbPolyline
 90
        4
 70
     0
 43
0.2
 10
113.775
 20
-3.25
 10
113.775
 20
-3.274999999999999
 10
114.05
 20
-3.274999999999999
 10
113.775
 20
-3.25
  0
HATCH
  5
A47
330
11D
100
AcDbEntity
  8
0
100
AcDbHatch
 10
0.0
 20
0.0
 30
0.0
210
0.0
220
0.0
230
1.0
  2
SOLID
 70
     1
 71
     0
 91
        1
 92
        7
 72
     0
 73
     1
 93
        3
 10
113.775
 20
-3.25
 10
114.05
 20
-3.25
 10
114.05
 20
-3.274999999999999
 97
        1
330
A4A
 75
     0
 76
     1
 47
0.651316
 98
        1
 10
0.0
 20
0.0
  0
LWPOLYLINE
  5
A4A
330
11D
100
AcDbEntity
  8
0
100
AcDbPolyline
 90
        4
 70
     0
 43
0.2
 10
113.775
 20
-3.25
 10
114.05
 20
-3.25
 10
114.05
 20
-3.274999999999999
 10
113.775
 20
-3.25
  0
HATCH
  5
A55
330
11D
100
AcDbEntity
  8
0
100
AcDbHatch
 10
0.0
 20
0.0
 30
0.0
210
0.0
220
0.0
230
1.0
  2
SOLID
 70
     1
 71
     0
 91
        1
 92
        7
 72
     0
 73
     1
 93
        3
 10
114.65
 20
-3.25
 10
114.625
 20
-3.274999999999999
 10
115.1
 20
-3.274999999999999
 97
        1
330
A58
 75
     0
 76
     1
 47
0.651316
 98
        1
 10
0.0
 20
0.0
  0
LWPOLYLINE
  5
A58
330
11D
100
AcDbEntity
  8
0
100
AcDbPolyline
 90
        4
 70
     0
 43
0.2
 10
114.65
 20
-3.25
 10
114.625
 20
-3.274999999999999
 10
115.1
 20
-3.274999999999999
 10
114.65
 20
-3.25
  0
HATCH
  5
A63
330
11D
100
AcDbEntity
  8
0
100
AcDbHatch
 10
0.0
 20
0.0
 30
0.0
210
0.0
220
0.0
230
1.0
  2
SOLID
 70
     1
 71
     0
 91
        1
 92
        7
 72
     0
 73
     1
 93
        3
 10
114.65
 20
-3.25
 10
115.1
 20
-3.25
 10
115.1
 20
-3.274999999999999
 97
        1
330
A66
 75
     0
 76
     1
 47
0.651316
 98
        1
 10
0.0
 20
0.0
  0
LWPOLYLINE
  5
A66
330
11D
100
AcDbEntity
  8
0
100
AcDbPolyline
 90
        4
 70
     0
 43
0.2
 10
114.65
 20
-3.25
 10
115.1
 20
-3.25
 10
115.1
 20
-3.274999999999999
 10
114.65
 20
-3.25
  0
HATCH
  5
A71
330
11D
100
AcDbEntity
  8
0
100
AcDbHatch
 10
0.0
 20
0.0
 30
0.0
210
0.0
220
0.0
230
1.0
  2
SOLID
 70
     1
 71
     0
 91
        1
 92
        7
 72
     0
 73
     1
 93
        3
 10
113.775
 20
-3.274999999999999
 10
113.775
 20
-3.299999999999998
 10
114.05
 20
-3.299999999999998
 97
        1
330
A74
 75
     0
 76
     1
 47
0.651316
 98
        1
 10
0.0
 20
0.0
  0
LWPOLYLINE
  5
A74
330
11D
100
AcDbEntity
  8
0
100
AcDbPolyline
 90
        4
 70
     0
 43
0.2
 10
113.775
 20
-3.274999999999999
 10
113.775
 20
-3.299999999999998
 10
114.05
 20
-3.299999999999998
 10
113.775
 20
-3.274999999999999
  0
HATCH
  5
A7F
330
11D
100
AcDbEntity
  8
0
100
AcDbHatch
 10
0.0
 20
0.0
 30
0.0
210
0.0
220
0.0
230
1.0
  2
SOLID
 70
     1
 71
     0
 91
        1
 92
        7
 72
     0
 73
     1
 93
        3
 10
113.775
 20
-3.274999999999999
 10
114.05
 20
-3.274999999999999
 10
114.05
 20
-3.299999999999998
 97
        1
330
A82
 75
     0
 76
     1
 47
0.651316
 98
        1
 10
0.0
 20
0.0
  0
LWPOLYLINE
  5
A82
330
11D
100
AcDbEntity
  8
0
100
AcDbPolyline
 90
        4
 70
     0
 43
0.2
 10
113.775
 20
-3.274999999999999
 10
114.05
 20
-3.274999999999999
 10
114.05
 20
-3.299999999999998
 10
113.775
 20
-3.274999999999999
  0
HATCH
  5
A8D
330
11D
100
AcDbEntity
  8
0
100
AcDbHatch
 10
0.0
 20
0.0
 30
0.0
210
0.0
220
0.0
230
1.0
  2
SOLID
 70
     1
 71
     0
 91
        1
 92
        7
 72
     0
 73
     1
 93
        3
 10
114.625
 20
-3.274999999999999
 10
114.625
 20
-3.299999999999998
 10
115.1
 20
-3.299999999999998
 97
        1
330
A90
 75
     0
 76
     1
 47
0.651316
 98
        1
 10
0.0
 20
0.0
  0
LWPOLYLINE
  5
A90
330
11D
100
AcDbEntity
  8
0
100
AcDbPolyline
 90
        4
 70
     0
 43
0.2
 10
114.625
 20
-3.274999999999999
 10
114.625
 20
-3.299999999999998
 10
115.1
 20
-3.299999999999998
 10
114.625
 20
-3.274999999999999
  0
HATCH
  5
A9B
330
11D
100
AcDbEntity
  8
0
100
AcDbHatch
 10
0.0
 20
0.0
 30
0.0
210
0.0
220
0.0
230
1.0
  2
SOLID
 70
     1
 71
     0
 91
        1
 92
        7
 72
     0
 73
     1
 93
        3
 10
114.625
 20
-3.274999999999999
 10
115.1
 20
-3.274999999999999
 10
115.1
 20
-3.299999999999998
 97
        1
330
A9E
 75
     0
 76
     1
 47
0.651316
 98
        1
 10
0.0
 20
0.0
  0
LWPOLYLINE
  5
A9E
330
11D
100
AcDbEntity
  8
0
100
AcDbPolyline
 90
        4
 70
     0
 43
0.2
 10
114.625
 20
-3.274999999999999
 10
115.1
 20
-3.274999999999999
 10
115.1
 20
-3.299999999999998
 10
114.625
 20
-3.274999999999999
  0
HATCH
  5
AA9
330
11D
100
AcDbEntity
  8
0
100
AcDbHatch
 10
0.0
 20
0.0
 30
0.0
210
0.0
220
0.0
230
1.0
  2
SOLID
 70
     1
 71
     0
 91
        1
 92
        7
 72
     0
 73
     1
 93
        3
 10
113.775
 20
-3.299999999999998
 10
113.775
 20
-3.325
 10
114.075
 20
-3.325
 97
        1
330
AAC
 75
     0
 76
     1
 47
0.651316
 98
        1
 10
0.0
 20
0.0
  0
LWPOLYLINE
  5
AAC
330
11D
100
AcDbEntity
  8
0
100
AcDbPolyline
 90
        4
 70
     0
 43
0.2
 10
113.775
 20
-3.299999999999998
 10
113.775
 20
-3.325
 10
114.075
 20
-3.325
 10
113.775
 20
-3.299999999999998
  0
HATCH
  5
AB7
330
11D
100
AcDbEntity
  8
0
100
AcDbHatch
 10
0.0
 20
0.0
 30
0.0
210
0.0
220
0.0
230
1.0
  2
SOLID
 70
     1
 71
     0
 91
        1
 92
        7
 72
     0
 73
     1
 93
        3
 10
113.775
 20
-3.299999999999998
 10
114.05
 20
-3.299999999999998
 10
114.075
 20
-3.325
 97
        1
330
ABA
 75
     0
 76
     1
 47
0.651316
 98
        1
 10
0.0
 20
0.0
  0
LWPOLYLINE
  5
ABA
330
11D
100
AcDbEntity
  8
0
100
AcDbPolyline
 90
        4
 70
     0
 43
0.2
 10
113.775
 20
-3.299999999999998
 10
114.05
 20
-3.299999999999998
 10
114.075
 20
-3.325
 10
113.775
 20
-3.299999999999998
  0
HATCH
  5
AC5
330
11D
100
AcDbEntity
  8
0
100
AcDbHatch
 10
0.0
 20
0.0
 30
0.0
210
0.0
220
0.0
230
1.0
  2
SOLID
 70
     1
 71
     0
 91
        1
 92
        7
 72
     0
 73
     1
 93
        3
 10
114.625
 20
-3.299999999999998
 10
114.575
 20
-3.325
 10
115.1
 20
-3.325
 97
        1
330
AC8
 75
     0
 76
     1
 47
0.651316
 98
        1
 10
0.0
 20
0.0
  0
LWPOLYLINE
  5
AC8
330
11D
100
AcDbEntity
  8
0
100
AcDbPolyline
 90
        4
 70
     0
 43
0.2
 10
114.625
 20
-3.299999999999998
 10
114.575
 20
-3.325
 10
115.1
 20
-3.325
 10
114.625
 20
-3.299999999999998
  0
HATCH
  5
AD3
330
11D
100
AcDbEntity
  8
0
100
AcDbHatch
 10
0.0
 20
0.0
 30
0.0
210
0.0
220
0.0
230
1.0
  2
SOLID
 70
     1
 71
     0
 91
        1
 92
        7
 72
     0
 73
     1
 93
        3
 10
114.625
 20
-3.299999999999998
 10
115.1
 20
-3.299999999999998
 10
115.1
 20
-3.325
 97
        1
330
AD6
 75
     0
 76
     1
 47
0.651316
 98
        1
 10
0.0
 20
0.0
  0
LWPOLYLINE
  5
AD6
330
11D
100
AcDbEntity
  8
0
100
AcDbPolyline
 90
        4
 70
     0
 43
0.2
 10
114.625
 20
-3.299999999999998
 10
115.1
 20
-3.299999999999998
 10
115.1
 20
-3.325
 10
114.625
 20
-3.299999999999998
  0
HATCH
  5
AE1
330
11D
100
AcDbEntity
  8
0
100
AcDbHatch
 10
0.0
 20
0.0
 30
0.0
210
0.0
220
0.0
230
1.0
  2
SOLID
 70
     1
 71
     0
 91
        1
 92
        7
 72
     0
 73
     1
 93
        3
 10
113.775
 20
-3.325
 10
113.8
 20
-3.35
 10
114.1
 20
-3.35
 97
        1
330
AE4
 75
     0
 76
     1
 47
0.651316
 98
        1
 10
0.0
 20
0.0
  0
LWPOLYLINE
  5
AE4
330
11D
100
AcDbEntity
  8
0
100
AcDbPolyline
 90
        4
 70
     0
 43
0.2
 10
113.775
 20
-3.325
 10
113.8
 20
-3.35
 10
114.1
 20
-3.35
 10
113.775
 20
-3.325
  0
HATCH
  5
AEF
330
11D
100
AcDbEntity
  8
0
100
AcDbHatch
 10
0.0
 20
0.0
 30
0.0
210
0.0
220
0.0
230
1.0
  2
SOLID
 70
     1
 71
     0
 91
        1
 92
        7
 72
     0
 73
     1
 93
        3
 10
113.775
 20
-3.325
 10
114.075
 20
-3.325
 10
114.1
 20
-3.35
 97
        1
330
AF2
 75
     0
 76
     1
 47
0.651316
 98
        1
 10
0.0
 20
0.0
  0
LWPOLYLINE
  5
AF2
330
11D
100
AcDbEntity
  8
0
100
AcDbPolyline
 90
        4
 70
     0
 43
0.2
 10
113.775
 20
-3.325
 10
114.075
 20
-3.325
 10
114.1
 20
-3.35
 10
113.775
 20
-3.325
  0
HATCH
  5
AFD
330
11D
100
AcDbEntity
  8
0
100
AcDbHatch
 10
0.0
 20
0.0
 30
0.0
210
0.0
220
0.0
230
1.0
  2
SOLID
 70
     1
 71
     0
 91
        1
 92
        7
 72
     0
 73
     1
 93
        3
 10
114.575
 20
-3.325
 10
114.575
 20
-3.35
 10
115.1
 20
-3.35
 97
        1
330
B00
 75
     0
 76
     1
 47
0.651316
 98
        1
 10
0.0
 20
0.0
  0
LWPOLYLINE
  5
B00
330
11D
100
AcDbEntity
  8
0
100
AcDbPolyline
 90
        4
 70
     0
 43
0.2
 10
114.575
 20
-3.325
 10
114.575
 20
-3.35
 10
115.1
 20
-3.35
 10
114.575
 20
-3.325
  0
HATCH
  5
B0B
330
11D
100
AcDbEntity
  8
0
100
AcDbHatch
 10
0.0
 20
0.0
 30
0.0
210
0.0
220
0.0
230
1.0
  2
SOLID
 70
     1
 71
     0
 91
        1
 92
        7
 72
     0
 73
     1
 93
        3
 10
114.575
 20
-3.325
 10
115.1
 20
-3.325
 10
115.1
 20
-3.35
 97
        1
330
B0E
 75
     0
 76
     1
 47
0.651316
 98
        1
 10
0.0
 20
0.0
  0
LWPOLYLINE
  5
B0E
330
11D
100
AcDbEntity
  8
0
100
AcDbPolyline
 90
        4
 70
     0
 43
0.2
 10
114.575
 20
-3.325
 10
115.1
 20
-3.325
 10
115.1
 20
-3.35
 10
114.575
 20
-3.325
  0
HATCH
  5
B19
330
11D
100
AcDbEntity
  8
0
100
AcDbHatch
 10
0.0
 20
0.0
 30
0.0
210
0.0
220
0.0
230
1.0
  2
SOLID
 70
     1
 71
     0
 91
        1
 92
        7
 72
     0
 73
     1
 93
        2
 10
114.55
 20
-3.35
 10
114.575
 20
-3.35
 97
        1
330
B1C
 75
     0
 76
     1
 47
0.651316
 98
        1
 10
0.0
 20
0.0
  0
LWPOLYLINE
  5
B1C
330
11D
100
AcDbEntity
  8
0
100
AcDbPolyline
 90
        4
 70
     0
 43
0.2
 10
114.55
 20
-3.35
 10
114.55
 20
-3.35
 10
114.575
 20
-3.35
 10
114.55
 20
-3.35
  0
HATCH
  5
B27
330
11D
100
AcDbEntity
  8
0
100
AcDbHatch
 10
0.0
 20
0.0
 30
0.0
210
0.0
220
0.0
230
1.0
  2
SOLID
 70
     1
 71
     0
 91
        1
 92
        7
 72
     0
 73
     1
 93
        3
 10
113.8
 20
-3.35
 10
113.8
 20
-3.375
 10
114.125
 20
-3.375
 97
        1
330
B2A
 75
     0
 76
     1
 47
0.651316
 98
        1
 10
0.0
 20
0.0
  0
LWPOLYLINE
  5
B2A
330
11D
100
AcDbEntity
  8
0
100
AcDbPolyline
 90
        4
 70
     0
 43
0.2
 10
113.8
 20
-3.35
 10
113.8
 20
-3.375
 10
114.125
 20
-3.375
 10
113.8
 20
-3.35
  0
HATCH
  5
B35
330
11D
100
AcDbEntity
  8
0
100
AcDbHatch
 10
0.0
 20
0.0
 30
0.0
210
0.0
220
0.0
230
1.0
  2
SOLID
 70
     1
 71
     0
 91
        1
 92
        7
 72
     0
 73
     1
 93
        3
 10
113.8
 20
-3.35
 10
114.1
 20
-3.35
 10
114.125
 20
-3.375
 97
        1
330
B38
 75
     0
 76
     1
 47
0.651316
 98
        1
 10
0.0
 20
0.0
  0
LWPOLYLINE
  5
B38
330
11D
100
AcDbEntity
  8
0
100
AcDbPolyline
 90
        4
 70
     0
 43
0.2
 10
113.8
 20
-3.35
 10
114.1
 20
-3.35
 10
114.125
 20
-3.375
 10
113.8
 20
-3.35
  0
HATCH
  5
B43
330
11D
100
AcDbEntity
  8
0
100
AcDbHatch
 10
0.0
 20
0.0
 30
0.0
210
0.0
220
0.0
230
1.0
  2
SOLID
 70
     1
 71
     0
 91
        1
 92
        7
 72
     0
 73
     1
 93
        3
 10
114.55
 20
-3.35
 10
114.5
 20
-3.375
 10
115.1
 20
-3.375
 97
        1
330
B46
 75
     0
 76
     1
 47
0.651316
 98
        1
 10
0.0
 20
0.0
  0
LWPOLYLINE
  5
B46
330
11D
100
AcDbEntity
  8
0
100
AcDbPolyline
 90
        4
 70
     0
 43
0.2
 10
114.55
 20
-3.35
 10
114.5
 20
-3.375
 10
115.1
 20
-3.375
 10
114.55
 20
-3.35
  0
HATCH
  5
B51
330
11D
100
AcDbEntity
  8
0
100
AcDbHatch
 10
0.0
 20
0.0
 30
0.0
210
0.0
220
0.0
230
1.0
  2
SOLID
 70
     1
 71
     0
 91
        1
 92
        7
 72
     0
 73
     1
 93
        3
 10
114.55
 20
-3.35
 10
115.1
 20
-3.35
 10
115.1
 20
-3.375
 97
        1
330
B54
 75
     0
 76
     1
 47
0.651316
 98
        1
 10
0.0
 20
0.0
  0
LWPOLYLINE
  5
B54
330
11D
100
AcDbEntity
  8
0
100
AcDbPolyline
 90
        4
 70
     0
 43
0.2
 10
114.55
 20
-3.35
 10
115.1
 20
-3.35
 10
115.1
 20
-3.375
 10
114.55
 20
-3.35
  0
HATCH
  5
B5F
330
11D
100
AcDbEntity
  8
0
100
AcDbHatch
 10
0.0
 20
0.0
 30
0.0
210
0.0
220
0.0
230
1.0
  2
SOLID
 70
     1
 71
     0
 91
        1
 92
        7
 72
     0
 73
     1
 93
        3
 10
113.8
 20
-3.375
 10
113.8
 20
-3.399999999999999
 10
114.175
 20
-3.399999999999999
 97
        1
330
B62
 75
     0
 76
     1
 47
0.651316
 98
        1
 10
0.0
 20
0.0
  0
LWPOLYLINE
  5
B62
330
11D
100
AcDbEntity
  8
0
100
AcDbPolyline
 90
        4
 70
     0
 43
0.2
 10
113.8
 20
-3.375
 10
113.8
 20
-3.399999999999999
 10
114.175
 20
-3.399999999999999
 10
113.8
 20
-3.375
  0
HATCH
  5
B6D
330
11D
100
AcDbEntity
  8
0
100
AcDbHatch
 10
0.0
 20
0.0
 30
0.0
210
0.0
220
0.0
230
1.0
  2
SOLID
 70
     1
 71
     0
 91
        1
 92
        7
 72
     0
 73
     1
 93
        3
 10
113.8
 20
-3.375
 10
114.125
 20
-3.375
 10
114.175
 20
-3.399999999999999
 97
        1
330
B70
 75
     0
 76
     1
 47
0.651316
 98
        1
 10
0.0
 20
0.0
  0
LWPOLYLINE
  5
B70
330
11D
100
AcDbEntity
  8
0
100
AcDbPolyline
 90
        4
 70
     0
 43
0.2
 10
113.8
 20
-3.375
 10
114.125
 20
-3.375
 10
114.175
 20
-3.399999999999999
 10
113.8
 20
-3.375
  0
HATCH
  5
B7B
330
11D
100
AcDbEntity
  8
0
100
AcDbHatch
 10
0.0
 20
0.0
 30
0.0
210
0.0
220
0.0
230
1.0
  2
SOLID
 70
     1
 71
     0
 91
        1
 92
        7
 72
     0
 73
     1
 93
        3
 10
114.5
 20
-3.375
 10
114.475
 20
-3.399999999999999
 10
115.075
 20
-3.399999999999999
 97
        1
330
B7E
 75
     0
 76
     1
 47
0.651316
 98
        1
 10
0.0
 20
0.0
  0
LWPOLYLINE
  5
B7E
330
11D
100
AcDbEntity
  8
0
100
AcDbPolyline
 90
        4
 70
     0
 43
0.2
 10
114.5
 20
-3.375
 10
114.475
 20
-3.399999999999999
 10
115.075
 20
-3.399999999999999
 10
114.5
 20
-3.375
  0
HATCH
  5
B89
330
11D
100
AcDbEntity
  8
0
100
AcDbHatch
 10
0.0
 20
0.0
 30
0.0
210
0.0
220
0.0
230
1.0
  2
SOLID
 70
     1
 71
     0
 91
        1
 92
        7
 72
     0
 73
     1
 93
        3
 10
114.5
 20
-3.375
 10
115.1
 20
-3.375
 10
115.075
 20
-3.399999999999999
 97
        1
330
B8C
 75
     0
 76
     1
 47
0.651316
 98
        1
 10
0.0
 20
0.0
  0
LWPOLYLINE
  5
B8C
330
11D
100
AcDbEntity
  8
0
100
AcDbPolyline
 90
        4
 70
     0
 43
0.2
 10
114.5
 20
-3.375
 10
115.1
 20
-3.375
 10
115.075
 20
-3.399999999999999
 10
114.5
 20
-3.375
  0
HATCH
  5
B97
330
11D
100
AcDbEntity
  8
0
100
AcDbHatch
 10
0.0
 20
0.0
 30
0.0
210
0.0
220
0.0
230
1.0
  2
SOLID
 70
     1
 71
     0
 91
        1
 92
        7
 72
     0
 73
     1
 93
        3
 10
113.8
 20
-3.399999999999999
 10
113.825
 20
-3.45
 10
114.225
 20
-3.45
 97
        1
330
B9A
 75
     0
 76
     1
 47
0.651316
 98
        1
 10
0.0
 20
0.0
  0
LWPOLYLINE
  5
B9A
330
11D
100
AcDbEntity
  8
0
100
AcDbPolyline
 90
        4
 70
     0
 43
0.2
 10
113.8
 20
-3.399999999999999
 10
113.825
 20
-3.45
 10
114.225
 20
-3.45
 10
113.8
 20
-3.399999999999999
  0
HATCH
  5
BA5
330
11D
100
AcDbEntity
  8
0
100
AcDbHatch
 10
0.0
 20
0.0
 30
0.0
210
0.0
220
0.0
230
1.0
  2
SOLID
 70
     1
 71
     0
 91
        1
 92
        7
 72
     0
 73
     1
 93
        3
 10
113.8
 20
-3.399999999999999
 10
114.175
 20
-3.399999999999999
 10
114.225
 20
-3.45
 97
        1
330
BA8
 75
     0
 76
     1
 47
0.651316
 98
        1
 10
0.0
 20
0.0
  0
LWPOLYLINE
  5
BA8
330
11D
100
AcDbEntity
  8
0
100
AcDbPolyline
 90
        4
 70
     0
 43
0.2
 10
113.8
 20
-3.399999999999999
 10
114.175
 20
-3.399999999999999
 10
114.225
 20
-3.45
 10
113.8
 20
-3.399999999999999
  0
HATCH
  5
BB3
330
11D
100
AcDbEntity
  8
0
100
AcDbHatch
 10
0.0
 20
0.0
 30
0.0
210
0.0
220
0.0
230
1.0
  2
SOLID
 70
     1
 71
     0
 91
        1
 92
        7
 72
     0
 73
     1
 93
        3
 10
114.475
 20
-3.399999999999999
 10
114.425
 20
-3.45
 10
115.075
 20
-3.45
 97
        1
330
BB6
 75
     0
 76
     1
 47
0.651316
 98
        1
 10
0.0
 20
0.0
  0
LWPOLYLINE
  5
BB6
330
11D
100
AcDbEntity
  8
0
100
AcDbPolyline
 90
        4
 70
     0
 43
0.2
 10
114.475
 20
-3.399999999999999
 10
114.425
 20
-3.45
 10
115.075
 20
-3.45
 10
114.475
 20
-3.399999999999999
  0
HATCH
  5
BC1
330
11D
100
AcDbEntity
  8
0
100
AcDbHatch
 10
0.0
 20
0.0
 30
0.0
210
0.0
220
0.0
230
1.0
  2
SOLID
 70
     1
 71
     0
 91
        1
 92
        7
 72
     0
 73
     1
 93
        3
 10
114.475
 20
-3.399999999999999
 10
115.075
 20
-3.399999999999999
 10
115.075
 20
-3.45
 97
        1
330
BC4
 75
     0
 76
     1
 47
0.651316
 98
        1
 10
0.0
 20
0.0
  0
LWPOLYLINE
  5
BC4
330
11D
100
AcDbEntity
  8
0
100
AcDbPolyline
 90
        4
 70
     0
 43
0.2
 10
114.475
 20
-3.399999999999999
 10
115.075
 20
-3.399999999999999
 10
115.075
 20
-3.45
 10
114.475
 20
-3.399999999999999
  0
HATCH
  5
BCF
330
11D
100
AcDbEntity
  8
0
100
AcDbHatch
 10
0.0
 20
0.0
 30
0.0
210
0.0
220
0.0
230
1.0
  2
SOLID
 70
     1
 71
     0
 91
        1
 92
        7
 72
     0
 73
     1
 93
        2
 10
114.225
 20
-3.45
 10
114.275
 20
-3.45
 97
        1
330
BD2
 75
     0
 76
     1
 47
0.651316
 98
        1
 10
0.0
 20
0.0
  0
LWPOLYLINE
  5
BD2
330
11D
100
AcDbEntity
  8
0
100
AcDbPolyline
 90
        4
 70
     0
 43
0.2
 10
114.225
 20
-3.45
 10
114.225
 20
-3.45
 10
114.275
 20
-3.45
 10
114.225
 20
-3.45
  0
HATCH
  5
BDD
330
11D
100
AcDbEntity
  8
0
100
AcDbHatch
 10
0.0
 20
0.0
 30
0.0
210
0.0
220
0.0
230
1.0
  2
SOLID
 70
     1
 71
     0
 91
        1
 92
        7
 72
     0
 73
     1
 93
        2
 10
114.275
 20
-3.45
 10
114.325
 20
-3.45
 97
        1
330
BE0
 75
     0
 76
     1
 47
0.651316
 98
        1
 10
0.0
 20
0.0
  0
LWPOLYLINE
  5
BE0
330
11D
100
AcDbEntity
  8
0
100
AcDbPolyline
 90
        4
 70
     0
 43
0.2
 10
114.275
 20
-3.45
 10
114.275
 20
-3.45
 10
114.325
 20
-3.45
 10
114.275
 20
-3.45
  0
HATCH
  5
BEB
330
11D
100
AcDbEntity
  8
0
100
AcDbHatch
 10
0.0
 20
0.0
 30
0.0
210
0.0
220
0.0
230
1.0
  2
SOLID
 70
     1
 71
     0
 91
        1
 92
        7
 72
     0
 73
     1
 93
        2
 10
114.325
 20
-3.45
 10
114.4
 20
-3.45
 97
        1
330
BEE
 75
     0
 76
     1
 47
0.651316
 98
        1
 10
0.0
 20
0.0
  0
LWPOLYLINE
  5
BEE
330
11D
100
AcDbEntity
  8
0
100
AcDbPolyline
 90
        4
 70
     0
 43
0.2
 10
114.325
 20
-3.45
 10
114.325
 20
-3.45
 10
114.4
 20
-3.45
 10
114.325
 20
-3.45
  0
HATCH
  5
BF9
330
11D
100
AcDbEntity
  8
0
100
AcDbHatch
 10
0.0
 20
0.0
 30
0.0
210
0.0
220
0.0
230
1.0
  2
SOLID
 70
     1
 71
     0
 91
        1
 92
        7
 72
     0
 73
     1
 93
        2
 10
114.4
 20
-3.45
 10
114.425
 20
-3.45
 97
        1
330
BFC
 75
     0
 76
     1
 47
0.651316
 98
        1
 10
0.0
 20
0.0
  0
LWPOLYLINE
  5
BFC
330
11D
100
AcDbEntity
  8
0
100
AcDbPolyline
 90
        4
 70
     0
 43
0.2
 10
114.4
 20
-3.45
 10
114.4
 20
-3.45
 10
114.425
 20
-3.45
 10
114.4
 20
-3.45
  0
HATCH
  5
C07
330
11D
100
AcDbEntity
  8
0
100
AcDbHatch
 10
0.0
 20
0.0
 30
0.0
210
0.0
220
0.0
230
1.0
  2
SOLID
 70
     1
 71
     0
 91
        1
 92
        7
 72
     0
 73
     1
 93
        3
 10
113.825
 20
-3.45
 10
113.825
 20
-3.475
 10
115.075
 20
-3.475
 97
        1
330
C0A
 75
     0
 76
     1
 47
0.651316
 98
        1
 10
0.0
 20
0.0
  0
LWPOLYLINE
  5
C0A
330
11D
100
AcDbEntity
  8
0
100
AcDbPolyline
 90
        4
 70
     0
 43
0.2
 10
113.825
 20
-3.45
 10
113.825
 20
-3.475
 10
115.075
 20
-3.475
 10
113.825
 20
-3.45
  0
HATCH
  5
C15
330
11D
100
AcDbEntity
  8
0
100
AcDbHatch
 10
0.0
 20
0.0
 30
0.0
210
0.0
220
0.0
230
1.0
  2
SOLID
 70
     1
 71
     0
 91
        1
 92
        7
 72
     0
 73
     1
 93
        3
 10
113.825
 20
-3.45
 10
115.075
 20
-3.45
 10
115.075
 20
-3.475
 97
        1
330
C18
 75
     0
 76
     1
 47
0.651316
 98
        1
 10
0.0
 20
0.0
  0
LWPOLYLINE
  5
C18
330
11D
100
AcDbEntity
  8
0
100
AcDbPolyline
 90
        4
 70
     0
 43
0.2
 10
113.825
 20
-3.45
 10
115.075
 20
-3.45
 10
115.075
 20
-3.475
 10
113.825
 20
-3.45
  0
HATCH
  5
C23
330
11D
100
AcDbEntity
  8
0
100
AcDbHatch
 10
0.0
 20
0.0
 30
0.0
210
0.0
220
0.0
230
1.0
  2
SOLID
 70
     1
 71
     0
 91
        1
 92
        7
 72
     0
 73
     1
 93
        3
 10
113.825
 20
-3.475
 10
113.85
 20
-3.549999999999998
 10
115.0
 20
-3.549999999999998
 97
        1
330
C26
 75
     0
 76
     1
 47
0.651316
 98
        1
 10
0.0
 20
0.0
  0
LWPOLYLINE
  5
C26
330
11D
100
AcDbEntity
  8
0
100
AcDbPolyline
 90
        4
 70
     0
 43
0.2
 10
113.825
 20
-3.475
 10
113.85
 20
-3.549999999999998
 10
115.0
 20
-3.549999999999998
 10
113.825
 20
-3.475
  0
HATCH
  5
C31
330
11D
100
AcDbEntity
  8
0
100
AcDbHatch
 10
0.0
 20
0.0
 30
0.0
210
0.0
220
0.0
230
1.0
  2
SOLID
 70
     1
 71
     0
 91
        1
 92
        7
 72
     0
 73
     1
 93
        3
 10
113.825
 20
-3.475
 10
115.075
 20
-3.475
 10
115.0
 20
-3.549999999999998
 97
        1
330
C34
 75
     0
 76
     1
 47
0.651316
 98
        1
 10
0.0
 20
0.0
  0
LWPOLYLINE
  5
C34
330
11D
100
AcDbEntity
  8
0
100
AcDbPolyline
 90
        4
 70
     0
 43
0.2
 10
113.825
 20
-3.475
 10
115.075
 20
-3.475
 10
115.0
 20
-3.549999999999998
 10
113.825
 20
-3.475
  0
HATCH
  5
C3F
330
11D
100
AcDbEntity
  8
0
100
AcDbHatch
 10
0.0
 20
0.0
 30
0.0
210
0.0
220
0.0
230
1.0
  2
SOLID
 70
     1
 71
     0
 91
        1
 92
        7
 72
     0
 73
     1
 93
        3
 10
113.85
 20
-3.549999999999998
 10
113.9
 20
-3.674999999999998
 10
114.975
 20
-3.674999999999998
 97
        1
330
C42
 75
     0
 76
     1
 47
0.651316
 98
        1
 10
0.0
 20
0.0
  0
LWPOLYLINE
  5
C42
330
11D
100
AcDbEntity
  8
0
100
AcDbPolyline
 90
        4
 70
     0
 43
0.2
 10
113.85
 20
-3.549999999999998
 10
113.9
 20
-3.674999999999998
 10
114.975
 20
-3.674999999999998
 10
113.85
 20
-3.549999999999998
  0
HATCH
  5
C4D
330
11D
100
AcDbEntity
  8
0
100
AcDbHatch
 10
0.0
 20
0.0
 30
0.0
210
0.0
220
0.0
230
1.0
  2
SOLID
 70
     1
 71
     0
 91
        1
 92
        7
 72
     0
 73
     1
 93
        3
 10
113.85
 20
-3.549999999999998
 10
115.0
 20
-3.549999999999998
 10
114.975
 20
-3.674999999999998
 97
        1
330
C50
 75
     0
 76
     1
 47
0.651316
 98
        1
 10
0.0
 20
0.0
  0
LWPOLYLINE
  5
C50
330
11D
100
AcDbEntity
  8
0
100
AcDbPolyline
 90
        4
 70
     0
 43
0.2
 10
113.85
 20
-3.549999999999998
 10
115.0
 20
-3.549999999999998
 10
114.975
 20
-3.674999999999998
 10
113.85
 20
-3.549999999999998
  0
HATCH
  5
C5B
330
11D
100
AcDbEntity
  8
0
100
AcDbHatch
 10
0.0
 20
0.0
 30
0.0
210
0.0
220
0.0
230
1.0
  2
SOLID
 70
     1
 71
     0
 91
        1
 92
        7
 72
     0
 73
     1
 93
        3
 10
113.9
 20
-3.674999999999998
 10
113.975
 20
-3.725
 10
114.925
 20
-3.725
 97
        1
330
C5E
 75
     0
 76
     1
 47
0.651316
 98
        1
 10
0.0
 20
0.0
  0
LWPOLYLINE
  5
C5E
330
11D
100
AcDbEntity
  8
0
100
AcDbPolyline
 90
        4
 70
     0
 43
0.2
 10
113.9
 20
-3.674999999999998
 10
113.975
 20
-3.725
 10
114.925
 20
-3.725
 10
113.9
 20
-3.674999999999998
  0
HATCH
  5
C69
330
11D
100
AcDbEntity
  8
0
100
AcDbHatch
 10
0.0
 20
0.0
 30
0.0
210
0.0
220
0.0
230
1.0
  2
SOLID
 70
     1
 71
     0
 91
        1
 92
        7
 72
     0
 73
     1
 93
        3
 10
113.9
 20
-3.674999999999998
 10
114.975
 20
-3.674999999999998
 10
114.925
 20
-3.725
 97
        1
330
C6C
 75
     0
 76
     1
 47
0.651316
 98
        1
 10
0.0
 20
0.0
  0
LWPOLYLINE
  5
C6C
330
11D
100
AcDbEntity
  8
0
100
AcDbPolyline
 90
        4
 70
     0
 43
0.2
 10
113.9
 20
-3.674999999999998
 10
114.975
 20
-3.674999999999998
 10
114.925
 20
-3.725
 10
113.9
 20
-3.674999999999998
  0
HATCH
  5
C77
330
11D
100
AcDbEntity
  8
0
100
AcDbHatch
 10
0.0
 20
0.0
 30
0.0
210
0.0
220
0.0
230
1.0
  2
SOLID
 70
     1
 71
     0
 91
        1
 92
        7
 72
     0
 73
     1
 93
        3
 10
113.975
 20
-3.725
 10
114.05
 20
-3.799999999999998
 10
114.85
 20
-3.799999999999998
 97
        1
330
C7A
 75
     0
 76
     1
 47
0.651316
 98
        1
 10
0.0
 20
0.0
  0
LWPOLYLINE
  5
C7A
330
11D
100
AcDbEntity
  8
0
100
AcDbPolyline
 90
        4
 70
     0
 43
0.2
 10
113.975
 20
-3.725
 10
114.05
 20
-3.799999999999998
 10
114.85
 20
-3.799999999999998
 10
113.975
 20
-3.725
  0
HATCH
  5
C85
330
11D
100
AcDbEntity
  8
0
100
AcDbHatch
 10
0.0
 20
0.0
 30
0.0
210
0.0
220
0.0
230
1.0
  2
SOLID
 70
     1
 71
     0
 91
        1
 92
        7
 72
     0
 73
     1
 93
        3
 10
113.975
 20
-3.725
 10
114.925
 20
-3.725
 10
114.85
 20
-3.799999999999998
 97
        1
330
C88
 75
     0
 76
     1
 47
0.651316
 98
        1
 10
0.0
 20
0.0
  0
LWPOLYLINE
  5
C88
330
11D
100
AcDbEntity
  8
0
100
AcDbPolyline
 90
        4
 70
     0
 43
0.2
 10
113.975
 20
-3.725
 10
114.925
 20
-3.725
 10
114.85
 20
-3.799999999999998
 10
113.975
 20
-3.725
  0
HATCH
  5
C93
330
11D
100
AcDbEntity
  8
0
100
AcDbHatch
 10
0.0
 20
0.0
 30
0.0
210
0.0
220
0.0
230
1.0
  2
SOLID
 70
     1
 71
     0
 91
        1
 92
        7
 72
     0
 73
     1
 93
        3
 10
114.05
 20
-3.799999999999998
 10
114.125
 20
-3.85
 10
114.75
 20
-3.85
 97
        1
330
C96
 75
     0
 76
     1
 47
0.651316
 98
        1
 10
0.0
 20
0.0
  0
LWPOLYLINE
  5
C96
330
11D
100
AcDbEntity
  8
0
100
AcDbPolyline
 90
        4
 70
     0
 43
0.2
 10
114.05
 20
-3.799999999999998
 10
114.125
 20
-3.85
 10
114.75
 20
-3.85
 10
114.05
 20
-3.799999999999998
  0
HATCH
  5
CA1
330
11D
100
AcDbEntity
  8
0
100
AcDbHatch
 10
0.0
 20
0.0
 30
0.0
210
0.0
220
0.0
230
1.0
  2
SOLID
 70
     1
 71
     0
 91
        1
 92
        7
 72
     0
 73
     1
 93
        3
 10
114.05
 20
-3.799999999999998
 10
114.85
 20
-3.799999999999998
 10
114.75
 20
-3.85
 97
        1
330
CA4
 75
     0
 76
     1
 47
0.651316
 98
        1
 10
0.0
 20
0.0
  0
LWPOLYLINE
  5
CA4
330
11D
100
AcDbEntity
  8
0
100
AcDbPolyline
 90
        4
 70
     0
 43
0.2
 10
114.05
 20
-3.799999999999998
 10
114.85
 20
-3.799999999999998
 10
114.75
 20
-3.85
 10
114.05
 20
-3.799999999999998
  0
HATCH
  5
CAF
330
11D
100
AcDbEntity
  8
0
100
AcDbHatch
 10
0.0
 20
0.0
 30
0.0
210
0.0
220
0.0
230
1.0
  2
SOLID
 70
     1
 71
     0
 91
        1
 92
        7
 72
     0
 73
     1
 93
        3
 10
114.125
 20
-3.85
 10
114.225
 20
-3.9
 10
114.65
 20
-3.9
 97
        1
330
CB2
 75
     0
 76
     1
 47
0.651316
 98
        1
 10
0.0
 20
0.0
  0
LWPOLYLINE
  5
CB2
330
11D
100
AcDbEntity
  8
0
100
AcDbPolyline
 90
        4
 70
     0
 43
0.2
 10
114.125
 20
-3.85
 10
114.225
 20
-3.9
 10
114.65
 20
-3.9
 10
114.125
 20
-3.85
  0
HATCH
  5
CBD
330
11D
100
AcDbEntity
  8
0
100
AcDbHatch
 10
0.0
 20
0.0
 30
0.0
210
0.0
220
0.0
230
1.0
  2
SOLID
 70
     1
 71
     0
 91
        1
 92
        7
 72
     0
 73
     1
 93
        3
 10
114.125
 20
-3.85
 10
114.75
 20
-3.85
 10
114.65
 20
-3.9
 97
        1
330
CC0
 75
     0
 76
     1
 47
0.651316
 98
        1
 10
0.0
 20
0.0
  0
LWPOLYLINE
  5
CC0
330
11D
100
AcDbEntity
  8
0
100
AcDbPolyline
 90
        4
 70
     0
 43
0.2
 10
114.125
 20
-3.85
 10
114.75
 20
-3.85
 10
114.65
 20
-3.9
 10
114.125
 20
-3.85
  0
HATCH
  5
CCB
330
11D
100
AcDbEntity
  8
0
100
AcDbHatch
 10
0.0
 20
0.0
 30
0.0
210
0.0
220
0.0
230
1.0
  2
SOLID
 70
     1
 71
     0
 91
        1
 92
        7
 72
     0
 73
     1
 93
        3
 10
114.225
 20
-3.9
 10
114.325
 20
-3.924999999999998
 10
114.55
 20
-3.924999999999998
 97
        1
330
CCE
 75
     0
 76
     1
 47
0.651316
 98
        1
 10
0.0
 20
0.0
  0
LWPOLYLINE
  5
CCE
330
11D
100
AcDbEntity
  8
0
100
AcDbPolyline
 90
        4
 70
     0
 43
0.2
 10
114.225
 20
-3.9
 10
114.325
 20
-3.924999999999998
 10
114.55
 20
-3.924999999999998
 10
114.225
 20
-3.9
  0
HATCH
  5
CD9
330
11D
100
AcDbEntity
  8
0
100
AcDbHatch
 10
0.0
 20
0.0
 30
0.0
210
0.0
220
0.0
230
1.0
  2
SOLID
 70
     1
 71
     0
 91
        1
 92
        7
 72
     0
 73
     1
 93
        3
 10
114.225
 20
-3.9
 10
114.65
 20
-3.9
 10
114.55
 20
-3.924999999999998
 97
        1
330
CDC
 75
     0
 76
     1
 47
0.651316
 98
        1
 10
0.0
 20
0.0
  0
LWPOLYLINE
  5
CDC
330
11D
100
AcDbEntity
  8
0
100
AcDbPolyline
 90
        4
 70
     0
 43
0.2
 10
114.225
 20
-3.9
 10
114.65
 20
-3.9
 10
114.55
 20
-3.924999999999998
 10
114.225
 20
-3.9
  0
HATCH
  5
CE7
330
11D
100
AcDbEntity
  8
0
100
AcDbHatch
 10
0.0
 20
0.0
 30
0.0
210
0.0
220
0.0
230
1.0
  2
SOLID
 70
     1
 71
     0
 91
        1
 92
        7
 72
     0
 73
     1
 93
        2
 10
114.325
 20
-3.924999999999998
 10
114.45
 20
-3.924999999999998
 97
        1
330
CEA
 75
     0
 76
     1
 47
0.651316
 98
        1
 10
0.0
 20
0.0
  0
LWPOLYLINE
  5
CEA
330
11D
100
AcDbEntity
  8
0
100
AcDbPolyline
 90
        4
 70
     0
 43
0.2
 10
114.325
 20
-3.924999999999998
 10
114.325
 20
-3.924999999999998
 10
114.45
 20
-3.924999999999998
 10
114.325
 20
-3.924999999999998
  0
HATCH
  5
CF5
330
11D
100
AcDbEntity
  8
0
100
AcDbHatch
 10
0.0
 20
0.0
 30
0.0
210
0.0
220
0.0
230
1.0
  2
SOLID
 70
     1
 71
     0
 91
        1
 92
        7
 72
     0
 73
     1
 93
        2
 10
114.45
 20
-3.924999999999998
 10
114.55
 20
-3.924999999999998
 97
        1
330
CF8
 75
     0
 76
     1
 47
0.651316
 98
        1
 10
0.0
 20
0.0
  0
LWPOLYLINE
  5
CF8
330
11D
100
AcDbEntity
  8
0
100
AcDbPolyline
 90
        4
 70
     0
 43
0.2
 10
114.45
 20
-3.924999999999998
 10
114.45
 20
-3.924999999999998
 10
114.55
 20
-3.924999999999998
 10
114.45
 20
-3.924999999999998
  0
LINE
  5
D03
330
11D
100
AcDbEntity
  8
0
370
    20
100
AcDbLine
 10
113.875
 20
-1.25
 30
0.0
 11
115.1
 21
-1.25
 31
0.0
  0
LINE
  5
D06
330
11D
100
AcDbEntity
  8
0
370
    20
100
AcDbLine
 10
113.875
 20
-1.25
 30
0.0
 11
113.875
 21
-1.524999999999999
 31
0.0
  0
LINE
  5
D09
330
11D
100
AcDbEntity
  8
0
370
    20
100
AcDbLine
 10
115.1
 20
-1.25
 30
0.0
 11
115.1
 21
-1.524999999999999
 31
0.0
  0
LINE
  5
D0C
330
11D
100
AcDbEntity
  8
0
370
    20
100
AcDbLine
 10
113.875
 20
-1.524999999999999
 30
0.0
 11
114.65
 21
-1.524999999999999
 31
0.0
  0
LINE
  5
D0F
330
11D
100
AcDbEntity
  8
0
370
    20
100
AcDbLine
 10
114.65
 20
-1.524999999999999
 30
0.0
 11
114.65
 21
-3.049999999999998
 31
0.0
  0
LINE
  5
D12
330
11D
100
AcDbEntity
  8
0
370
    20
100
AcDbLine
 10
115.1
 20
-1.524999999999999
 30
0.0
 11
115.1
 21
-3.049999999999998
 31
0.0
  0
LINE
  5
D15
330
11D
100
AcDbEntity
  8
0
370
    20
100
AcDbLine
 10
113.775
 20
-3.049999999999998
 30
0.0
 11
113.775
 21
-3.225
 31
0.0
  0
LINE
  5
D18
330
11D
100
AcDbEntity
  8
0
370
    20
100
AcDbLine
 10
114.025
 20
-3.225
 30
0.0
 11
113.775
 21
-3.049999999999998
 31
0.0
  0
LINE
  5
D1B
330
11D
100
AcDbEntity
  8
0
370
    20
100
AcDbLine
 10
114.65
 20
-3.049999999999998
 30
0.0
 11
114.65
 21
-3.225
 31
0.0
  0
LINE
  5
D1E
330
11D
100
AcDbEntity
  8
0
370
    20
100
AcDbLine
 10
115.1
 20
-3.049999999999998
 30
0.0
 11
115.1
 21
-3.225
 31
0.0
  0
LINE
  5
D21
330
11D
100
AcDbEntity
  8
0
370
    20
100
AcDbLine
 10
113.775
 20
-3.225
 30
0.0
 11
113.775
 21
-3.25
 31
0.0
  0
LINE
  5
D24
330
11D
100
AcDbEntity
  8
0
370
    20
100
AcDbLine
 10
114.025
 20
-3.225
 30
0.0
 11
114.05
 21
-3.25
 31
0.0
  0
LINE
  5
D27
330
11D
100
AcDbEntity
  8
0
370
    20
100
AcDbLine
 10
114.65
 20
-3.225
 30
0.0
 11
114.65
 21
-3.25
 31
0.0
  0
LINE
  5
D2A
330
11D
100
AcDbEntity
  8
0
370
    20
100
AcDbLine
 10
115.1
 20
-3.225
 30
0.0
 11
115.1
 21
-3.25
 31
0.0
  0
LINE
  5
D2D
330
11D
100
AcDbEntity
  8
0
370
    20
100
AcDbLine
 10
113.775
 20
-3.25
 30
0.0
 11
113.775
 21
-3.274999999999999
 31
0.0
  0
LINE
  5
D30
330
11D
100
AcDbEntity
  8
0
370
    20
100
AcDbLine
 10
114.05
 20
-3.25
 30
0.0
 11
114.05
 21
-3.274999999999999
 31
0.0
  0
LINE
  5
D33
330
11D
100
AcDbEntity
  8
0
370
    20
100
AcDbLine
 10
114.65
 20
-3.25
 30
0.0
 11
114.625
 21
-3.274999999999999
 31
0.0
  0
LINE
  5
D36
330
11D
100
AcDbEntity
  8
0
370
    20
100
AcDbLine
 10
115.1
 20
-3.25
 30
0.0
 11
115.1
 21
-3.274999999999999
 31
0.0
  0
LINE
  5
D39
330
11D
100
AcDbEntity
  8
0
370
    20
100
AcDbLine
 10
113.775
 20
-3.274999999999999
 30
0.0
 11
113.775
 21
-3.299999999999998
 31
0.0
  0
LINE
  5
D3C
330
11D
100
AcDbEntity
  8
0
370
    20
100
AcDbLine
 10
114.05
 20
-3.274999999999999
 30
0.0
 11
114.05
 21
-3.299999999999998
 31
0.0
  0
LINE
  5
D3F
330
11D
100
AcDbEntity
  8
0
370
    20
100
AcDbLine
 10
114.625
 20
-3.274999999999999
 30
0.0
 11
114.625
 21
-3.299999999999998
 31
0.0
  0
LINE
  5
D42
330
11D
100
AcDbEntity
  8
0
370
    20
100
AcDbLine
 10
115.1
 20
-3.274999999999999
 30
0.0
 11
115.1
 21
-3.299999999999998
 31
0.0
  0
LINE
  5
D45
330
11D
100
AcDbEntity
  8
0
370
    20
100
AcDbLine
 10
113.775
 20
-3.299999999999998
 30
0.0
 11
113.775
 21
-3.325
 31
0.0
  0
LINE
  5
D48
330
11D
100
AcDbEntity
  8
0
370
    20
100
AcDbLine
 10
114.05
 20
-3.299999999999998
 30
0.0
 11
114.075
 21
-3.325
 31
0.0
  0
LINE
  5
D4B
330
11D
100
AcDbEntity
  8
0
370
    20
100
AcDbLine
 10
114.625
 20
-3.299999999999998
 30
0.0
 11
114.575
 21
-3.325
 31
0.0
  0
LINE
  5
D4E
330
11D
100
AcDbEntity
  8
0
370
    20
100
AcDbLine
 10
115.1
 20
-3.299999999999998
 30
0.0
 11
115.1
 21
-3.325
 31
0.0
  0
LINE
  5
D51
330
11D
100
AcDbEntity
  8
0
370
    20
100
AcDbLine
 10
113.775
 20
-3.325
 30
0.0
 11
113.8
 21
-3.35
 31
0.0
  0
LINE
  5
D54
330
11D
100
AcDbEntity
  8
0
370
    20
100
AcDbLine
 10
114.075
 20
-3.325
 30
0.0
 11
114.1
 21
-3.35
 31
0.0
  0
LINE
  5
D57
330
11D
100
AcDbEntity
  8
0
370
    20
100
AcDbLine
 10
114.575
 20
-3.325
 30
0.0
 11
114.575
 21
-3.35
 31
0.0
  0
LINE
  5
D5A
330
11D
100
AcDbEntity
  8
0
370
    20
100
AcDbLine
 10
115.1
 20
-3.325
 30
0.0
 11
115.1
 21
-3.35
 31
0.0
  0
LINE
  5
D5D
330
11D
100
AcDbEntity
  8
0
370
    20
100
AcDbLine
 10
114.55
 20
-3.35
 30
0.0
 11
114.575
 21
-3.35
 31
0.0
  0
LINE
  5
D60
330
11D
100
AcDbEntity
  8
0
370
    20
100
AcDbLine
 10
113.8
 20
-3.35
 30
0.0
 11
113.8
 21
-3.375
 31
0.0
  0
LINE
  5
D63
330
11D
100
AcDbEntity
  8
0
370
    20
100
AcDbLine
 10
114.1
 20
-3.35
 30
0.0
 11
114.125
 21
-3.375
 31
0.0
  0
LINE
  5
D66
330
11D
100
AcDbEntity
  8
0
370
    20
100
AcDbLine
 10
114.55
 20
-3.35
 30
0.0
 11
114.5
 21
-3.375
 31
0.0
  0
LINE
  5
D69
330
11D
100
AcDbEntity
  8
0
370
    20
100
AcDbLine
 10
115.1
 20
-3.35
 30
0.0
 11
115.1
 21
-3.375
 31
0.0
  0
LINE
  5
D6C
330
11D
100
AcDbEntity
  8
0
370
    20
100
AcDbLine
 10
113.8
 20
-3.375
 30
0.0
 11
113.8
 21
-3.399999999999999
 31
0.0
  0
LINE
  5
D6F
330
11D
100
AcDbEntity
  8
0
370
    20
100
AcDbLine
 10
114.125
 20
-3.375
 30
0.0
 11
114.175
 21
-3.399999999999999
 31
0.0
  0
LINE
  5
D72
330
11D
100
AcDbEntity
  8
0
370
    20
100
AcDbLine
 10
114.5
 20
-3.375
 30
0.0
 11
114.475
 21
-3.399999999999999
 31
0.0
  0
LINE
  5
D75
330
11D
100
AcDbEntity
  8
0
370
    20
100
AcDbLine
 10
115.1
 20
-3.375
 30
0.0
 11
115.075
 21
-3.399999999999999
 31
0.0
  0
LINE
  5
D78
330
11D
100
AcDbEntity
  8
0
370
    20
100
AcDbLine
 10
113.8
 20
-3.399999999999999
 30
0.0
 11
113.825
 21
-3.45
 31
0.0
  0
LINE
  5
D7B
330
11D
100
AcDbEntity
  8
0
370
    20
100
AcDbLine
 10
114.175
 20
-3.399999999999999
 30
0.0
 11
114.225
 21
-3.45
 31
0.0
  0
LINE
  5
D7E
330
11D
100
AcDbEntity
  8
0
370
    20
100
AcDbLine
 10
114.475
 20
-3.399999999999999
 30
0.0
 11
114.425
 21
-3.45
 31
0.0
  0
LINE
  5
D81
330
11D
100
AcDbEntity
  8
0
370
    20
100
AcDbLine
 10
115.075
 20
-3.399999999999999
 30
0.0
 11
115.075
 21
-3.45
 31
0.0
  0
LINE
  5
D84
330
11D
100
AcDbEntity
  8
0
370
    20
100
AcDbLine
 10
114.225
 20
-3.45
 30
0.0
 11
114.275
 21
-3.45
 31
0.0
  0
LINE
  5
D87
330
11D
100
AcDbEntity
  8
0
370
    20
100
AcDbLine
 10
114.275
 20
-3.45
 30
0.0
 11
114.325
 21
-3.45
 31
0.0
  0
LINE
  5
D8A
330
11D
100
AcDbEntity
  8
0
370
    20
100
AcDbLine
 10
114.325
 20
-3.45
 30
0.0
 11
114.4
 21
-3.45
 31
0.0
  0
LINE
  5
D8D
330
11D
100
AcDbEntity
  8
0
370
    20
100
AcDbLine
 10
114.4
 20
-3.45
 30
0.0
 11
114.425
 21
-3.45
 31
0.0
  0
LINE
  5
D90
330
11D
100
AcDbEntity
  8
0
370
    20
100
AcDbLine
 10
113.825
 20
-3.45
 30
0.0
 11
113.825
 21
-3.475
 31
0.0
  0
LINE
  5
D93
330
11D
100
AcDbEntity
  8
0
370
    20
100
AcDbLine
 10
115.075
 20
-3.45
 30
0.0
 11
115.075
 21
-3.475
 31
0.0
  0
LINE
  5
D96
330
11D
100
AcDbEntity
  8
0
370
    20
100
AcDbLine
 10
113.825
 20
-3.475
 30
0.0
 11
113.85
 21
-3.549999999999998
 31
0.0
  0
LINE
  5
D99
330
11D
100
AcDbEntity
  8
0
370
    20
100
AcDbLine
 10
115.075
 20
-3.475
 30
0.0
 11
115.0
 21
-3.549999999999998
 31
0.0
  0
LINE
  5
D9C
330
11D
100
AcDbEntity
  8
0
370
    20
100
AcDbLine
 10
113.85
 20
-3.549999999999998
 30
0.0
 11
113.9
 21
-3.674999999999998
 31
0.0
  0
LINE
  5
D9F
330
11D
100
AcDbEntity
  8
0
370
    20
100
AcDbLine
 10
115.0
 20
-3.549999999999998
 30
0.0
 11
114.975
 21
-3.674999999999998
 31
0.0
  0
LINE
  5
DA2
330
11D
100
AcDbEntity
  8
0
370
    20
100
AcDbLine
 10
113.9
 20
-3.674999999999998
 30
0.0
 11
113.975
 21
-3.725
 31
0.0
  0
LINE
  5
DA5
330
11D
100
AcDbEntity
  8
0
370
    20
100
AcDbLine
 10
114.975
 20
-3.674999999999998
 30
0.0
 11
114.925
 21
-3.725
 31
0.0
  0
LINE
  5
DA8
330
11D
100
AcDbEntity
  8
0
370
    20
100
AcDbLine
 10
113.975
 20
-3.725
 30
0.0
 11
114.05
 21
-3.799999999999998
 31
0.0
  0
LINE
  5
DAB
330
11D
100
AcDbEntity
  8
0
370
    20
100
AcDbLine
 10
114.925
 20
-3.725
 30
0.0
 11
114.85
 21
-3.799999999999998
 31
0.0
  0
LINE
  5
DAE
330
11D
100
AcDbEntity
  8
0
370
    20
100
AcDbLine
 10
114.05
 20
-3.799999999999998
 30
0.0
 11
114.125
 21
-3.85
 31
0.0
  0
LINE
  5
DB1
330
11D
100
AcDbEntity
  8
0
370
    20
100
AcDbLine
 10
114.85
 20
-3.799999999999998
 30
0.0
 11
114.75
 21
-3.85
 31
0.0
  0
LINE
  5
DB4
330
11D
100
AcDbEntity
  8
0
370
    20
100
AcDbLine
 10
114.125
 20
-3.85
 30
0.0
 11
114.225
 21
-3.9
 31
0.0
  0
LINE
  5
DB7
330
11D
100
AcDbEntity
  8
0
370
    20
100
AcDbLine
 10
114.75
 20
-3.85
 30
0.0
 11
114.65
 21
-3.9
 31
0.0
  0
LINE
  5
DBA
330
11D
100
AcDbEntity
  8
0
370
    20
100
AcDbLine
 10
114.225
 20
-3.9
 30
0.0
 11
114.325
 21
-3.924999999999998
 31
0.0
  0
LINE
  5
DBD
330
11D
100
AcDbEntity
  8
0
370
    20
100
AcDbLine
 10
114.65
 20
-3.9
 30
0.0
 11
114.55
 21
-3.924999999999998
 31
0.0
  0
LINE
  5
DC0
330
11D
100
AcDbEntity
  8
0
370
    20
100
AcDbLine
 10
114.325
 20
-3.924999999999998
 30
0.0
 11
114.45
 21
-3.924999999999998
 31
0.0
  0
LINE
  5
DC3
330
11D
100
AcDbEntity
  8
0
370
    20
100
AcDbLine
 10
114.45
 20
-3.924999999999998
 30
0.0
 11
114.55
 21
-3.924999999999998
 31
0.0
  0
LWPOLYLINE
  5
DC6
330
11D
100
AcDbEntity
  8
0
100
AcDbPolyline
 90
       47
 70
     1
 43
0.2
 10
113.875
 20
-1.25
 10
115.1
 20
-1.25
 10
115.1
 20
-3.274999999999999
 10
115.1
 20
-3.375
 10
115.075
 20
-3.475
 10
115.0
 20
-3.549999999999998
 10
114.975
 20
-3.674999999999998
 10
114.925
 20
-3.725
 10
114.85
 20
-3.799999999999998
 10
114.75
 20
-3.85
 10
114.65
 20
-3.9
 10
114.55
 20
-3.924999999999998
 10
114.45
 20
-3.924999999999998
 10
114.325
 20
-3.924999999999998
 10
114.225
 20
-3.9
 10
114.125
 20
-3.85
 10
114.05
 20
-3.799999999999998
 10
113.975
 20
-3.725
 10
113.9
 20
-3.674999999999998
 10
113.85
 20
-3.549999999999998
 10
113.825
 20
-3.475
 10
113.8
 20
-3.375
 10
113.775
 20
-3.274999999999999
 10
113.775
 20
-3.049999999999998
 10
114.025
 20
-3.225
 10
114.05
 20
-3.25
 10
114.05
 20
-3.274999999999999
 10
114.05
 20
-3.299999999999998
 10
114.075
 20
-3.325
 10
114.1
 20
-3.35
 10
114.125
 20
-3.375
 10
114.175
 20
-3.399999999999999
 10
114.225
 20
-3.45
 10
114.275
 20
-3.45
 10
114.325
 20
-3.45
 10
114.4
 20
-3.45
 10
114.425
 20
-3.45
 10
114.475
 20
-3.399999999999999
 10
114.5
 20
-3.375
 10
114.55
 20
-3.35
 10
114.575
 20
-3.35
 10
114.575
 20
-3.325
 10
114.625
 20
-3.299999999999998
 10
114.65
 20
-3.25
 10
114.65
 20
-3.225
 10
114.65
 20
-1.524999999999999
 10
113.875
 20
-1.524999999999999
  0
HATCH
  5
E27
330
11D
100
AcDbEntity
  8
0
100
AcDbHatch
 10
0.0
 20
0.0
 30
0.0
210
0.0
220
0.0
230
1.0
  2
SOLID
 70
     1
 71
     0
 91
        1
 92
        7
 72
     0
 73
     1
 93
        2
 10
117.45
 20
-1.25
 10
117.45
 20
-1.274999999999999
 97
        1
330
E2A
 75
     0
 76
     1
 47
0.651316
 98
        1
 10
0.0
 20
0.0
  0
LWPOLYLINE
  5
E2A
330
11D
100
AcDbEntity
  8
0
100
AcDbPolyline
 90
        3
 70
     1
 43
0.2
 10
117.45
 20
-1.25
 10
117.45
 20
-1.274999999999999
 10
117.45
 20
-1.274999999999999
  0
HATCH
  5
E33
330
11D
100
AcDbEntity
  8
0
100
AcDbHatch
 10
0.0
 20
0.0
 30
0.0
210
0.0
220
0.0
230
1.0
  2
SOLID
 70
     1
 71
     0
 91
        1
 92
        7
 72
     0
 73
     1
 93
        2
 10
117.45
 20
-1.274999999999999
 10
117.95
 20
-1.274999999999999
 97
        1
330
E36
 75
     0
 76
     1
 47
0.651316
 98
        1
 10
0.0
 20
0.0
  0
LWPOLYLINE
  5
E36
330
11D
100
AcDbEntity
  8
0
100
AcDbPolyline
 90
        3
 70
     1
 43
0.2
 10
117.45
 20
-1.274999999999999
 10
117.45
 20
-1.274999999999999
 10
117.95
 20
-1.274999999999999
  0
HATCH
  5
E3F
330
11D
100
AcDbEntity
  8
0
100
AcDbHatch
 10
0.0
 20
0.0
 30
0.0
210
0.0
220
0.0
230
1.0
  2
SOLID
 70
     1
 71
     0
 91
        1
 92
        7
 72
     0
 73
     1
 93
        3
 10
117.45
 20
-1.274999999999999
 10
117.45
 20
-3.9
 10
117.95
 20
-3.9
 97
        1
330
E42
 75
     0
 76
     1
 47
0.651316
 98
        1
 10
0.0
 20
0.0
  0
LWPOLYLINE
  5
E42
330
11D
100
AcDbEntity
  8
0
100
AcDbPolyline
 90
        3
 70
     1
 43
0.2
 10
117.45
 20
-1.274999999999999
 10
117.45
 20
-3.9
 10
117.95
 20
-3.9
  0
HATCH
  5
E4B
330
11D
100
AcDbEntity
  8
0
100
AcDbHatch
 10
0.0
 20
0.0
 30
0.0
210
0.0
220
0.0
230
1.0
  2
SOLID
 70
     1
 71
     0
 91
        1
 92
        7
 72
     0
 73
     1
 93
        3
 10
117.45
 20
-1.274999999999999
 10
117.95
 20
-1.274999999999999
 10
117.95
 20
-3.9
 97
        1
330
E4E
 75
     0
 76
     1
 47
0.651316
 98
        1
 10
0.0
 20
0.0
  0
LWPOLYLINE
  5
E4E
330
11D
100
AcDbEntity
  8
0
100
AcDbPolyline
 90
        3
 70
     1
 43
0.2
 10
117.45
 20
-1.274999999999999
 10
117.95
 20
-1.274999999999999
 10
117.95
 20
-3.9
  0
HATCH
  5
E57
330
11D
100
AcDbEntity
  8
0
100
AcDbHatch
 10
0.0
 20
0.0
 30
0.0
210
0.0
220
0.0
230
1.0
  2
SOLID
 70
     1
 71
     0
 91
        1
 92
        7
 72
     0
 73
     1
 93
        2
 10
117.45
 20
-3.9
 10
117.95
 20
-3.9
 97
        1
330
E5A
 75
     0
 76
     1
 47
0.651316
 98
        1
 10
0.0
 20
0.0
  0
LWPOLYLINE
  5
E5A
330
11D
100
AcDbEntity
  8
0
100
AcDbPolyline
 90
        3
 70
     1
 43
0.2
 10
117.45
 20
-3.9
 10
117.45
 20
-3.9
 10
117.95
 20
-3.9
  0
LINE
  5
E63
330
11D
100
AcDbEntity
  8
0
370
    20
100
AcDbLine
 10
117.45
 20
-1.25
 30
0.0
 11
117.45
 21
-1.274999999999999
 31
0.0
  0
LINE
  5
E66
330
11D
100
AcDbEntity
  8
0
370
    20
100
AcDbLine
 10
117.45
 20
-1.274999999999999
 30
0.0
 11
117.45
 21
-1.25
 31
0.0
  0
LINE
  5
E69
330
11D
100
AcDbEntity
  8
0
370
    20
100
AcDbLine
 10
117.45
 20
-1.274999999999999
 30
0.0
 11
117.95
 21
-1.274999999999999
 31
0.0
  0
LINE
  5
E6C
330
11D
100
AcDbEntity
  8
0
370
    20
100
AcDbLine
 10
117.45
 20
-1.274999999999999
 30
0.0
 11
117.45
 21
-3.9
 31
0.0
  0
LINE
  5
E6F
330
11D
100
AcDbEntity
  8
0
370
    20
100
AcDbLine
 10
117.95
 20
-1.274999999999999
 30
0.0
 11
117.95
 21
-3.9
 31
0.0
  0
LINE
  5
E72
330
11D
100
AcDbEntity
  8
0
370
    20
100
AcDbLine
 10
117.45
 20
-3.9
 30
0.0
 11
117.95
 21
-3.9
 31
0.0
  0
LWPOLYLINE
  5
E75
330
11D
100
AcDbEntity
  8
0
100
AcDbPolyline
 90
        5
 70
     0
 43
0.2
 10
117.45
 20
-1.25
 10
117.45
 20
-3.9
 10
117.95
 20
-3.9
 10
117.95
 20
-1.274999999999999
 10
117.45
 20
-1.274999999999999
  0
MTEXT
  5
100000BA
330
11D
100
AcDbEntity
  8
0
100
AcDbMText
 10
145.0297470642144
 20
137.1431489686993
 30
0.0
 40
2.299999999999999
 41
63.0
 71
     1
 72
     5
  1
{\fMS Gothic|b0|i0|c128|p49;\T1.4384;電源表示ランプ（赤色）}
  7
BIGFONT
 73
     1
 44
0.7800000000000002
1001
ACAD
1000
MTEXTBEGIN
1070
    73
1070
     1
1070
    44
1040
0.7800000000000002
1070
    74
1070
     0
1000
MTEXTEND
  0
MTEXT
  5
100000C1
330
11D
100
AcDbEntity
  8
0
100
AcDbMText
 10
41.83149156292243
 20
58.72587180765396
 30
0.0
 40
2.625
 41
66.15000000000001
 71
     1
 72
     5
  1
\fＭＳ ゴシック|b0|i0|c128|p49;\T1.4384;DC24V±10%　100mA以下
  7
BIGFONT
 73
     1
 44
0.7800000000000002
1001
ACAD
1000
MTEXTBEGIN
1070
    73
1070
     1
1070
    44
1040
0.7800000000000002
1070
    74
1070
     0
1000
MTEXTEND
  0
MTEXT
  5
10000122
330
11D
100
AcDbEntity
  8
0
100
AcDbMText
 10
149.9910024561859
 20
209.8079801375356
 30
0.0
 40
3.5
 41
3.149999999999999
 71
     1
 72
     5
  1
\fＭＳ ゴシック|b0|i0|c128|p49;\T0.9100;6
  7
BIGFONT
 73
     1
 44
0.6
1001
ACAD
1000
MTEXTBEGIN
1070
    73
1070
     1
1070
    44
1040
0.6
1070
    74
1070
     0
1000
MTEXTEND
  0
MTEXT
  5
10000129
330
11D
100
AcDbEntity
  8
0
100
AcDbMText
 10
59.61596183063988
 20
136.5868382571058
 30
0.0
 40
3.5
 41
3.149999999999999
 71
     1
 72
     5
  1
\fＭＳ ゴシック|b0|i0|c128|p49;\T0.9100;7
  7
BIGFONT
 73
     1
 44
0.6
1001
ACAD
1000
MTEXTBEGIN
1070
    73
1070
     1
1070
    44
1040
0.6
1070
    74
1070
     0
1000
MTEXTEND
  0
MTEXT
  5
100001BC
330
11D
100
AcDbEntity
  8
0
100
AcDbMText
 10
95.13749999999999
 20
259.9125
 30
0.0
 40
3.5
 41
100.0
 71
     5
 72
     5
  1
{\fMS PMincho|b0|i0|c128|p18;１個用埋込型１０キー端末}
  7
BIGFONT
 73
     1
 44
1.0
1001
ACAD
1000
MTEXTBEGIN
1070
    73
1070
     1
1070
    44
1040
1.0
1070
    74
1070
     0
1000
MTEXTEND
  0
MTEXT
  5
100001BE
330
11D
100
AcDbEntity
  8
0
100
AcDbMText
 10
182.75
 20
259.9125
 30
0.0
 40
3.5
 41
50.0
 71
     6
 72
     5
  1
{\fMS PMincho|b0|i0|c128|p18;WP0210-05}
  7
BIGFONT
 73
     1
 44
1.0
1001
ACAD
1000
MTEXTBEGIN
1070
    73
1070
     1
1070
    44
1040
1.0
1070
    74
1070
     0
1000
MTEXTEND
  0
ENDSEC
  0
SECTION
  2
OBJECTS
  0
DICTIONARY
  5
ED5
330
0
100
AcDbDictionary
281
     1
  3
ACAD_COLOR
350
ED6
  3
ACAD_GROUP
350
ED7
  3
ACAD_LAYOUT
350
ED8
  3
ACAD_MATERIAL
350
ED9
  3
ACAD_MLEADERSTYLE
350
10000050
  3
ACAD_MLINESTYLE
350
EDA
  3
ACAD_PLOTSETTINGS
350
10000053
  3
ACAD_PLOTSTYLENAME
350
10000001
  3
ACAD_SCALELIST
350
1000002E
  3
ACAD_TABLESTYLE
350
1000002C
  3
ACAD_VISUALSTYLE
350
1000001B
  3
ACDB_RECOMPOSE_DATA
350
10000080
  3
AcDbVariableDictionary
350
10000076
  3
CONTENTDICTIONARY
350
EE0
  3
DWGPROPS
350
100001C8
  0
DICTIONARY
  5
10000156
330
A2
100
AcDbDictionary
280
     1
281
     1
  0
DICTIONARY
  5
1000005A
330
CF
100
AcDbDictionary
280
     1
281
     1
  3
ADSK_XREC_LAYER_RECONCILED
360
1000005B
  0
DICTIONARY
  5
1000005C
330
D2
100
AcDbDictionary
280
     1
281
     1
  3
ADSK_XREC_LAYER_RECONCILED
360
1000005D
  0
DICTIONARY
  5
1000005E
330
D5
100
AcDbDictionary
280
     1
281
     1
  3
ADSK_XREC_LAYER_RECONCILED
360
1000005F
  0
DICTIONARY
  5
10000060
330
D8
100
AcDbDictionary
280
     1
281
     1
  3
ADSK_XREC_LAYER_RECONCILED
360
10000061
  0
DICTIONARY
  5
10000062
330
DB
100
AcDbDictionary
280
     1
281
     1
  3
ADSK_XREC_LAYER_RECONCILED
360
10000063
  0
DICTIONARY
  5
10000064
330
DE
100
AcDbDictionary
280
     1
281
     1
  3
ADSK_XREC_LAYER_RECONCILED
360
10000065
  0
DICTIONARY
  5
10000066
330
E1
100
AcDbDictionary
280
     1
281
     1
  3
ADSK_XREC_LAYER_RECONCILED
360
10000067
  0
DICTIONARY
  5
10000068
330
E4
100
AcDbDictionary
280
     1
281
     1
  3
ADSK_XREC_LAYER_RECONCILED
360
10000069
  0
DICTIONARY
  5
1000006A
330
E7
100
AcDbDictionary
280
     1
281
     1
  3
ADSK_XREC_LAYER_RECONCILED
360
1000006B
  0
DICTIONARY
  5
1000006C
330
EA
100
AcDbDictionary
280
     1
281
     1
  3
ADSK_XREC_LAYER_RECONCILED
360
1000006D
  0
DICTIONARY
  5
1000006E
330
ED
100
AcDbDictionary
280
     1
281
     1
  3
ADSK_XREC_LAYER_RECONCILED
360
1000006F
  0
DICTIONARY
  5
10000070
330
F0
100
AcDbDictionary
280
     1
281
     1
  3
ADSK_XREC_LAYER_RECONCILED
360
10000071
  0
DICTIONARY
  5
10000072
330
F3
100
AcDbDictionary
280
     1
281
     1
  3
ADSK_XREC_LAYER_RECONCILED
360
10000073
  0
DICTIONARY
  5
10000074
330
F6
100
AcDbDictionary
280
     1
281
     1
  3
ADSK_XREC_LAYER_RECONCILED
360
10000075
  0
DICTIONARY
  5
ED6
102
{ACAD_REACTORS
330
ED5
102
}
330
ED5
100
AcDbDictionary
281
     1
  0
DICTIONARY
  5
ED7
102
{ACAD_REACTORS
330
ED5
102
}
330
ED5
100
AcDbDictionary
281
     1
  3
*A1
350
100000B4
  3
*A2
350
100000BB
  3
*A3
350
100000C2
  3
*A4
350
1000010F
  3
*A5
350
1000011C
  3
*A6
350
10000123
  3
Layout1
350
EE1
  3
Layout2
350
EE2
  0
DICTIONARY
  5
ED8
102
{ACAD_REACTORS
330
ED5
102
}
330
ED5
100
AcDbDictionary
281
     1
  3
Model
350
10000054
  3
レイアウト1
350
10000055
  0
DICTIONARY
  5
ED9
102
{ACAD_REACTORS
330
ED5
102
}
330
ED5
100
AcDbDictionary
281
     1
  3
ByBlock
350
1000000B
  3
ByLayer
350
10000003
  3
Global
350
10000013
  0
DICTIONARY
  5
10000050
102
{ACAD_REACTORS
330
ED5
102
}
330
ED5
100
AcDbDictionary
281
     1
  3
Standard
350
10000051
  0
DICTIONARY
  5
EDA
102
{ACAD_REACTORS
330
ED5
102
}
330
ED5
100
AcDbDictionary
281
     1
  3
Standard
350
EE3
  0
DICTIONARY
  5
10000053
102
{ACAD_REACTORS
330
ED5
102
}
330
ED5
100
AcDbDictionary
281
     1
  0
ACDBDICTIONARYWDFLT
  5
10000001
102
{ACAD_REACTORS
330
ED5
102
}
330
ED5
100
AcDbDictionary
281
     1
  3
Normal
350
10000002
100
AcDbDictionaryWithDefault
340
10000002
  0
DICTIONARY
  5
1000002E
102
{ACAD_REACTORS
330
ED5
102
}
330
ED5
100
AcDbDictionary
281
     1
  3
A0
350
1000002F
  3
A1
350
10000030
  3
A2
350
10000031
  3
A3
350
10000032
  3
A4
350
10000033
  3
A5
350
10000034
  3
A6
350
10000035
  3
A7
350
10000036
  3
A8
350
10000037
  3
A9
350
10000038
  3
B0
350
10000039
  3
B1
350
1000003A
  3
B2
350
1000003B
  3
B3
350
1000003C
  3
B4
350
1000003D
  3
B5
350
1000003E
  3
B6
350
1000003F
  3
B7
350
10000040
  3
B8
350
10000041
  3
B9
350
10000042
  3
C0
350
10000043
  3
C1
350
10000044
  3
C2
350
10000045
  3
C3
350
10000046
  3
C4
350
10000047
  3
C5
350
10000048
  3
C6
350
10000049
  3
C7
350
1000004A
  3
C8
350
1000004B
  3
C9
350
1000004C
  3
D0
350
1000004D
  3
D1
350
1000004E
  3
D2
350
1000004F
  0
DICTIONARY
  5
1000002C
102
{ACAD_REACTORS
330
ED5
102
}
330
ED5
100
AcDbDictionary
281
     1
  3
Standard
350
1000002D
  0
DICTIONARY
  5
1000001B
102
{ACAD_REACTORS
330
ED5
102
}
330
ED5
100
AcDbDictionary
281
     1
  3
2dWireframe
350
10000021
  3
3D Hidden
350
10000023
  3
3dWireframe
350
10000022
  3
Basic
350
10000020
  3
Brighten
350
10000027
  3
ColorChange
350
1000002B
  3
Conceptual
350
10000024
  3
Dim
350
10000026
  3
Facepattern
350
1000002A
  3
Flat
350
1000001C
  3
FlatWithEdges
350
1000001D
  3
Gouraud
350
1000001E
  3
GouraudWithEdges
350
1000001F
  3
Linepattern
350
10000029
  3
Realistic
350
10000025
  3
Thicken
350
10000028
  0
XRECORD
  5
10000080
102
{ACAD_REACTORS
330
ED5
102
}
330
ED5
100
AcDbXrecord
280
     1
 90
        1
330
1000002D
  0
DICTIONARY
  5
10000076
102
{ACAD_REACTORS
330
ED5
102
}
330
ED5
100
AcDbDictionary
281
     1
  3
CANNOSCALE
350
10000079
  3
CMLEADERSTYLE
350
10000078
  3
CTABLESTYLE
350
10000077
  3
DIMASSOC
350
1000007D
  3
HIDETEXT
350
1000007C
  3
INDEXCTL
350
1000007B
  3
LIGHTINGUNITS
350
100001B4
  3
MSLTSCALE
350
100001B3
  3
SORTENTS
350
1000007A
  0
LAYOUT
  5
EE0
102
{ACAD_XDICTIONARY
360
100001C9
102
}
102
{ACAD_REACTORS
330
ED6
102
}
330
ED6
100
AcDbPlotSettings
  1

  2

  4

  6

 40
0.0
 41
0.0
 42
0.0
 43
0.0
 44
0.0
 45
0.0
 46
0.0
 47
0.0
 48
0.0
 49
0.0
140
0.0
141
0.0
142
1.0
143
1.0
 70
   688
 72
     0
 73
     0
 74
     5
  7

 75
    16
147
1.0
148
0.0
149
0.0
100
AcDbLayout
  1
Layout1
 70
     1
 71
     1
 10
0.0
 20
0.0
 11
190.0
 21
257.0
 12
0.0
 22
0.0
 32
0.0
 14
1.000000000000000E+20
 24
1.000000000000000E+20
 34
1.000000000000000E+20
 15
-1.000000000000000E+20
 25
-1.000000000000000E+20
 35
-1.000000000000000E+20
146
0.0
 13
0.0
 23
0.0
 33
0.0
 16
1.0
 26
0.0
 36
0.0
 17
0.0
 27
1.0
 37
0.0
 76
     0
330
EDA
  0
XRECORD
  5
100001C8
102
{ACAD_REACTORS
330
ED5
102
}
330
ED5
100
AcDbXrecord
280
     1
  1
DWGPROPS COOKIE
  2

  3

  4

  6

  7

  8
Takeshi_Nakagawa
  9

300
=
301
=
302
=
303
=
304
=
305
=
306
=
307
=
308
=
309
=
 40
0.0195010763888889
 41
2447852.052997998
 42
2456553.564670579
  1

 90
        0
  0
XRECORD
  5
1000005B
102
{ACAD_REACTORS
330
1000005A
102
}
330
1000005A
100
AcDbXrecord
280
     1
290
     1
  0
XRECORD
  5
1000005D
102
{ACAD_REACTORS
330
1000005C
102
}
330
1000005C
100
AcDbXrecord
280
     1
290
     1
  0
XRECORD
  5
1000005F
102
{ACAD_REACTORS
330
1000005E
102
}
330
1000005E
100
AcDbXrecord
280
     1
290
     1
  0
XRECORD
  5
10000061
102
{ACAD_REACTORS
330
10000060
102
}
330
10000060
100
AcDbXrecord
280
     1
290
     1
  0
XRECORD
  5
10000063
102
{ACAD_REACTORS
330
10000062
102
}
330
10000062
100
AcDbXrecord
280
     1
290
     1
  0
XRECORD
  5
10000065
102
{ACAD_REACTORS
330
10000064
102
}
330
10000064
100
AcDbXrecord
280
     1
290
     1
  0
XRECORD
  5
10000067
102
{ACAD_REACTORS
330
10000066
102
}
330
10000066
100
AcDbXrecord
280
     1
290
     1
  0
XRECORD
  5
10000069
102
{ACAD_REACTORS
330
10000068
102
}
330
10000068
100
AcDbXrecord
280
     1
290
     1
  0
XRECORD
  5
1000006B
102
{ACAD_REACTORS
330
1000006A
102
}
330
1000006A
100
AcDbXrecord
280
     1
290
     1
  0
XRECORD
  5
1000006D
102
{ACAD_REACTORS
330
1000006C
102
}
330
1000006C
100
AcDbXrecord
280
     1
290
     1
  0
XRECORD
  5
1000006F
102
{ACAD_REACTORS
330
1000006E
102
}
330
1000006E
100
AcDbXrecord
280
     1
290
     1
  0
XRECORD
  5
10000071
102
{ACAD_REACTORS
330
10000070
102
}
330
10000070
100
AcDbXrecord
280
     1
290
     1
  0
XRECORD
  5
10000073
102
{ACAD_REACTORS
330
10000072
102
}
330
10000072
100
AcDbXrecord
280
     1
290
     1
  0
XRECORD
  5
10000075
102
{ACAD_REACTORS
330
10000074
102
}
330
10000074
100
AcDbXrecord
280
     1
290
     1
  0
LAYOUT
  5
100000B4
102
{ACAD_XDICTIONARY
360
100001D7
102
}
102
{ACAD_REACTORS
330
ED7
102
}
330
ED7
100
AcDbPlotSettings
  1

  2

  4

  6

 40
0.0
 41
0.0
 42
0.0
 43
0.0
 44
0.0
 45
0.0
 46
0.0
 47
0.0
 48
0.0
 49
0.0
140
0.0
141
0.0
142
1.0
143
1.0
 70
  1712
 72
     0
 73
     0
 74
     0
  7

 75
    16
147
1.0
148
0.0
149
0.0
100
AcDbLayout
  1
Model
 70
     1
 71
     0
 10
0.0
 20
0.0
 11
190.0
 21
257.0
 12
0.0
 22
0.0
 32
0.0
 14
0.0
 24
0.0
 34
0.0
 15
0.0
 25
0.0
 35
0.0
146
0.0
 13
0.0
 23
0.0
 33
0.0
 16
1.0
 26
0.0
 36
0.0
 17
0.0
 27
1.0
 37
0.0
 76
     0
330
100000B4
  0
LAYOUT
  5
100000BB
102
{ACAD_XDICTIONARY
360
100001D9
102
}
102
{ACAD_REACTORS
330
ED7
102
}
330
ED7
100
AcDbPlotSettings
  1

  2

  4

  6

 40
0.0
 41
0.0
 42
0.0
 43
0.0
 44
0.0
 45
0.0
 46
0.0
 47
0.0
 48
0.0
 49
0.0
140
0.0
141
0.0
142
1.0
143
1.0
 70
  1712
 72
     0
 73
     0
 74
     0
  7

 75
    16
147
1.0
148
0.0
149
0.0
100
AcDbLayout
  1
Model
 70
     1
 71
     0
 10
0.0
 20
0.0
 11
190.0
 21
257.0
 12
0.0
 22
0.0
 32
0.0
 14
0.0
 24
0.0
 34
0.0
 15
0.0
 25
0.0
 35
0.0
146
0.0
 13
0.0
 23
0.0
 33
0.0
 16
1.0
 26
0.0
 36
0.0
 17
0.0
 27
1.0
 37
0.0
 76
     0
330
100000BB
  0
LAYOUT
  5
100000C2
102
{ACAD_XDICTIONARY
360
100001DB
102
}
102
{ACAD_REACTORS
330
ED7
102
}
330
ED7
100
AcDbPlotSettings
  1

  2

  4

  6

 40
0.0
 41
0.0
 42
0.0
 43
0.0
 44
0.0
 45
0.0
 46
0.0
 47
0.0
 48
0.0
 49
0.0
140
0.0
141
0.0
142
1.0
143
1.0
 70
  1712
 72
     0
 73
     0
 74
     0
  7

 75
    16
147
1.0
148
0.0
149
0.0
100
AcDbLayout
  1
Model
 70
     1
 71
     0
 10
0.0
 20
0.0
 11
190.0
 21
257.0
 12
0.0
 22
0.0
 32
0.0
 14
0.0
 24
0.0
 34
0.0
 15
0.0
 25
0.0
 35
0.0
146
0.0
 13
0.0
 23
0.0
 33
0.0
 16
1.0
 26
0.0
 36
0.0
 17
0.0
 27
1.0
 37
0.0
 76
     0
330
100000C2
  0
LAYOUT
  5
1000010F
102
{ACAD_XDICTIONARY
360
100001DD
102
}
102
{ACAD_REACTORS
330
ED7
102
}
330
ED7
100
AcDbPlotSettings
  1

  2

  4

  6

 40
0.0
 41
0.0
 42
0.0
 43
0.0
 44
0.0
 45
0.0
 46
0.0
 47
0.0
 48
0.0
 49
0.0
140
0.0
141
0.0
142
1.0
143
1.0
 70
  1712
 72
     0
 73
     0
 74
     0
  7

 75
    16
147
1.0
148
0.0
149
0.0
100
AcDbLayout
  1
Model
 70
     1
 71
     0
 10
0.0
 20
0.0
 11
190.0
 21
257.0
 12
0.0
 22
0.0
 32
0.0
 14
0.0
 24
0.0
 34
0.0
 15
0.0
 25
0.0
 35
0.0
146
0.0
 13
0.0
 23
0.0
 33
0.0
 16
1.0
 26
0.0
 36
0.0
 17
0.0
 27
1.0
 37
0.0
 76
     0
330
1000010F
  0
LAYOUT
  5
1000011C
102
{ACAD_XDICTIONARY
360
100001DF
102
}
102
{ACAD_REACTORS
330
ED7
102
}
330
ED7
100
AcDbPlotSettings
  1

  2

  4

  6

 40
0.0
 41
0.0
 42
0.0
 43
0.0
 44
0.0
 45
0.0
 46
0.0
 47
0.0
 48
0.0
 49
0.0
140
0.0
141
0.0
142
1.0
143
1.0
 70
  1712
 72
     0
 73
     0
 74
     0
  7

 75
    16
147
1.0
148
0.0
149
0.0
100
AcDbLayout
  1
Model
 70
     1
 71
     0
 10
0.0
 20
0.0
 11
190.0
 21
257.0
 12
0.0
 22
0.0
 32
0.0
 14
0.0
 24
0.0
 34
0.0
 15
0.0
 25
0.0
 35
0.0
146
0.0
 13
0.0
 23
0.0
 33
0.0
 16
1.0
 26
0.0
 36
0.0
 17
0.0
 27
1.0
 37
0.0
 76
     0
330
1000011C
  0
LAYOUT
  5
10000123
102
{ACAD_XDICTIONARY
360
100001E1
102
}
102
{ACAD_REACTORS
330
ED7
102
}
330
ED7
100
AcDbPlotSettings
  1

  2

  4

  6

 40
0.0
 41
0.0
 42
0.0
 43
0.0
 44
0.0
 45
0.0
 46
0.0
 47
0.0
 48
0.0
 49
0.0
140
0.0
141
0.0
142
1.0
143
1.0
 70
  1712
 72
     0
 73
     0
 74
     0
  7

 75
    16
147
1.0
148
0.0
149
0.0
100
AcDbLayout
  1
Model
 70
     1
 71
     0
 10
0.0
 20
0.0
 11
190.0
 21
257.0
 12
0.0
 22
0.0
 32
0.0
 14
0.0
 24
0.0
 34
0.0
 15
0.0
 25
0.0
 35
0.0
146
0.0
 13
0.0
 23
0.0
 33
0.0
 16
1.0
 26
0.0
 36
0.0
 17
0.0
 27
1.0
 37
0.0
 76
     0
330
10000123
  0
LAYOUT
  5
EE1
102
{ACAD_XDICTIONARY
360
100001CB
102
}
102
{ACAD_REACTORS
330
ED6
102
}
330
ED6
100
AcDbPlotSettings
  1

  2

  4

  6

 40
0.0
 41
0.0
 42
0.0
 43
0.0
 44
0.0
 45
0.0
 46
0.0
 47
0.0
 48
0.0
 49
0.0
140
0.0
141
0.0
142
1.0
143
1.0
 70
   688
 72
     0
 73
     0
 74
     5
  7

 75
    16
147
1.0
148
0.0
149
0.0
100
AcDbLayout
  1
Layout2
 70
     1
 71
     2
 10
0.0
 20
0.0
 11
190.0
 21
257.0
 12
0.0
 22
0.0
 32
0.0
 14
0.0
 24
0.0
 34
0.0
 15
0.0
 25
0.0
 35
0.0
146
0.0
 13
0.0
 23
0.0
 33
0.0
 16
1.0
 26
0.0
 36
0.0
 17
0.0
 27
1.0
 37
0.0
 76
     0
330
EE1
  0
LAYOUT
  5
EE2
102
{ACAD_XDICTIONARY
360
100001CD
102
}
102
{ACAD_REACTORS
330
ED6
102
}
330
ED6
100
AcDbPlotSettings
  1

  2

  4

  6

 40
0.0
 41
0.0
 42
0.0
 43
0.0
 44
0.0
 45
0.0
 46
0.0
 47
0.0
 48
0.0
 49
0.0
140
0.0
141
0.0
142
1.0
143
1.0
 70
  1712
 72
     0
 73
     0
 74
     0
  7

 75
    16
147
1.0
148
0.0
149
0.0
100
AcDbLayout
  1
Model
 70
     1
 71
     0
 10
0.0
 20
0.0
 11
190.0
 21
257.0
 12
0.0
 22
0.0
 32
0.0
 14
0.0
 24
0.0
 34
0.0
 15
0.0
 25
0.0
 35
0.0
146
0.0
 13
0.0
 23
0.0
 33
0.0
 16
1.0
 26
0.0
 36
0.0
 17
0.0
 27
1.0
 37
0.0
 76
     0
330
EE2
  0
LAYOUT
  5
10000054
102
{ACAD_XDICTIONARY
360
100001D3
102
}
102
{ACAD_REACTORS
330
ED8
102
}
330
ED8
100
AcDbPlotSettings
  1

  2
SHARP MX-3610FN SPDL2-c
  4

  6

 40
0.0
 41
0.0
 42
0.0
 43
0.0
 44
0.0
 45
0.0
 46
0.0
 47
0.0
 48
0.0
 49
0.0
140
0.0
141
0.0
142
1.0
143
1.0
 70
  1712
 72
     0
 73
     0
 74
     0
  7

 75
     0
147
1.0
148
0.0
149
0.0
100
AcDbLayout
  1
Model
 70
     1
 71
     0
 10
0.0
 20
0.0
 11
12.0
 21
9.0
 12
0.0
 22
0.0
 32
0.0
 14
0.0
 24
0.0
 34
0.0
 15
0.0
 25
0.0
 35
0.0
146
0.0
 13
0.0
 23
0.0
 33
0.0
 16
1.0
 26
0.0
 36
0.0
 17
0.0
 27
1.0
 37
0.0
 76
     0
330
11D
331
A5
  0
LAYOUT
  5
10000055
102
{ACAD_XDICTIONARY
360
100001D5
102
}
102
{ACAD_REACTORS
330
ED8
102
}
330
ED8
100
AcDbPlotSettings
  1

  2
SHARP MX-3610FN SPDL2-c
  4

  6

 40
0.0
 41
0.0
 42
0.0
 43
0.0
 44
0.0
 45
0.0
 46
0.0
 47
0.0
 48
0.0
 49
0.0
140
0.0
141
0.0
142
1.0
143
1.0
 70
   688
 72
     0
 73
     0
 74
     5
  7

 75
    16
147
1.0
148
0.0
149
0.0
100
AcDbLayout
  1
レイアウト1
 70
     1
 71
     1
 10
0.0
 20
0.0
 11
190.0
 21
257.0
 12
0.0
 22
0.0
 32
0.0
 14
1.000000000000000E+20
 24
1.000000000000000E+20
 34
1.000000000000000E+20
 15
-1.000000000000000E+20
 25
-1.000000000000000E+20
 35
-1.000000000000000E+20
146
0.0
 13
0.0
 23
0.0
 33
0.0
 16
1.0
 26
0.0
 36
0.0
 17
0.0
 27
1.0
 37
0.0
 76
     0
330
120
  0
MATERIAL
  5
1000000B
102
{ACAD_XDICTIONARY
360
1000000C
102
}
102
{ACAD_REACTORS
330
ED9
102
}
330
ED9
100
AcDbMaterial
  1
ByBlock
 72
     0
 43
0.0208333333333333
 43
0.0
 43
0.0
 43
0.0
 43
0.0
 43
0.0208333333333333
 43
0.0
 43
0.0
 43
0.0
 43
0.0
 43
1.0
 43
0.0
 43
0.0
 43
0.0
 43
0.0
 43
1.0
 77
     0
 47
0.0208333333333333
 47
0.0
 47
0.0
 47
0.0
 47
0.0
 47
0.0208333333333333
 47
0.0
 47
0.0
 47
0.0
 47
0.0
 47
1.0
 47
0.0
 47
0.0
 47
0.0
 47
0.0
 47
1.0
171
     0
 49
0.0208333333333333
 49
0.0
 49
0.0
 49
0.0
 49
0.0
 49
0.0208333333333333
 49
0.0
 49
0.0
 49
0.0
 49
0.0
 49
1.0
 49
0.0
 49
0.0
 49
0.0
 49
0.0
 49
1.0
175
     0
142
0.0208333333333333
142
0.0
142
0.0
142
0.0
142
0.0
142
0.0208333333333333
142
0.0
142
0.0
142
0.0
142
0.0
142
1.0
142
0.0
142
0.0
142
0.0
142
0.0
142
1.0
179
     0
144
0.0208333333333333
144
0.0
144
0.0
144
0.0
144
0.0
144
0.0208333333333333
144
0.0
144
0.0
144
0.0
144
0.0
144
1.0
144
0.0
144
0.0
144
0.0
144
0.0
144
1.0
147
0.0208333333333333
147
0.0
147
0.0
147
0.0
147
0.0
147
0.0208333333333333
147
0.0
147
0.0
147
0.0
147
0.0
147
1.0
147
0.0
147
0.0
147
0.0
147
0.0
147
1.0
  0
MATERIAL
  5
10000003
102
{ACAD_XDICTIONARY
360
10000004
102
}
102
{ACAD_REACTORS
330
ED9
102
}
330
ED9
100
AcDbMaterial
  1
ByLayer
 72
     0
 43
0.0208333333333333
 43
0.0
 43
0.0
 43
0.0
 43
0.0
 43
0.0208333333333333
 43
0.0
 43
0.0
 43
0.0
 43
0.0
 43
1.0
 43
0.0
 43
0.0
 43
0.0
 43
0.0
 43
1.0
 77
     0
 47
0.0208333333333333
 47
0.0
 47
0.0
 47
0.0
 47
0.0
 47
0.0208333333333333
 47
0.0
 47
0.0
 47
0.0
 47
0.0
 47
1.0
 47
0.0
 47
0.0
 47
0.0
 47
0.0
 47
1.0
171
     0
 49
0.0208333333333333
 49
0.0
 49
0.0
 49
0.0
 49
0.0
 49
0.0208333333333333
 49
0.0
 49
0.0
 49
0.0
 49
0.0
 49
1.0
 49
0.0
 49
0.0
 49
0.0
 49
0.0
 49
1.0
175
     0
142
0.0208333333333333
142
0.0
142
0.0
142
0.0
142
0.0
142
0.0208333333333333
142
0.0
142
0.0
142
0.0
142
0.0
142
1.0
142
0.0
142
0.0
142
0.0
142
0.0
142
1.0
179
     0
144
0.0208333333333333
144
0.0
144
0.0
144
0.0
144
0.0
144
0.0208333333333333
144
0.0
144
0.0
144
0.0
144
0.0
144
1.0
144
0.0
144
0.0
144
0.0
144
0.0
144
1.0
147
0.0208333333333333
147
0.0
147
0.0
147
0.0
147
0.0
147
0.0208333333333333
147
0.0
147
0.0
147
0.0
147
0.0
147
1.0
147
0.0
147
0.0
147
0.0
147
0.0
147
1.0
  0
MATERIAL
  5
10000013
102
{ACAD_XDICTIONARY
360
10000014
102
}
102
{ACAD_REACTORS
330
ED9
102
}
330
ED9
100
AcDbMaterial
  1
Global
 72
     0
 43
0.0208333333333333
 43
0.0
 43
0.0
 43
0.0
 43
0.0
 43
0.0208333333333333
 43
0.0
 43
0.0
 43
0.0
 43
0.0
 43
1.0
 43
0.0
 43
0.0
 43
0.0
 43
0.0
 43
1.0
 77
     0
 47
0.0208333333333333
 47
0.0
 47
0.0
 47
0.0
 47
0.0
 47
0.0208333333333333
 47
0.0
 47
0.0
 47
0.0
 47
0.0
 47
1.0
 47
0.0
 47
0.0
 47
0.0
 47
0.0
 47
1.0
171
     0
 49
0.0208333333333333
 49
0.0
 49
0.0
 49
0.0
 49
0.0
 49
0.0208333333333333
 49
0.0
 49
0.0
 49
0.0
 49
0.0
 49
1.0
 49
0.0
 49
0.0
 49
0.0
 49
0.0
 49
1.0
175
     0
142
0.0208333333333333
142
0.0
142
0.0
142
0.0
142
0.0
142
0.0208333333333333
142
0.0
142
0.0
142
0.0
142
0.0
142
1.0
142
0.0
142
0.0
142
0.0
142
0.0
142
1.0
179
     0
144
0.0208333333333333
144
0.0
144
0.0
144
0.0
144
0.0
144
0.0208333333333333
144
0.0
144
0.0
144
0.0
144
0.0
144
1.0
144
0.0
144
0.0
144
0.0
144
0.0
144
1.0
147
0.0208333333333333
147
0.0
147
0.0
147
0.0
147
0.0
147
0.0208333333333333
147
0.0
147
0.0
147
0.0
147
0.0
147
1.0
147
0.0
147
0.0
147
0.0
147
0.0
147
1.0
  0
MLEADERSTYLE
  5
10000051
102
{ACAD_REACTORS
330
10000050
102
}
330
10000050
100
AcDbMLeaderStyle
170
     2
171
     1
172
     0
 90
        2
 40
0.0
 41
0.0
173
     1
 91
-1056964608
340
AB
 92
       -2
290
     1
 42
2.0
291
     1
 43
0.36
  3
Standard
 44
4.0
300

342
FC
174
     1
178
     6
175
     1
176
     0
 93
-1056964608
 45
4.0
292
     0
297
     0
 46
4.0
 94
-1056964608
 47
1.0
 49
1.0
140
1.0
293
     1
141
0.0
294
     1
177
     0
142
1.0
295
     0
296
     0
143
0.125
1001
ACAD_MLEADERVER
1070
     2
  0
MLINESTYLE
  5
EE3
102
{ACAD_REACTORS
330
EE2
102
}
330
EE2
100
AcDbMlineStyle
  2
STANDARD
 70
     0
  3
 
 62
   256
 51
90.0
 52
90.0
 71
     2
 49
0.5
 62
   256
  6
BYLAYER
 49
-0.5
 62
   256
  6
BYLAYER
  0
ACDBPLACEHOLDER
  5
10000002
102
{ACAD_REACTORS
330
10000001
102
}
330
10000001
  0
SCALE
  5
1000002F
102
{ACAD_REACTORS
330
1000002E
102
}
330
1000002E
100
AcDbScale
 70
     0
300
1:1
140
1.0
141
1.0
290
     1
  0
SCALE
  5
10000030
102
{ACAD_REACTORS
330
1000002E
102
}
330
1000002E
100
AcDbScale
 70
     0
300
1:2
140
1.0
141
2.0
290
     0
  0
SCALE
  5
10000031
102
{ACAD_REACTORS
330
1000002E
102
}
330
1000002E
100
AcDbScale
 70
     0
300
1:4
140
1.0
141
4.0
290
     0
  0
SCALE
  5
10000032
102
{ACAD_REACTORS
330
1000002E
102
}
330
1000002E
100
AcDbScale
 70
     0
300
1:5
140
1.0
141
5.0
290
     0
  0
SCALE
  5
10000033
102
{ACAD_REACTORS
330
1000002E
102
}
330
1000002E
100
AcDbScale
 70
     0
300
1:8
140
1.0
141
8.0
290
     0
  0
SCALE
  5
10000034
102
{ACAD_REACTORS
330
1000002E
102
}
330
1000002E
100
AcDbScale
 70
     0
300
1:10
140
1.0
141
10.0
290
     0
  0
SCALE
  5
10000035
102
{ACAD_REACTORS
330
1000002E
102
}
330
1000002E
100
AcDbScale
 70
     0
300
1:16
140
1.0
141
16.0
290
     0
  0
SCALE
  5
10000036
102
{ACAD_REACTORS
330
1000002E
102
}
330
1000002E
100
AcDbScale
 70
     0
300
1:20
140
1.0
141
20.0
290
     0
  0
SCALE
  5
10000037
102
{ACAD_REACTORS
330
1000002E
102
}
330
1000002E
100
AcDbScale
 70
     0
300
1:30
140
1.0
141
30.0
290
     0
  0
SCALE
  5
10000038
102
{ACAD_REACTORS
330
1000002E
102
}
330
1000002E
100
AcDbScale
 70
     0
300
1:40
140
1.0
141
40.0
290
     0
  0
SCALE
  5
10000039
102
{ACAD_REACTORS
330
1000002E
102
}
330
1000002E
100
AcDbScale
 70
     0
300
1:50
140
1.0
141
50.0
290
     0
  0
SCALE
  5
1000003A
102
{ACAD_REACTORS
330
1000002E
102
}
330
1000002E
100
AcDbScale
 70
     0
300
1:100
140
1.0
141
100.0
290
     0
  0
SCALE
  5
1000003B
102
{ACAD_REACTORS
330
1000002E
102
}
330
1000002E
100
AcDbScale
 70
     0
300
2:1
140
2.0
141
1.0
290
     0
  0
SCALE
  5
1000003C
102
{ACAD_REACTORS
330
1000002E
102
}
330
1000002E
100
AcDbScale
 70
     0
300
4:1
140
4.0
141
1.0
290
     0
  0
SCALE
  5
1000003D
102
{ACAD_REACTORS
330
1000002E
102
}
330
1000002E
100
AcDbScale
 70
     0
300
8:1
140
8.0
141
1.0
290
     0
  0
SCALE
  5
1000003E
102
{ACAD_REACTORS
330
1000002E
102
}
330
1000002E
100
AcDbScale
 70
     0
300
10:1
140
10.0
141
1.0
290
     0
  0
SCALE
  5
1000003F
102
{ACAD_REACTORS
330
1000002E
102
}
330
1000002E
100
AcDbScale
 70
     0
300
100:1
140
100.0
141
1.0
290
     0
  0
SCALE
  5
10000040
102
{ACAD_REACTORS
330
1000002E
102
}
330
1000002E
100
AcDbScale
 70
     0
300
1/128" = 1'-0"
140
0.0078125
141
12.0
290
     0
  0
SCALE
  5
10000041
102
{ACAD_REACTORS
330
1000002E
102
}
330
1000002E
100
AcDbScale
 70
     0
300
1/64" = 1'-0"
140
0.015625
141
12.0
290
     0
  0
SCALE
  5
10000042
102
{ACAD_REACTORS
330
1000002E
102
}
330
1000002E
100
AcDbScale
 70
     0
300
1/32" = 1'-0"
140
0.03125
141
12.0
290
     0
  0
SCALE
  5
10000043
102
{ACAD_REACTORS
330
1000002E
102
}
330
1000002E
100
AcDbScale
 70
     0
300
1/16" = 1'-0"
140
0.0625
141
12.0
290
     0
  0
SCALE
  5
10000044
102
{ACAD_REACTORS
330
1000002E
102
}
330
1000002E
100
AcDbScale
 70
     0
300
3/32" = 1'-0"
140
0.09375
141
12.0
290
     0
  0
SCALE
  5
10000045
102
{ACAD_REACTORS
330
1000002E
102
}
330
1000002E
100
AcDbScale
 70
     0
300
1/8" = 1'-0"
140
0.125
141
12.0
290
     0
  0
SCALE
  5
10000046
102
{ACAD_REACTORS
330
1000002E
102
}
330
1000002E
100
AcDbScale
 70
     0
300
3/16" = 1'-0"
140
0.1875
141
12.0
290
     0
  0
SCALE
  5
10000047
102
{ACAD_REACTORS
330
1000002E
102
}
330
1000002E
100
AcDbScale
 70
     0
300
1/4" = 1'-0"
140
0.25
141
12.0
290
     0
  0
SCALE
  5
10000048
102
{ACAD_REACTORS
330
1000002E
102
}
330
1000002E
100
AcDbScale
 70
     0
300
3/8" = 1'-0"
140
0.375
141
12.0
290
     0
  0
SCALE
  5
10000049
102
{ACAD_REACTORS
330
1000002E
102
}
330
1000002E
100
AcDbScale
 70
     0
300
1/2" = 1'-0"
140
0.5
141
12.0
290
     0
  0
SCALE
  5
1000004A
102
{ACAD_REACTORS
330
1000002E
102
}
330
1000002E
100
AcDbScale
 70
     0
300
3/4" = 1'-0"
140
0.75
141
12.0
290
     0
  0
SCALE
  5
1000004B
102
{ACAD_REACTORS
330
1000002E
102
}
330
1000002E
100
AcDbScale
 70
     0
300
1" = 1'-0"
140
1.0
141
12.0
290
     0
  0
SCALE
  5
1000004C
102
{ACAD_REACTORS
330
1000002E
102
}
330
1000002E
100
AcDbScale
 70
     0
300
1-1/2" = 1'-0"
140
1.5
141
12.0
290
     0
  0
SCALE
  5
1000004D
102
{ACAD_REACTORS
330
1000002E
102
}
330
1000002E
100
AcDbScale
 70
     0
300
3" = 1'-0"
140
3.0
141
12.0
290
     0
  0
SCALE
  5
1000004E
102
{ACAD_REACTORS
330
1000002E
102
}
330
1000002E
100
AcDbScale
 70
     0
300
6" = 1'-0"
140
6.0
141
12.0
290
     0
  0
SCALE
  5
1000004F
102
{ACAD_REACTORS
330
1000002E
102
}
330
1000002E
100
AcDbScale
 70
     0
300
1'-0" = 1'-0"
140
12.0
141
12.0
290
     0
  0
TABLESTYLE
  5
1000002D
102
{ACAD_XDICTIONARY
360
1000007E
102
}
102
{ACAD_REACTORS
330
1000002C
102
}
330
1000002C
100
AcDbTableStyle
  3
Standard
 70
     0
 71
     0
 40
1.5
 41
1.5
280
     0
281
     0
  7
STANDARD
140
4.5
170
     2
 62
     0
 63
     7
283
     0
274
    -2
284
     1
 64
     0
275
    -2
285
     1
 65
     0
276
    -2
286
     1
 66
     0
277
    -2
287
     1
 67
     0
278
    -2
288
     1
 68
     0
279
    -2
289
     1
 69
     0
  7
STANDARD
140
6.0
170
     5
 62
     0
 63
     7
283
     0
274
    -2
284
     1
 64
     0
275
    -2
285
     1
 65
     0
276
    -2
286
     1
 66
     0
277
    -2
287
     1
 67
     0
278
    -2
288
     1
 68
     0
279
    -2
289
     1
 69
     0
  7
STANDARD
140
4.5
170
     5
 62
     0
 63
     7
283
     0
274
    -2
284
     1
 64
     0
275
    -2
285
     1
 65
     0
276
    -2
286
     1
 66
     0
277
    -2
287
     1
 67
     0
278
    -2
288
     1
 68
     0
279
    -2
289
     1
 69
     0
  0
VISUALSTYLE
  5
10000021
102
{ACAD_REACTORS
330
1000001B
102
}
330
1000001B
100
AcDbVisualStyle
  2
2dWireframe
 70
     4
 71
     0
 72
     2
 73
     0
 90
        0
 40
-0.6
 41
-30.0
 62
     5
 63
     7
 74
     1
 91
        4
 64
     7
 65
   257
 75
     1
175
     1
 42
1.0
 92
        0
 66
   257
 43
1.0
 76
     1
 77
     6
 78
     2
 67
     7
 79
     5
170
     0
171
     0
290
     0
174
     0
 93
        1
 44
0.0
173
     0
291
     0
 45
0.0
1001
ACAD
1000
AcDbSavedByObjectVersion
1070
     0
  0
VISUALSTYLE
  5
10000023
102
{ACAD_REACTORS
330
1000001B
102
}
330
1000001B
100
AcDbVisualStyle
  2
3D Hidden
 70
     6
 71
     1
 72
     2
 73
     2
 90
        0
 40
-0.6
 41
-30.0
 62
     5
 63
     7
 74
     2
 91
        2
 64
     7
 65
   257
 75
     2
175
     1
 42
40.0
 92
        0
 66
   257
 43
1.0
 76
     1
 77
     6
 78
     2
 67
     7
 79
     3
170
     0
171
     0
290
     0
174
     0
 93
        1
 44
0.0
173
     0
291
     0
 45
0.0
1001
ACAD
1000
AcDbSavedByObjectVersion
1070
     0
  0
VISUALSTYLE
  5
10000022
102
{ACAD_REACTORS
330
1000001B
102
}
330
1000001B
100
AcDbVisualStyle
  2
3dWireframe
 70
     5
 71
     0
 72
     2
 73
     0
 90
        0
 40
-0.6
 41
-30.0
 62
     5
 63
     7
 74
     1
 91
        4
 64
     7
 65
   257
 75
     1
175
     1
 42
1.0
 92
        0
 66
   257
 43
1.0
 76
     1
 77
     6
 78
     2
 67
     7
 79
     5
170
     0
171
     0
290
     0
174
     0
 93
        1
 44
0.0
173
     0
291
     0
 45
0.0
1001
ACAD
1000
AcDbSavedByObjectVersion
1070
     0
  0
VISUALSTYLE
  5
10000020
102
{ACAD_REACTORS
330
1000001B
102
}
330
1000001B
100
AcDbVisualStyle
  2
Basic
 70
     7
 71
     1
 72
     0
 73
     1
 90
        0
 40
-0.6
 41
-30.0
 62
     5
 63
     7
 74
     0
 91
        4
 64
     7
 65
   257
 75
     1
175
     1
 42
1.0
 92
        8
 66
     7
 43
1.0
 76
     1
 77
     6
 78
     2
 67
     7
 79
     5
170
     0
171
     0
290
     0
174
     0
 93
        1
 44
0.0
173
     0
291
     1
 45
0.0
1001
ACAD
1000
AcDbSavedByObjectVersion
1070
     0
  0
VISUALSTYLE
  5
10000027
102
{ACAD_REACTORS
330
1000001B
102
}
330
1000001B
100
AcDbVisualStyle
  2
Brighten
 70
    12
 71
     2
 72
     2
 73
     0
 90
        0
 40
-0.6
 41
-30.0
 62
     5
 63
     7
 74
     1
 91
        4
 64
     7
 65
   257
 75
     1
175
     1
 42
1.0
 92
        8
 66
     7
 43
1.0
 76
     1
 77
     6
 78
     2
 67
     7
 79
     5
170
     0
171
     0
290
     0
174
     0
 93
        1
 44
50.0
173
     0
291
     1
 45
0.0
1001
ACAD
1000
AcDbSavedByObjectVersion
1070
     0
  0
VISUALSTYLE
  5
1000002B
102
{ACAD_REACTORS
330
1000001B
102
}
330
1000001B
100
AcDbVisualStyle
  2
ColorChange
 70
    16
 71
     2
 72
     2
 73
     3
 90
        0
 40
-0.6
 41
-30.0
 62
     5
 63
     8
 74
     1
 91
        4
 64
     7
 65
   257
 75
     1
175
     1
 42
1.0
 92
        8
 66
     8
 43
1.0
 76
     1
 77
     6
 78
     2
 67
     7
 79
     5
170
     0
171
     0
290
     0
174
     0
 93
        1
 44
0.0
173
     0
291
     1
 45
0.0
1001
ACAD
1000
AcDbSavedByObjectVersion
1070
     0
  0
VISUALSTYLE
  5
10000024
102
{ACAD_REACTORS
330
1000001B
102
}
330
1000001B
100
AcDbVisualStyle
  2
Conceptual
 70
     9
 71
     3
 72
     2
 73
     0
 90
        0
 40
-0.6
 41
-30.0
 62
     5
 63
     7
 74
     2
 91
        2
 64
     7
 65
   257
 75
     1
175
     1
 42
40.0
 92
        8
 66
     7
 43
1.0
 76
     1
 77
     6
 78
     2
 67
     7
 79
     3
170
     0
171
     0
290
     0
174
     0
 93
        1
 44
0.0
173
     0
291
     0
 45
0.0
1001
ACAD
1000
AcDbSavedByObjectVersion
1070
     0
  0
VISUALSTYLE
  5
10000026
102
{ACAD_REACTORS
330
1000001B
102
}
330
1000001B
100
AcDbVisualStyle
  2
Dim
 70
    11
 71
     2
 72
     2
 73
     0
 90
        0
 40
-0.6
 41
-30.0
 62
     5
 63
     7
 74
     1
 91
        4
 64
     7
 65
   257
 75
     1
175
     1
 42
1.0
 92
        8
 66
     7
 43
1.0
 76
     1
 77
     6
 78
     2
 67
     7
 79
     5
170
     0
171
     0
290
     0
174
     0
 93
        1
 44
-50.0
173
     0
291
     1
 45
0.0
1001
ACAD
1000
AcDbSavedByObjectVersion
1070
     0
  0
VISUALSTYLE
  5
1000002A
102
{ACAD_REACTORS
330
1000001B
102
}
330
1000001B
100
AcDbVisualStyle
  2
Facepattern
 70
    15
 71
     2
 72
     2
 73
     0
 90
        0
 40
-0.6
 41
-30.0
 62
     5
 63
     7
 74
     1
 91
        4
 64
     7
 65
   257
 75
     1
175
     1
 42
1.0
 92
        8
 66
     7
 43
1.0
 76
     1
 77
     6
 78
     2
 67
     7
 79
     5
170
     0
171
     0
290
     0
174
     0
 93
        1
 44
0.0
173
     0
291
     1
 45
0.0
1001
ACAD
1000
AcDbSavedByObjectVersion
1070
     0
  0
VISUALSTYLE
  5
1000001C
102
{ACAD_REACTORS
330
1000001B
102
}
330
1000001B
100
AcDbVisualStyle
  2
Flat
 70
     0
 71
     2
 72
     1
 73
     1
 90
        2
 40
-0.6
 41
30.0
 62
     5
 63
     7
 74
     0
 91
        4
 64
     7
 65
   257
 75
     1
175
     1
 42
1.0
 92
        8
 66
     7
 43
1.0
 76
     1
 77
     6
 78
     2
 67
     7
 79
     5
170
     0
171
     0
290
     0
174
     0
 93
       13
 44
0.0
173
     0
291
     1
 45
0.0
1001
ACAD
1000
AcDbSavedByObjectVersion
1070
     0
  0
VISUALSTYLE
  5
1000001D
102
{ACAD_REACTORS
330
1000001B
102
}
330
1000001B
100
AcDbVisualStyle
  2
FlatWithEdges
 70
     1
 71
     2
 72
     1
 73
     1
 90
        2
 40
-0.6
 41
30.0
 62
     5
 63
     7
 74
     1
 91
        4
 64
     7
 65
   257
 75
     1
175
     1
 42
1.0
 92
        0
 66
   257
 43
1.0
 76
     1
 77
     6
 78
     2
 67
     7
 79
     5
170
     0
171
     0
290
     0
174
     0
 93
       13
 44
0.0
173
     0
291
     1
 45
0.0
1001
ACAD
1000
AcDbSavedByObjectVersion
1070
     0
  0
VISUALSTYLE
  5
1000001E
102
{ACAD_REACTORS
330
1000001B
102
}
330
1000001B
100
AcDbVisualStyle
  2
Gouraud
 70
     2
 71
     2
 72
     2
 73
     1
 90
        2
 40
-0.6
 41
30.0
 62
     5
 63
     7
 74
     0
 91
        4
 64
     7
 65
   257
 75
     1
175
     1
 42
1.0
 92
        0
 66
     7
 43
1.0
 76
     1
 77
     6
 78
     2
 67
     7
 79
     5
170
     0
171
     0
290
     0
174
     0
 93
       13
 44
0.0
173
     0
291
     1
 45
0.0
1001
ACAD
1000
AcDbSavedByObjectVersion
1070
     0
  0
VISUALSTYLE
  5
1000001F
102
{ACAD_REACTORS
330
1000001B
102
}
330
1000001B
100
AcDbVisualStyle
  2
GouraudWithEdges
 70
     3
 71
     2
 72
     2
 73
     1
 90
        2
 40
-0.6
 41
30.0
 62
     5
 63
     7
 74
     1
 91
        4
 64
     7
 65
   257
 75
     1
175
     1
 42
1.0
 92
        0
 66
   257
 43
1.0
 76
     1
 77
     6
 78
     2
 67
     7
 79
     5
170
     0
171
     0
290
     0
174
     0
 93
       13
 44
0.0
173
     0
291
     1
 45
0.0
1001
ACAD
1000
AcDbSavedByObjectVersion
1070
     0
  0
VISUALSTYLE
  5
10000029
102
{ACAD_REACTORS
330
1000001B
102
}
330
1000001B
100
AcDbVisualStyle
  2
Linepattern
 70
    14
 71
     2
 72
     2
 73
     0
 90
        0
 40
-0.6
 41
-30.0
 62
     5
 63
     7
 74
     1
 91
        4
 64
     7
 65
   257
 75
     7
175
     7
 42
1.0
 92
        8
 66
     7
 43
1.0
 76
     1
 77
     6
 78
     2
 67
     7
 79
     5
170
     0
171
     0
290
     0
174
     0
 93
        1
 44
0.0
173
     0
291
     1
 45
0.0
1001
ACAD
1000
AcDbSavedByObjectVersion
1070
     0
  0
VISUALSTYLE
  5
10000025
102
{ACAD_REACTORS
330
1000001B
102
}
330
1000001B
100
AcDbVisualStyle
  2
Realistic
 70
     8
 71
     2
 72
     2
 73
     0
 90
        0
 40
-0.6
 41
-30.0
 62
     5
 63
     7
 74
     1
 91
        0
 64
     7
 65
   257
 75
     1
175
     1
 42
1.0
 92
        8
 66
     8
 43
1.0
 76
     1
 77
     6
 78
     2
 67
     7
 79
     5
170
     0
171
     0
290
     0
174
     0
 93
       13
 44
0.0
173
     0
291
     0
 45
0.0
1001
ACAD
1000
AcDbSavedByObjectVersion
1070
     0
  0
VISUALSTYLE
  5
10000028
102
{ACAD_REACTORS
330
1000001B
102
}
330
1000001B
100
AcDbVisualStyle
  2
Thicken
 70
    13
 71
     2
 72
     2
 73
     0
 90
        0
 40
-0.6
 41
-30.0
 62
     5
 63
     7
 74
     1
 91
        4
 64
     7
 65
   257
 75
     1
175
     1
 42
1.0
 92
       12
 66
     7
 43
1.0
 76
     1
 77
     6
 78
     2
 67
     7
 79
     5
170
     0
171
     0
290
     0
174
     0
 93
        1
 44
0.0
173
     0
291
     1
 45
0.0
1001
ACAD
1000
AcDbSavedByObjectVersion
1070
     0
  0
DICTIONARYVAR
  5
10000079
102
{ACAD_REACTORS
330
10000076
102
}
330
10000076
100
DictionaryVariables
280
     0
  1
1:1
  0
DICTIONARYVAR
  5
10000078
102
{ACAD_REACTORS
330
10000076
102
}
330
10000076
100
DictionaryVariables
280
     0
  1
STANDARD
  0
DICTIONARYVAR
  5
10000077
102
{ACAD_REACTORS
330
10000076
102
}
330
10000076
100
DictionaryVariables
280
     0
  1
STANDARD
  0
DICTIONARYVAR
  5
1000007D
102
{ACAD_REACTORS
330
10000076
102
}
330
10000076
100
DictionaryVariables
280
     0
  1
2
  0
DICTIONARYVAR
  5
1000007C
102
{ACAD_REACTORS
330
10000076
102
}
330
10000076
100
DictionaryVariables
280
     0
  1
1
  0
DICTIONARYVAR
  5
1000007B
102
{ACAD_REACTORS
330
10000076
102
}
330
10000076
100
DictionaryVariables
280
     0
  1
0
  0
DICTIONARYVAR
  5
100001B4
102
{ACAD_REACTORS
330
10000076
102
}
330
10000076
100
DictionaryVariables
280
     0
  1
0
  0
DICTIONARYVAR
  5
100001B3
102
{ACAD_REACTORS
330
10000076
102
}
330
10000076
100
DictionaryVariables
280
     0
  1
0
  0
DICTIONARYVAR
  5
1000007A
102
{ACAD_REACTORS
330
10000076
102
}
330
10000076
100
DictionaryVariables
280
     0
  1
127
  0
DICTIONARY
  5
100001C9
330
EE0
100
AcDbDictionary
280
     1
281
     1
  3
ACAD_XREC_ROUNDTRIP
360
100001CA
  0
DICTIONARY
  5
100001D7
330
100000B4
100
AcDbDictionary
280
     1
281
     1
  3
ACAD_XREC_ROUNDTRIP
360
100001D8
  0
DICTIONARY
  5
100001D9
330
100000BB
100
AcDbDictionary
280
     1
281
     1
  3
ACAD_XREC_ROUNDTRIP
360
100001DA
  0
DICTIONARY
  5
100001DB
330
100000C2
100
AcDbDictionary
280
     1
281
     1
  3
ACAD_XREC_ROUNDTRIP
360
100001DC
  0
DICTIONARY
  5
100001DD
330
1000010F
100
AcDbDictionary
280
     1
281
     1
  3
ACAD_XREC_ROUNDTRIP
360
100001DE
  0
DICTIONARY
  5
100001DF
330
1000011C
100
AcDbDictionary
280
     1
281
     1
  3
ACAD_XREC_ROUNDTRIP
360
100001E0
  0
DICTIONARY
  5
100001E1
330
10000123
100
AcDbDictionary
280
     1
281
     1
  3
ACAD_XREC_ROUNDTRIP
360
100001E2
  0
DICTIONARY
  5
100001CB
330
EE1
100
AcDbDictionary
280
     1
281
     1
  3
ACAD_XREC_ROUNDTRIP
360
100001CC
  0
DICTIONARY
  5
100001CD
330
EE2
100
AcDbDictionary
280
     1
281
     1
  3
ACAD_XREC_ROUNDTRIP
360
100001CE
  0
DICTIONARY
  5
100001D3
330
10000054
100
AcDbDictionary
280
     1
281
     1
  3
ACAD_XREC_ROUNDTRIP
360
100001D4
  0
DICTIONARY
  5
100001D5
330
10000055
100
AcDbDictionary
280
     1
281
     1
  3
ACAD_XREC_ROUNDTRIP
360
100001D6
  0
DICTIONARY
  5
1000000C
330
1000000B
100
AcDbDictionary
280
     1
281
     1
  3
ACAD_XREC_ROUNDTRIP
360
100001D0
  3
BUMPTILE
360
1000000E
  3
DIFFUSETILE
360
1000000D
  3
OPACITYTILE
360
10000011
  3
REFLECTIONTILE
360
10000010
  3
REFRACTIONTILE
360
10000012
  3
SPECULARTILE
360
1000000F
  0
DICTIONARY
  5
10000004
330
10000003
100
AcDbDictionary
280
     1
281
     1
  3
ACAD_XREC_ROUNDTRIP
360
100001CF
  3
BUMPTILE
360
10000006
  3
DIFFUSETILE
360
10000005
  3
OPACITYTILE
360
10000009
  3
REFLECTIONTILE
360
10000008
  3
REFRACTIONTILE
360
1000000A
  3
SPECULARTILE
360
10000007
  0
DICTIONARY
  5
10000014
330
10000013
100
AcDbDictionary
280
     1
281
     1
  3
ACAD_XREC_ROUNDTRIP
360
100001D1
  3
BUMPTILE
360
10000016
  3
DIFFUSETILE
360
10000015
  3
OPACITYTILE
360
10000019
  3
REFLECTIONTILE
360
10000018
  3
REFRACTIONTILE
360
1000001A
  3
SPECULARTILE
360
10000017
  0
DICTIONARY
  5
1000007E
330
1000002D
100
AcDbDictionary
280
     1
281
     1
  3
ACAD_ROUNDTRIP_2008_TABLESTYLE_CELLSTYLEMAP
360
100001C7
  3
ACAD_XREC_ROUNDTRIP
360
100001D2
  0
XRECORD
  5
100001CA
102
{ACAD_REACTORS
330
100001C9
102
}
330
100001C9
100
AcDbXrecord
280
     1
102
SHADEPLOT
 70
     0
102
SHADEPLOTRESLEVEL
 70
     2
102
SHADEPLOTCUSTOMDPI
 70
   300
  0
XRECORD
  5
100001D8
102
{ACAD_REACTORS
330
100001D7
102
}
330
100001D7
100
AcDbXrecord
280
     1
102
SHADEPLOT
 70
     0
102
SHADEPLOTRESLEVEL
 70
     2
102
SHADEPLOTCUSTOMDPI
 70
   300
  0
XRECORD
  5
100001DA
102
{ACAD_REACTORS
330
100001D9
102
}
330
100001D9
100
AcDbXrecord
280
     1
102
SHADEPLOT
 70
     0
102
SHADEPLOTRESLEVEL
 70
     2
102
SHADEPLOTCUSTOMDPI
 70
   300
  0
XRECORD
  5
100001DC
102
{ACAD_REACTORS
330
100001DB
102
}
330
100001DB
100
AcDbXrecord
280
     1
102
SHADEPLOT
 70
     0
102
SHADEPLOTRESLEVEL
 70
     2
102
SHADEPLOTCUSTOMDPI
 70
   300
  0
XRECORD
  5
100001DE
102
{ACAD_REACTORS
330
100001DD
102
}
330
100001DD
100
AcDbXrecord
280
     1
102
SHADEPLOT
 70
     0
102
SHADEPLOTRESLEVEL
 70
     2
102
SHADEPLOTCUSTOMDPI
 70
   300
  0
XRECORD
  5
100001E0
102
{ACAD_REACTORS
330
100001DF
102
}
330
100001DF
100
AcDbXrecord
280
     1
102
SHADEPLOT
 70
     0
102
SHADEPLOTRESLEVEL
 70
     2
102
SHADEPLOTCUSTOMDPI
 70
   300
  0
XRECORD
  5
100001E2
102
{ACAD_REACTORS
330
100001E1
102
}
330
100001E1
100
AcDbXrecord
280
     1
102
SHADEPLOT
 70
     0
102
SHADEPLOTRESLEVEL
 70
     2
102
SHADEPLOTCUSTOMDPI
 70
   300
  0
XRECORD
  5
100001CC
102
{ACAD_REACTORS
330
100001CB
102
}
330
100001CB
100
AcDbXrecord
280
     1
102
SHADEPLOT
 70
     0
102
SHADEPLOTRESLEVEL
 70
     2
102
SHADEPLOTCUSTOMDPI
 70
   300
  0
XRECORD
  5
100001CE
102
{ACAD_REACTORS
330
100001CD
102
}
330
100001CD
100
AcDbXrecord
280
     1
102
SHADEPLOT
 70
     0
102
SHADEPLOTRESLEVEL
 70
     2
102
SHADEPLOTCUSTOMDPI
 70
   300
  0
XRECORD
  5
100001D4
102
{ACAD_REACTORS
330
100001D3
102
}
330
100001D3
100
AcDbXrecord
280
     1
102
SHADEPLOT
 70
     0
102
SHADEPLOTRESLEVEL
 70
     2
102
SHADEPLOTCUSTOMDPI
 70
   300
  0
XRECORD
  5
100001D6
102
{ACAD_REACTORS
330
100001D5
102
}
330
100001D5
100
AcDbXrecord
280
     1
102
SHADEPLOT
 70
     0
102
SHADEPLOTRESLEVEL
 70
     2
102
SHADEPLOTCUSTOMDPI
 70
   300
  0
XRECORD
  5
100001D0
102
{ACAD_REACTORS
330
1000000C
102
}
330
1000000C
100
AcDbXrecord
280
     1
102
MATERIAL
148
0.0
149
0.0
149
0.0
 93
        0
 94
      127
282
     0
 72
     0
 77
     0
171
     0
175
     0
179
     0
273
     0
  0
XRECORD
  5
1000000E
102
{ACAD_REACTORS
330
1000000C
102
}
330
1000000C
100
AcDbXrecord
280
     1
270
     1
271
     1
  0
XRECORD
  5
1000000D
102
{ACAD_REACTORS
330
1000000C
102
}
330
1000000C
100
AcDbXrecord
280
     1
270
     1
271
     1
  0
XRECORD
  5
10000011
102
{ACAD_REACTORS
330
1000000C
102
}
330
1000000C
100
AcDbXrecord
280
     1
270
     1
271
     1
  0
XRECORD
  5
10000010
102
{ACAD_REACTORS
330
1000000C
102
}
330
1000000C
100
AcDbXrecord
280
     1
270
     1
271
     1
  0
XRECORD
  5
10000012
102
{ACAD_REACTORS
330
1000000C
102
}
330
1000000C
100
AcDbXrecord
280
     1
270
     1
271
     1
  0
XRECORD
  5
1000000F
102
{ACAD_REACTORS
330
1000000C
102
}
330
1000000C
100
AcDbXrecord
280
     1
270
     1
271
     1
  0
XRECORD
  5
100001CF
102
{ACAD_REACTORS
330
10000004
102
}
330
10000004
100
AcDbXrecord
280
     1
102
MATERIAL
148
0.0
149
0.0
149
0.0
 93
        0
 94
      127
282
     0
 72
     0
 77
     0
171
     0
175
     0
179
     0
273
     0
  0
XRECORD
  5
10000006
102
{ACAD_REACTORS
330
10000004
102
}
330
10000004
100
AcDbXrecord
280
     1
270
     1
271
     1
  0
XRECORD
  5
10000005
102
{ACAD_REACTORS
330
10000004
102
}
330
10000004
100
AcDbXrecord
280
     1
270
     1
271
     1
  0
XRECORD
  5
10000009
102
{ACAD_REACTORS
330
10000004
102
}
330
10000004
100
AcDbXrecord
280
     1
270
     1
271
     1
  0
XRECORD
  5
10000008
102
{ACAD_REACTORS
330
10000004
102
}
330
10000004
100
AcDbXrecord
280
     1
270
     1
271
     1
  0
XRECORD
  5
1000000A
102
{ACAD_REACTORS
330
10000004
102
}
330
10000004
100
AcDbXrecord
280
     1
270
     1
271
     1
  0
XRECORD
  5
10000007
102
{ACAD_REACTORS
330
10000004
102
}
330
10000004
100
AcDbXrecord
280
     1
270
     1
271
     1
  0
XRECORD
  5
100001D1
102
{ACAD_REACTORS
330
10000014
102
}
330
10000014
100
AcDbXrecord
280
     1
102
MATERIAL
148
0.0
149
0.0
149
0.0
 93
        0
 94
      127
282
     0
 72
     0
 77
     0
171
     0
175
     0
179
     0
273
     0
  0
XRECORD
  5
10000016
102
{ACAD_REACTORS
330
10000014
102
}
330
10000014
100
AcDbXrecord
280
     1
270
     1
271
     1
  0
XRECORD
  5
10000015
102
{ACAD_REACTORS
330
10000014
102
}
330
10000014
100
AcDbXrecord
280
     1
270
     1
271
     1
  0
XRECORD
  5
10000019
102
{ACAD_REACTORS
330
10000014
102
}
330
10000014
100
AcDbXrecord
280
     1
270
     1
271
     1
  0
XRECORD
  5
10000018
102
{ACAD_REACTORS
330
10000014
102
}
330
10000014
100
AcDbXrecord
280
     1
270
     1
271
     1
  0
XRECORD
  5
1000001A
102
{ACAD_REACTORS
330
10000014
102
}
330
10000014
100
AcDbXrecord
280
     1
270
     1
271
     1
  0
XRECORD
  5
10000017
102
{ACAD_REACTORS
330
10000014
102
}
330
10000014
100
AcDbXrecord
280
     1
270
     1
271
     1
  0
CELLSTYLEMAP
  5
100001C7
102
{ACAD_REACTORS
330
1000007E
102
}
330
1000007E
100
AcDbCellStyleMap
 90
        3
300
CELLSTYLE
  1
TABLEFORMAT_BEGIN
 90
        5
170
     1
 91
        0
 92
    32768
 62
   257
 93
        1
300
CONTENTFORMAT
  1
CONTENTFORMAT_BEGIN
 90
        0
 91
        0
 92
      512
 93
        0
300

 40
0.0
140
1.0
 94
        5
 62
     0
340
FC
144
6.0
309
CONTENTFORMAT_END
171
     1
301
MARGIN
  1
CELLMARGIN_BEGIN
 40
1.5
 40
1.5
 40
1.5
 40
1.5
 40
0.18
 40
0.18
309
CELLMARGIN_END
 94
        6
 95
        1
302
GRIDFORMAT
  1
GRIDFORMAT_BEGIN
 90
        0
 91
        1
 62
     0
 92
       -2
340
0
 93
        0
 40
1.125
309
GRIDFORMAT_END
 95
        2
302
GRIDFORMAT
  1
GRIDFORMAT_BEGIN
 90
        0
 91
        1
 62
     0
 92
       -2
340
0
 93
        0
 40
1.125
309
GRIDFORMAT_END
 95
        4
302
GRIDFORMAT
  1
GRIDFORMAT_BEGIN
 90
        0
 91
        1
 62
     0
 92
       -2
340
0
 93
        0
 40
1.125
309
GRIDFORMAT_END
 95
        8
302
GRIDFORMAT
  1
GRIDFORMAT_BEGIN
 90
        0
 91
        1
 62
     0
 92
       -2
340
0
 93
        0
 40
1.125
309
GRIDFORMAT_END
 95
       16
302
GRIDFORMAT
  1
GRIDFORMAT_BEGIN
 90
        0
 91
        1
 62
     0
 92
       -2
340
0
 93
        0
 40
1.125
309
GRIDFORMAT_END
 95
       32
302
GRIDFORMAT
  1
GRIDFORMAT_BEGIN
 90
        0
 91
        1
 62
     0
 92
       -2
340
0
 93
        0
 40
1.125
309
GRIDFORMAT_END
309
TABLEFORMAT_END
  1
CELLSTYLE_BEGIN
 90
        1
 91
        1
300
_TITLE
309
CELLSTYLE_END
300
CELLSTYLE
  1
TABLEFORMAT_BEGIN
 90
        5
170
     1
 91
        0
 92
        0
 62
   257
 93
        1
300
CONTENTFORMAT
  1
CONTENTFORMAT_BEGIN
 90
        0
 91
        0
 92
      512
 93
        0
300

 40
0.0
140
1.0
 94
        5
 62
     0
340
FC
144
4.5
309
CONTENTFORMAT_END
171
     1
301
MARGIN
  1
CELLMARGIN_BEGIN
 40
1.5
 40
1.5
 40
1.5
 40
1.5
 40
0.18
 40
0.18
309
CELLMARGIN_END
 94
        6
 95
        1
302
GRIDFORMAT
  1
GRIDFORMAT_BEGIN
 90
        0
 91
        1
 62
     0
 92
       -2
340
0
 93
        0
 40
1.125
309
GRIDFORMAT_END
 95
        2
302
GRIDFORMAT
  1
GRIDFORMAT_BEGIN
 90
        0
 91
        1
 62
     0
 92
       -2
340
0
 93
        0
 40
1.125
309
GRIDFORMAT_END
 95
        4
302
GRIDFORMAT
  1
GRIDFORMAT_BEGIN
 90
        0
 91
        1
 62
     0
 92
       -2
340
0
 93
        0
 40
1.125
309
GRIDFORMAT_END
 95
        8
302
GRIDFORMAT
  1
GRIDFORMAT_BEGIN
 90
        0
 91
        1
 62
     0
 92
       -2
340
0
 93
        0
 40
1.125
309
GRIDFORMAT_END
 95
       16
302
GRIDFORMAT
  1
GRIDFORMAT_BEGIN
 90
        0
 91
        1
 62
     0
 92
       -2
340
0
 93
        0
 40
1.125
309
GRIDFORMAT_END
 95
       32
302
GRIDFORMAT
  1
GRIDFORMAT_BEGIN
 90
        0
 91
        1
 62
     0
 92
       -2
340
0
 93
        0
 40
1.125
309
GRIDFORMAT_END
309
TABLEFORMAT_END
  1
CELLSTYLE_BEGIN
 90
        2
 91
        1
300
_HEADER
309
CELLSTYLE_END
300
CELLSTYLE
  1
TABLEFORMAT_BEGIN
 90
        5
170
     1
 91
        0
 92
        0
 62
   257
 93
        1
300
CONTENTFORMAT
  1
CONTENTFORMAT_BEGIN
 90
        0
 91
        0
 92
      512
 93
        0
300

 40
0.0
140
1.0
 94
        2
 62
     0
340
FC
144
4.5
309
CONTENTFORMAT_END
171
     1
301
MARGIN
  1
CELLMARGIN_BEGIN
 40
1.5
 40
1.5
 40
1.5
 40
1.5
 40
0.18
 40
0.18
309
CELLMARGIN_END
 94
        6
 95
        1
302
GRIDFORMAT
  1
GRIDFORMAT_BEGIN
 90
        0
 91
        1
 62
     0
 92
       -2
340
0
 93
        0
 40
1.125
309
GRIDFORMAT_END
 95
        2
302
GRIDFORMAT
  1
GRIDFORMAT_BEGIN
 90
        0
 91
        1
 62
     0
 92
       -2
340
0
 93
        0
 40
1.125
309
GRIDFORMAT_END
 95
        4
302
GRIDFORMAT
  1
GRIDFORMAT_BEGIN
 90
        0
 91
        1
 62
     0
 92
       -2
340
0
 93
        0
 40
1.125
309
GRIDFORMAT_END
 95
        8
302
GRIDFORMAT
  1
GRIDFORMAT_BEGIN
 90
        0
 91
        1
 62
     0
 92
       -2
340
0
 93
        0
 40
1.125
309
GRIDFORMAT_END
 95
       16
302
GRIDFORMAT
  1
GRIDFORMAT_BEGIN
 90
        0
 91
        1
 62
     0
 92
       -2
340
0
 93
        0
 40
1.125
309
GRIDFORMAT_END
 95
       32
302
GRIDFORMAT
  1
GRIDFORMAT_BEGIN
 90
        0
 91
        1
 62
     0
 92
       -2
340
0
 93
        0
 40
1.125
309
GRIDFORMAT_END
309
TABLEFORMAT_END
  1
CELLSTYLE_BEGIN
 90
        3
 91
        2
300
_DATA
309
CELLSTYLE_END
  0
XRECORD
  5
100001D2
102
{ACAD_REACTORS
330
1000007E
102
}
330
1000007E
100
AcDbXrecord
280
     1
102
ACAD_ROUNDTRIP_PRE2007_TABLESTYLE
 90
      512
 91
        0
  1

 92
      512
 93
        0
  2

 94
      512
 95
        0
  3

  0
ENDSEC
  0
EOF
