  0
SECTION
  2
HEADER
  9
$ACADVER
  1
AC1014
  9
$ACADMAINTVER
 70
     0
  9
$DWGCODEPAGE
  3
ANSI_932
  9
$INSBASE
 10
0.0
 20
0.0
 30
0.0
  9
$EXTMIN
 10
0.0
 20
0.0
 30
0.0
  9
$EXTMAX
 10
841.0
 20
594.0
 30
0.0
  9
$LIMMIN
 10
0.0
 20
0.0
  9
$LIMMAX
 10
841.0
 20
594.0
  9
$ORTHOMODE
 70
     0
  9
$REGENMODE
 70
     1
  9
$FILLMODE
 70
     1
  9
$QTEXTMODE
 70
     0
  9
$MIRRTEXT
 70
     1
  9
$DRAGMODE
 70
     2
  9
$LTSCALE
 40
1.0
  9
$OSMODE
 70
     0
  9
$ATTMODE
 70
     1
  9
$TEXTSIZE
 40
0.2
  9
$TRACEWID
 40
0.05
  9
$TEXTSTYLE
  7
STANDARD
  9
$CLAYER
  8
LAY-1
  9
$CELTYPE
  6
CONTINUOUS
  9
$CECOLOR
 62
   256
  9
$CELTSCALE
 40
1.0
  9
$DELOBJ
 70
     1
  9
$DISPSILH
 70
     0
  9
$DIMSCALE
 40
1.0
  9
$DIMASZ
 40
0.18
  9
$DIMEXO
 40
0.0625
  9
$DIMDLI
 40
0.38
  9
$DIMRND
 40
0.0
  9
$DIMDLE
 40
0.0
  9
$DIMEXE
 40
0.18
  9
$DIMTP
 40
0.0
  9
$DIMTM
 40
0.0
  9
$DIMTXT
 40
0.18
  9
$DIMCEN
 40
0.09
  9
$DIMTSZ
 40
0.0
  9
$DIMTOL
 70
     0
  9
$DIMLIM
 70
     0
  9
$DIMTIH
 70
     1
  9
$DIMTOH
 70
     1
  9
$DIMSE1
 70
     0
  9
$DIMSE2
 70
     0
  9
$DIMTAD
 70
     0
  9
$DIMZIN
 70
     0
  9
$DIMBLK
  1

  9
$DIMASO
 70
     1
  9
$DIMSHO
 70
     1
  9
$DIMPOST
  1

  9
$DIMAPOST
  1

  9
$DIMALT
 70
     0
  9
$DIMALTD
 70
     2
  9
$DIMALTF
 40
25.4
  9
$DIMLFAC
 40
1.0
  9
$DIMTOFL
 70
     0
  9
$DIMTVP
 40
0.0
  9
$DIMTIX
 70
     0
  9
$DIMSOXD
 70
     0
  9
$DIMSAH
 70
     0
  9
$DIMBLK1
  1

  9
$DIMBLK2
  1

  9
$DIMSTYLE
  2
STANDARD
  9
$DIMCLRD
 70
     0
  9
$DIMCLRE
 70
     0
  9
$DIMCLRT
 70
     0
  9
$DIMTFAC
 40
1.0
  9
$DIMGAP
 40
0.09
  9
$DIMJUST
 70
     0
  9
$DIMSD1
 70
     0
  9
$DIMSD2
 70
     0
  9
$DIMTOLJ
 70
     1
  9
$DIMTZIN
 70
     0
  9
$DIMALTZ
 70
     0
  9
$DIMALTTZ
 70
     0
  9
$DIMFIT
 70
     3
  9
$DIMUPT
 70
     0
  9
$DIMUNIT
 70
     2
  9
$DIMDEC
 70
     4
  9
$DIMTDEC
 70
     4
  9
$DIMALTU
 70
     2
  9
$DIMALTTD
 70
     2
  9
$DIMTXSTY
  7
STANDARD
  9
$DIMAUNIT
 70
     0
  9
$LUNITS
 70
     2
  9
$LUPREC
 70
     4
  9
$SKETCHINC
 40
0.1
  9
$FILLETRAD
 40
0.0
  9
$AUNITS
 70
     0
  9
$AUPREC
 70
     0
  9
$MENU
  1
acad
  9
$ELEVATION
 40
0.0
  9
$PELEVATION
 40
0.0
  9
$THICKNESS
 40
0.0
  9
$LIMCHECK
 70
     0
  9
$BLIPMODE
 70
     1
  9
$CHAMFERA
 40
0.0
  9
$CHAMFERB
 40
0.0
  9
$CHAMFERC
 40
0.0
  9
$CHAMFERD
 40
0.0
  9
$SKPOLY
 70
     0
  9
$TDCREATE
 40
2454541.759676296
  9
$TDUPDATE
 40
2454541.759676296
  9
$TDINDWG
 40
0.0000000000
  9
$TDUSRTIMER
 40
0.0000000000
  9
$USRTIMER
 70
     1
  9
$ANGBASE
 50
0.0
  9
$ANGDIR
 70
     0
  9
$PDMODE
 70
     0
  9
$PDSIZE
 40
0.0
  9
$PLINEWID
 40
0.0
  9
$COORDS
 70
     1
  9
$SPLFRAME
 70
     0
  9
$SPLINETYPE
 70
     6
  9
$SPLINESEGS
 70
     8
  9
$ATTDIA
 70
     0
  9
$ATTREQ
 70
     1
  9
$HANDLING
 70
     1
  9
$HANDSEED
  5
54D
  9
$SURFTAB1
 70
     6
  9
$SURFTAB2
 70
     6
  9
$SURFTYPE
 70
     6
  9
$SURFU
 70
     6
  9
$SURFV
 70
     6
  9
$UCSNAME
  2

  9
$UCSORG
 10
0.0
 20
0.0
 30
0.0
  9
$UCSXDIR
 10
1.0
 20
0.0
 30
0.0
  9
$UCSYDIR
 10
0.0
 20
1.0
 30
0.0
  9
$PUCSNAME
  2

  9
$PUCSORG
 10
0.0
 20
0.0
 30
0.0
  9
$PUCSXDIR
 10
1.0
 20
0.0
 30
0.0
  9
$PUCSYDIR
 10
0.0
 20
1.0
 30
0.0
  9
$USERI1
 70
     0
  9
$USERI2
 70
     0
  9
$USERI3
 70
     0
  9
$USERI4
 70
     0
  9
$USERI5
 70
     0
  9
$USERR1
 40
0.0
  9
$USERR2
 40
0.0
  9
$USERR3
 40
0.0
  9
$USERR4
 40
0.0
  9
$USERR5
 40
0.0
  9
$WORLDVIEW
 70
     1
  9
$SHADEDGE
 70
     3
  9
$SHADEDIF
 70
    70
  9
$TILEMODE
 70
     1
  9
$MAXACTVP
 70
    16
  9
$PINSBASE
 10
0.0
 20
0.0
 30
0.0
  9
$PLIMCHECK
 70
     0
  9
$PEXTMIN
 10
1.000000E+20
 20
1.000000E+20
 30
1.000000E+20
  9
$PEXTMAX
 10
-1.000000E+20
 20
-1.000000E+20
 30
-1.000000E+20
  9
$PLIMMIN
 10
0.0
 20
0.0
  9
$PLIMMAX
 10
12.0
 20
9.0
  9
$UNITMODE
 70
     0
  9
$VISRETAIN
 70
     0
  9
$PLINEGEN
 70
     1
  9
$PSLTSCALE
 70
     0
  9
$TREEDEPTH
 70
  3020
  9
$PICKSTYLE
 70
     1
  9
$CMLSTYLE
  2
Standard
  9
$CMLJUST
 70
     0
  9
$CMLSCALE
 40
1.0
  9
$PROXYGRAPHICS
 70
     0
  9
$MEASUREMENT
 70
     0
  0
ENDSEC
  0
SECTION
  2
CLASSES
  0
CLASS
  1
LWPOLYLINE
  2
AcDbPolyline
  3
"AutoCAD"
 90
        0
280
     0
281
     1
  0
CLASS
  1
IMAGE
  2
AcDbRasterImage
  3
ISM
 90
      127
280
     0
281
     1
  0
CLASS
  1
OLE2FRAME
  2
AcDbOle2Frame
  3
""
 90
        0
280
     0
281
     1
  0
CLASS
  1
HATCH
  2
AcDbHatch
  3
"ACAD_SEDONA"
 90
        0
280
     0
281
     1
  0
CLASS
  1
DICTIONARYVAR
  2
AcDbDictionaryVar
  3
"AutoCAD"
 90
        0
280
     0
281
     0
  0
CLASS
  1
RASTERVARIABLES
  2
AcDbRasterVariables
  3
ISM
 90
        0
280
     0
281
     0
  0
CLASS
  1
IMAGEDEF
  2
AcDbRasterImageDef
  3
ISM
 90
        0
280
     0
281
     0
  0
CLASS
  1
IMAGEDEF_REACTOR
  2
AcDbRasterImageDefReactor
  3
ISM
 90
        1
280
     0
281
     0
  0
CLASS
  1
IDBUFFER
  2
AcDbIdBuffer
  3
"Acad"
 90
        0
280
     0
281
     0
  0
CLASS
  1
SPATIAL_FILTER
  2
AcDbSpatialFilter
  3
"Acad"
 90
        0
280
     0
281
     0
  0
CLASS
  1
XRECORD
  2
AcDbXrecord
  3
"<Built In>"
 90
        0
280
     0
281
     0
  0
CLASS
  1
SORTENTSTABLE
  2
AcDbSortentsTable
  3
"AutoCAD"
 90
        0
280
     0
281
     0
  0
CLASS
  1
LAYER_INDEX
  2
AcDbLayerIndex
  3
"Acad"
 90
        0
280
     0
281
     0
  0
CLASS
  1
SPATIAL_INDEX
  2
AcDbSpatialIndex
  3
"Acad"
 90
        0
280
     0
281
     0
  0
CLASS
  1
OBJECT_PTR
  2
CAseDLPNTableRecord
  3
"ASE-LPNTableRecord"
 90
        1
280
     0
281
     0
  0
CLASS
  1
LAYOUT
  2
AcDbLayout
  3
"AutoCAD 2000"
 90
        0
280
     0
281
     0
  0
CLASS
  1
PLOTSETTINGS
  2
AcDbPlotSettings
  3
"AutoCAD 2000"
 90
        0
280
     0
281
     0
  0
CLASS
  1
ACDBDICTIONARYWDFLT
  2
AcDbDictionaryWithDefault
  3
"AutoCAD 2000"
 90
        0
280
     0
281
     0
  0
CLASS
  1
ACDBPLACEHOLDER
  2
AcDbPlaceHolder
  3
"AutoCAD 2000"
 90
        0
280
     0
281
     0
  0
CLASS
  1
VBA_PROJECT
  2
AcDbVbaProject
  3
"acadvba"
 90
        0
280
     0
281
     0
  0
CLASS
  1
WIPEOUT
  2
AcDbWipeout
  3
WipeOut|AutoCAD Express Tool|expresstools@autodesk.com
 90
      127
280
     0
281
     1
  0
CLASS
  1
WIPEOUTVARIABLES
  2
AcDbWipeoutVariables
  3
WipeOut|AutoCAD Express Tool|expresstools@autodesk.com
 90
        0
280
     0
281
     0
  0
CLASS
  1
RTEXT
  2
RText
  3
RText|AutoCAD Express Tool|expresstools@autodesk.com
 90
        0
280
     0
281
     1
  0
CLASS
  1
ARCALIGNEDTEXT
  2
AcDbArcAlignedText
  3
ATEXT|AutoCAD Express Tool|expresstools@autodesk.com
 90
        0
280
     0
281
     1
  0
ENDSEC
  0
SECTION
  2
TABLES
  0
TABLE
  2
VPORT
  5
7
100
AcDbSymbolTable
 70
     1
  0
VPORT
  5
15
100
AcDbSymbolTableRecord
100
AcDbViewportTableRecord
  2
*ACTIVE
 70
     0
 10
0.0
 20
0.0
 11
1.0
 21
1.0
 12
420.5
 22
297.0
 13
0.0
 23
0.0
 14
1.0
 24
1.0
 15
0.0
 25
0.0
 16
0.0
 26
0.0
 36
1.0
 17
0.0
 27
0.0
 37
0.0
 40
594.0
 41
1.722533
 42
50.0
 43
0.0
 44
0.0
 50
0.0
 51
0.0
 71
     0
 72
   100
 73
     1
 74
     1
 75
     0
 76
     0
 77
     0
 78
     0
  0
ENDTAB
  0
TABLE
  2
LTYPE
  5
4
100
AcDbSymbolTable
 70
     9
  0
LTYPE
  5
11
100
AcDbSymbolTableRecord
100
AcDbLinetypeTableRecord
  2
BYBLOCK
 70
    64
  3

 72
    65
 73
     0
 40
0.0
  0
LTYPE
  5
12
100
AcDbSymbolTableRecord
100
AcDbLinetypeTableRecord
  2
BYLAYER
 70
    64
  3

 72
    65
 73
     0
 40
0.0
  0
LTYPE
  5
13
100
AcDbSymbolTableRecord
100
AcDbLinetypeTableRecord
  2
CONTINUOUS
 70
    64
  3
実線
 72
    65
 73
     0
 40
0.0
  0
LTYPE
  5
1D
100
AcDbSymbolTableRecord
100
AcDbLinetypeTableRecord
  2
DASHED
 70
    64
  3
Dashed __ __ __ __ __ __ __ __ __ __ __ __ __ _
 72
    65
 73
     2
 40
19.05
 49
12.7
 74
     0
 49
-6.35
 74
     0
  0
LTYPE
  5
1E
100
AcDbSymbolTableRecord
100
AcDbLinetypeTableRecord
  2
DASHED2
 70
    64
  3
Dashed (.5x) _ _ _ _ _ _ _ _ _ _ _ _ _ _ _ _ _ 
 72
    65
 73
     2
 40
9.525
 49
6.35
 74
     0
 49
-3.175
 74
     0
  0
LTYPE
  5
1F
100
AcDbSymbolTableRecord
100
AcDbLinetypeTableRecord
  2
DASHDOT
 70
    64
  3
Dash dot __ . __ . __ . __ . __ . __ . __ . __
 72
    65
 73
     4
 40
25.4
 49
12.7
 74
     0
 49
-6.35
 74
     0
 49
0.0
 74
     0
 49
-6.35
 74
     0
  0
LTYPE
  5
20
100
AcDbSymbolTableRecord
100
AcDbLinetypeTableRecord
  2
DIVIDE
 70
    64
  3
Divide ____ . . ____ . . ____ . . ____ . . ____
 72
    65
 73
     6
 40
31.75
 49
12.7
 74
     0
 49
-6.35
 74
     0
 49
0.0
 74
     0
 49
-6.35
 74
     0
 49
0.0
 74
     0
 49
-6.35
 74
     0
  0
LTYPE
  5
21
100
AcDbSymbolTableRecord
100
AcDbLinetypeTableRecord
  2
ACAD_ISO06W100
 70
    64
  3
ISO long-dash triple-dot ____ ... ____ ... ____
 72
    65
 73
     8
 40
36.0
 49
24.0
 74
     0
 49
-3.0
 74
     0
 49
0.0
 74
     0
 49
-3.0
 74
     0
 49
0.0
 74
     0
 49
-3.0
 74
     0
 49
0.0
 74
     0
 49
-3.0
 74
     0
  0
LTYPE
  5
22
100
AcDbSymbolTableRecord
100
AcDbLinetypeTableRecord
  2
ACAD_ISO15W100
 70
    64
  3
ISO double-dash triple-dot __ __ . . . __ __ . .
 72
    65
 73
    10
 40
39.0
 49
12.0
 74
     0
 49
-3.0
 74
     0
 49
12.0
 74
     0
 49
-3.0
 74
     0
 49
0.0
 74
     0
 49
-3.0
 74
     0
 49
0.0
 74
     0
 49
-3.0
 74
     0
 49
0.0
 74
     0
 49
-3.0
 74
     0
  0
ENDTAB
  0
TABLE
  2
LAYER
  5
2
100
AcDbSymbolTable
 70
     9
  0
LAYER
  5
14
100
AcDbSymbolTableRecord
100
AcDbLayerTableRecord
  2
0
 70
     0
 62
     7
  6
CONTINUOUS
  0
LAYER
  5
25
100
AcDbSymbolTableRecord
100
AcDbLayerTableRecord
  2
LAY-1
 70
    64
 62
     3
  6
CONTINUOUS
  0
LAYER
  5
26
100
AcDbSymbolTableRecord
100
AcDbLayerTableRecord
  2
LAY-2
 70
    64
 62
     3
  6
CONTINUOUS
  0
LAYER
  5
27
100
AcDbSymbolTableRecord
100
AcDbLayerTableRecord
  2
LAY-3
 70
    64
 62
     3
  6
CONTINUOUS
  0
LAYER
  5
28
100
AcDbSymbolTableRecord
100
AcDbLayerTableRecord
  2
LAY-4
 70
    64
 62
     3
  6
CONTINUOUS
  0
LAYER
  5
29
100
AcDbSymbolTableRecord
100
AcDbLayerTableRecord
  2
LAY-5
 70
    64
 62
     1
  6
DASHDOT
  0
LAYER
  5
2A
100
AcDbSymbolTableRecord
100
AcDbLayerTableRecord
  2
LAY-6
 70
    64
 62
     2
  6
CONTINUOUS
  0
LAYER
  5
2B
100
AcDbSymbolTableRecord
100
AcDbLayerTableRecord
  2
LAY-9
 70
    64
 62
     1
  6
CONTINUOUS
  0
LAYER
  5
2C
100
AcDbSymbolTableRecord
100
AcDbLayerTableRecord
  2
LAY-10
 70
    64
 62
     5
  6
CONTINUOUS
  0
ENDTAB
  0
TABLE
  2
STYLE
  5
3
100
AcDbSymbolTable
 70
     3
  0
STYLE
  5
17
100
AcDbSymbolTableRecord
100
AcDbTextStyleTableRecord
  2
STANDARD
 70
     0
 40
0.0
 41
1.0
 50
0.0
 71
     0
 42
0.0
  3
monotxt
  4
extfont
  0
STYLE
  5
23
100
AcDbSymbolTableRecord
100
AcDbTextStyleTableRecord
  2
EXCADSTD
 70
    64
 40
0.0
 41
1.0
 50
0.0
 71
     0
 42
0.2
  3
monotxt
  4
extfont
  0
STYLE
  5
24
100
AcDbSymbolTableRecord
100
AcDbTextStyleTableRecord
  2
EXCADVERT
 70
    68
 40
0.0
 41
1.0
 50
0.0
 71
     0
 42
0.286885
  3
monotxt
  4
extfont
  0
ENDTAB
  0
TABLE
  2
VIEW
  5
5
100
AcDbSymbolTable
 70
     0
  0
ENDTAB
  0
TABLE
  2
UCS
  5
6
100
AcDbSymbolTable
 70
     0
  0
ENDTAB
  0
TABLE
  2
APPID
  5
8
100
AcDbSymbolTable
 70
     1
  0
APPID
  5
16
100
AcDbSymbolTableRecord
100
AcDbRegAppTableRecord
  2
ACAD
 70
     0
  0
ENDTAB
  0
TABLE
  2
DIMSTYLE
  5
9
100
AcDbSymbolTable
 70
     1
  0
DIMSTYLE
105
18
100
AcDbSymbolTableRecord
100
AcDbDimStyleTableRecord
  2
STANDARD
 70
     0
  3

  4

  5

  6

  7

 40
1.0
 41
0.18
 42
0.0625
 43
0.38
 44
0.18
 45
0.0
 46
0.0
 47
0.0
 48
0.0
 71
     0
 72
     0
 73
     1
 74
     1
 75
     0
 76
     0
 77
     0
 78
     0
140
0.18
141
0.09
142
0.0
143
25.4
144
1.0
145
0.0
146
1.0
147
0.09
170
     0
171
     2
172
     1
173
     0
174
     0
175
     0
176
     0
177
     0
178
     0
270
     2
271
     4
272
     4
273
     2
274
     2
275
     0
280
     0
281
     0
282
     0
283
     1
284
     0
285
     0
286
     0
287
     3
288
     0
340
17
  0
ENDTAB
  0
TABLE
  2
BLOCK_RECORD
  5
1
100
AcDbSymbolTable
 70
    14
  0
BLOCK_RECORD
  5
A
100
AcDbSymbolTableRecord
100
AcDbBlockTableRecord
  2
*MODEL_SPACE
  0
BLOCK_RECORD
  5
B
100
AcDbSymbolTableRecord
100
AcDbBlockTableRecord
  2
*PAPER_SPACE
  0
BLOCK_RECORD
  5
2D
100
AcDbSymbolTableRecord
100
AcDbBlockTableRecord
  2
_EX_NORM
  0
BLOCK_RECORD
  5
2E
100
AcDbSymbolTableRecord
100
AcDbBlockTableRecord
  2
_EX_BNORM
  0
BLOCK_RECORD
  5
2F
100
AcDbSymbolTableRecord
100
AcDbBlockTableRecord
  2
_EX_BCIR
  0
BLOCK_RECORD
  5
30
100
AcDbSymbolTableRecord
100
AcDbBlockTableRecord
  2
_EX_RCIVIL
  0
BLOCK_RECORD
  5
31
100
AcDbSymbolTableRecord
100
AcDbBlockTableRecord
  2
_EX_SLANT
  0
BLOCK_RECORD
  5
32
100
AcDbSymbolTableRecord
100
AcDbBlockTableRecord
  2
_EX_NONE
  0
BLOCK_RECORD
  5
33
100
AcDbSymbolTableRecord
100
AcDbBlockTableRecord
  2
_EX_CIVIL
  0
BLOCK_RECORD
  5
34
100
AcDbSymbolTableRecord
100
AcDbBlockTableRecord
  2
_EX_WCIR
  0
BLOCK_RECORD
  5
35
100
AcDbSymbolTableRecord
100
AcDbBlockTableRecord
  2
_EX_WCIR2
  0
BLOCK_RECORD
  5
36
100
AcDbSymbolTableRecord
100
AcDbBlockTableRecord
  2
_EX_WNORM
  0
BLOCK_RECORD
  5
37
100
AcDbSymbolTableRecord
100
AcDbBlockTableRecord
  2
_EX_NNORM
  0
BLOCK_RECORD
  5
38
100
AcDbSymbolTableRecord
100
AcDbBlockTableRecord
  2
_EX_BBOX
  0
BLOCK_RECORD
  5
39
100
AcDbSymbolTableRecord
100
AcDbBlockTableRecord
  2
_EX_WBOX
  0
BLOCK_RECORD
  5
3A
100
AcDbSymbolTableRecord
100
AcDbBlockTableRecord
  2
_EX_INTEGRAL
  0
ENDTAB
  0
ENDSEC
  0
SECTION
  2
BLOCKS
  0
BLOCK
  5
D
100
AcDbEntity
  8
0
100
AcDbBlockBegin
  2
*MODEL_SPACE
 70
     0
 10
0.0
 20
0.0
 30
0.0
  3
*MODEL_SPACE
  1

  0
ENDBLK
  5
E
100
AcDbEntity
  8
0
100
AcDbBlockEnd
  0
BLOCK
  5
F
100
AcDbEntity
 67
     1
  8
0
100
AcDbBlockBegin
  2
*PAPER_SPACE
 70
     0
 10
0.0
 20
0.0
 30
0.0
  3
*PAPER_SPACE
  1

  0
ENDBLK
  5
10
100
AcDbEntity
 67
     1
  8
0
100
AcDbBlockEnd
  0
BLOCK
  5
3B
100
AcDbEntity
  8
0
100
AcDbBlockBegin
  2
_EX_NORM
 70
     0
 10
0.0
 20
0.0
 30
0.0
  3
_EX_NORM
  1

  0
LINE
  5
3C
100
AcDbEntity
  8
0
  6
CONTINUOUS
 62
     0
100
AcDbLine
 10
0.0
 20
0.0
 30
0.0
 11
-1.0
 21
0.0
 31
0.0
  0
LINE
  5
3D
100
AcDbEntity
  8
0
  6
CONTINUOUS
 62
     0
100
AcDbLine
 10
0.0
 20
0.0
 30
0.0
 11
-1.0
 21
0.166667
 31
0.0
  0
LINE
  5
3E
100
AcDbEntity
  8
0
  6
CONTINUOUS
 62
     0
100
AcDbLine
 10
0.0
 20
0.0
 30
0.0
 11
-1.0
 21
-0.166667
 31
0.0
  0
ENDBLK
  5
3F
100
AcDbEntity
  8
0
100
AcDbBlockEnd
  0
BLOCK
  5
40
100
AcDbEntity
  8
0
100
AcDbBlockBegin
  2
_EX_BNORM
 70
     0
 10
0.0
 20
0.0
 30
0.0
  3
_EX_BNORM
  1

  0
LINE
  5
41
100
AcDbEntity
  8
0
  6
CONTINUOUS
 62
     0
100
AcDbLine
 10
0.0
 20
0.0
 30
0.0
 11
-1.0
 21
0.0
 31
0.0
  0
LINE
  5
42
100
AcDbEntity
  8
0
  6
CONTINUOUS
 62
     0
100
AcDbLine
 10
0.0
 20
0.0
 30
0.0
 11
-1.0
 21
0.166667
 31
0.0
  0
LINE
  5
43
100
AcDbEntity
  8
0
  6
CONTINUOUS
 62
     0
100
AcDbLine
 10
0.0
 20
0.0
 30
0.0
 11
-1.0
 21
-0.166667
 31
0.0
  0
LINE
  5
44
100
AcDbEntity
  8
0
  6
CONTINUOUS
 62
     0
100
AcDbLine
 10
0.0
 20
0.0
 30
0.0
 11
-1.0
 21
0.083333
 31
0.0
  0
LINE
  5
45
100
AcDbEntity
  8
0
  6
CONTINUOUS
 62
     0
100
AcDbLine
 10
0.0
 20
0.0
 30
0.0
 11
-1.0
 21
-0.083333
 31
0.0
  0
LINE
  5
46
100
AcDbEntity
  8
0
  6
CONTINUOUS
 62
     0
100
AcDbLine
 10
-1.0
 20
0.166667
 30
0.0
 11
-1.0
 21
-0.166667
 31
0.0
  0
ENDBLK
  5
47
100
AcDbEntity
  8
0
100
AcDbBlockEnd
  0
BLOCK
  5
48
100
AcDbEntity
  8
0
100
AcDbBlockBegin
  2
_EX_BCIR
 70
     0
 10
0.0
 20
0.0
 30
0.0
  3
_EX_BCIR
  1

  0
LINE
  5
49
100
AcDbEntity
  8
0
  6
CONTINUOUS
 62
     0
100
AcDbLine
 10
0.0
 20
0.0
 30
0.0
 11
-1.0
 21
0.0
 31
0.0
  0
CIRCLE
  5
4A
100
AcDbEntity
  8
0
  6
CONTINUOUS
 62
     0
100
AcDbCircle
 10
0.0
 20
0.0
 30
0.0
 40
0.5
  0
CIRCLE
  5
4B
100
AcDbEntity
  8
0
  6
CONTINUOUS
 62
     0
100
AcDbCircle
 10
0.0
 20
0.0
 30
0.0
 40
0.25
  0
ENDBLK
  5
4C
100
AcDbEntity
  8
0
100
AcDbBlockEnd
  0
BLOCK
  5
4D
100
AcDbEntity
  8
0
100
AcDbBlockBegin
  2
_EX_RCIVIL
 70
     0
 10
0.0
 20
0.0
 30
0.0
  3
_EX_RCIVIL
  1

  0
LINE
  5
4E
100
AcDbEntity
  8
0
  6
CONTINUOUS
 62
     0
100
AcDbLine
 10
0.0
 20
0.0
 30
0.0
 11
-1.0
 21
0.0
 31
0.0
  0
LINE
  5
4F
100
AcDbEntity
  8
0
  6
CONTINUOUS
 62
     0
100
AcDbLine
 10
-1.0
 20
-0.25
 30
0.0
 11
0.0
 21
-0.25
 31
0.0
  0
LINE
  5
50
100
AcDbEntity
  8
0
  6
CONTINUOUS
 62
     0
100
AcDbLine
 10
-1.0
 20
-0.125
 30
0.0
 11
0.0
 21
-0.125
 31
0.0
  0
ENDBLK
  5
51
100
AcDbEntity
  8
0
100
AcDbBlockEnd
  0
BLOCK
  5
52
100
AcDbEntity
  8
0
100
AcDbBlockBegin
  2
_EX_SLANT
 70
     0
 10
0.0
 20
0.0
 30
0.0
  3
_EX_SLANT
  1

  0
LINE
  5
53
100
AcDbEntity
  8
0
  6
CONTINUOUS
 62
     0
100
AcDbLine
 10
0.0
 20
0.0
 30
0.0
 11
-1.0
 21
0.0
 31
0.0
  0
LINE
  5
54
100
AcDbEntity
  8
0
  6
CONTINUOUS
 62
     0
100
AcDbLine
 10
0.707107
 20
0.707107
 30
0.0
 11
-0.707107
 21
-0.707107
 31
0.0
  0
ENDBLK
  5
55
100
AcDbEntity
  8
0
100
AcDbBlockEnd
  0
BLOCK
  5
56
100
AcDbEntity
  8
0
100
AcDbBlockBegin
  2
_EX_NONE
 70
     0
 10
0.0
 20
0.0
 30
0.0
  3
_EX_NONE
  1

  0
LINE
  5
57
100
AcDbEntity
  8
0
  6
CONTINUOUS
 62
     0
100
AcDbLine
 10
0.0
 20
0.0
 30
0.0
 11
-1.0
 21
0.0
 31
0.0
  0
ENDBLK
  5
58
100
AcDbEntity
  8
0
100
AcDbBlockEnd
  0
BLOCK
  5
59
100
AcDbEntity
  8
0
100
AcDbBlockBegin
  2
_EX_CIVIL
 70
     0
 10
0.0
 20
0.0
 30
0.0
  3
_EX_CIVIL
  1

  0
LINE
  5
5A
100
AcDbEntity
  8
0
  6
CONTINUOUS
 62
     0
100
AcDbLine
 10
0.0
 20
0.0
 30
0.0
 11
-1.0
 21
0.0
 31
0.0
  0
LINE
  5
5B
100
AcDbEntity
  8
0
  6
CONTINUOUS
 62
     0
100
AcDbLine
 10
-1.0
 20
0.25
 30
0.0
 11
0.0
 21
0.25
 31
0.0
  0
LINE
  5
5C
100
AcDbEntity
  8
0
  6
CONTINUOUS
 62
     0
100
AcDbLine
 10
-1.0
 20
0.125
 30
0.0
 11
0.0
 21
0.125
 31
0.0
  0
ENDBLK
  5
5D
100
AcDbEntity
  8
0
100
AcDbBlockEnd
  0
BLOCK
  5
5E
100
AcDbEntity
  8
0
100
AcDbBlockBegin
  2
_EX_WCIR
 70
     0
 10
0.0
 20
0.0
 30
0.0
  3
_EX_WCIR
  1

  0
LINE
  5
5F
100
AcDbEntity
  8
0
  6
CONTINUOUS
 62
     0
100
AcDbLine
 10
0.0
 20
0.0
 30
0.0
 11
-1.0
 21
0.0
 31
0.0
  0
CIRCLE
  5
60
100
AcDbEntity
  8
0
  6
CONTINUOUS
 62
     0
100
AcDbCircle
 10
0.0
 20
0.0
 30
0.0
 40
0.5
  0
ENDBLK
  5
61
100
AcDbEntity
  8
0
100
AcDbBlockEnd
  0
BLOCK
  5
62
100
AcDbEntity
  8
0
100
AcDbBlockBegin
  2
_EX_WCIR2
 70
     0
 10
0.0
 20
0.0
 30
0.0
  3
_EX_WCIR2
  1

  0
LINE
  5
63
100
AcDbEntity
  8
0
  6
CONTINUOUS
 62
     0
100
AcDbLine
 10
-0.5
 20
0.0
 30
0.0
 11
-1.0
 21
0.0
 31
0.0
  0
CIRCLE
  5
64
100
AcDbEntity
  8
0
  6
CONTINUOUS
 62
     0
100
AcDbCircle
 10
0.0
 20
0.0
 30
0.0
 40
0.5
  0
ENDBLK
  5
65
100
AcDbEntity
  8
0
100
AcDbBlockEnd
  0
BLOCK
  5
66
100
AcDbEntity
  8
0
100
AcDbBlockBegin
  2
_EX_WNORM
 70
     0
 10
0.0
 20
0.0
 30
0.0
  3
_EX_WNORM
  1

  0
LINE
  5
67
100
AcDbEntity
  8
0
  6
CONTINUOUS
 62
     0
100
AcDbLine
 10
-1.0
 20
0.0
 30
0.0
 11
-1.0
 21
0.0
 31
0.0
  0
LINE
  5
68
100
AcDbEntity
  8
0
  6
CONTINUOUS
 62
     0
100
AcDbLine
 10
0.0
 20
0.0
 30
0.0
 11
-1.0
 21
0.166667
 31
0.0
  0
LINE
  5
69
100
AcDbEntity
  8
0
  6
CONTINUOUS
 62
     0
100
AcDbLine
 10
0.0
 20
0.0
 30
0.0
 11
-1.0
 21
-0.166667
 31
0.0
  0
LINE
  5
6A
100
AcDbEntity
  8
0
  6
CONTINUOUS
 62
     0
100
AcDbLine
 10
-1.0
 20
0.166667
 30
0.0
 11
-1.0
 21
-0.166667
 31
0.0
  0
ENDBLK
  5
6B
100
AcDbEntity
  8
0
100
AcDbBlockEnd
  0
BLOCK
  5
6C
100
AcDbEntity
  8
0
100
AcDbBlockBegin
  2
_EX_NNORM
 70
     0
 10
0.0
 20
0.0
 30
0.0
  3
_EX_NNORM
  1

  0
LINE
  5
6D
100
AcDbEntity
  8
0
  6
CONTINUOUS
 62
     0
100
AcDbLine
 10
0.0
 20
0.0
 30
0.0
 11
-1.0
 21
0.0
 31
0.0
  0
LINE
  5
6E
100
AcDbEntity
  8
0
  6
CONTINUOUS
 62
     0
100
AcDbLine
 10
0.0
 20
0.0
 30
0.0
 11
-1.0
 21
0.166667
 31
0.0
  0
LINE
  5
6F
100
AcDbEntity
  8
0
  6
CONTINUOUS
 62
     0
100
AcDbLine
 10
0.0
 20
0.0
 30
0.0
 11
-1.0
 21
-0.166667
 31
0.0
  0
LINE
  5
70
100
AcDbEntity
  8
0
  6
CONTINUOUS
 62
     0
100
AcDbLine
 10
-1.0
 20
0.166667
 30
0.0
 11
-1.0
 21
-0.166667
 31
0.0
  0
ENDBLK
  5
71
100
AcDbEntity
  8
0
100
AcDbBlockEnd
  0
BLOCK
  5
72
100
AcDbEntity
  8
0
100
AcDbBlockBegin
  2
_EX_BBOX
 70
     0
 10
0.0
 20
0.0
 30
0.0
  3
_EX_BBOX
  1

  0
LINE
  5
73
100
AcDbEntity
  8
0
  6
CONTINUOUS
 62
     0
100
AcDbLine
 10
0.0
 20
0.0
 30
0.0
 11
-1.0
 21
0.0
 31
0.0
  0
LINE
  5
74
100
AcDbEntity
  8
0
  6
CONTINUOUS
 62
     0
100
AcDbLine
 10
-0.5
 20
0.5
 30
0.0
 11
0.5
 21
0.5
 31
0.0
  0
LINE
  5
75
100
AcDbEntity
  8
0
  6
CONTINUOUS
 62
     0
100
AcDbLine
 10
0.5
 20
0.5
 30
0.0
 11
0.5
 21
-0.5
 31
0.0
  0
LINE
  5
76
100
AcDbEntity
  8
0
  6
CONTINUOUS
 62
     0
100
AcDbLine
 10
0.5
 20
-0.5
 30
0.0
 11
-0.5
 21
-0.5
 31
0.0
  0
LINE
  5
77
100
AcDbEntity
  8
0
  6
CONTINUOUS
 62
     0
100
AcDbLine
 10
-0.5
 20
-0.5
 30
0.0
 11
-0.5
 21
0.5
 31
0.0
  0
LINE
  5
78
100
AcDbEntity
  8
0
  6
CONTINUOUS
 62
     0
100
AcDbLine
 10
-0.25
 20
0.25
 30
0.0
 11
0.25
 21
0.25
 31
0.0
  0
LINE
  5
79
100
AcDbEntity
  8
0
  6
CONTINUOUS
 62
     0
100
AcDbLine
 10
0.25
 20
0.25
 30
0.0
 11
0.25
 21
-0.25
 31
0.0
  0
LINE
  5
7A
100
AcDbEntity
  8
0
  6
CONTINUOUS
 62
     0
100
AcDbLine
 10
0.25
 20
-0.25
 30
0.0
 11
-0.25
 21
-0.25
 31
0.0
  0
LINE
  5
7B
100
AcDbEntity
  8
0
  6
CONTINUOUS
 62
     0
100
AcDbLine
 10
-0.25
 20
-0.25
 30
0.0
 11
-0.25
 21
0.25
 31
0.0
  0
ENDBLK
  5
7C
100
AcDbEntity
  8
0
100
AcDbBlockEnd
  0
BLOCK
  5
7D
100
AcDbEntity
  8
0
100
AcDbBlockBegin
  2
_EX_WBOX
 70
     0
 10
0.0
 20
0.0
 30
0.0
  3
_EX_WBOX
  1

  0
LINE
  5
7E
100
AcDbEntity
  8
0
  6
CONTINUOUS
 62
     0
100
AcDbLine
 10
-0.5
 20
0.0
 30
0.0
 11
-1.0
 21
0.0
 31
0.0
  0
LINE
  5
7F
100
AcDbEntity
  8
0
  6
CONTINUOUS
 62
     0
100
AcDbLine
 10
-0.5
 20
0.5
 30
0.0
 11
0.5
 21
0.5
 31
0.0
  0
LINE
  5
80
100
AcDbEntity
  8
0
  6
CONTINUOUS
 62
     0
100
AcDbLine
 10
0.5
 20
0.5
 30
0.0
 11
0.5
 21
-0.5
 31
0.0
  0
LINE
  5
81
100
AcDbEntity
  8
0
  6
CONTINUOUS
 62
     0
100
AcDbLine
 10
0.5
 20
-0.5
 30
0.0
 11
-0.5
 21
-0.5
 31
0.0
  0
LINE
  5
82
100
AcDbEntity
  8
0
  6
CONTINUOUS
 62
     0
100
AcDbLine
 10
-0.5
 20
-0.5
 30
0.0
 11
-0.5
 21
0.5
 31
0.0
  0
ENDBLK
  5
83
100
AcDbEntity
  8
0
100
AcDbBlockEnd
  0
BLOCK
  5
84
100
AcDbEntity
  8
0
100
AcDbBlockBegin
  2
_EX_INTEGRAL
 70
     0
 10
0.0
 20
0.0
 30
0.0
  3
_EX_INTEGRAL
  1

  0
LINE
  5
85
100
AcDbEntity
  8
0
  6
CONTINUOUS
 62
     0
100
AcDbLine
 10
0.0
 20
0.0
 30
0.0
 11
-1.0
 21
0.0
 31
0.0
  0
ARC
  5
86
100
AcDbEntity
  8
0
  6
CONTINUOUS
 62
     0
100
AcDbCircle
 10
0.542115
 20
0.164992
 30
0.0
 40
0.56667
100
AcDbArc
 50
73.07249
 51
196.927513
  0
ARC
  5
87
100
AcDbEntity
  8
0
  6
CONTINUOUS
 62
     0
100
AcDbCircle
 10
-0.542115
 20
-0.164992
 30
0.0
 40
0.56667
100
AcDbArc
 50
253.072487
 51
16.927513
  0
ENDBLK
  5
88
100
AcDbEntity
  8
0
100
AcDbBlockEnd
  0
ENDSEC
  0
SECTION
  2
ENTITIES
  0
CIRCLE
  5
89
100
AcDbEntity
  8
LAY-1
  6
CONTINUOUS
 62
     3
100
AcDbCircle
 10
689.1
 20
125.4
 30
0.0
 40
16.200001
  0
LINE
  5
8A
100
AcDbEntity
  8
LAY-1
  6
CONTINUOUS
 62
     3
100
AcDbLine
 10
687.6
 20
98.9
 30
0.0
 11
687.6
 21
99.4
 31
0.0
  0
LINE
  5
8B
100
AcDbEntity
  8
LAY-1
  6
CONTINUOUS
 62
     3
100
AcDbLine
 10
690.6
 20
98.9
 30
0.0
 11
690.6
 21
99.4
 31
0.0
  0
LINE
  5
8C
100
AcDbEntity
  8
LAY-1
  6
CONTINUOUS
 62
     3
100
AcDbLine
 10
690.6
 20
98.9
 30
0.0
 11
687.6
 21
98.9
 31
0.0
  0
LINE
  5
8D
100
AcDbEntity
  8
LAY-1
  6
CONTINUOUS
 62
     3
100
AcDbLine
 10
687.6
 20
99.4
 30
0.0
 11
679.260248
 21
99.4
 31
0.0
  0
LINE
  5
8E
100
AcDbEntity
  8
LAY-1
  6
CONTINUOUS
 62
     3
100
AcDbLine
 10
690.6
 20
99.4
 30
0.0
 11
698.939737
 21
99.4
 31
0.0
  0
LINE
  5
8F
100
AcDbEntity
  8
LAY-1
  6
CONTINUOUS
 62
     3
100
AcDbLine
 10
700.671785
 20
100.4
 30
0.0
 11
706.260256
 21
110.079489
 31
0.0
  0
LINE
  5
90
100
AcDbEntity
  8
LAY-1
  6
CONTINUOUS
 62
     3
100
AcDbLine
 10
707.6
 20
115.079489
 30
0.0
 11
707.6
 21
156.9
 31
0.0
  0
LINE
  5
91
100
AcDbEntity
  8
LAY-1
  6
CONTINUOUS
 62
     3
100
AcDbLine
 10
707.6
 20
156.9
 30
0.0
 11
689.1
 21
157.4
 31
0.0
  0
LINE
  5
92
100
AcDbEntity
  8
LAY-1
  6
CONTINUOUS
 62
     3
100
AcDbLine
 10
689.1
 20
157.4
 30
0.0
 11
670.6
 21
156.9
 31
0.0
  0
LINE
  5
93
100
AcDbEntity
  8
LAY-1
  6
CONTINUOUS
 62
     3
100
AcDbLine
 10
670.6
 20
156.9
 30
0.0
 11
670.6
 21
115.079489
 31
0.0
  0
LINE
  5
94
100
AcDbEntity
  8
LAY-1
  6
CONTINUOUS
 62
     3
100
AcDbLine
 10
671.939745
 20
110.079489
 30
0.0
 11
677.5282
 21
100.4
 31
0.0
  0
ARC
  5
95
100
AcDbEntity
  8
LAY-1
  6
CONTINUOUS
 62
     3
100
AcDbCircle
 10
697.6
 20
115.079489
 30
0.0
 40
10.0
100
AcDbArc
 50
329.999967
 51
359.99998
  0
ARC
  5
96
100
AcDbEntity
  8
LAY-1
  6
CONTINUOUS
 62
     3
100
AcDbCircle
 10
680.6
 20
115.079489
 30
0.0
 40
10.0
100
AcDbArc
 50
180.000018
 51
209.999973
  0
ARC
  5
97
100
AcDbEntity
  8
LAY-1
  6
CONTINUOUS
 62
     3
100
AcDbCircle
 10
698.939737
 20
101.4
 30
0.0
 40
2.0
100
AcDbArc
 50
270.0
 51
329.999967
  0
ARC
  5
98
100
AcDbEntity
  8
LAY-1
  6
CONTINUOUS
 62
     3
100
AcDbCircle
 10
679.260248
 20
101.4
 30
0.0
 40
2.0
100
AcDbArc
 50
209.999973
 51
270.0
  0
CIRCLE
  5
99
100
AcDbEntity
  8
LAY-1
  6
DASHED2
 62
     3
100
AcDbCircle
 10
677.100008
 20
142.4
 30
0.0
 40
3.5
  0
LINE
  5
9A
100
AcDbEntity
  8
LAY-1
  6
DASHED2
 62
     3
100
AcDbLine
 10
680.047716
 20
144.287054
 30
0.0
 11
678.160661
 21
142.4
 31
0.0
  0
LINE
  5
9B
100
AcDbEntity
  8
LAY-1
  6
DASHED2
 62
     3
100
AcDbLine
 10
678.160661
 20
142.4
 30
0.0
 11
680.047716
 21
140.512946
 31
0.0
  0
LINE
  5
9C
100
AcDbEntity
  8
LAY-1
  6
DASHED2
 62
     3
100
AcDbLine
 10
678.987062
 20
139.452277
 30
0.0
 11
677.100008
 21
141.339331
 31
0.0
  0
LINE
  5
9D
100
AcDbEntity
  8
LAY-1
  6
DASHED2
 62
     3
100
AcDbLine
 10
677.100008
 20
141.339331
 30
0.0
 11
675.212953
 21
139.452277
 31
0.0
  0
LINE
  5
9E
100
AcDbEntity
  8
LAY-1
  6
DASHED2
 62
     3
100
AcDbLine
 10
674.152284
 20
140.512946
 30
0.0
 11
676.039339
 21
142.4
 31
0.0
  0
LINE
  5
9F
100
AcDbEntity
  8
LAY-1
  6
DASHED2
 62
     3
100
AcDbLine
 10
676.039339
 20
142.4
 30
0.0
 11
674.152284
 21
144.287054
 31
0.0
  0
LINE
  5
A0
100
AcDbEntity
  8
LAY-1
  6
DASHED2
 62
     3
100
AcDbLine
 10
675.212953
 20
145.347723
 30
0.0
 11
677.100008
 21
143.460669
 31
0.0
  0
LINE
  5
A1
100
AcDbEntity
  8
LAY-1
  6
DASHED2
 62
     3
100
AcDbLine
 10
677.100008
 20
143.460669
 30
0.0
 11
678.987062
 21
145.347723
 31
0.0
  0
CIRCLE
  5
A2
100
AcDbEntity
  8
LAY-1
  6
DASHED2
 62
     3
100
AcDbCircle
 10
701.1
 20
142.4
 30
0.0
 40
3.5
  0
LINE
  5
A3
100
AcDbEntity
  8
LAY-1
  6
DASHED2
 62
     3
100
AcDbLine
 10
704.047708
 20
144.287054
 30
0.0
 11
702.160654
 21
142.4
 31
0.0
  0
LINE
  5
A4
100
AcDbEntity
  8
LAY-1
  6
DASHED2
 62
     3
100
AcDbLine
 10
702.160654
 20
142.4
 30
0.0
 11
704.047708
 21
140.512946
 31
0.0
  0
LINE
  5
A5
100
AcDbEntity
  8
LAY-1
  6
DASHED2
 62
     3
100
AcDbLine
 10
702.987055
 20
139.452277
 30
0.0
 11
701.1
 21
141.339331
 31
0.0
  0
LINE
  5
A6
100
AcDbEntity
  8
LAY-1
  6
DASHED2
 62
     3
100
AcDbLine
 10
701.1
 20
141.339331
 30
0.0
 11
699.212946
 21
139.452277
 31
0.0
  0
LINE
  5
A7
100
AcDbEntity
  8
LAY-1
  6
DASHED2
 62
     3
100
AcDbLine
 10
698.152277
 20
140.512946
 30
0.0
 11
700.039331
 21
142.4
 31
0.0
  0
LINE
  5
A8
100
AcDbEntity
  8
LAY-1
  6
DASHED2
 62
     3
100
AcDbLine
 10
700.039331
 20
142.4
 30
0.0
 11
698.152277
 21
144.287054
 31
0.0
  0
LINE
  5
A9
100
AcDbEntity
  8
LAY-1
  6
DASHED2
 62
     3
100
AcDbLine
 10
699.212946
 20
145.347723
 30
0.0
 11
701.1
 21
143.460669
 31
0.0
  0
LINE
  5
AA
100
AcDbEntity
  8
LAY-1
  6
DASHED2
 62
     3
100
AcDbLine
 10
701.1
 20
143.460669
 30
0.0
 11
702.987055
 21
145.347723
 31
0.0
  0
LINE
  5
AB
100
AcDbEntity
  8
LAY-1
  6
DASHED2
 62
     3
100
AcDbLine
 10
673.1
 20
153.4
 30
0.0
 11
673.1
 21
147.4
 31
0.0
  0
LINE
  5
AC
100
AcDbEntity
  8
LAY-1
  6
DASHED2
 62
     3
100
AcDbLine
 10
671.1
 20
145.4
 30
0.0
 11
673.1
 21
147.4
 31
0.0
  0
LINE
  5
AD
100
AcDbEntity
  8
LAY-1
  6
DASHED2
 62
     3
100
AcDbLine
 10
671.1
 20
155.4
 30
0.0
 11
671.1
 21
145.4
 31
0.0
  0
LINE
  5
AE
100
AcDbEntity
  8
LAY-1
  6
DASHED2
 62
     3
100
AcDbLine
 10
673.1
 20
153.4
 30
0.0
 11
671.1
 21
155.4
 31
0.0
  0
LINE
  5
AF
100
AcDbEntity
  8
LAY-1
  6
DASHED2
 62
     3
100
AcDbLine
 10
671.1
 20
155.4
 30
0.0
 11
670.600008
 21
155.4
 31
0.0
  0
LINE
  5
B0
100
AcDbEntity
  8
LAY-1
  6
DASHED2
 62
     3
100
AcDbLine
 10
671.1
 20
145.4
 30
0.0
 11
670.600008
 21
145.4
 31
0.0
  0
LINE
  5
B1
100
AcDbEntity
  8
LAY-1
  6
CONTINUOUS
 62
     3
100
AcDbLine
 10
349.0
 20
450.499992
 30
0.0
 11
349.0
 21
487.50003
 31
0.0
  0
LINE
  5
B2
100
AcDbEntity
  8
LAY-1
  6
CONTINUOUS
 62
     3
100
AcDbLine
 10
707.6
 20
113.9
 30
0.0
 11
707.6
 21
156.9
 31
0.0
  0
LINE
  5
B3
100
AcDbEntity
  8
LAY-1
  6
DASHED2
 62
     3
100
AcDbLine
 10
720.6
 20
153.4
 30
0.0
 11
720.6
 21
147.4
 31
0.0
  0
LINE
  5
B4
100
AcDbEntity
  8
LAY-1
  6
DASHED2
 62
     3
100
AcDbLine
 10
720.6
 20
153.4
 30
0.0
 11
673.1
 21
153.4
 31
0.0
  0
LINE
  5
B5
100
AcDbEntity
  8
LAY-1
  6
DASHED2
 62
     3
100
AcDbLine
 10
673.1
 20
147.4
 30
0.0
 11
720.6
 21
147.4
 31
0.0
  0
LINE
  5
B6
100
AcDbEntity
  8
LAY-1
  6
DASHED2
 62
     1
100
AcDbLine
 10
720.6
 20
152.9
 30
0.0
 11
695.6
 21
152.9
 31
0.0
  0
LINE
  5
B7
100
AcDbEntity
  8
LAY-1
  6
DASHED2
 62
     1
100
AcDbLine
 10
695.6
 20
147.9
 30
0.0
 11
720.6
 21
147.9
 31
0.0
  0
LINE
  5
B8
100
AcDbEntity
  8
LAY-1
  6
CONTINUOUS
 62
     3
100
AcDbLine
 10
161.0
 20
450.499992
 30
0.0
 11
161.0
 21
487.5
 31
0.0
  0
LINE
  5
B9
100
AcDbEntity
  8
LAY-1
  6
DASHED2
 62
     3
100
AcDbLine
 10
194.000031
 20
500.499992
 30
0.0
 11
188.000031
 21
500.499992
 31
0.0
  0
LINE
  5
BA
100
AcDbEntity
  8
LAY-1
  6
DASHED2
 62
     3
100
AcDbLine
 10
194.000031
 20
500.499992
 30
0.0
 11
194.000031
 21
452.999992
 31
0.0
  0
LINE
  5
BB
100
AcDbEntity
  8
LAY-1
  6
DASHED2
 62
     3
100
AcDbLine
 10
188.000031
 20
452.999992
 30
0.0
 11
188.000031
 21
500.499992
 31
0.0
  0
LINE
  5
BC
100
AcDbEntity
  8
LAY-1
  6
DASHED2
 62
     1
100
AcDbLine
 10
193.500031
 20
500.499992
 30
0.0
 11
193.500031
 21
475.499992
 31
0.0
  0
LINE
  5
BD
100
AcDbEntity
  8
LAY-1
  6
DASHED2
 62
     1
100
AcDbLine
 10
188.500031
 20
475.499992
 30
0.0
 11
188.500031
 21
500.499992
 31
0.0
  0
LINE
  5
BE
100
AcDbEntity
  8
LAY-1
  6
DASHED2
 62
     3
100
AcDbLine
 10
330.0
 20
500.499992
 30
0.0
 11
324.0
 21
500.499992
 31
0.0
  0
LINE
  5
BF
100
AcDbEntity
  8
LAY-1
  6
DASHED2
 62
     3
100
AcDbLine
 10
330.0
 20
500.499992
 30
0.0
 11
330.0
 21
452.999992
 31
0.0
  0
LINE
  5
C0
100
AcDbEntity
  8
LAY-1
  6
DASHED2
 62
     3
100
AcDbLine
 10
324.0
 20
452.999992
 30
0.0
 11
324.0
 21
500.499992
 31
0.0
  0
LINE
  5
C1
100
AcDbEntity
  8
LAY-1
  6
DASHED2
 62
     1
100
AcDbLine
 10
329.5
 20
500.499992
 30
0.0
 11
329.5
 21
475.499992
 31
0.0
  0
LINE
  5
C2
100
AcDbEntity
  8
LAY-1
  6
DASHED2
 62
     1
100
AcDbLine
 10
324.5
 20
475.499992
 30
0.0
 11
324.5
 21
500.499992
 31
0.0
  0
ARC
  5
C3
100
AcDbEntity
  8
LAY-1
  6
CONTINUOUS
 62
     3
100
AcDbCircle
 10
226.999969
 20
470.000053
 30
0.0
 40
15.999999
100
AcDbArc
 50
331.603975
 51
240.05098
  0
LINE
  5
C4
100
AcDbEntity
  8
LAY-1
  6
CONTINUOUS
 62
     3
100
AcDbLine
 10
161.0
 20
157.4
 30
0.0
 11
161.0
 21
98.9
 31
0.0
  0
LINE
  5
C5
100
AcDbEntity
  8
LAY-1
  6
CONTINUOUS
 62
     3
100
AcDbLine
 10
161.0
 20
157.4
 30
0.0
 11
349.0
 21
157.4
 31
0.0
  0
LINE
  5
C6
100
AcDbEntity
  8
LAY-1
  6
CONTINUOUS
 62
     3
100
AcDbLine
 10
349.0
 20
157.4
 30
0.0
 11
349.0
 21
98.9
 31
0.0
  0
LINE
  5
C7
100
AcDbEntity
  8
LAY-1
  6
CONTINUOUS
 62
     3
100
AcDbLine
 10
161.0
 20
112.4
 30
0.0
 11
349.0
 21
112.4
 31
0.0
  0
LINE
  5
C8
100
AcDbEntity
  8
LAY-1
  6
CONTINUOUS
 62
     3
100
AcDbLine
 10
161.0
 20
99.4
 30
0.0
 11
349.0
 21
99.4
 31
0.0
  0
LINE
  5
C9
100
AcDbEntity
  8
LAY-1
  6
CONTINUOUS
 62
     3
100
AcDbLine
 10
161.0
 20
98.9
 30
0.0
 11
349.0
 21
98.9
 31
0.0
  0
LINE
  5
CA
100
AcDbEntity
  8
LAY-1
  6
CONTINUOUS
 62
     3
100
AcDbLine
 10
220.65
 20
163.9
 30
0.0
 11
220.65
 21
157.4
 31
0.0
  0
LINE
  5
CB
100
AcDbEntity
  8
LAY-1
  6
CONTINUOUS
 62
     3
100
AcDbLine
 10
233.35
 20
163.9
 30
0.0
 11
233.35
 21
157.4
 31
0.0
  0
LINE
  5
CC
100
AcDbEntity
  8
LAY-1
  6
CONTINUOUS
 62
     3
100
AcDbLine
 10
220.65
 20
163.9
 30
0.0
 11
233.35
 21
163.9
 31
0.0
  0
LINE
  5
CD
100
AcDbEntity
  8
LAY-1
  6
CONTINUOUS
 62
     3
100
AcDbLine
 10
221.0
 20
164.4
 30
0.0
 11
220.65
 21
163.9
 31
0.0
  0
LINE
  5
CE
100
AcDbEntity
  8
LAY-1
  6
CONTINUOUS
 62
     3
100
AcDbLine
 10
233.0
 20
164.4
 30
0.0
 11
233.35
 21
163.9
 31
0.0
  0
LINE
  5
CF
100
AcDbEntity
  8
LAY-1
  6
CONTINUOUS
 62
     3
100
AcDbLine
 10
683.1
 20
164.4
 30
0.0
 11
695.1
 21
164.4
 31
0.0
  0
LINE
  5
D0
100
AcDbEntity
  8
LAY-1
  6
CONTINUOUS
 62
     3
100
AcDbLine
 10
695.45
 20
163.9
 30
0.0
 11
695.45
 21
157.228378
 31
0.0
  0
LINE
  5
D1
100
AcDbEntity
  8
LAY-1
  6
CONTINUOUS
 62
     3
100
AcDbLine
 10
682.75
 20
163.9
 30
0.0
 11
682.75
 21
157.228378
 31
0.0
  0
LINE
  5
D2
100
AcDbEntity
  8
LAY-1
  6
CONTINUOUS
 62
     3
100
AcDbLine
 10
695.45
 20
163.9
 30
0.0
 11
682.75
 21
163.9
 31
0.0
  0
LINE
  5
D3
100
AcDbEntity
  8
LAY-1
  6
CONTINUOUS
 62
     3
100
AcDbLine
 10
695.1
 20
164.4
 30
0.0
 11
695.45
 21
163.9
 31
0.0
  0
LINE
  5
D4
100
AcDbEntity
  8
LAY-1
  6
CONTINUOUS
 62
     3
100
AcDbLine
 10
683.1
 20
164.4
 30
0.0
 11
682.75
 21
163.9
 31
0.0
  0
CIRCLE
  5
D5
100
AcDbEntity
  8
LAY-1
  6
CONTINUOUS
 62
     3
100
AcDbCircle
 10
227.0
 20
469.999992
 30
0.0
 40
9.0
  0
CIRCLE
  5
D6
100
AcDbEntity
  8
LAY-1
  6
CONTINUOUS
 62
     3
100
AcDbCircle
 10
227.0
 20
469.999992
 30
0.0
 40
6.0
  0
POLYLINE
  5
D7
100
AcDbEntity
  8
LAY-1
  6
CONTINUOUS
 62
     3
100
AcDb2dPolyline
 66
     1
 10
0.0
 20
0.0
 30
0.0
 70
   128
  0
VERTEX
  5
D8
100
AcDbEntity
  8
LAY-1
  6
CONTINUOUS
 62
     3
100
AcDbVertex
100
AcDb2dVertex
 10
227.0
 20
475.999992
 30
0.0
  0
VERTEX
  5
D9
100
AcDbEntity
  8
LAY-1
  6
CONTINUOUS
 62
     3
100
AcDbVertex
100
AcDb2dVertex
 10
221.803848
 20
472.999992
 30
0.0
  0
VERTEX
  5
DA
100
AcDbEntity
  8
LAY-1
  6
CONTINUOUS
 62
     3
100
AcDbVertex
100
AcDb2dVertex
 10
221.803848
 20
466.999992
 30
0.0
  0
VERTEX
  5
DB
100
AcDbEntity
  8
LAY-1
  6
CONTINUOUS
 62
     3
100
AcDbVertex
100
AcDb2dVertex
 10
227.0
 20
463.999992
 30
0.0
  0
VERTEX
  5
DC
100
AcDbEntity
  8
LAY-1
  6
CONTINUOUS
 62
     3
100
AcDbVertex
100
AcDb2dVertex
 10
232.196152
 20
466.999992
 30
0.0
  0
VERTEX
  5
DD
100
AcDbEntity
  8
LAY-1
  6
CONTINUOUS
 62
     3
100
AcDbVertex
100
AcDb2dVertex
 10
232.196152
 20
472.999992
 30
0.0
  0
VERTEX
  5
DE
100
AcDbEntity
  8
LAY-1
  6
CONTINUOUS
 62
     3
100
AcDbVertex
100
AcDb2dVertex
 10
227.0
 20
475.999992
 30
0.0
  0
SEQEND
  5
DF
100
AcDbEntity
  8
LAY-1
  6
CONTINUOUS
 62
     3
  0
LINE
  5
E0
100
AcDbEntity
  8
LAY-1
  6
CONTINUOUS
 62
     3
100
AcDbLine
 10
224.44
 20
470.639992
 30
0.0
 11
224.44
 21
469.359992
 31
0.0
  0
LINE
  5
E1
100
AcDbEntity
  8
LAY-1
  6
CONTINUOUS
 62
     3
100
AcDbLine
 10
229.56
 20
470.639992
 30
0.0
 11
229.56
 21
469.359992
 31
0.0
  0
LINE
  5
E2
100
AcDbEntity
  8
LAY-1
  6
CONTINUOUS
 62
     3
100
AcDbLine
 10
226.36
 20
472.559992
 30
0.0
 11
227.64
 21
472.559992
 31
0.0
  0
LINE
  5
E3
100
AcDbEntity
  8
LAY-1
  6
CONTINUOUS
 62
     3
100
AcDbLine
 10
226.36
 20
467.439992
 30
0.0
 11
227.64
 21
467.439992
 31
0.0
  0
LINE
  5
E4
100
AcDbEntity
  8
LAY-1
  6
CONTINUOUS
 62
     3
100
AcDbLine
 10
224.44
 20
470.639992
 30
0.0
 11
225.4
 21
470.639992
 31
0.0
  0
LINE
  5
E5
100
AcDbEntity
  8
LAY-1
  6
CONTINUOUS
 62
     3
100
AcDbLine
 10
228.6
 20
470.639992
 30
0.0
 11
229.56
 21
470.639992
 31
0.0
  0
LINE
  5
E6
100
AcDbEntity
  8
LAY-1
  6
CONTINUOUS
 62
     3
100
AcDbLine
 10
227.64
 20
472.559992
 30
0.0
 11
227.64
 21
471.599992
 31
0.0
  0
LINE
  5
E7
100
AcDbEntity
  8
LAY-1
  6
CONTINUOUS
 62
     3
100
AcDbLine
 10
227.64
 20
468.399992
 30
0.0
 11
227.64
 21
467.439992
 31
0.0
  0
LINE
  5
E8
100
AcDbEntity
  8
LAY-1
  6
CONTINUOUS
 62
     3
100
AcDbLine
 10
224.44
 20
469.359992
 30
0.0
 11
225.4
 21
469.359992
 31
0.0
  0
LINE
  5
E9
100
AcDbEntity
  8
LAY-1
  6
CONTINUOUS
 62
     3
100
AcDbLine
 10
228.6
 20
469.359992
 30
0.0
 11
229.56
 21
469.359992
 31
0.0
  0
LINE
  5
EA
100
AcDbEntity
  8
LAY-1
  6
CONTINUOUS
 62
     3
100
AcDbLine
 10
226.36
 20
472.559992
 30
0.0
 11
226.36
 21
471.599992
 31
0.0
  0
LINE
  5
EB
100
AcDbEntity
  8
LAY-1
  6
CONTINUOUS
 62
     3
100
AcDbLine
 10
226.36
 20
468.399992
 30
0.0
 11
226.36
 21
467.439992
 31
0.0
  0
ARC
  5
EC
100
AcDbEntity
  8
LAY-1
  6
CONTINUOUS
 62
     3
100
AcDbCircle
 10
225.4
 20
471.599992
 30
0.0
 40
0.96
100
AcDbArc
 50
270.0
 51
0.0
  0
ARC
  5
ED
100
AcDbEntity
  8
LAY-1
  6
CONTINUOUS
 62
     3
100
AcDbCircle
 10
228.6
 20
471.599992
 30
0.0
 40
0.96
100
AcDbArc
 50
180.0
 51
270.0
  0
ARC
  5
EE
100
AcDbEntity
  8
LAY-1
  6
CONTINUOUS
 62
     3
100
AcDbCircle
 10
228.6
 20
468.399992
 30
0.0
 40
0.96
100
AcDbArc
 50
90.0
 51
180.0
  0
ARC
  5
EF
100
AcDbEntity
  8
LAY-1
  6
CONTINUOUS
 62
     3
100
AcDbCircle
 10
225.4
 20
468.399992
 30
0.0
 40
0.96
100
AcDbArc
 50
0.0
 51
90.0
  0
LINE
  5
F0
100
AcDbEntity
  8
LAY-1
  6
DASHED2
 62
     3
100
AcDbLine
 10
194.000031
 20
452.999992
 30
0.0
 11
188.000031
 21
452.999992
 31
0.0
  0
LINE
  5
F1
100
AcDbEntity
  8
LAY-1
  6
DASHED2
 62
     3
100
AcDbLine
 10
186.000031
 20
450.999992
 30
0.0
 11
188.000031
 21
452.999992
 31
0.0
  0
LINE
  5
F2
100
AcDbEntity
  8
LAY-1
  6
DASHED2
 62
     3
100
AcDbLine
 10
196.000031
 20
450.999992
 30
0.0
 11
186.000031
 21
450.999992
 31
0.0
  0
LINE
  5
F3
100
AcDbEntity
  8
LAY-1
  6
DASHED2
 62
     3
100
AcDbLine
 10
194.000031
 20
452.999992
 30
0.0
 11
196.000031
 21
450.999992
 31
0.0
  0
LINE
  5
F4
100
AcDbEntity
  8
LAY-1
  6
DASHED2
 62
     3
100
AcDbLine
 10
196.000031
 20
450.999992
 30
0.0
 11
196.000031
 21
450.5
 31
0.0
  0
LINE
  5
F5
100
AcDbEntity
  8
LAY-1
  6
DASHED2
 62
     3
100
AcDbLine
 10
186.000031
 20
450.999992
 30
0.0
 11
186.000031
 21
450.5
 31
0.0
  0
LINE
  5
F6
100
AcDbEntity
  8
LAY-1
  6
DASHED2
 62
     3
100
AcDbLine
 10
330.0
 20
452.999992
 30
0.0
 11
324.0
 21
452.999992
 31
0.0
  0
LINE
  5
F7
100
AcDbEntity
  8
LAY-1
  6
DASHED2
 62
     3
100
AcDbLine
 10
322.0
 20
450.999992
 30
0.0
 11
324.0
 21
452.999992
 31
0.0
  0
LINE
  5
F8
100
AcDbEntity
  8
LAY-1
  6
DASHED2
 62
     3
100
AcDbLine
 10
332.0
 20
450.999992
 30
0.0
 11
322.0
 21
450.999992
 31
0.0
  0
LINE
  5
F9
100
AcDbEntity
  8
LAY-1
  6
DASHED2
 62
     3
100
AcDbLine
 10
330.0
 20
452.999992
 30
0.0
 11
332.0
 21
450.999992
 31
0.0
  0
LINE
  5
FA
100
AcDbEntity
  8
LAY-1
  6
DASHED2
 62
     3
100
AcDbLine
 10
332.0
 20
450.999992
 30
0.0
 11
332.0
 21
450.5
 31
0.0
  0
LINE
  5
FB
100
AcDbEntity
  8
LAY-1
  6
DASHED2
 62
     3
100
AcDbLine
 10
322.0
 20
450.999992
 30
0.0
 11
322.0
 21
450.5
 31
0.0
  0
LINE
  5
FC
100
AcDbEntity
  8
LAY-1
  6
CONTINUOUS
 62
     3
100
AcDbLine
 10
221.0
 20
164.4
 30
0.0
 11
233.0
 21
164.4
 31
0.0
  0
LINE
  5
FD
100
AcDbEntity
  8
LAY-1
  6
CONTINUOUS
 62
     3
100
AcDbLine
 10
161.0
 20
487.5
 30
0.0
 11
250.218473
 21
487.5
 31
0.0
  0
LINE
  5
FE
100
AcDbEntity
  8
LAY-1
  6
CONTINUOUS
 62
     3
100
AcDbLine
 10
320.119378
 20
487.5
 30
0.0
 11
349.0
 21
487.5
 31
0.0
  0
LINE
  5
FF
100
AcDbEntity
  8
LAY-1
  6
CONTINUOUS
 62
     3
100
AcDbLine
 10
161.0
 20
450.499992
 30
0.0
 11
220.624845
 21
450.499992
 31
0.0
  0
LINE
  5
100
100
AcDbEntity
  8
LAY-1
  6
CONTINUOUS
 62
     3
100
AcDbLine
 10
698.1
 20
172.0
 30
0.0
 11
698.1
 21
170.4
 31
0.0
  0
ARC
  5
101
100
AcDbEntity
  8
LAY-1
  6
CONTINUOUS
 62
     3
100
AcDbCircle
 10
689.1
 20
172.0
 30
0.0
 40
5.0
100
AcDbArc
 50
53.130102
 51
126.869898
  0
ARC
  5
102
100
AcDbEntity
  8
LAY-1
  6
CONTINUOUS
 62
     3
100
AcDbCircle
 10
693.6
 20
175.375
 30
0.0
 40
1.625
100
AcDbArc
 50
22.619865
 51
157.380135
  0
ARC
  5
103
100
AcDbEntity
  8
LAY-1
  6
CONTINUOUS
 62
     3
100
AcDbCircle
 10
684.6
 20
175.375
 30
0.0
 40
1.625
100
AcDbArc
 50
22.619865
 51
157.380135
  0
LINE
  5
104
100
AcDbEntity
  8
LAY-1
  6
CONTINUOUS
 62
     3
100
AcDbLine
 10
694.725579
 20
176.547048
 30
0.0
 11
694.19
 21
177.0
 31
0.0
  0
LINE
  5
105
100
AcDbEntity
  8
LAY-1
  6
CONTINUOUS
 62
     3
100
AcDbLine
 10
698.1
 20
172.0
 30
0.0
 11
684.141787
 21
172.0
 31
0.0
  0
ARC
  5
106
100
AcDbEntity
  8
LAY-1
  6
CONTINUOUS
 62
     3
100
AcDbCircle
 10
689.1
 20
178.0
 30
0.0
 40
5.0
100
AcDbArc
 50
233.130102
 51
306.869898
  0
ARC
  5
107
100
AcDbEntity
  8
LAY-1
  6
CONTINUOUS
 62
     3
100
AcDbCircle
 10
693.6
 20
174.625
 30
0.0
 40
1.625
100
AcDbArc
 50
202.619865
 51
337.380135
  0
ARC
  5
108
100
AcDbEntity
  8
LAY-1
  6
CONTINUOUS
 62
     3
100
AcDbCircle
 10
684.6
 20
174.625
 30
0.0
 40
1.625
100
AcDbArc
 50
202.619865
 51
337.380135
  0
LINE
  5
109
100
AcDbEntity
  8
LAY-1
  6
CONTINUOUS
 62
     3
100
AcDbLine
 10
692.1
 20
176.0
 30
0.0
 11
692.1
 21
174.0
 31
0.0
  0
LINE
  5
10A
100
AcDbEntity
  8
LAY-1
  6
CONTINUOUS
 62
     3
100
AcDbLine
 10
686.1
 20
176.0
 30
0.0
 11
686.1
 21
174.0
 31
0.0
  0
LINE
  5
10B
100
AcDbEntity
  8
LAY-1
  6
CONTINUOUS
 62
     3
100
AcDbLine
 10
695.1
 20
173.0
 30
0.0
 11
683.564437
 21
173.0
 31
0.0
  0
LINE
  5
10C
100
AcDbEntity
  8
LAY-1
  6
CONTINUOUS
 62
     3
100
AcDbLine
 10
694.725579
 20
173.452952
 30
0.0
 11
694.19
 21
173.0
 31
0.0
  0
LINE
  5
10D
100
AcDbEntity
  8
LAY-1
  6
CONTINUOUS
 62
     3
100
AcDbLine
 10
683.474421
 20
176.547048
 30
0.0
 11
684.01
 21
177.0
 31
0.0
  0
LINE
  5
10E
100
AcDbEntity
  8
LAY-1
  6
CONTINUOUS
 62
     3
100
AcDbLine
 10
683.474421
 20
173.452952
 30
0.0
 11
684.01
 21
173.0
 31
0.0
  0
LINE
  5
10F
100
AcDbEntity
  8
LAY-1
  6
CONTINUOUS
 62
     3
100
AcDbLine
 10
695.1
 20
176.0
 30
0.0
 11
695.1
 21
174.0
 31
0.0
  0
LINE
  5
110
100
AcDbEntity
  8
LAY-1
  6
CONTINUOUS
 62
     3
100
AcDbLine
 10
695.1
 20
173.0
 30
0.0
 11
695.1
 21
172.0
 31
0.0
  0
LINE
  5
111
100
AcDbEntity
  8
LAY-1
  6
CONTINUOUS
 62
     3
100
AcDbLine
 10
683.1
 20
176.0
 30
0.0
 11
683.1
 21
174.0
 31
0.0
  0
LINE
  5
112
100
AcDbEntity
  8
LAY-1
  6
CONTINUOUS
 62
     3
100
AcDbLine
 10
694.19
 20
177.0
 30
0.0
 11
684.01
 21
177.0
 31
0.0
  0
LINE
  5
113
100
AcDbEntity
  8
LAY-1
  6
CONTINUOUS
 62
     3
100
AcDbLine
 10
244.414982
 20
450.499992
 30
0.0
 11
281.65
 21
450.499992
 31
0.0
  0
LINE
  5
114
100
AcDbEntity
  8
LAY-1
  6
CONTINUOUS
 62
     3
100
AcDbLine
 10
292.35
 20
450.499992
 30
0.0
 11
349.0
 21
450.499992
 31
0.0
  0
LINE
  5
115
100
AcDbEntity
  8
LAY-1
  6
DASHED2
 62
     3
100
AcDbLine
 10
695.6
 20
153.4
 30
0.0
 11
695.6
 21
147.4
 31
0.0
  0
LINE
  5
116
100
AcDbEntity
  8
LAY-1
  6
DASHED2
 62
     1
100
AcDbLine
 10
695.6
 20
152.9
 30
0.0
 11
694.733975
 21
153.4
 31
0.0
  0
LINE
  5
117
100
AcDbEntity
  8
LAY-1
  6
DASHED2
 62
     1
100
AcDbLine
 10
695.6
 20
147.9
 30
0.0
 11
694.733975
 21
147.4
 31
0.0
  0
LINE
  5
118
100
AcDbEntity
  8
LAY-1
  6
CONTINUOUS
 62
     3
100
AcDbLine
 10
161.0
 20
144.4
 30
0.0
 11
168.0
 21
142.4
 31
0.0
  0
LINE
  5
119
100
AcDbEntity
  8
LAY-1
  6
CONTINUOUS
 62
     3
100
AcDbLine
 10
168.0
 20
142.4
 30
0.0
 11
161.0
 21
140.4
 31
0.0
  0
LINE
  5
11A
100
AcDbEntity
  8
LAY-1
  6
CONTINUOUS
 62
     1
100
AcDbLine
 10
167.175049
 20
142.164282
 30
0.0
 11
166.515075
 21
142.824256
 31
0.0
  0
LINE
  5
11B
100
AcDbEntity
  8
LAY-1
  6
CONTINUOUS
 62
     1
100
AcDbLine
 10
166.350097
 20
141.928565
 30
0.0
 11
165.030151
 21
143.248511
 31
0.0
  0
LINE
  5
11C
100
AcDbEntity
  8
LAY-1
  6
CONTINUOUS
 62
     1
100
AcDbLine
 10
165.525146
 20
141.692847
 30
0.0
 11
163.545227
 21
143.672797
 31
0.0
  0
LINE
  5
11D
100
AcDbEntity
  8
LAY-1
  6
CONTINUOUS
 62
     1
100
AcDbLine
 10
164.700195
 20
141.45716
 30
0.0
 11
162.060303
 21
144.097052
 31
0.0
  0
LINE
  5
11E
100
AcDbEntity
  8
LAY-1
  6
CONTINUOUS
 62
     1
100
AcDbLine
 10
163.875244
 20
141.221442
 30
0.0
 11
161.00003
 21
144.096686
 31
0.0
  0
LINE
  5
11F
100
AcDbEntity
  8
LAY-1
  6
CONTINUOUS
 62
     1
100
AcDbLine
 10
163.050293
 20
140.985724
 30
0.0
 11
161.00003
 21
143.036017
 31
0.0
  0
LINE
  5
120
100
AcDbEntity
  8
LAY-1
  6
CONTINUOUS
 62
     1
100
AcDbLine
 10
162.225342
 20
140.750006
 30
0.0
 11
161.00003
 21
141.975348
 31
0.0
  0
LINE
  5
121
100
AcDbEntity
  8
LAY-1
  6
CONTINUOUS
 62
     1
100
AcDbLine
 10
161.40039
 20
140.514319
 30
0.0
 11
161.00003
 21
140.914679
 31
0.0
  0
LINE
  5
122
100
AcDbEntity
  8
LAY-1
  6
DASHED2
 62
     3
100
AcDbLine
 10
194.000031
 20
475.499992
 30
0.0
 11
188.000031
 21
475.499992
 31
0.0
  0
LINE
  5
123
100
AcDbEntity
  8
LAY-1
  6
DASHED2
 62
     1
100
AcDbLine
 10
193.500031
 20
475.499992
 30
0.0
 11
194.000031
 21
474.633967
 31
0.0
  0
LINE
  5
124
100
AcDbEntity
  8
LAY-1
  6
DASHED2
 62
     1
100
AcDbLine
 10
188.500031
 20
475.499992
 30
0.0
 11
188.000031
 21
474.633967
 31
0.0
  0
LINE
  5
125
100
AcDbEntity
  8
LAY-1
  6
DASHED2
 62
     3
100
AcDbLine
 10
330.0
 20
475.499992
 30
0.0
 11
324.0
 21
475.499992
 31
0.0
  0
LINE
  5
126
100
AcDbEntity
  8
LAY-1
  6
DASHED2
 62
     1
100
AcDbLine
 10
324.5
 20
475.499992
 30
0.0
 11
324.0
 21
474.633967
 31
0.0
  0
LINE
  5
127
100
AcDbEntity
  8
LAY-1
  6
DASHED2
 62
     1
100
AcDbLine
 10
329.5
 20
475.499992
 30
0.0
 11
330.0
 21
474.633967
 31
0.0
  0
ARC
  5
128
100
AcDbEntity
  8
LAY-1
  6
CONTINUOUS
 62
     3
100
AcDbCircle
 10
192.5
 20
151.9
 30
0.0
 40
1.0
100
AcDbArc
 50
180.0
 51
270.0
  0
ARC
  5
129
100
AcDbEntity
  8
LAY-1
  6
CONTINUOUS
 62
     3
100
AcDbCircle
 10
189.5
 20
148.9
 30
0.0
 40
1.0
100
AcDbArc
 50
0.0
 51
90.0
  0
ARC
  5
12A
100
AcDbEntity
  8
LAY-1
  6
CONTINUOUS
 62
     3
100
AcDbCircle
 10
189.5
 20
151.9
 30
0.0
 40
1.0
100
AcDbArc
 50
270.0
 51
0.0
  0
ARC
  5
12B
100
AcDbEntity
  8
LAY-1
  6
CONTINUOUS
 62
     3
100
AcDbCircle
 10
192.5
 20
148.9
 30
0.0
 40
1.0
100
AcDbArc
 50
90.0
 51
180.0
  0
ARC
  5
12C
100
AcDbEntity
  8
LAY-1
  6
CONTINUOUS
 62
     3
100
AcDbCircle
 10
192.5
 20
151.9
 30
0.0
 40
1.0
100
AcDbArc
 50
180.0
 51
270.0
  0
ARC
  5
12D
100
AcDbEntity
  8
LAY-1
  6
CONTINUOUS
 62
     3
100
AcDbCircle
 10
192.5
 20
148.9
 30
0.0
 40
1.0
100
AcDbArc
 50
90.0
 51
180.0
  0
CIRCLE
  5
12E
100
AcDbEntity
  8
LAY-1
  6
CONTINUOUS
 62
     3
100
AcDbCircle
 10
191.0
 20
150.4
 30
0.0
 40
5.0
  0
LINE
  5
12F
100
AcDbEntity
  8
LAY-1
  6
CONTINUOUS
 62
     3
100
AcDbLine
 10
191.5
 20
151.9
 30
0.0
 11
191.5
 21
152.95
 31
0.0
  0
LINE
  5
130
100
AcDbEntity
  8
LAY-1
  6
CONTINUOUS
 62
     3
100
AcDbLine
 10
190.5
 20
152.95
 30
0.0
 11
191.5
 21
152.95
 31
0.0
  0
LINE
  5
131
100
AcDbEntity
  8
LAY-1
  6
CONTINUOUS
 62
     3
100
AcDbLine
 10
190.5
 20
151.9
 30
0.0
 11
190.5
 21
152.95
 31
0.0
  0
LINE
  5
132
100
AcDbEntity
  8
LAY-1
  6
CONTINUOUS
 62
     3
100
AcDbLine
 10
190.5
 20
151.9
 30
0.0
 11
190.5
 21
152.95
 31
0.0
  0
LINE
  5
133
100
AcDbEntity
  8
LAY-1
  6
CONTINUOUS
 62
     3
100
AcDbLine
 10
191.5
 20
152.95
 30
0.0
 11
190.5
 21
152.95
 31
0.0
  0
LINE
  5
134
100
AcDbEntity
  8
LAY-1
  6
CONTINUOUS
 62
     3
100
AcDbLine
 10
191.5
 20
151.9
 30
0.0
 11
191.5
 21
152.95
 31
0.0
  0
LINE
  5
135
100
AcDbEntity
  8
LAY-1
  6
CONTINUOUS
 62
     3
100
AcDbLine
 10
188.45
 20
149.9
 30
0.0
 11
188.45
 21
150.9
 31
0.0
  0
LINE
  5
136
100
AcDbEntity
  8
LAY-1
  6
CONTINUOUS
 62
     3
100
AcDbLine
 10
189.5
 20
149.9
 30
0.0
 11
188.45
 21
149.9
 31
0.0
  0
LINE
  5
137
100
AcDbEntity
  8
LAY-1
  6
CONTINUOUS
 62
     3
100
AcDbLine
 10
189.5
 20
150.9
 30
0.0
 11
188.45
 21
150.9
 31
0.0
  0
LINE
  5
138
100
AcDbEntity
  8
LAY-1
  6
CONTINUOUS
 62
     3
100
AcDbLine
 10
191.5
 20
147.85
 30
0.0
 11
190.5
 21
147.85
 31
0.0
  0
LINE
  5
139
100
AcDbEntity
  8
LAY-1
  6
CONTINUOUS
 62
     3
100
AcDbLine
 10
191.5
 20
148.9
 30
0.0
 11
191.5
 21
147.85
 31
0.0
  0
LINE
  5
13A
100
AcDbEntity
  8
LAY-1
  6
CONTINUOUS
 62
     3
100
AcDbLine
 10
190.5
 20
148.9
 30
0.0
 11
190.5
 21
147.85
 31
0.0
  0
LINE
  5
13B
100
AcDbEntity
  8
LAY-1
  6
CONTINUOUS
 62
     3
100
AcDbLine
 10
190.5
 20
148.9
 30
0.0
 11
190.5
 21
147.85
 31
0.0
  0
LINE
  5
13C
100
AcDbEntity
  8
LAY-1
  6
CONTINUOUS
 62
     3
100
AcDbLine
 10
191.5
 20
148.9
 30
0.0
 11
191.5
 21
147.85
 31
0.0
  0
LINE
  5
13D
100
AcDbEntity
  8
LAY-1
  6
CONTINUOUS
 62
     3
100
AcDbLine
 10
193.55
 20
150.9
 30
0.0
 11
193.55
 21
149.9
 31
0.0
  0
LINE
  5
13E
100
AcDbEntity
  8
LAY-1
  6
CONTINUOUS
 62
     3
100
AcDbLine
 10
192.5
 20
149.9
 30
0.0
 11
193.55
 21
149.9
 31
0.0
  0
LINE
  5
13F
100
AcDbEntity
  8
LAY-1
  6
CONTINUOUS
 62
     3
100
AcDbLine
 10
192.5
 20
150.9
 30
0.0
 11
193.55
 21
150.9
 31
0.0
  0
LINE
  5
140
100
AcDbEntity
  8
LAY-1
  6
CONTINUOUS
 62
     3
100
AcDbLine
 10
192.5
 20
150.9
 30
0.0
 11
193.55
 21
150.9
 31
0.0
  0
ARC
  5
141
100
AcDbEntity
  8
LAY-1
  6
CONTINUOUS
 62
     3
100
AcDbCircle
 10
328.5
 20
151.9
 30
0.0
 40
1.0
100
AcDbArc
 50
180.0
 51
270.0
  0
ARC
  5
142
100
AcDbEntity
  8
LAY-1
  6
CONTINUOUS
 62
     3
100
AcDbCircle
 10
325.5
 20
148.9
 30
0.0
 40
1.0
100
AcDbArc
 50
0.0
 51
90.0
  0
ARC
  5
143
100
AcDbEntity
  8
LAY-1
  6
CONTINUOUS
 62
     3
100
AcDbCircle
 10
325.5
 20
151.9
 30
0.0
 40
1.0
100
AcDbArc
 50
270.0
 51
0.0
  0
ARC
  5
144
100
AcDbEntity
  8
LAY-1
  6
CONTINUOUS
 62
     3
100
AcDbCircle
 10
328.5
 20
148.9
 30
0.0
 40
1.0
100
AcDbArc
 50
90.0
 51
180.0
  0
ARC
  5
145
100
AcDbEntity
  8
LAY-1
  6
CONTINUOUS
 62
     3
100
AcDbCircle
 10
328.5
 20
151.9
 30
0.0
 40
1.0
100
AcDbArc
 50
180.0
 51
270.0
  0
ARC
  5
146
100
AcDbEntity
  8
LAY-1
  6
CONTINUOUS
 62
     3
100
AcDbCircle
 10
328.5
 20
148.9
 30
0.0
 40
1.0
100
AcDbArc
 50
90.0
 51
180.0
  0
CIRCLE
  5
147
100
AcDbEntity
  8
LAY-1
  6
CONTINUOUS
 62
     3
100
AcDbCircle
 10
327.0
 20
150.4
 30
0.0
 40
5.0
  0
LINE
  5
148
100
AcDbEntity
  8
LAY-1
  6
CONTINUOUS
 62
     3
100
AcDbLine
 10
327.5
 20
151.9
 30
0.0
 11
327.5
 21
152.95
 31
0.0
  0
LINE
  5
149
100
AcDbEntity
  8
LAY-1
  6
CONTINUOUS
 62
     3
100
AcDbLine
 10
326.5
 20
152.95
 30
0.0
 11
327.5
 21
152.95
 31
0.0
  0
LINE
  5
14A
100
AcDbEntity
  8
LAY-1
  6
CONTINUOUS
 62
     3
100
AcDbLine
 10
326.5
 20
151.9
 30
0.0
 11
326.5
 21
152.95
 31
0.0
  0
LINE
  5
14B
100
AcDbEntity
  8
LAY-1
  6
CONTINUOUS
 62
     3
100
AcDbLine
 10
326.5
 20
151.9
 30
0.0
 11
326.5
 21
152.95
 31
0.0
  0
LINE
  5
14C
100
AcDbEntity
  8
LAY-1
  6
CONTINUOUS
 62
     3
100
AcDbLine
 10
327.5
 20
152.95
 30
0.0
 11
326.5
 21
152.95
 31
0.0
  0
LINE
  5
14D
100
AcDbEntity
  8
LAY-1
  6
CONTINUOUS
 62
     3
100
AcDbLine
 10
327.5
 20
151.9
 30
0.0
 11
327.5
 21
152.95
 31
0.0
  0
LINE
  5
14E
100
AcDbEntity
  8
LAY-1
  6
CONTINUOUS
 62
     3
100
AcDbLine
 10
324.45
 20
149.9
 30
0.0
 11
324.45
 21
150.9
 31
0.0
  0
LINE
  5
14F
100
AcDbEntity
  8
LAY-1
  6
CONTINUOUS
 62
     3
100
AcDbLine
 10
325.5
 20
149.9
 30
0.0
 11
324.45
 21
149.9
 31
0.0
  0
LINE
  5
150
100
AcDbEntity
  8
LAY-1
  6
CONTINUOUS
 62
     3
100
AcDbLine
 10
325.5
 20
150.9
 30
0.0
 11
324.45
 21
150.9
 31
0.0
  0
LINE
  5
151
100
AcDbEntity
  8
LAY-1
  6
CONTINUOUS
 62
     3
100
AcDbLine
 10
327.5
 20
147.85
 30
0.0
 11
326.5
 21
147.85
 31
0.0
  0
LINE
  5
152
100
AcDbEntity
  8
LAY-1
  6
CONTINUOUS
 62
     3
100
AcDbLine
 10
327.5
 20
148.9
 30
0.0
 11
327.5
 21
147.85
 31
0.0
  0
LINE
  5
153
100
AcDbEntity
  8
LAY-1
  6
CONTINUOUS
 62
     3
100
AcDbLine
 10
326.5
 20
148.9
 30
0.0
 11
326.5
 21
147.85
 31
0.0
  0
LINE
  5
154
100
AcDbEntity
  8
LAY-1
  6
CONTINUOUS
 62
     3
100
AcDbLine
 10
326.5
 20
148.9
 30
0.0
 11
326.5
 21
147.85
 31
0.0
  0
LINE
  5
155
100
AcDbEntity
  8
LAY-1
  6
CONTINUOUS
 62
     3
100
AcDbLine
 10
327.5
 20
148.9
 30
0.0
 11
327.5
 21
147.85
 31
0.0
  0
LINE
  5
156
100
AcDbEntity
  8
LAY-1
  6
CONTINUOUS
 62
     3
100
AcDbLine
 10
329.55
 20
150.9
 30
0.0
 11
329.55
 21
149.9
 31
0.0
  0
LINE
  5
157
100
AcDbEntity
  8
LAY-1
  6
CONTINUOUS
 62
     3
100
AcDbLine
 10
328.5
 20
149.9
 30
0.0
 11
329.55
 21
149.9
 31
0.0
  0
LINE
  5
158
100
AcDbEntity
  8
LAY-1
  6
CONTINUOUS
 62
     3
100
AcDbLine
 10
328.5
 20
150.9
 30
0.0
 11
329.55
 21
150.9
 31
0.0
  0
LINE
  5
159
100
AcDbEntity
  8
LAY-1
  6
CONTINUOUS
 62
     3
100
AcDbLine
 10
328.5
 20
150.9
 30
0.0
 11
329.55
 21
150.9
 31
0.0
  0
POLYLINE
  5
15A
100
AcDbEntity
  8
LAY-1
  6
CONTINUOUS
 62
     3
100
AcDb2dPolyline
 66
     1
 10
0.0
 20
0.0
 30
0.0
 70
   128
  0
VERTEX
  5
15B
100
AcDbEntity
  8
LAY-1
  6
CONTINUOUS
 62
     3
100
AcDbVertex
100
AcDb2dVertex
 10
689.1
 20
137.524356
 30
0.0
  0
VERTEX
  5
15C
100
AcDbEntity
  8
LAY-1
  6
CONTINUOUS
 62
     3
100
AcDbVertex
100
AcDb2dVertex
 10
678.6
 20
131.462178
 30
0.0
  0
VERTEX
  5
15D
100
AcDbEntity
  8
LAY-1
  6
CONTINUOUS
 62
     3
100
AcDbVertex
100
AcDb2dVertex
 10
678.6
 20
119.337822
 30
0.0
  0
VERTEX
  5
15E
100
AcDbEntity
  8
LAY-1
  6
CONTINUOUS
 62
     3
100
AcDbVertex
100
AcDb2dVertex
 10
689.1
 20
113.275644
 30
0.0
  0
VERTEX
  5
15F
100
AcDbEntity
  8
LAY-1
  6
CONTINUOUS
 62
     3
100
AcDbVertex
100
AcDb2dVertex
 10
699.6
 20
119.337822
 30
0.0
  0
VERTEX
  5
160
100
AcDbEntity
  8
LAY-1
  6
CONTINUOUS
 62
     3
100
AcDbVertex
100
AcDb2dVertex
 10
699.6
 20
131.462178
 30
0.0
  0
VERTEX
  5
161
100
AcDbEntity
  8
LAY-1
  6
CONTINUOUS
 62
     3
100
AcDbVertex
100
AcDb2dVertex
 10
689.1
 20
137.524356
 30
0.0
  0
SEQEND
  5
162
100
AcDbEntity
  8
LAY-1
  6
CONTINUOUS
 62
     3
  0
LINE
  5
163
100
AcDbEntity
  8
LAY-2
  6
CONTINUOUS
 62
     3
100
AcDbLine
 10
221.0
 20
164.4
 30
0.0
 11
233.0
 21
164.4
 31
0.0
  0
LINE
  5
164
100
AcDbEntity
  8
LAY-2
  6
CONTINUOUS
 62
     3
100
AcDbLine
 10
214.5
 20
165.4
 30
0.0
 11
214.5
 21
169.4
 31
0.0
  0
LINE
  5
165
100
AcDbEntity
  8
LAY-2
  6
CONTINUOUS
 62
     3
100
AcDbLine
 10
215.5
 20
170.4
 30
0.0
 11
217.514168
 21
170.4
 31
0.0
  0
LINE
  5
166
100
AcDbEntity
  8
LAY-2
  6
CONTINUOUS
 62
     3
100
AcDbLine
 10
215.5
 20
164.4
 30
0.0
 11
238.005565
 21
164.4
 31
0.0
  0
LINE
  5
167
100
AcDbEntity
  8
LAY-2
  6
CONTINUOUS
 62
     3
100
AcDbLine
 10
701.614359
 20
165.4
 30
0.0
 11
701.614359
 21
169.4
 31
0.0
  0
LINE
  5
168
100
AcDbEntity
  8
LAY-2
  6
CONTINUOUS
 62
     3
100
AcDbLine
 10
700.614359
 20
170.4
 30
0.0
 11
685.065548
 21
170.4
 31
0.0
  0
LINE
  5
169
100
AcDbEntity
  8
LAY-2
  6
CONTINUOUS
 62
     3
100
AcDbLine
 10
700.614359
 20
164.4
 30
0.0
 11
676.832051
 21
164.4
 31
0.0
  0
LINE
  5
16A
100
AcDbEntity
  8
LAY-2
  6
CONTINUOUS
 62
     3
100
AcDbLine
 10
657.856655
 20
184.4
 30
0.0
 11
608.705397
 21
184.4
 31
0.0
  0
ARC
  5
16B
100
AcDbEntity
  8
LAY-2
  6
CONTINUOUS
 62
     3
100
AcDbCircle
 10
700.614359
 20
169.4
 30
0.0
 40
1.0
100
AcDbArc
 50
0.0
 51
90.0
  0
ARC
  5
16C
100
AcDbEntity
  8
LAY-2
  6
CONTINUOUS
 62
     3
100
AcDbCircle
 10
700.614359
 20
165.4
 30
0.0
 40
1.0
100
AcDbArc
 50
270.0
 51
0.0
  0
ARC
  5
16D
100
AcDbEntity
  8
LAY-2
  6
CONTINUOUS
 62
     3
100
AcDbCircle
 10
215.5
 20
169.4
 30
0.0
 40
1.0
100
AcDbArc
 50
90.0
 51
180.0
  0
ARC
  5
16E
100
AcDbEntity
  8
LAY-2
  6
CONTINUOUS
 62
     3
100
AcDbCircle
 10
215.5
 20
165.4
 30
0.0
 40
1.0
100
AcDbArc
 50
180.0
 51
270.0
  0
ARC
  5
16F
100
AcDbEntity
  8
LAY-2
  6
CONTINUOUS
 62
     3
100
AcDbCircle
 10
226.181778
 20
472.886255
 30
0.0
 40
11.5
100
AcDbArc
 50
15.689663
 51
195.965156
  0
LINE
  5
170
100
AcDbEntity
  8
LAY-2
  6
CONTINUOUS
 62
     3
100
AcDbLine
 10
272.325928
 20
269.782169
 30
0.0
 11
271.078765
 21
274.181514
 31
0.0
  0
LINE
  5
171
100
AcDbEntity
  8
LAY-2
  6
CONTINUOUS
 62
     3
100
AcDbLine
 10
272.325928
 20
269.782169
 30
0.0
 11
215.125343
 21
469.723149
 31
0.0
  0
ARC
  5
172
100
AcDbEntity
  8
LAY-2
  6
CONTINUOUS
 62
     3
100
AcDbCircle
 10
287.0
 20
258.351
 30
0.0
 40
15.0
100
AcDbArc
 50
178.335085
 51
33.319734
  0
LINE
  5
173
100
AcDbEntity
  8
LAY-2
  6
CONTINUOUS
 62
     3
100
AcDbLine
 10
272.325928
 20
269.782169
 30
0.0
 11
272.006332
 21
258.786812
 31
0.0
  0
LINE
  5
174
100
AcDbEntity
  8
LAY-2
  6
CONTINUOUS
 62
     3
100
AcDbLine
 10
297.371212
 20
269.881135
 30
0.0
 11
299.534273
 21
266.59066
 31
0.0
  0
LINE
  5
175
100
AcDbEntity
  8
LAY-2
  6
CONTINUOUS
 62
     3
100
AcDbLine
 10
279.0
 20
327.374608
 30
0.0
 11
237.253295
 21
475.996163
 31
0.0
  0
ARC
  5
176
100
AcDbEntity
  8
LAY-2
  6
CONTINUOUS
 62
     3
100
AcDbCircle
 10
287.0
 20
258.351
 30
0.0
 40
24.0
100
AcDbArc
 50
109.798266
 51
131.018517
  0
ARC
  5
177
100
AcDbEntity
  8
LAY-2
  6
CONTINUOUS
 62
     3
100
AcDbCircle
 10
287.0
 20
258.351
 30
0.0
 40
16.0
100
AcDbArc
 50
129.049844
 51
154.158067
  0
ARC
  5
178
100
AcDbEntity
  8
LAY-2
  6
DASHED2
 62
     3
100
AcDbCircle
 10
224.272595
 20
479.620868
 30
0.0
 40
24.0
100
AcDbArc
 50
257.374622
 51
314.280228
  0
ARC
  5
179
100
AcDbEntity
  8
LAY-2
  6
CONTINUOUS
 62
     3
100
AcDbCircle
 10
224.272595
 20
479.620868
 30
0.0
 40
20.5
100
AcDbArc
 50
253.337374
 51
318.232187
  0
LINE
  5
17A
100
AcDbEntity
  8
LAY-2
  6
CONTINUOUS
 62
     3
100
AcDbLine
 10
677.848669
 20
182.9
 30
0.0
 11
685.065548
 21
170.4
 31
0.0
  0
LINE
  5
17B
100
AcDbEntity
  8
LAY-2
  6
CONTINUOUS
 62
     3
100
AcDbLine
 10
680.735421
 20
165.9
 30
0.0
 11
673.518542
 21
178.4
 31
0.0
  0
LINE
  5
17C
100
AcDbEntity
  8
LAY-2
  6
CONTINUOUS
 62
     3
100
AcDbLine
 10
667.017096
 20
178.4
 30
0.0
 11
674.233975
 21
165.9
 31
0.0
  0
ARC
  5
17D
100
AcDbEntity
  8
LAY-2
  6
CONTINUOUS
 62
     3
100
AcDbCircle
 10
675.250593
 20
181.4
 30
0.0
 40
3.0
100
AcDbArc
 50
30.0
 51
61.330292
  0
ARC
  5
17E
100
AcDbEntity
  8
LAY-2
  6
CONTINUOUS
 62
     3
100
AcDbCircle
 10
676.832051
 20
167.4
 30
0.0
 40
3.0
100
AcDbArc
 50
210.0
 51
270.0
  0
ARC
  5
17F
100
AcDbEntity
  8
LAY-2
  6
CONTINUOUS
 62
     3
100
AcDbCircle
 10
683.333497
 20
167.4
 30
0.0
 40
3.0
100
AcDbArc
 50
210.0
 51
270.0
  0
LINE
  5
180
100
AcDbEntity
  8
LAY-2
  6
CONTINUOUS
 62
     3
100
AcDbLine
 10
462.600008
 20
186.4
 30
0.0
 11
488.981206
 21
186.4
 31
0.0
  0
LINE
  5
181
100
AcDbEntity
  8
LAY-2
  6
CONTINUOUS
 62
     3
100
AcDbLine
 10
490.713257
 20
185.4
 30
0.0
 11
493.022658
 21
181.4
 31
0.0
  0
LINE
  5
182
100
AcDbEntity
  8
LAY-2
  6
CONTINUOUS
 62
     3
100
AcDbLine
 10
498.21881
 20
178.4
 30
0.0
 11
673.518542
 21
178.4
 31
0.0
  0
LINE
  5
183
100
AcDbEntity
  8
LAY-2
  6
CONTINUOUS
 62
     3
100
AcDbLine
 10
462.600008
 20
192.4
 30
0.0
 11
493.600008
 21
192.4
 31
0.0
  0
LINE
  5
184
100
AcDbEntity
  8
LAY-2
  6
CONTINUOUS
 62
     3
100
AcDbLine
 10
462.600008
 20
192.4
 30
0.0
 11
462.600008
 21
186.4
 31
0.0
  0
LINE
  5
185
100
AcDbEntity
  8
LAY-2
  6
CONTINUOUS
 62
     3
100
AcDbLine
 10
498.79616
 20
189.4
 30
0.0
 11
501.105561
 21
185.4
 31
0.0
  0
ARC
  5
186
100
AcDbEntity
  8
LAY-2
  6
CONTINUOUS
 62
     3
100
AcDbCircle
 10
498.21881
 20
184.4
 30
0.0
 40
6.0
100
AcDbArc
 50
210.0
 51
270.0
  0
ARC
  5
187
100
AcDbEntity
  8
LAY-2
  6
CONTINUOUS
 62
     3
100
AcDbCircle
 10
493.600008
 20
186.4
 30
0.0
 40
6.0
100
AcDbArc
 50
30.0
 51
90.0
  0
ARC
  5
188
100
AcDbEntity
  8
LAY-2
  6
CONTINUOUS
 62
     3
100
AcDbCircle
 10
488.981206
 20
184.4
 30
0.0
 40
2.0
100
AcDbArc
 50
30.0
 51
90.0
  0
ARC
  5
189
100
AcDbEntity
  8
LAY-2
  6
CONTINUOUS
 62
     3
100
AcDbCircle
 10
502.837612
 20
186.4
 30
0.0
 40
2.0
100
AcDbArc
 50
210.0
 51
270.0
  0
LINE
  5
18A
100
AcDbEntity
  8
LAY-2
  6
CONTINUOUS
 62
     3
100
AcDbLine
 10
464.600008
 20
192.4
 30
0.0
 11
464.600008
 21
193.9
 31
0.0
  0
LINE
  5
18B
100
AcDbEntity
  8
LAY-2
  6
CONTINUOUS
 62
     3
100
AcDbLine
 10
490.600008
 20
192.4
 30
0.0
 11
490.600008
 21
193.9
 31
0.0
  0
LINE
  5
18C
100
AcDbEntity
  8
LAY-2
  6
CONTINUOUS
 62
     3
100
AcDbLine
 10
468.100008
 20
186.4
 30
0.0
 11
468.100008
 21
185.2
 31
0.0
  0
LINE
  5
18D
100
AcDbEntity
  8
LAY-2
  6
CONTINUOUS
 62
     3
100
AcDbLine
 10
487.100008
 20
186.4
 30
0.0
 11
487.100008
 21
185.2
 31
0.0
  0
LINE
  5
18E
100
AcDbEntity
  8
LAY-2
  6
CONTINUOUS
 62
     3
100
AcDbLine
 10
468.100008
 20
185.2
 30
0.0
 11
487.100008
 21
185.2
 31
0.0
  0
LINE
  5
18F
100
AcDbEntity
  8
LAY-2
  6
CONTINUOUS
 62
     3
100
AcDbLine
 10
463.600008
 20
193.9
 30
0.0
 11
499.105637
 21
193.9
 31
0.0
  0
LINE
  5
190
100
AcDbEntity
  8
LAY-2
  6
CONTINUOUS
 62
     3
100
AcDbLine
 10
464.600008
 20
193.15
 30
0.0
 11
490.600008
 21
193.15
 31
0.0
  0
LINE
  5
191
100
AcDbEntity
  8
LAY-2
  6
CONTINUOUS
 62
     3
100
AcDbLine
 10
463.600008
 20
193.9
 30
0.0
 11
463.600008
 21
199.6
 31
0.0
  0
LINE
  5
192
100
AcDbEntity
  8
LAY-2
  6
CONTINUOUS
 62
     3
100
AcDbLine
 10
463.600008
 20
199.6
 30
0.0
 11
498.587084
 21
199.6
 31
0.0
  0
LINE
  5
193
100
AcDbEntity
  8
LAY-2
  6
CONTINUOUS
 62
     3
100
AcDbLine
 10
467.600008
 20
208.8
 30
0.0
 11
487.600008
 21
208.8
 31
0.0
  0
LINE
  5
194
100
AcDbEntity
  8
LAY-2
  6
CONTINUOUS
 62
     3
100
AcDbLine
 10
467.600008
 20
210.3
 30
0.0
 11
467.600008
 21
208.8
 31
0.0
  0
LINE
  5
195
100
AcDbEntity
  8
LAY-2
  6
CONTINUOUS
 62
     3
100
AcDbLine
 10
468.600008
 20
211.3
 30
0.0
 11
467.600008
 21
210.3
 31
0.0
  0
LINE
  5
196
100
AcDbEntity
  8
LAY-2
  6
CONTINUOUS
 62
     3
100
AcDbLine
 10
468.600008
 20
211.3
 30
0.0
 11
486.600008
 21
211.3
 31
0.0
  0
LINE
  5
197
100
AcDbEntity
  8
LAY-2
  6
CONTINUOUS
 62
     3
100
AcDbLine
 10
487.600008
 20
210.3
 30
0.0
 11
487.600008
 21
208.8
 31
0.0
  0
LINE
  5
198
100
AcDbEntity
  8
LAY-2
  6
CONTINUOUS
 62
     3
100
AcDbLine
 10
486.600008
 20
211.3
 30
0.0
 11
487.600008
 21
210.3
 31
0.0
  0
LINE
  5
199
100
AcDbEntity
  8
LAY-2
  6
CONTINUOUS
 62
     3
100
AcDbLine
 10
469.600008
 20
208.8
 30
0.0
 11
469.600008
 21
208.340854
 31
0.0
  0
LINE
  5
19A
100
AcDbEntity
  8
LAY-2
  6
CONTINUOUS
 62
     3
100
AcDbLine
 10
485.600008
 20
208.8
 30
0.0
 11
485.600008
 21
207.65969
 31
0.0
  0
LINE
  5
19B
100
AcDbEntity
  8
LAY-2
  6
CONTINUOUS
 62
     3
100
AcDbLine
 10
473.100008
 20
179.3
 30
0.0
 11
477.600008
 21
179.3
 31
0.0
  0
LINE
  5
19C
100
AcDbEntity
  8
LAY-2
  6
CONTINUOUS
 62
     3
100
AcDbLine
 10
472.600008
 20
180.2
 30
0.0
 11
472.600008
 21
179.8
 31
0.0
  0
LINE
  5
19D
100
AcDbEntity
  8
LAY-2
  6
CONTINUOUS
 62
     1
100
AcDbLine
 10
473.100008
 20
180.2
 30
0.0
 11
473.100008
 21
179.3
 31
0.0
  0
LINE
  5
19E
100
AcDbEntity
  8
LAY-2
  6
CONTINUOUS
 62
     1
100
AcDbLine
 10
472.600008
 20
179.8
 30
0.0
 11
477.600008
 21
179.8
 31
0.0
  0
LINE
  5
19F
100
AcDbEntity
  8
LAY-2
  6
CONTINUOUS
 62
     1
100
AcDbLine
 10
472.600008
 20
179.8
 30
0.0
 11
473.100008
 21
179.3
 31
0.0
  0
LINE
  5
1A0
100
AcDbEntity
  8
LAY-2
  6
CONTINUOUS
 62
     1
100
AcDbLine
 10
482.600008
 20
179.8
 30
0.0
 11
477.600008
 21
179.8
 31
0.0
  0
LINE
  5
1A1
100
AcDbEntity
  8
LAY-2
  6
CONTINUOUS
 62
     3
100
AcDbLine
 10
482.100008
 20
179.3
 30
0.0
 11
477.600008
 21
179.3
 31
0.0
  0
LINE
  5
1A2
100
AcDbEntity
  8
LAY-2
  6
CONTINUOUS
 62
     1
100
AcDbLine
 10
482.100008
 20
180.2
 30
0.0
 11
482.100008
 21
179.3
 31
0.0
  0
LINE
  5
1A3
100
AcDbEntity
  8
LAY-2
  6
CONTINUOUS
 62
     1
100
AcDbLine
 10
482.600008
 20
179.8
 30
0.0
 11
482.100008
 21
179.3
 31
0.0
  0
LINE
  5
1A4
100
AcDbEntity
  8
LAY-2
  6
CONTINUOUS
 62
     3
100
AcDbLine
 10
482.600008
 20
180.2
 30
0.0
 11
482.600008
 21
179.8
 31
0.0
  0
LINE
  5
1A5
100
AcDbEntity
  8
LAY-2
  6
CONTINUOUS
 62
     3
100
AcDbLine
 10
469.600008
 20
200.83406
 30
0.0
 11
469.600008
 21
199.6
 31
0.0
  0
LINE
  5
1A6
100
AcDbEntity
  8
LAY-2
  6
CONTINUOUS
 62
     3
100
AcDbLine
 10
485.600008
 20
200.152896
 30
0.0
 11
485.600008
 21
199.6
 31
0.0
  0
LINE
  5
1A7
100
AcDbEntity
  8
LAY-2
  6
CONTINUOUS
 62
     3
100
AcDbLine
 10
597.007628
 20
184.4
 30
0.0
 11
502.837612
 21
184.4
 31
0.0
  0
LINE
  5
1A8
100
AcDbEntity
  8
LAY-2
  6
CONTINUOUS
 62
     3
100
AcDbLine
 10
224.334765
 20
184.4
 30
0.0
 11
272.522419
 21
184.4
 31
0.0
  0
LINE
  5
1A9
100
AcDbEntity
  8
LAY-2
  6
CONTINUOUS
 62
     3
100
AcDbLine
 10
222.76359
 20
178.4
 30
0.0
 11
291.026537
 21
178.4
 31
0.0
  0
LINE
  5
1AA
100
AcDbEntity
  8
LAY-2
  6
CONTINUOUS
 62
     3
100
AcDbLine
 10
244.428964
 20
176.917638
 30
0.0
 11
241.869269
 21
167.364724
 31
0.0
  0
LINE
  5
1AB
100
AcDbEntity
  8
LAY-2
  6
CONTINUOUS
 62
     3
100
AcDbLine
 10
222.76359
 20
178.4
 30
0.0
 11
219.409499
 21
165.882362
 31
0.0
  0
LINE
  5
1AC
100
AcDbEntity
  8
LAY-2
  6
CONTINUOUS
 62
     3
100
AcDbLine
 10
220.471062
 20
181.435276
 30
0.0
 11
217.514168
 21
170.4
 31
0.0
  0
ARC
  5
1AD
100
AcDbEntity
  8
LAY-2
  6
CONTINUOUS
 62
     3
100
AcDbCircle
 10
224.334765
 20
180.4
 30
0.0
 40
4.0
100
AcDbArc
 50
90.0
 51
165.0
  0
ARC
  5
1AE
100
AcDbEntity
  8
LAY-2
  6
CONTINUOUS
 62
     3
100
AcDbCircle
 10
238.005565
 20
168.4
 30
0.0
 40
4.0
100
AcDbArc
 50
270.0
 51
345.0
  0
ARC
  5
1AF
100
AcDbEntity
  8
LAY-2
  6
CONTINUOUS
 62
     3
100
AcDbCircle
 10
217.477648
 20
166.4
 30
0.0
 40
2.0
100
AcDbArc
 50
270.0
 51
345.0
  0
ARC
  5
1B0
100
AcDbEntity
  8
LAY-2
  6
CONTINUOUS
 62
     3
100
AcDbCircle
 10
246.360816
 20
176.4
 30
0.0
 40
2.0
100
AcDbArc
 50
90.0
 51
165.0
  0
LINE
  5
1B1
100
AcDbEntity
  8
LAY-2
  6
CONTINUOUS
 62
     3
100
AcDbLine
 10
272.0
 20
192.4
 30
0.0
 11
272.0
 21
186.4
 31
0.0
  0
LINE
  5
1B2
100
AcDbEntity
  8
LAY-2
  6
CONTINUOUS
 62
     3
100
AcDbLine
 10
272.0
 20
186.4
 30
0.0
 11
302.0
 21
186.4
 31
0.0
  0
LINE
  5
1B3
100
AcDbEntity
  8
LAY-2
  6
CONTINUOUS
 62
     3
100
AcDbLine
 10
277.5
 20
185.2
 30
0.0
 11
296.5
 21
185.2
 31
0.0
  0
LINE
  5
1B4
100
AcDbEntity
  8
LAY-2
  6
CONTINUOUS
 62
     3
100
AcDbLine
 10
296.5
 20
186.4
 30
0.0
 11
296.5
 21
185.2
 31
0.0
  0
LINE
  5
1B5
100
AcDbEntity
  8
LAY-2
  6
CONTINUOUS
 62
     3
100
AcDbLine
 10
277.5
 20
186.4
 30
0.0
 11
277.5
 21
185.2
 31
0.0
  0
LINE
  5
1B6
100
AcDbEntity
  8
LAY-2
  6
CONTINUOUS
 62
     3
100
AcDbLine
 10
274.0
 20
193.15
 30
0.0
 11
300.0
 21
193.15
 31
0.0
  0
LINE
  5
1B7
100
AcDbEntity
  8
LAY-2
  6
CONTINUOUS
 62
     1
100
AcDbLine
 10
282.5
 20
180.2
 30
0.0
 11
282.5
 21
179.3
 31
0.0
  0
LINE
  5
1B8
100
AcDbEntity
  8
LAY-2
  6
CONTINUOUS
 62
     1
100
AcDbLine
 10
282.0
 20
179.8
 30
0.0
 11
287.0
 21
179.8
 31
0.0
  0
LINE
  5
1B9
100
AcDbEntity
  8
LAY-2
  6
CONTINUOUS
 62
     1
100
AcDbLine
 10
282.0
 20
179.8
 30
0.0
 11
282.5
 21
179.3
 31
0.0
  0
LINE
  5
1BA
100
AcDbEntity
  8
LAY-2
  6
CONTINUOUS
 62
     3
100
AcDbLine
 10
282.0
 20
180.2
 30
0.0
 11
282.0
 21
179.8
 31
0.0
  0
LINE
  5
1BB
100
AcDbEntity
  8
LAY-2
  6
CONTINUOUS
 62
     3
100
AcDbLine
 10
282.5
 20
179.3
 30
0.0
 11
287.0
 21
179.3
 31
0.0
  0
LINE
  5
1BC
100
AcDbEntity
  8
LAY-2
  6
CONTINUOUS
 62
     1
100
AcDbLine
 10
292.0
 20
179.8
 30
0.0
 11
287.0
 21
179.8
 31
0.0
  0
LINE
  5
1BD
100
AcDbEntity
  8
LAY-2
  6
CONTINUOUS
 62
     3
100
AcDbLine
 10
291.5
 20
179.3
 30
0.0
 11
287.0
 21
179.3
 31
0.0
  0
LINE
  5
1BE
100
AcDbEntity
  8
LAY-2
  6
CONTINUOUS
 62
     1
100
AcDbLine
 10
291.5
 20
180.2
 30
0.0
 11
291.5
 21
179.3
 31
0.0
  0
LINE
  5
1BF
100
AcDbEntity
  8
LAY-2
  6
CONTINUOUS
 62
     1
100
AcDbLine
 10
292.0
 20
179.8
 30
0.0
 11
291.5
 21
179.3
 31
0.0
  0
LINE
  5
1C0
100
AcDbEntity
  8
LAY-2
  6
CONTINUOUS
 62
     3
100
AcDbLine
 10
292.0
 20
180.2
 30
0.0
 11
292.0
 21
179.8
 31
0.0
  0
LINE
  5
1C1
100
AcDbEntity
  8
LAY-2
  6
CONTINUOUS
 62
     3
100
AcDbLine
 10
277.0
 20
210.3
 30
0.0
 11
277.0
 21
208.8
 31
0.0
  0
LINE
  5
1C2
100
AcDbEntity
  8
LAY-2
  6
CONTINUOUS
 62
     3
100
AcDbLine
 10
278.0
 20
211.3
 30
0.0
 11
277.0
 21
210.3
 31
0.0
  0
LINE
  5
1C3
100
AcDbEntity
  8
LAY-2
  6
CONTINUOUS
 62
     3
100
AcDbLine
 10
297.0
 20
210.3
 30
0.0
 11
297.0
 21
208.8
 31
0.0
  0
LINE
  5
1C4
100
AcDbEntity
  8
LAY-2
  6
CONTINUOUS
 62
     3
100
AcDbLine
 10
296.0
 20
211.3
 30
0.0
 11
297.0
 21
210.3
 31
0.0
  0
LINE
  5
1C5
100
AcDbEntity
  8
LAY-2
  6
CONTINUOUS
 62
     3
100
AcDbLine
 10
278.0
 20
211.3
 30
0.0
 11
296.0
 21
211.3
 31
0.0
  0
LINE
  5
1C6
100
AcDbEntity
  8
LAY-2
  6
CONTINUOUS
 62
     3
100
AcDbLine
 10
277.0
 20
208.8
 30
0.0
 11
297.0
 21
208.8
 31
0.0
  0
LINE
  5
1C7
100
AcDbEntity
  8
LAY-2
  6
CONTINUOUS
 62
     3
100
AcDbLine
 10
279.0
 20
208.8
 30
0.0
 11
279.0
 21
208.552712
 31
0.0
  0
LINE
  5
1C8
100
AcDbEntity
  8
LAY-2
  6
CONTINUOUS
 62
     3
100
AcDbLine
 10
279.0
 20
200.493478
 30
0.0
 11
279.0
 21
199.6
 31
0.0
  0
LINE
  5
1C9
100
AcDbEntity
  8
LAY-2
  6
CONTINUOUS
 62
     3
100
AcDbLine
 10
295.0
 20
208.8
 30
0.0
 11
295.0
 21
208.552712
 31
0.0
  0
LINE
  5
1CA
100
AcDbEntity
  8
LAY-2
  6
CONTINUOUS
 62
     3
100
AcDbLine
 10
295.0
 20
200.493478
 30
0.0
 11
295.0
 21
199.6
 31
0.0
  0
LINE
  5
1CB
100
AcDbEntity
  8
LAY-2
  6
CONTINUOUS
 62
     3
100
AcDbLine
 10
272.0
 20
192.4
 30
0.0
 11
302.0
 21
192.4
 31
0.0
  0
LINE
  5
1CC
100
AcDbEntity
  8
LAY-2
  6
CONTINUOUS
 62
     3
100
AcDbLine
 10
302.0
 20
192.4
 30
0.0
 11
302.0
 21
186.4
 31
0.0
  0
LINE
  5
1CD
100
AcDbEntity
  8
LAY-2
  6
CONTINUOUS
 62
     3
100
AcDbLine
 10
277.0
 20
210.3
 30
0.0
 11
297.0
 21
210.3
 31
0.0
  0
LINE
  5
1CE
100
AcDbEntity
  8
LAY-2
  6
CONTINUOUS
 62
     3
100
AcDbLine
 10
467.600008
 20
210.3
 30
0.0
 11
487.600008
 21
210.3
 31
0.0
  0
LINE
  5
1CF
100
AcDbEntity
  8
LAY-2
  6
CONTINUOUS
 62
     3
100
AcDbLine
 10
278.5
 20
184.251933
 30
0.0
 11
278.5
 21
181.148067
 31
0.0
  0
ARC
  5
1D0
100
AcDbEntity
  8
LAY-2
  6
CONTINUOUS
 62
     3
100
AcDbCircle
 10
282.75
 20
175.2
 30
0.0
 40
10.0
100
AcDbArc
 50
64.849337
 51
115.150663
  0
ARC
  5
1D1
100
AcDbEntity
  8
LAY-2
  6
CONTINUOUS
 62
     3
100
AcDbCircle
 10
282.75
 20
190.2
 30
0.0
 40
10.0
100
AcDbArc
 50
244.849337
 51
295.150663
  0
LINE
  5
1D2
100
AcDbEntity
  8
LAY-2
  6
CONTINUOUS
 62
     3
100
AcDbLine
 10
287.0
 20
184.24
 30
0.0
 11
287.0
 21
181.15
 31
0.0
  0
ARC
  5
1D3
100
AcDbEntity
  8
LAY-2
  6
CONTINUOUS
 62
     3
100
AcDbCircle
 10
291.25
 20
175.2
 30
0.0
 40
10.0
100
AcDbArc
 50
64.849337
 51
115.150663
  0
ARC
  5
1D4
100
AcDbEntity
  8
LAY-2
  6
CONTINUOUS
 62
     3
100
AcDbCircle
 10
291.25
 20
190.2
 30
0.0
 40
10.0
100
AcDbArc
 50
244.849337
 51
295.150663
  0
LINE
  5
1D5
100
AcDbEntity
  8
LAY-2
  6
CONTINUOUS
 62
     3
100
AcDbLine
 10
295.5
 20
184.251933
 30
0.0
 11
295.5
 21
181.148067
 31
0.0
  0
LINE
  5
1D6
100
AcDbEntity
  8
LAY-2
  6
CONTINUOUS
 62
     3
100
AcDbLine
 10
274.093594
 20
186.4
 30
0.0
 11
272.347198
 21
179.882362
 31
0.0
  0
LINE
  5
1D7
100
AcDbEntity
  8
LAY-2
  6
CONTINUOUS
 62
     3
100
AcDbLine
 10
272.522419
 20
184.4
 30
0.0
 11
273.058317
 21
186.4
 31
0.0
  0
ARC
  5
1D8
100
AcDbEntity
  8
LAY-2
  6
CONTINUOUS
 62
     3
100
AcDbCircle
 10
270.415346
 20
180.4
 30
0.0
 40
2.0
100
AcDbArc
 50
270.0
 51
345.0
  0
LINE
  5
1D9
100
AcDbEntity
  8
LAY-2
  6
CONTINUOUS
 62
     3
100
AcDbLine
 10
291.026537
 20
178.4
 30
0.0
 11
291.267691
 21
179.3
 31
0.0
  0
ARC
  5
1DA
100
AcDbEntity
  8
LAY-2
  6
CONTINUOUS
 62
     3
100
AcDbCircle
 10
477.600008
 20
177.2
 30
0.0
 40
8.0
100
AcDbArc
 50
52.320059
 51
127.679941
  0
ARC
  5
1DB
100
AcDbEntity
  8
LAY-2
  6
CONTINUOUS
 62
     3
100
AcDbCircle
 10
470.247508
 20
182.55
 30
0.0
 40
2.65
100
AcDbArc
 50
21.731184
 51
158.317472
  0
ARC
  5
1DC
100
AcDbEntity
  8
LAY-2
  6
CONTINUOUS
 62
     3
100
AcDbCircle
 10
484.952508
 20
182.55
 30
0.0
 40
2.65
100
AcDbArc
 50
21.682528
 51
158.268816
  0
LINE
  5
1DD
100
AcDbEntity
  8
LAY-2
  6
CONTINUOUS
 62
     3
100
AcDbLine
 10
477.600008
 20
185.2
 30
0.0
 11
484.952508
 21
185.2
 31
0.0
  0
LINE
  5
1DE
100
AcDbEntity
  8
LAY-2
  6
CONTINUOUS
 62
     3
100
AcDbLine
 10
477.600008
 20
185.2
 30
0.0
 11
470.247508
 21
185.2
 31
0.0
  0
ARC
  5
1DF
100
AcDbEntity
  8
LAY-2
  6
CONTINUOUS
 62
     3
100
AcDbCircle
 10
477.600008
 20
188.2
 30
0.0
 40
8.0
100
AcDbArc
 50
232.320059
 51
307.679941
  0
ARC
  5
1E0
100
AcDbEntity
  8
LAY-2
  6
CONTINUOUS
 62
     3
100
AcDbCircle
 10
470.247508
 20
182.85
 30
0.0
 40
2.65
100
AcDbArc
 50
201.682528
 51
338.268816
  0
ARC
  5
1E1
100
AcDbEntity
  8
LAY-2
  6
CONTINUOUS
 62
     3
100
AcDbCircle
 10
484.952508
 20
182.85
 30
0.0
 40
2.65
100
AcDbArc
 50
201.731184
 51
338.317472
  0
LINE
  5
1E2
100
AcDbEntity
  8
LAY-2
  6
CONTINUOUS
 62
     3
100
AcDbLine
 10
470.247508
 20
180.2
 30
0.0
 11
484.952508
 21
180.2
 31
0.0
  0
LINE
  5
1E3
100
AcDbEntity
  8
LAY-2
  6
CONTINUOUS
 62
     3
100
AcDbLine
 10
487.415008
 20
183.529078
 30
0.0
 11
487.415008
 21
181.870922
 31
0.0
  0
LINE
  5
1E4
100
AcDbEntity
  8
LAY-2
  6
CONTINUOUS
 62
     3
100
AcDbLine
 10
482.490008
 20
183.531501
 30
0.0
 11
482.490008
 21
181.868499
 31
0.0
  0
LINE
  5
1E5
100
AcDbEntity
  8
LAY-2
  6
CONTINUOUS
 62
     3
100
AcDbLine
 10
472.710008
 20
183.531501
 30
0.0
 11
472.710008
 21
181.868499
 31
0.0
  0
LINE
  5
1E6
100
AcDbEntity
  8
LAY-2
  6
CONTINUOUS
 62
     3
100
AcDbLine
 10
467.785008
 20
183.529078
 30
0.0
 11
467.785008
 21
181.870922
 31
0.0
  0
LINE
  5
1E7
100
AcDbEntity
  8
LAY-2
  6
CONTINUOUS
 62
     3
100
AcDbLine
 10
484.952508
 20
180.2
 30
0.0
 11
470.247508
 21
180.2
 31
0.0
  0
LINE
  5
1E8
100
AcDbEntity
  8
LAY-2
  6
CONTINUOUS
 62
     3
100
AcDbLine
 10
287.0
 20
185.2
 30
0.0
 11
294.3525
 21
185.2
 31
0.0
  0
LINE
  5
1E9
100
AcDbEntity
  8
LAY-2
  6
CONTINUOUS
 62
     3
100
AcDbLine
 10
287.0
 20
185.2
 30
0.0
 11
279.6475
 21
185.2
 31
0.0
  0
LINE
  5
1EA
100
AcDbEntity
  8
LAY-2
  6
CONTINUOUS
 62
     3
100
AcDbLine
 10
292.0
 20
180.2
 30
0.0
 11
282.0
 21
180.2
 31
0.0
  0
LINE
  5
1EB
100
AcDbEntity
  8
LAY-2
  6
CONTINUOUS
 62
     3
100
AcDbLine
 10
282.0
 20
180.2
 30
0.0
 11
292.0
 21
180.2
 31
0.0
  0
LINE
  5
1EC
100
AcDbEntity
  8
LAY-3
  6
CONTINUOUS
 62
     3
100
AcDbLine
 10
281.65
 20
459.5
 30
0.0
 11
292.35
 21
459.5
 31
0.0
  0
LINE
  5
1ED
100
AcDbEntity
  8
LAY-3
  6
CONTINUOUS
 62
     3
100
AcDbLine
 10
296.5
 20
470.5
 30
0.0
 11
296.5
 21
466.5
 31
0.0
  0
LINE
  5
1EE
100
AcDbEntity
  8
LAY-3
  6
CONTINUOUS
 62
     3
100
AcDbLine
 10
277.5
 20
470.5
 30
0.0
 11
277.5
 21
466.5
 31
0.0
  0
LINE
  5
1EF
100
AcDbEntity
  8
LAY-3
  6
CONTINUOUS
 62
     3
100
AcDbLine
 10
281.65
 20
459.5
 30
0.0
 11
281.65
 21
407.5
 31
0.0
  0
LINE
  5
1F0
100
AcDbEntity
  8
LAY-3
  6
CONTINUOUS
 62
     3
100
AcDbLine
 10
292.35
 20
459.5
 30
0.0
 11
292.35
 21
407.5
 31
0.0
  0
ARC
  5
1F1
100
AcDbEntity
  8
LAY-3
  6
CONTINUOUS
 62
     3
100
AcDbCircle
 10
287.0
 20
470.5
 30
0.0
 40
9.5
100
AcDbArc
 50
0.0
 51
31.286953
  0
ARC
  5
1F2
100
AcDbEntity
  8
LAY-3
  6
CONTINUOUS
 62
     3
100
AcDbCircle
 10
287.0
 20
470.5
 30
0.0
 40
9.5
100
AcDbArc
 50
148.713047
 51
180.0
  0
ARC
  5
1F3
100
AcDbEntity
  8
LAY-3
  6
CONTINUOUS
 62
     3
100
AcDbCircle
 10
287.0
 20
463.9745
 30
0.0
 40
6.9745
100
AcDbArc
 50
219.907598
 51
320.092402
  0
ARC
  5
1F4
100
AcDbEntity
  8
LAY-3
  6
CONTINUOUS
 62
     3
100
AcDbCircle
 10
287.0
 20
258.350887
 30
0.0
 40
14.0
100
AcDbArc
 50
154.010024
 51
25.989976
  0
LINE
  5
1F5
100
AcDbEntity
  8
LAY-3
  6
CONTINUOUS
 62
     3
100
AcDbLine
 10
279.0
 20
383.351
 30
0.0
 11
279.0
 21
284.350118
 31
0.0
  0
LINE
  5
1F6
100
AcDbEntity
  8
LAY-3
  6
CONTINUOUS
 62
     3
100
AcDbLine
 10
295.0
 20
383.351
 30
0.0
 11
295.0
 21
284.350118
 31
0.0
  0
ARC
  5
1F7
100
AcDbEntity
  8
LAY-3
  6
CONTINUOUS
 62
     3
100
AcDbCircle
 10
340.33
 20
284.350118
 30
0.0
 40
45.33
100
AcDbArc
 50
180.0
 51
205.989976
  0
ARC
  5
1F8
100
AcDbEntity
  8
LAY-3
  6
CONTINUOUS
 62
     3
100
AcDbCircle
 10
233.67
 20
284.350118
 30
0.0
 40
45.33
100
AcDbArc
 50
334.010024
 51
0.0
  0
LINE
  5
1F9
100
AcDbEntity
  8
LAY-3
  6
CONTINUOUS
 62
     3
100
AcDbLine
 10
277.5
 20
466.5
 30
0.0
 11
281.65
 21
459.5
 31
0.0
  0
LINE
  5
1FA
100
AcDbEntity
  8
LAY-3
  6
CONTINUOUS
 62
     3
100
AcDbLine
 10
296.5
 20
466.5
 30
0.0
 11
292.35
 21
459.5
 31
0.0
  0
LINE
  5
1FB
100
AcDbEntity
  8
LAY-3
  6
CONTINUOUS
 62
     3
100
AcDbLine
 10
281.0
 20
407.5
 30
0.0
 11
293.0
 21
407.5
 31
0.0
  0
LINE
  5
1FC
100
AcDbEntity
  8
LAY-3
  6
CONTINUOUS
 62
     3
100
AcDbLine
 10
279.0
 20
383.351
 30
0.0
 11
295.0
 21
383.351
 31
0.0
  0
CIRCLE
  5
1FD
100
AcDbEntity
  8
LAY-3
  6
CONTINUOUS
 62
     3
100
AcDbCircle
 10
287.0
 20
258.350887
 30
0.0
 40
10.0
  0
CIRCLE
  5
1FE
100
AcDbEntity
  8
LAY-3
  6
CONTINUOUS
 62
     3
100
AcDbCircle
 10
287.0
 20
258.351
 30
0.0
 40
9.0
  0
LINE
  5
1FF
100
AcDbEntity
  8
LAY-3
  6
CONTINUOUS
 62
     3
100
AcDbLine
 10
287.0
 20
390.351
 30
0.0
 11
294.3525
 21
390.351
 31
0.0
  0
LINE
  5
200
100
AcDbEntity
  8
LAY-3
  6
CONTINUOUS
 62
     3
100
AcDbLine
 10
296.815
 20
388.680078
 30
0.0
 11
296.815
 21
385.021922
 31
0.0
  0
LINE
  5
201
100
AcDbEntity
  8
LAY-3
  6
CONTINUOUS
 62
     3
100
AcDbLine
 10
287.0
 20
390.351
 30
0.0
 11
279.6475
 21
390.351
 31
0.0
  0
LINE
  5
202
100
AcDbEntity
  8
LAY-3
  6
CONTINUOUS
 62
     3
100
AcDbLine
 10
277.185
 20
388.680078
 30
0.0
 11
277.185
 21
385.021922
 31
0.0
  0
LINE
  5
203
100
AcDbEntity
  8
LAY-3
  6
CONTINUOUS
 62
     3
100
AcDbLine
 10
295.0
 20
383.351
 30
0.0
 11
279.0
 21
383.351
 31
0.0
  0
LINE
  5
204
100
AcDbEntity
  8
LAY-3
  6
CONTINUOUS
 62
     3
100
AcDbLine
 10
291.89
 20
388.682501
 30
0.0
 11
291.89
 21
385.019499
 31
0.0
  0
LINE
  5
205
100
AcDbEntity
  8
LAY-3
  6
CONTINUOUS
 62
     3
100
AcDbLine
 10
282.11
 20
388.682501
 30
0.0
 11
282.11
 21
385.019499
 31
0.0
  0
ARC
  5
206
100
AcDbEntity
  8
LAY-3
  6
CONTINUOUS
 62
     3
100
AcDbCircle
 10
287.0
 20
382.351
 30
0.0
 40
8.0
100
AcDbArc
 50
52.320059
 51
127.679941
  0
ARC
  5
207
100
AcDbEntity
  8
LAY-3
  6
CONTINUOUS
 62
     3
100
AcDbCircle
 10
279.6475
 20
387.701
 30
0.0
 40
2.65
100
AcDbArc
 50
21.731184
 51
158.317472
  0
ARC
  5
208
100
AcDbEntity
  8
LAY-3
  6
CONTINUOUS
 62
     3
100
AcDbCircle
 10
294.3525
 20
387.701
 30
0.0
 40
2.65
100
AcDbArc
 50
21.682528
 51
158.268816
  0
ARC
  5
209
100
AcDbEntity
  8
LAY-3
  6
CONTINUOUS
 62
     3
100
AcDbCircle
 10
287.0
 20
391.351
 30
0.0
 40
8.0
100
AcDbArc
 50
232.320059
 51
307.679941
  0
ARC
  5
20A
100
AcDbEntity
  8
LAY-3
  6
CONTINUOUS
 62
     3
100
AcDbCircle
 10
279.6475
 20
386.001
 30
0.0
 40
2.65
100
AcDbArc
 50
201.682528
 51
338.268816
  0
ARC
  5
20B
100
AcDbEntity
  8
LAY-3
  6
CONTINUOUS
 62
     3
100
AcDbCircle
 10
294.3525
 20
386.001
 30
0.0
 40
2.65
100
AcDbArc
 50
201.731184
 51
338.317472
  0
LINE
  5
20C
100
AcDbEntity
  8
LAY-3
  6
CONTINUOUS
 62
     3
100
AcDbLine
 10
281.0
 20
407.5
 30
0.0
 11
281.0
 21
390.351
 31
0.0
  0
LINE
  5
20D
100
AcDbEntity
  8
LAY-3
  6
CONTINUOUS
 62
     1
100
AcDbLine
 10
281.875
 20
407.5
 30
0.0
 11
281.875
 21
390.351
 31
0.0
  0
LINE
  5
20E
100
AcDbEntity
  8
LAY-3
  6
CONTINUOUS
 62
     1
100
AcDbLine
 10
281.65
 20
408.625833
 30
0.0
 11
281.0
 21
407.5
 31
0.0
  0
LINE
  5
20F
100
AcDbEntity
  8
LAY-3
  6
CONTINUOUS
 62
     1
100
AcDbLine
 10
292.35
 20
408.625833
 30
0.0
 11
293.0
 21
407.5
 31
0.0
  0
LINE
  5
210
100
AcDbEntity
  8
LAY-3
  6
CONTINUOUS
 62
     1
100
AcDbLine
 10
292.125
 20
407.5
 30
0.0
 11
292.125
 21
390.351
 31
0.0
  0
LINE
  5
211
100
AcDbEntity
  8
LAY-3
  6
CONTINUOUS
 62
     3
100
AcDbLine
 10
293.0
 20
407.5
 30
0.0
 11
293.0
 21
390.351
 31
0.0
  0
LINE
  5
212
100
AcDbEntity
  8
LAY-3
  6
CONTINUOUS
 62
     3
100
AcDbLine
 10
602.412534
 20
200.684844
 30
0.0
 11
601.66804
 21
183.70114
 31
0.0
  0
LINE
  5
213
100
AcDbEntity
  8
LAY-3
  6
CONTINUOUS
 62
     3
100
AcDbLine
 10
504.162765
 20
188.352664
 30
0.0
 11
601.689936
 21
184.200661
 31
0.0
  0
LINE
  5
214
100
AcDbEntity
  8
LAY-3
  6
CONTINUOUS
 62
     3
100
AcDbLine
 10
602.390637
 20
200.185323
 30
0.0
 11
512.972192
 21
203.992115
 31
0.0
  0
LINE
  5
215
100
AcDbEntity
  8
LAY-3
  6
CONTINUOUS
 62
     3
100
AcDbLine
 10
464.623641
 20
208.552712
 30
0.0
 11
512.281393
 21
206.523789
 31
0.0
  0
LINE
  5
216
100
AcDbEntity
  8
LAY-3
  6
CONTINUOUS
 62
     3
100
AcDbLine
 10
465.296173
 20
201.017287
 30
0.0
 11
501.320159
 21
199.483645
 31
0.0
  0
LINE
  5
217
100
AcDbEntity
  8
LAY-3
  6
CONTINUOUS
 62
     3
100
AcDbLine
 10
464.420329
 20
203.85711
 30
0.0
 11
464.918618
 21
203.835896
 31
0.0
  0
LINE
  5
218
100
AcDbEntity
  8
LAY-3
  6
CONTINUOUS
 62
     3
100
AcDbLine
 10
463.463823
 20
204.899999
 30
0.0
 11
463.582066
 21
207.59741
 31
0.0
  0
LINE
  5
219
100
AcDbEntity
  8
LAY-3
  6
CONTINUOUS
 62
     3
100
AcDbLine
 10
464.81792
 20
201.538731
 30
0.0
 11
464.918618
 21
203.835896
 31
0.0
  0
ARC
  5
21A
100
AcDbEntity
  8
LAY-3
  6
CONTINUOUS
 62
     3
100
AcDbCircle
 10
464.581107
 20
207.553617
 30
0.0
 40
1.0
100
AcDbArc
 50
87.562231
 51
177.49
  0
ARC
  5
21B
100
AcDbEntity
  8
LAY-3
  6
CONTINUOUS
 62
     3
100
AcDbCircle
 10
464.462864
 20
204.856205
 30
0.0
 40
1.0
100
AcDbArc
 50
177.49
 51
267.562231
  0
ARC
  5
21C
100
AcDbEntity
  8
LAY-3
  6
CONTINUOUS
 62
     3
100
AcDbCircle
 10
465.31744
 20
201.516834
 30
0.0
 40
0.5
100
AcDbArc
 50
177.49
 51
267.562231
  0
LINE
  5
21D
100
AcDbEntity
  8
LAY-3
  6
CONTINUOUS
 62
     3
100
AcDbLine
 10
502.726576
 20
189.856804
 30
0.0
 11
502.756348
 21
197.979505
 31
0.0
  0
ARC
  5
21E
100
AcDbEntity
  8
LAY-3
  6
CONTINUOUS
 62
     3
100
AcDbCircle
 10
501.256358
 20
197.985003
 30
0.0
 40
1.5
100
AcDbArc
 50
359.79
 51
87.562231
  0
ARC
  5
21F
100
AcDbEntity
  8
LAY-3
  6
CONTINUOUS
 62
     3
100
AcDbCircle
 10
504.226566
 20
189.851306
 30
0.0
 40
1.5
100
AcDbArc
 50
179.79
 51
267.562231
  0
ARC
  5
220
100
AcDbEntity
  8
LAY-3
  6
CONTINUOUS
 62
     3
100
AcDbCircle
 10
504.078943
 20
196.363479
 30
0.0
 40
5.55
100
AcDbArc
 50
144.841788
 51
255.940573
  0
LINE
  5
221
100
AcDbEntity
  8
LAY-3
  6
CONTINUOUS
 62
     3
100
AcDbLine
 10
512.493939
 20
204.513559
 30
0.0
 11
512.568345
 21
206.210922
 31
0.0
  0
ARC
  5
222
100
AcDbEntity
  8
LAY-3
  6
CONTINUOUS
 62
     3
100
AcDbCircle
 10
512.268632
 20
206.22406
 30
0.0
 40
0.3
100
AcDbArc
 50
357.49
 51
87.562231
  0
ARC
  5
223
100
AcDbEntity
  8
LAY-3
  6
CONTINUOUS
 62
     3
100
AcDbCircle
 10
512.99346
 20
204.491663
 30
0.0
 40
0.5
100
AcDbArc
 50
177.49
 51
267.562231
  0
LINE
  5
224
100
AcDbEntity
  8
LAY-3
  6
CONTINUOUS
 62
     3
100
AcDbLine
 10
609.406205
 20
200.387104
 30
0.0
 11
608.66171
 21
183.4034
 31
0.0
  0
LINE
  5
225
100
AcDbEntity
  8
LAY-3
  6
CONTINUOUS
 62
     3
100
AcDbLine
 10
601.66804
 20
183.70114
 30
0.0
 11
608.66171
 21
183.4034
 31
0.0
  0
LINE
  5
226
100
AcDbEntity
  8
LAY-3
  6
CONTINUOUS
 62
     3
100
AcDbLine
 10
602.412534
 20
200.684844
 30
0.0
 11
609.406205
 21
200.387104
 31
0.0
  0
ARC
  5
227
100
AcDbEntity
  8
LAY-3
  6
CONTINUOUS
 62
     3
100
AcDbCircle
 10
598.856876
 20
188.074669
 30
0.0
 40
10.0
100
AcDbArc
 50
332.411568
 51
22.712895
  0
ARC
  5
228
100
AcDbEntity
  8
LAY-3
  6
CONTINUOUS
 62
     3
100
AcDbCircle
 10
611.844403
 20
187.50535
 30
0.0
 40
10.0
100
AcDbArc
 50
152.267105
 51
202.568432
  0
ARC
  5
229
100
AcDbEntity
  8
LAY-3
  6
CONTINUOUS
 62
     3
100
AcDbCircle
 10
612.207339
 20
196.030406
 30
0.0
 40
10.0
100
AcDbArc
 50
152.556031
 51
202.857358
  0
ARC
  5
22A
100
AcDbEntity
  8
LAY-3
  6
CONTINUOUS
 62
     3
100
AcDbCircle
 10
599.218417
 20
196.566977
 30
0.0
 40
10.0
100
AcDbArc
 50
332.411568
 51
22.712895
  0
LINE
  5
22B
100
AcDbEntity
  8
LAY-3
  6
CONTINUOUS
 62
     3
100
AcDbLine
 10
602.989835
 20
192.152567
 30
0.0
 11
608.081388
 21
191.935806
 31
0.0
  0
LINE
  5
22C
100
AcDbEntity
  8
LAY-3
  6
CONTINUOUS
 62
     3
100
AcDbLine
 10
608.771195
 20
185.901004
 30
0.0
 11
627.342862
 21
185.110356
 31
0.0
  0
LINE
  5
22D
100
AcDbEntity
  8
LAY-3
  6
CONTINUOUS
 62
     3
100
AcDbLine
 10
609.29672
 20
197.889501
 30
0.0
 11
627.857291
 21
197.099325
 31
0.0
  0
LINE
  5
22E
100
AcDbEntity
  8
LAY-3
  6
CONTINUOUS
 62
     3
100
AcDbLine
 10
627.831501
 20
196.498273
 30
0.0
 11
676.694504
 21
194.401633
 31
0.0
  0
LINE
  5
22F
100
AcDbEntity
  8
LAY-3
  6
CONTINUOUS
 62
     3
100
AcDbLine
 10
627.368515
 20
185.708201
 30
0.0
 11
676.231518
 21
183.611562
 31
0.0
  0
LINE
  5
230
100
AcDbEntity
  8
LAY-3
  6
CONTINUOUS
 62
     3
100
AcDbLine
 10
627.342862
 20
185.110356
 30
0.0
 11
627.857291
 21
197.099325
 31
0.0
  0
LINE
  5
231
100
AcDbEntity
  8
LAY-3
  6
CONTINUOUS
 62
     1
100
AcDbLine
 10
609.258401
 20
197.015339
 30
0.0
 11
627.819781
 21
196.22513
 31
0.0
  0
LINE
  5
232
100
AcDbEntity
  8
LAY-3
  6
CONTINUOUS
 62
     1
100
AcDbLine
 10
608.8106
 20
186.775119
 30
0.0
 11
627.380373
 21
185.984552
 31
0.0
  0
LINE
  5
233
100
AcDbEntity
  8
LAY-3
  6
CONTINUOUS
 62
     3
100
AcDbLine
 10
699.994811
 20
185.744812
 30
0.0
 11
700.187722
 21
190.240675
 31
0.0
  0
LINE
  5
234
100
AcDbEntity
  8
LAY-3
  6
CONTINUOUS
 62
     3
100
AcDbLine
 10
679.706568
 20
191.119491
 30
0.0
 11
700.187722
 21
190.240675
 31
0.0
  0
LINE
  5
235
100
AcDbEntity
  8
LAY-3
  6
CONTINUOUS
 62
     3
100
AcDbLine
 10
679.513657
 20
186.623628
 30
0.0
 11
699.994811
 21
185.744812
 31
0.0
  0
LINE
  5
236
100
AcDbEntity
  8
LAY-3
  6
CONTINUOUS
 62
     3
100
AcDbLine
 10
676.694504
 20
194.401633
 30
0.0
 11
679.706568
 21
191.119491
 31
0.0
  0
LINE
  5
237
100
AcDbEntity
  8
LAY-3
  6
CONTINUOUS
 62
     3
100
AcDbLine
 10
676.231518
 20
183.611562
 30
0.0
 11
679.513657
 21
186.623628
 31
0.0
  0
LINE
  5
238
100
AcDbEntity
  8
LAY-3
  6
CONTINUOUS
 62
     3
100
AcDbLine
 10
274.0
 20
200.493478
 30
0.0
 11
281.0
 21
200.493478
 31
0.0
  0
LINE
  5
239
100
AcDbEntity
  8
LAY-3
  6
CONTINUOUS
 62
     3
100
AcDbLine
 10
300.0
 20
208.552712
 30
0.0
 11
274.0
 21
208.552712
 31
0.0
  0
LINE
  5
23A
100
AcDbEntity
  8
LAY-3
  6
CONTINUOUS
 62
     3
100
AcDbLine
 10
273.0
 20
207.552712
 30
0.0
 11
273.0
 21
201.493478
 31
0.0
  0
LINE
  5
23B
100
AcDbEntity
  8
LAY-3
  6
CONTINUOUS
 62
     3
100
AcDbLine
 10
301.0
 20
207.552712
 30
0.0
 11
301.0
 21
201.493478
 31
0.0
  0
ARC
  5
23C
100
AcDbEntity
  8
LAY-3
  6
CONTINUOUS
 62
     3
100
AcDbCircle
 10
274.0
 20
207.552712
 30
0.0
 40
1.0
100
AcDbArc
 50
90.0
 51
180.0
  0
ARC
  5
23D
100
AcDbEntity
  8
LAY-3
  6
CONTINUOUS
 62
     3
100
AcDbCircle
 10
300.0
 20
207.552712
 30
0.0
 40
1.0
100
AcDbArc
 50
0.0
 51
90.0
  0
LINE
  5
23E
100
AcDbEntity
  8
LAY-3
  6
CONTINUOUS
 62
     3
100
AcDbLine
 10
282.0
 20
201.493478
 30
0.0
 11
282.0
 21
202.292712
 31
0.0
  0
LINE
  5
23F
100
AcDbEntity
  8
LAY-3
  6
CONTINUOUS
 62
     3
100
AcDbLine
 10
292.0
 20
201.493478
 30
0.0
 11
292.0
 21
202.292712
 31
0.0
  0
LINE
  5
240
100
AcDbEntity
  8
LAY-3
  6
CONTINUOUS
 62
     3
100
AcDbLine
 10
283.0
 20
203.292712
 30
0.0
 11
291.0
 21
203.292712
 31
0.0
  0
LINE
  5
241
100
AcDbEntity
  8
LAY-3
  6
CONTINUOUS
 62
     3
100
AcDbLine
 10
293.0
 20
200.493478
 30
0.0
 11
300.0
 21
200.493478
 31
0.0
  0
ARC
  5
242
100
AcDbEntity
  8
LAY-3
  6
CONTINUOUS
 62
     3
100
AcDbCircle
 10
274.0
 20
201.493478
 30
0.0
 40
1.0
100
AcDbArc
 50
180.0
 51
270.0
  0
ARC
  5
243
100
AcDbEntity
  8
LAY-3
  6
CONTINUOUS
 62
     3
100
AcDbCircle
 10
300.0
 20
201.493478
 30
0.0
 40
1.0
100
AcDbArc
 50
270.0
 51
0.0
  0
ARC
  5
244
100
AcDbEntity
  8
LAY-3
  6
CONTINUOUS
 62
     3
100
AcDbCircle
 10
281.0
 20
201.493478
 30
0.0
 40
1.0
100
AcDbArc
 50
270.0
 51
0.0
  0
ARC
  5
245
100
AcDbEntity
  8
LAY-3
  6
CONTINUOUS
 62
     3
100
AcDbCircle
 10
293.0
 20
201.493478
 30
0.0
 40
1.0
100
AcDbArc
 50
180.0
 51
270.0
  0
ARC
  5
246
100
AcDbEntity
  8
LAY-3
  6
CONTINUOUS
 62
     3
100
AcDbCircle
 10
283.0
 20
202.292712
 30
0.0
 40
1.0
100
AcDbArc
 50
90.0
 51
180.0
  0
ARC
  5
247
100
AcDbEntity
  8
LAY-3
  6
CONTINUOUS
 62
     3
100
AcDbCircle
 10
291.0
 20
202.292712
 30
0.0
 40
1.0
100
AcDbArc
 50
0.0
 51
90.0
  0
LINE
  5
248
100
AcDbEntity
  8
LAY-3
  6
CONTINUOUS
 62
     3
100
AcDbLine
 10
273.0
 20
193.9
 30
0.0
 11
273.0
 21
199.6
 31
0.0
  0
LINE
  5
249
100
AcDbEntity
  8
LAY-3
  6
CONTINUOUS
 62
     3
100
AcDbLine
 10
273.0
 20
193.9
 30
0.0
 11
301.0
 21
193.9
 31
0.0
  0
LINE
  5
24A
100
AcDbEntity
  8
LAY-3
  6
CONTINUOUS
 62
     3
100
AcDbLine
 10
273.0
 20
199.6
 30
0.0
 11
301.0
 21
199.6
 31
0.0
  0
LINE
  5
24B
100
AcDbEntity
  8
LAY-3
  6
CONTINUOUS
 62
     3
100
AcDbLine
 10
301.0
 20
193.9
 30
0.0
 11
301.0
 21
199.6
 31
0.0
  0
LINE
  5
24C
100
AcDbEntity
  8
LAY-3
  6
CONTINUOUS
 62
     3
100
AcDbLine
 10
300.0
 20
193.15
 30
0.0
 11
300.0
 21
193.9
 31
0.0
  0
LINE
  5
24D
100
AcDbEntity
  8
LAY-3
  6
CONTINUOUS
 62
     3
100
AcDbLine
 10
274.0
 20
193.15
 30
0.0
 11
274.0
 21
193.9
 31
0.0
  0
LINE
  5
24E
100
AcDbEntity
  8
LAY-4
  6
CONTINUOUS
 62
     3
100
AcDbLine
 10
704.6
 20
195.9
 30
0.0
 11
684.1
 21
195.9
 31
0.0
  0
LINE
  5
24F
100
AcDbEntity
  8
LAY-4
  6
CONTINUOUS
 62
     3
100
AcDbLine
 10
702.3
 20
194.9
 30
0.0
 11
701.6
 21
194.9
 31
0.0
  0
LINE
  5
250
100
AcDbEntity
  8
LAY-4
  6
CONTINUOUS
 62
     3
100
AcDbLine
 10
704.6
 20
180.9
 30
0.0
 11
684.1
 21
180.9
 31
0.0
  0
LINE
  5
251
100
AcDbEntity
  8
LAY-4
  6
CONTINUOUS
 62
     3
100
AcDbLine
 10
702.3
 20
181.9
 30
0.0
 11
701.6
 21
181.9
 31
0.0
  0
LINE
  5
252
100
AcDbEntity
  8
LAY-4
  6
CONTINUOUS
 62
     3
100
AcDbLine
 10
704.6
 20
195.9
 30
0.0
 11
704.6
 21
180.9
 31
0.0
  0
LINE
  5
253
100
AcDbEntity
  8
LAY-4
  6
CONTINUOUS
 62
     3
100
AcDbLine
 10
702.3
 20
180.9
 30
0.0
 11
702.3
 21
195.9
 31
0.0
  0
LINE
  5
254
100
AcDbEntity
  8
LAY-4
  6
CONTINUOUS
 62
     3
100
AcDbLine
 10
701.6
 20
194.9
 30
0.0
 11
701.6
 21
181.9
 31
0.0
  0
LINE
  5
255
100
AcDbEntity
  8
LAY-4
  6
CONTINUOUS
 62
     3
100
AcDbLine
 10
684.1
 20
195.9
 30
0.0
 11
684.1
 21
193.6
 31
0.0
  0
LINE
  5
256
100
AcDbEntity
  8
LAY-4
  6
CONTINUOUS
 62
     3
100
AcDbLine
 10
684.1
 20
180.9
 30
0.0
 11
684.1
 21
183.2
 31
0.0
  0
LINE
  5
257
100
AcDbEntity
  8
LAY-4
  6
CONTINUOUS
 62
     3
100
AcDbLine
 10
684.1
 20
193.6
 30
0.0
 11
701.6
 21
193.6
 31
0.0
  0
LINE
  5
258
100
AcDbEntity
  8
LAY-4
  6
CONTINUOUS
 62
     3
100
AcDbLine
 10
684.1
 20
183.2
 30
0.0
 11
701.6
 21
183.2
 31
0.0
  0
LINE
  5
259
100
AcDbEntity
  8
LAY-4
  6
DASHED2
 62
     3
100
AcDbLine
 10
701.6
 20
183.4
 30
0.0
 11
701.9
 21
183.4
 31
0.0
  0
LINE
  5
25A
100
AcDbEntity
  8
LAY-4
  6
DASHED2
 62
     3
100
AcDbLine
 10
704.4
 20
185.9
 30
0.0
 11
704.4
 21
190.9
 31
0.0
  0
LINE
  5
25B
100
AcDbEntity
  8
LAY-4
  6
DASHED2
 62
     3
100
AcDbLine
 10
701.9
 20
183.4
 30
0.0
 11
704.4
 21
185.9
 31
0.0
  0
LINE
  5
25C
100
AcDbEntity
  8
LAY-4
  6
DASHED2
 62
     3
100
AcDbLine
 10
701.6
 20
193.4
 30
0.0
 11
701.9
 21
193.4
 31
0.0
  0
LINE
  5
25D
100
AcDbEntity
  8
LAY-4
  6
DASHED2
 62
     3
100
AcDbLine
 10
701.9
 20
193.4
 30
0.0
 11
704.4
 21
190.9
 31
0.0
  0
LINE
  5
25E
100
AcDbEntity
  8
LAY-4
  6
CONTINUOUS
 62
     3
100
AcDbLine
 10
701.6
 20
183.4
 30
0.0
 11
701.6
 21
193.4
 31
0.0
  0
LINE
  5
25F
100
AcDbEntity
  8
LAY-4
  6
DASHED2
 62
     3
100
AcDbLine
 10
701.9
 20
183.4
 30
0.0
 11
701.9
 21
193.4
 31
0.0
  0
ARC
  5
260
100
AcDbEntity
  8
LAY-4
  6
CONTINUOUS
 62
     3
100
AcDbCircle
 10
711.416667
 20
188.4
 30
0.0
 40
11.016667
100
AcDbArc
 50
153.008533
 51
206.991467
  0
LINE
  5
261
100
AcDbEntity
  8
LAY-4
  6
CONTINUOUS
 62
     3
100
AcDbLine
 10
693.6
 20
196.9
 30
0.0
 11
687.6
 21
196.9
 31
0.0
  0
ARC
  5
262
100
AcDbEntity
  8
LAY-4
  6
CONTINUOUS
 62
     3
100
AcDbCircle
 10
693.6
 20
195.9
 30
0.0
 40
1.0
100
AcDbArc
 50
0.0
 51
90.0
  0
ARC
  5
263
100
AcDbEntity
  8
LAY-4
  6
CONTINUOUS
 62
     3
100
AcDbCircle
 10
687.6
 20
195.9
 30
0.0
 40
1.0
100
AcDbArc
 50
90.0
 51
180.0
  0
LINE
  5
264
100
AcDbEntity
  8
LAY-4
  6
CONTINUOUS
 62
     3
100
AcDbLine
 10
684.1
 20
193.6
 30
0.0
 11
684.1
 21
191.1
 31
0.0
  0
LINE
  5
265
100
AcDbEntity
  8
LAY-4
  6
CONTINUOUS
 62
     3
100
AcDbLine
 10
684.1
 20
191.1
 30
0.0
 11
697.1
 21
191.1
 31
0.0
  0
LINE
  5
266
100
AcDbEntity
  8
LAY-4
  6
CONTINUOUS
 62
     3
100
AcDbLine
 10
697.1
 20
191.1
 30
0.0
 11
697.1
 21
193.6
 31
0.0
  0
LINE
  5
267
100
AcDbEntity
  8
LAY-4
  6
CONTINUOUS
 62
     3
100
AcDbLine
 10
684.1
 20
183.2
 30
0.0
 11
684.1
 21
185.7
 31
0.0
  0
LINE
  5
268
100
AcDbEntity
  8
LAY-4
  6
CONTINUOUS
 62
     3
100
AcDbLine
 10
684.1
 20
185.7
 30
0.0
 11
697.1
 21
185.7
 31
0.0
  0
LINE
  5
269
100
AcDbEntity
  8
LAY-4
  6
CONTINUOUS
 62
     3
100
AcDbLine
 10
697.1
 20
185.7
 30
0.0
 11
697.1
 21
183.2
 31
0.0
  0
LINE
  5
26A
100
AcDbEntity
  8
LAY-4
  6
CONTINUOUS
 62
     3
100
AcDbLine
 10
294.925595
 20
180.9
 30
0.0
 11
307.0
 21
180.9
 31
0.0
  0
ARC
  5
26B
100
AcDbEntity
  8
LAY-4
  6
CONTINUOUS
 62
     3
100
AcDbCircle
 10
267.0
 20
188.4
 30
0.0
 40
6.5
100
AcDbArc
 50
38.659808
 51
217.979872
  0
ARC
  5
26C
100
AcDbEntity
  8
LAY-4
  6
CONTINUOUS
 62
     3
100
AcDbCircle
 10
307.0
 20
188.4
 30
0.0
 40
7.5
100
AcDbArc
 50
270.0
 51
90.0
  0
ARC
  5
26D
100
AcDbEntity
  8
LAY-4
  6
CONTINUOUS
 62
     3
100
AcDbCircle
 10
307.0
 20
188.4
 30
0.0
 40
6.5
100
AcDbArc
 50
197.920213
 51
142.020128
  0
LINE
  5
26E
100
AcDbEntity
  8
LAY-4
  6
CONTINUOUS
 62
     3
100
AcDbLine
 10
259.5
 20
484.5
 30
0.0
 11
314.5
 21
484.5
 31
0.0
  0
LINE
  5
26F
100
AcDbEntity
  8
LAY-4
  6
CONTINUOUS
 62
     3
100
AcDbLine
 10
259.5
 20
482.2
 30
0.0
 11
277.0
 21
482.2
 31
0.0
  0
LINE
  5
270
100
AcDbEntity
  8
LAY-4
  6
CONTINUOUS
 62
     3
100
AcDbLine
 10
260.5
 20
481.5
 30
0.0
 11
273.5
 21
481.5
 31
0.0
  0
ARC
  5
271
100
AcDbEntity
  8
LAY-4
  6
CONTINUOUS
 62
     3
100
AcDbCircle
 10
287.0
 20
470.5
 30
0.0
 40
6.5
100
AcDbArc
 50
195.539496
 51
344.460504
  0
LINE
  5
272
100
AcDbEntity
  8
LAY-4
  6
CONTINUOUS
 62
     3
100
AcDbLine
 10
277.0
 20
484.5
 30
0.0
 11
277.0
 21
482.2
 31
0.0
  0
LINE
  5
273
100
AcDbEntity
  8
LAY-4
  6
CONTINUOUS
 62
     3
100
AcDbLine
 10
297.0
 20
484.5
 30
0.0
 11
297.0
 21
482.2
 31
0.0
  0
LINE
  5
274
100
AcDbEntity
  8
LAY-4
  6
CONTINUOUS
 62
     3
100
AcDbLine
 10
259.5
 20
484.5
 30
0.0
 11
259.5
 21
482.2
 31
0.0
  0
LINE
  5
275
100
AcDbEntity
  8
LAY-4
  6
CONTINUOUS
 62
     3
100
AcDbLine
 10
260.5
 20
482.2
 30
0.0
 11
260.5
 21
481.5
 31
0.0
  0
LINE
  5
276
100
AcDbEntity
  8
LAY-4
  6
CONTINUOUS
 62
     3
100
AcDbLine
 10
273.5
 20
482.2
 30
0.0
 11
273.5
 21
481.5
 31
0.0
  0
LINE
  5
277
100
AcDbEntity
  8
LAY-4
  6
CONTINUOUS
 62
     3
100
AcDbLine
 10
277.0
 20
482.2
 30
0.0
 11
280.737601
 21
468.758633
 31
0.0
  0
LINE
  5
278
100
AcDbEntity
  8
LAY-4
  6
CONTINUOUS
 62
     3
100
AcDbLine
 10
297.0
 20
482.2
 30
0.0
 11
293.262399
 21
468.758633
 31
0.0
  0
CIRCLE
  5
279
100
AcDbEntity
  8
LAY-4
  6
CONTINUOUS
 62
     3
100
AcDbCircle
 10
287.0
 20
470.5
 30
0.0
 40
4.0
  0
LINE
  5
27A
100
AcDbEntity
  8
LAY-4
  6
DASHED2
 62
     3
100
AcDbLine
 10
262.0
 20
481.5
 30
0.0
 11
262.0
 21
481.8
 31
0.0
  0
LINE
  5
27B
100
AcDbEntity
  8
LAY-4
  6
DASHED2
 62
     3
100
AcDbLine
 10
264.5
 20
484.3
 30
0.0
 11
269.5
 21
484.3
 31
0.0
  0
LINE
  5
27C
100
AcDbEntity
  8
LAY-4
  6
DASHED2
 62
     3
100
AcDbLine
 10
262.0
 20
481.8
 30
0.0
 11
264.5
 21
484.3
 31
0.0
  0
LINE
  5
27D
100
AcDbEntity
  8
LAY-4
  6
DASHED2
 62
     3
100
AcDbLine
 10
264.5
 20
484.3
 30
0.0
 11
264.5
 21
491.5
 31
0.0
  0
LINE
  5
27E
100
AcDbEntity
  8
LAY-4
  6
DASHED2
 62
     1
100
AcDbLine
 10
265.0
 20
484.3
 30
0.0
 11
265.0
 21
491.5
 31
0.0
  0
LINE
  5
27F
100
AcDbEntity
  8
LAY-4
  6
DASHED2
 62
     3
100
AcDbLine
 10
272.0
 20
481.5
 30
0.0
 11
272.0
 21
481.8
 31
0.0
  0
LINE
  5
280
100
AcDbEntity
  8
LAY-4
  6
DASHED2
 62
     3
100
AcDbLine
 10
272.0
 20
481.8
 30
0.0
 11
269.5
 21
484.3
 31
0.0
  0
LINE
  5
281
100
AcDbEntity
  8
LAY-4
  6
DASHED2
 62
     3
100
AcDbLine
 10
269.5
 20
484.3
 30
0.0
 11
269.5
 21
491.5
 31
0.0
  0
LINE
  5
282
100
AcDbEntity
  8
LAY-4
  6
DASHED2
 62
     1
100
AcDbLine
 10
269.0
 20
484.3
 30
0.0
 11
269.0
 21
491.5
 31
0.0
  0
LINE
  5
283
100
AcDbEntity
  8
LAY-4
  6
CONTINUOUS
 62
     3
100
AcDbLine
 10
262.0
 20
481.5
 30
0.0
 11
272.0
 21
481.5
 31
0.0
  0
LINE
  5
284
100
AcDbEntity
  8
LAY-4
  6
DASHED2
 62
     3
100
AcDbLine
 10
262.0
 20
481.8
 30
0.0
 11
272.0
 21
481.8
 31
0.0
  0
ARC
  5
285
100
AcDbEntity
  8
LAY-4
  6
CONTINUOUS
 62
     3
100
AcDbCircle
 10
267.0
 20
491.316667
 30
0.0
 40
11.016667
100
AcDbArc
 50
243.008533
 51
296.991467
  0
LINE
  5
286
100
AcDbEntity
  8
LAY-4
  6
CONTINUOUS
 62
     3
100
AcDbLine
 10
314.5
 20
484.5
 30
0.0
 11
314.5
 21
482.2
 31
0.0
  0
LINE
  5
287
100
AcDbEntity
  8
LAY-4
  6
CONTINUOUS
 62
     3
100
AcDbLine
 10
313.5
 20
482.2
 30
0.0
 11
313.5
 21
481.5
 31
0.0
  0
LINE
  5
288
100
AcDbEntity
  8
LAY-4
  6
CONTINUOUS
 62
     3
100
AcDbLine
 10
313.5
 20
481.5
 30
0.0
 11
300.5
 21
481.5
 31
0.0
  0
LINE
  5
289
100
AcDbEntity
  8
LAY-4
  6
CONTINUOUS
 62
     3
100
AcDbLine
 10
300.5
 20
482.2
 30
0.0
 11
300.5
 21
481.5
 31
0.0
  0
LINE
  5
28A
100
AcDbEntity
  8
LAY-4
  6
DASHED2
 62
     3
100
AcDbLine
 10
312.0
 20
481.5
 30
0.0
 11
312.0
 21
481.8
 31
0.0
  0
LINE
  5
28B
100
AcDbEntity
  8
LAY-4
  6
DASHED2
 62
     3
100
AcDbLine
 10
309.5
 20
484.3
 30
0.0
 11
304.5
 21
484.3
 31
0.0
  0
LINE
  5
28C
100
AcDbEntity
  8
LAY-4
  6
DASHED2
 62
     3
100
AcDbLine
 10
312.0
 20
481.8
 30
0.0
 11
309.5
 21
484.3
 31
0.0
  0
LINE
  5
28D
100
AcDbEntity
  8
LAY-4
  6
DASHED2
 62
     3
100
AcDbLine
 10
302.0
 20
481.5
 30
0.0
 11
302.0
 21
481.8
 31
0.0
  0
LINE
  5
28E
100
AcDbEntity
  8
LAY-4
  6
DASHED2
 62
     3
100
AcDbLine
 10
302.0
 20
481.8
 30
0.0
 11
304.5
 21
484.3
 31
0.0
  0
LINE
  5
28F
100
AcDbEntity
  8
LAY-4
  6
CONTINUOUS
 62
     3
100
AcDbLine
 10
312.0
 20
481.5
 30
0.0
 11
302.0
 21
481.5
 31
0.0
  0
LINE
  5
290
100
AcDbEntity
  8
LAY-4
  6
DASHED2
 62
     3
100
AcDbLine
 10
312.0
 20
481.8
 30
0.0
 11
302.0
 21
481.8
 31
0.0
  0
ARC
  5
291
100
AcDbEntity
  8
LAY-4
  6
CONTINUOUS
 62
     3
100
AcDbCircle
 10
307.0
 20
491.316667
 30
0.0
 40
11.016667
100
AcDbArc
 50
243.008533
 51
296.991467
  0
LINE
  5
292
100
AcDbEntity
  8
LAY-4
  6
DASHED2
 62
     3
100
AcDbLine
 10
309.5
 20
484.3
 30
0.0
 11
309.5
 21
491.5
 31
0.0
  0
LINE
  5
293
100
AcDbEntity
  8
LAY-4
  6
DASHED2
 62
     1
100
AcDbLine
 10
309.0
 20
484.3
 30
0.0
 11
309.0
 21
491.5
 31
0.0
  0
LINE
  5
294
100
AcDbEntity
  8
LAY-4
  6
DASHED2
 62
     3
100
AcDbLine
 10
304.5
 20
484.3
 30
0.0
 11
304.5
 21
491.5
 31
0.0
  0
LINE
  5
295
100
AcDbEntity
  8
LAY-4
  6
DASHED2
 62
     1
100
AcDbLine
 10
305.0
 20
484.3
 30
0.0
 11
305.0
 21
491.5
 31
0.0
  0
LINE
  5
296
100
AcDbEntity
  8
LAY-4
  6
CONTINUOUS
 62
     3
100
AcDbLine
 10
314.5
 20
482.2
 30
0.0
 11
297.0
 21
482.2
 31
0.0
  0
LINE
  5
297
100
AcDbEntity
  8
LAY-4
  6
CONTINUOUS
 62
     3
100
AcDbLine
 10
267.0
 20
195.9
 30
0.0
 11
273.0
 21
195.9
 31
0.0
  0
LINE
  5
298
100
AcDbEntity
  8
LAY-4
  6
CONTINUOUS
 62
     3
100
AcDbLine
 10
301.0
 20
195.9
 30
0.0
 11
307.0
 21
195.9
 31
0.0
  0
ARC
  5
299
100
AcDbEntity
  8
LAY-4
  6
CONTINUOUS
 62
     3
100
AcDbCircle
 10
267.0
 20
188.4
 30
0.0
 40
7.5
100
AcDbArc
 50
90.0
 51
212.230953
  0
LINE
  5
29A
100
AcDbEntity
  8
LAY-4
  6
CONTINUOUS
 62
     3
100
AcDbLine
 10
694.05
 20
191.1
 30
0.0
 11
694.05
 21
190.504036
 31
0.0
  0
LINE
  5
29B
100
AcDbEntity
  8
LAY-4
  6
CONTINUOUS
 62
     3
100
AcDbLine
 10
694.05
 20
185.999895
 30
0.0
 11
694.05
 21
185.7
 31
0.0
  0
LINE
  5
29C
100
AcDbEntity
  8
LAY-4
  6
CONTINUOUS
 62
     3
100
AcDbLine
 10
687.15
 20
191.1
 30
0.0
 11
687.15
 21
190.800105
 31
0.0
  0
LINE
  5
29D
100
AcDbEntity
  8
LAY-4
  6
CONTINUOUS
 62
     3
100
AcDbLine
 10
687.15
 20
186.295964
 30
0.0
 11
687.15
 21
185.7
 31
0.0
  0
ARC
  5
29E
100
AcDbEntity
  8
LAY-4
  6
CONTINUOUS
 62
     3
100
AcDbCircle
 10
308.5
 20
189.9
 30
0.0
 40
1.0
100
AcDbArc
 50
180.0
 51
270.0
  0
ARC
  5
29F
100
AcDbEntity
  8
LAY-4
  6
CONTINUOUS
 62
     3
100
AcDbCircle
 10
305.5
 20
186.9
 30
0.0
 40
1.0
100
AcDbArc
 50
0.0
 51
90.0
  0
ARC
  5
2A0
100
AcDbEntity
  8
LAY-4
  6
CONTINUOUS
 62
     3
100
AcDbCircle
 10
305.5
 20
189.9
 30
0.0
 40
1.0
100
AcDbArc
 50
270.0
 51
0.0
  0
ARC
  5
2A1
100
AcDbEntity
  8
LAY-4
  6
CONTINUOUS
 62
     3
100
AcDbCircle
 10
308.5
 20
186.9
 30
0.0
 40
1.0
100
AcDbArc
 50
90.0
 51
180.0
  0
ARC
  5
2A2
100
AcDbEntity
  8
LAY-4
  6
CONTINUOUS
 62
     3
100
AcDbCircle
 10
308.5
 20
189.9
 30
0.0
 40
1.0
100
AcDbArc
 50
180.0
 51
270.0
  0
ARC
  5
2A3
100
AcDbEntity
  8
LAY-4
  6
CONTINUOUS
 62
     3
100
AcDbCircle
 10
308.5
 20
186.9
 30
0.0
 40
1.0
100
AcDbArc
 50
90.0
 51
180.0
  0
CIRCLE
  5
2A4
100
AcDbEntity
  8
LAY-4
  6
CONTINUOUS
 62
     3
100
AcDbCircle
 10
307.0
 20
188.4
 30
0.0
 40
5.0
  0
LINE
  5
2A5
100
AcDbEntity
  8
LAY-4
  6
CONTINUOUS
 62
     3
100
AcDbLine
 10
307.5
 20
189.9
 30
0.0
 11
307.5
 21
190.95
 31
0.0
  0
LINE
  5
2A6
100
AcDbEntity
  8
LAY-4
  6
CONTINUOUS
 62
     3
100
AcDbLine
 10
306.5
 20
190.95
 30
0.0
 11
307.5
 21
190.95
 31
0.0
  0
LINE
  5
2A7
100
AcDbEntity
  8
LAY-4
  6
CONTINUOUS
 62
     3
100
AcDbLine
 10
306.5
 20
189.9
 30
0.0
 11
306.5
 21
190.95
 31
0.0
  0
LINE
  5
2A8
100
AcDbEntity
  8
LAY-4
  6
CONTINUOUS
 62
     3
100
AcDbLine
 10
306.5
 20
189.9
 30
0.0
 11
306.5
 21
190.95
 31
0.0
  0
LINE
  5
2A9
100
AcDbEntity
  8
LAY-4
  6
CONTINUOUS
 62
     3
100
AcDbLine
 10
307.5
 20
190.95
 30
0.0
 11
306.5
 21
190.95
 31
0.0
  0
LINE
  5
2AA
100
AcDbEntity
  8
LAY-4
  6
CONTINUOUS
 62
     3
100
AcDbLine
 10
307.5
 20
189.9
 30
0.0
 11
307.5
 21
190.95
 31
0.0
  0
LINE
  5
2AB
100
AcDbEntity
  8
LAY-4
  6
CONTINUOUS
 62
     3
100
AcDbLine
 10
304.45
 20
187.9
 30
0.0
 11
304.45
 21
188.9
 31
0.0
  0
LINE
  5
2AC
100
AcDbEntity
  8
LAY-4
  6
CONTINUOUS
 62
     3
100
AcDbLine
 10
305.5
 20
187.9
 30
0.0
 11
304.45
 21
187.9
 31
0.0
  0
LINE
  5
2AD
100
AcDbEntity
  8
LAY-4
  6
CONTINUOUS
 62
     3
100
AcDbLine
 10
305.5
 20
188.9
 30
0.0
 11
304.45
 21
188.9
 31
0.0
  0
LINE
  5
2AE
100
AcDbEntity
  8
LAY-4
  6
CONTINUOUS
 62
     3
100
AcDbLine
 10
307.5
 20
185.85
 30
0.0
 11
306.5
 21
185.85
 31
0.0
  0
LINE
  5
2AF
100
AcDbEntity
  8
LAY-4
  6
CONTINUOUS
 62
     3
100
AcDbLine
 10
307.5
 20
186.9
 30
0.0
 11
307.5
 21
185.85
 31
0.0
  0
LINE
  5
2B0
100
AcDbEntity
  8
LAY-4
  6
CONTINUOUS
 62
     3
100
AcDbLine
 10
306.5
 20
186.9
 30
0.0
 11
306.5
 21
185.85
 31
0.0
  0
LINE
  5
2B1
100
AcDbEntity
  8
LAY-4
  6
CONTINUOUS
 62
     3
100
AcDbLine
 10
306.5
 20
186.9
 30
0.0
 11
306.5
 21
185.85
 31
0.0
  0
LINE
  5
2B2
100
AcDbEntity
  8
LAY-4
  6
CONTINUOUS
 62
     3
100
AcDbLine
 10
307.5
 20
186.9
 30
0.0
 11
307.5
 21
185.85
 31
0.0
  0
LINE
  5
2B3
100
AcDbEntity
  8
LAY-4
  6
CONTINUOUS
 62
     3
100
AcDbLine
 10
309.55
 20
188.9
 30
0.0
 11
309.55
 21
187.9
 31
0.0
  0
LINE
  5
2B4
100
AcDbEntity
  8
LAY-4
  6
CONTINUOUS
 62
     3
100
AcDbLine
 10
308.5
 20
187.9
 30
0.0
 11
309.55
 21
187.9
 31
0.0
  0
LINE
  5
2B5
100
AcDbEntity
  8
LAY-4
  6
CONTINUOUS
 62
     3
100
AcDbLine
 10
308.5
 20
188.9
 30
0.0
 11
309.55
 21
188.9
 31
0.0
  0
LINE
  5
2B6
100
AcDbEntity
  8
LAY-4
  6
CONTINUOUS
 62
     3
100
AcDbLine
 10
308.5
 20
188.9
 30
0.0
 11
309.55
 21
188.9
 31
0.0
  0
ARC
  5
2B7
100
AcDbEntity
  8
LAY-4
  6
CONTINUOUS
 62
     3
100
AcDbCircle
 10
268.5
 20
189.9
 30
0.0
 40
1.0
100
AcDbArc
 50
180.0
 51
270.0
  0
ARC
  5
2B8
100
AcDbEntity
  8
LAY-4
  6
CONTINUOUS
 62
     3
100
AcDbCircle
 10
265.5
 20
186.9
 30
0.0
 40
1.0
100
AcDbArc
 50
0.0
 51
90.0
  0
ARC
  5
2B9
100
AcDbEntity
  8
LAY-4
  6
CONTINUOUS
 62
     3
100
AcDbCircle
 10
265.5
 20
189.9
 30
0.0
 40
1.0
100
AcDbArc
 50
270.0
 51
0.0
  0
ARC
  5
2BA
100
AcDbEntity
  8
LAY-4
  6
CONTINUOUS
 62
     3
100
AcDbCircle
 10
268.5
 20
186.9
 30
0.0
 40
1.0
100
AcDbArc
 50
90.0
 51
180.0
  0
ARC
  5
2BB
100
AcDbEntity
  8
LAY-4
  6
CONTINUOUS
 62
     3
100
AcDbCircle
 10
268.5
 20
189.9
 30
0.0
 40
1.0
100
AcDbArc
 50
180.0
 51
270.0
  0
ARC
  5
2BC
100
AcDbEntity
  8
LAY-4
  6
CONTINUOUS
 62
     3
100
AcDbCircle
 10
268.5
 20
186.9
 30
0.0
 40
1.0
100
AcDbArc
 50
90.0
 51
180.0
  0
LINE
  5
2BD
100
AcDbEntity
  8
LAY-4
  6
CONTINUOUS
 62
     3
100
AcDbLine
 10
267.5
 20
189.9
 30
0.0
 11
267.5
 21
190.95
 31
0.0
  0
LINE
  5
2BE
100
AcDbEntity
  8
LAY-4
  6
CONTINUOUS
 62
     3
100
AcDbLine
 10
266.5
 20
190.95
 30
0.0
 11
267.5
 21
190.95
 31
0.0
  0
LINE
  5
2BF
100
AcDbEntity
  8
LAY-4
  6
CONTINUOUS
 62
     3
100
AcDbLine
 10
266.5
 20
189.9
 30
0.0
 11
266.5
 21
190.95
 31
0.0
  0
LINE
  5
2C0
100
AcDbEntity
  8
LAY-4
  6
CONTINUOUS
 62
     3
100
AcDbLine
 10
266.5
 20
189.9
 30
0.0
 11
266.5
 21
190.95
 31
0.0
  0
LINE
  5
2C1
100
AcDbEntity
  8
LAY-4
  6
CONTINUOUS
 62
     3
100
AcDbLine
 10
267.5
 20
190.95
 30
0.0
 11
266.5
 21
190.95
 31
0.0
  0
LINE
  5
2C2
100
AcDbEntity
  8
LAY-4
  6
CONTINUOUS
 62
     3
100
AcDbLine
 10
267.5
 20
189.9
 30
0.0
 11
267.5
 21
190.95
 31
0.0
  0
LINE
  5
2C3
100
AcDbEntity
  8
LAY-4
  6
CONTINUOUS
 62
     3
100
AcDbLine
 10
264.45
 20
187.9
 30
0.0
 11
264.45
 21
188.9
 31
0.0
  0
LINE
  5
2C4
100
AcDbEntity
  8
LAY-4
  6
CONTINUOUS
 62
     3
100
AcDbLine
 10
265.5
 20
187.9
 30
0.0
 11
264.45
 21
187.9
 31
0.0
  0
LINE
  5
2C5
100
AcDbEntity
  8
LAY-4
  6
CONTINUOUS
 62
     3
100
AcDbLine
 10
265.5
 20
188.9
 30
0.0
 11
264.45
 21
188.9
 31
0.0
  0
LINE
  5
2C6
100
AcDbEntity
  8
LAY-4
  6
CONTINUOUS
 62
     3
100
AcDbLine
 10
267.5
 20
185.85
 30
0.0
 11
266.5
 21
185.85
 31
0.0
  0
LINE
  5
2C7
100
AcDbEntity
  8
LAY-4
  6
CONTINUOUS
 62
     3
100
AcDbLine
 10
267.5
 20
186.9
 30
0.0
 11
267.5
 21
185.85
 31
0.0
  0
LINE
  5
2C8
100
AcDbEntity
  8
LAY-4
  6
CONTINUOUS
 62
     3
100
AcDbLine
 10
266.5
 20
186.9
 30
0.0
 11
266.5
 21
185.85
 31
0.0
  0
LINE
  5
2C9
100
AcDbEntity
  8
LAY-4
  6
CONTINUOUS
 62
     3
100
AcDbLine
 10
266.5
 20
186.9
 30
0.0
 11
266.5
 21
185.85
 31
0.0
  0
LINE
  5
2CA
100
AcDbEntity
  8
LAY-4
  6
CONTINUOUS
 62
     3
100
AcDbLine
 10
267.5
 20
186.9
 30
0.0
 11
267.5
 21
185.85
 31
0.0
  0
LINE
  5
2CB
100
AcDbEntity
  8
LAY-4
  6
CONTINUOUS
 62
     3
100
AcDbLine
 10
269.55
 20
188.9
 30
0.0
 11
269.55
 21
187.9
 31
0.0
  0
LINE
  5
2CC
100
AcDbEntity
  8
LAY-4
  6
CONTINUOUS
 62
     3
100
AcDbLine
 10
268.5
 20
187.9
 30
0.0
 11
269.55
 21
187.9
 31
0.0
  0
LINE
  5
2CD
100
AcDbEntity
  8
LAY-4
  6
CONTINUOUS
 62
     3
100
AcDbLine
 10
268.5
 20
188.9
 30
0.0
 11
269.55
 21
188.9
 31
0.0
  0
LINE
  5
2CE
100
AcDbEntity
  8
LAY-4
  6
CONTINUOUS
 62
     3
100
AcDbLine
 10
268.5
 20
188.9
 30
0.0
 11
269.55
 21
188.9
 31
0.0
  0
LINE
  5
2CF
100
AcDbEntity
  8
LAY-4
  6
DASHED2
 62
     3
100
AcDbLine
 10
711.6
 20
185.9
 30
0.0
 11
711.6
 21
190.9
 31
0.0
  0
LINE
  5
2D0
100
AcDbEntity
  8
LAY-4
  6
DASHED2
 62
     1
100
AcDbLine
 10
704.4
 20
190.4
 30
0.0
 11
711.6
 21
190.4
 31
0.0
  0
LINE
  5
2D1
100
AcDbEntity
  8
LAY-4
  6
DASHED2
 62
     3
100
AcDbLine
 10
704.4
 20
190.9
 30
0.0
 11
711.6
 21
190.9
 31
0.0
  0
LINE
  5
2D2
100
AcDbEntity
  8
LAY-4
  6
DASHED2
 62
     1
100
AcDbLine
 10
704.4
 20
186.4
 30
0.0
 11
711.6
 21
186.4
 31
0.0
  0
LINE
  5
2D3
100
AcDbEntity
  8
LAY-4
  6
DASHED2
 62
     3
100
AcDbLine
 10
704.4
 20
185.9
 30
0.0
 11
711.6
 21
185.9
 31
0.0
  0
LINE
  5
2D4
100
AcDbEntity
  8
LAY-4
  6
DASHED2
 62
     3
100
AcDbLine
 10
264.5
 20
491.5
 30
0.0
 11
269.5
 21
491.5
 31
0.0
  0
LINE
  5
2D5
100
AcDbEntity
  8
LAY-4
  6
DASHED2
 62
     3
100
AcDbLine
 10
304.5
 20
491.5
 30
0.0
 11
309.5
 21
491.5
 31
0.0
  0
ARC
  5
2D6
100
AcDbEntity
  8
LAY-4
  6
CONTINUOUS
 62
     3
100
AcDbCircle
 10
267.0
 20
188.4
 30
0.0
 40
5.0
100
AcDbArc
 50
306.869898
 51
233.130102
  0
LINE
  5
2D7
100
AcDbEntity
  8
LAY-5
  6
DASHDOT
 62
     1
100
AcDbLine
 10
87.0
 20
201.0
 30
0.0
 11
87.0
 21
65.1
 31
0.0
  0
LINE
  5
2D8
100
AcDbEntity
  8
LAY-5
  6
DASHDOT
 62
     1
100
AcDbLine
 10
87.0
 20
446.3
 30
0.0
 11
87.0
 21
528.5
 31
0.0
  0
LINE
  5
2D9
100
AcDbEntity
  8
LAY-5
  6
DASHDOT
 62
     1
100
AcDbLine
 10
65.6
 20
465.5
 30
0.0
 11
128.8
 21
465.5
 31
0.0
  0
LINE
  5
2DA
100
AcDbEntity
  8
LAY-5
  6
DASHDOT
 62
     1
100
AcDbLine
 10
669.4
 20
150.4
 30
0.0
 11
725.599994
 21
150.4
 31
0.0
  0
LINE
  5
2DB
100
AcDbEntity
  8
LAY-5
  6
DASHDOT
 62
     1
100
AcDbLine
 10
701.1
 20
147.62757
 30
0.0
 11
701.1
 21
137.487219
 31
0.0
  0
LINE
  5
2DC
100
AcDbEntity
  8
LAY-5
  6
DASHDOT
 62
     1
100
AcDbLine
 10
677.1
 20
147.381964
 30
0.0
 11
677.1
 21
137.592505
 31
0.0
  0
LINE
  5
2DD
100
AcDbEntity
  8
LAY-5
  6
DASHDOT
 62
     1
100
AcDbLine
 10
689.1
 20
96.0
 30
0.0
 11
689.1
 21
177.52
 31
0.0
  0
LINE
  5
2DE
100
AcDbEntity
  8
LAY-5
  6
DASHDOT
 62
     1
100
AcDbLine
 10
681.966608
 20
142.4
 30
0.0
 11
671.931528
 21
142.4
 31
0.0
  0
LINE
  5
2DF
100
AcDbEntity
  8
LAY-5
  6
DASHDOT
 62
     1
100
AcDbLine
 10
705.826235
 20
142.4
 30
0.0
 11
696.14203
 21
142.4
 31
0.0
  0
LINE
  5
2E0
100
AcDbEntity
  8
LAY-5
  6
DASHDOT
 62
     1
100
AcDbLine
 10
227.0
 20
442.294517
 30
0.0
 11
227.0
 21
492.399969
 31
0.0
  0
LINE
  5
2E1
100
AcDbEntity
  8
LAY-5
  6
DASHDOT
 62
     1
100
AcDbLine
 10
208.6
 20
469.999992
 30
0.0
 11
245.1
 21
469.999992
 31
0.0
  0
LINE
  5
2E2
100
AcDbEntity
  8
LAY-5
  6
DASHDOT
 62
     1
100
AcDbLine
 10
191.0
 20
156.6
 30
0.0
 11
191.0
 21
143.8
 31
0.0
  0
LINE
  5
2E3
100
AcDbEntity
  8
LAY-5
  6
DASHDOT
 62
     1
100
AcDbLine
 10
184.8
 20
150.4
 30
0.0
 11
197.6
 21
150.4
 31
0.0
  0
LINE
  5
2E4
100
AcDbEntity
  8
LAY-5
  6
DASHDOT
 62
     1
100
AcDbLine
 10
327.0
 20
156.6
 30
0.0
 11
327.0
 21
143.8
 31
0.0
  0
LINE
  5
2E5
100
AcDbEntity
  8
LAY-5
  6
DASHDOT
 62
     1
100
AcDbLine
 10
320.8
 20
150.4
 30
0.0
 11
333.6
 21
150.4
 31
0.0
  0
LINE
  5
2E6
100
AcDbEntity
  8
LAY-5
  6
DASHDOT
 62
     1
100
AcDbLine
 10
690.6
 20
198.14
 30
0.0
 11
690.6
 21
179.9
 31
0.0
  0
LINE
  5
2E7
100
AcDbEntity
  8
LAY-5
  6
DASHDOT
 62
     1
100
AcDbLine
 10
258.4
 20
188.4
 30
0.0
 11
316.7
 21
188.4
 31
0.0
  0
LINE
  5
2E8
100
AcDbEntity
  8
LAY-5
  6
DASHDOT
 62
     1
100
AcDbLine
 10
267.0
 20
197.3
 30
0.0
 11
267.0
 21
181.3
 31
0.0
  0
LINE
  5
2E9
100
AcDbEntity
  8
LAY-5
  6
DASHDOT
 62
     1
100
AcDbLine
 10
307.0
 20
197.3
 30
0.0
 11
307.0
 21
179.8
 31
0.0
  0
LINE
  5
2EA
100
AcDbEntity
  8
LAY-5
  6
DASHDOT
 62
     1
100
AcDbLine
 10
275.2
 20
470.5
 30
0.0
 11
298.9
 21
470.5
 31
0.0
  0
LINE
  5
2EB
100
AcDbEntity
  8
LAY-5
  6
DASHDOT
 62
     1
100
AcDbLine
 10
267.0
 20
478.4
 30
0.0
 11
267.0
 21
495.2
 31
0.0
  0
LINE
  5
2EC
100
AcDbEntity
  8
LAY-5
  6
DASHDOT
 62
     1
100
AcDbLine
 10
307.0
 20
478.4
 30
0.0
 11
307.0
 21
495.2
 31
0.0
  0
LINE
  5
2ED
100
AcDbEntity
  8
LAY-5
  6
DASHDOT
 62
     1
100
AcDbLine
 10
158.4
 20
142.4
 30
0.0
 11
171.0
 21
142.4
 31
0.0
  0
LINE
  5
2EE
100
AcDbEntity
  8
LAY-5
  6
DASHDOT
 62
     1
100
AcDbLine
 10
668.6
 20
125.4
 30
0.0
 11
711.0
 21
125.4
 31
0.0
  0
LINE
  5
2EF
100
AcDbEntity
  8
LAY-5
  6
DASHDOT
 62
     1
100
AcDbLine
 10
713.23
 20
188.4
 30
0.0
 11
690.6
 21
188.4
 31
0.0
  0
LINE
  5
2F0
100
AcDbEntity
  8
LAY-5
  6
DASHDOT
 62
     1
100
AcDbLine
 10
227.0
 20
187.4
 30
0.0
 11
227.0
 21
93.1
 31
0.0
  0
LINE
  5
2F1
100
AcDbEntity
  8
LAY-5
  6
DASHDOT
 62
     1
100
AcDbLine
 10
157.8
 20
125.4
 30
0.0
 11
353.2
 21
125.4
 31
0.0
  0
LINE
  5
2F2
100
AcDbEntity
  8
LAY-5
  6
DASHDOT
 62
     1
100
AcDbLine
 10
287.0
 20
489.2
 30
0.0
 11
287.0
 21
240.2
 31
0.0
  0
LINE
  5
2F3
100
AcDbEntity
  8
LAY-5
  6
DASHDOT
 62
     1
100
AcDbLine
 10
191.000031
 20
504.399969
 30
0.0
 11
191.000031
 21
448.4
 31
0.0
  0
LINE
  5
2F4
100
AcDbEntity
  8
LAY-5
  6
DASHDOT
 62
     1
100
AcDbLine
 10
327.0
 20
449.0
 30
0.0
 11
327.0
 21
504.399969
 31
0.0
  0
LINE
  5
2F5
100
AcDbEntity
  8
LAY-5
  6
DASHDOT
 62
     1
100
AcDbLine
 10
222.336468
 20
486.450524
 30
0.0
 11
291.814325
 21
241.36855
 31
0.0
  0
LINE
  5
2F6
100
AcDbEntity
  8
LAY-5
  6
DASHDOT
 62
     1
100
AcDbLine
 10
477.600008
 20
212.22
 30
0.0
 11
477.600008
 21
178.4
 31
0.0
  0
LINE
  5
2F7
100
AcDbEntity
  8
LAY-5
  6
DASHDOT
 62
     1
100
AcDbLine
 10
496.0
 20
196.75
 30
0.0
 11
690.6
 21
188.4
 31
0.0
  0
LINE
  5
2F8
100
AcDbEntity
  8
LAY-5
  6
DASHDOT
 62
     1
100
AcDbLine
 10
287.0
 20
213.9
 30
0.0
 11
287.0
 21
175.5
 31
0.0
  0
LINE
  5
2F9
100
AcDbEntity
  8
LAY-5
  6
DASHDOT
 62
     1
100
AcDbLine
 10
269.1
 20
258.351
 30
0.0
 11
303.2
 21
258.351
 31
0.0
  0
LINE
  5
2FA
100
AcDbEntity
  8
LAY-6
  6
CONTINUOUS
 62
     1
100
AcDbLine
 10
267.0
 20
494.8
 30
0.0
 11
267.0
 21
505.4
 31
0.0
  0
LINE
  5
2FB
100
AcDbEntity
  8
LAY-6
  6
CONTINUOUS
 62
     1
100
AcDbLine
 10
307.0
 20
494.5
 30
0.0
 11
307.0
 21
505.4
 31
0.0
  0
TEXT
  5
2FC
100
AcDbEntity
  8
LAY-6
  6
CONTINUOUS
 62
     2
100
AcDbText
 10
283.0
 20
504.4
 30
0.0
 40
5.0
  1
４０
 41
0.672
  7
EXCADSTD
 72
     5
 11
290.3328
 21
504.4
 31
0.0
100
AcDbText
  0
LINE
  5
2FD
100
AcDbEntity
  8
LAY-6
  6
CONTINUOUS
 62
     1
100
AcDbLine
 10
267.0
 20
503.9
 30
0.0
 11
307.0
 21
503.9
 31
0.0
  0
LINE
  5
2FE
100
AcDbEntity
  8
LAY-6
  6
CONTINUOUS
 62
     1
100
AcDbLine
 10
270.0
 20
504.4
 30
0.0
 11
267.0
 21
503.9
 31
0.0
  0
LINE
  5
2FF
100
AcDbEntity
  8
LAY-6
  6
CONTINUOUS
 62
     1
100
AcDbLine
 10
267.0
 20
503.9
 30
0.0
 11
270.0
 21
503.4
 31
0.0
  0
LINE
  5
300
100
AcDbEntity
  8
LAY-6
  6
CONTINUOUS
 62
     1
100
AcDbLine
 10
304.0
 20
503.4
 30
0.0
 11
307.0
 21
503.9
 31
0.0
  0
LINE
  5
301
100
AcDbEntity
  8
LAY-6
  6
CONTINUOUS
 62
     1
100
AcDbLine
 10
307.0
 20
503.9
 30
0.0
 11
304.0
 21
504.4
 31
0.0
  0
LINE
  5
302
100
AcDbEntity
  8
LAY-6
  6
CONTINUOUS
 62
     1
100
AcDbLine
 10
191.000031
 20
505.399969
 30
0.0
 11
191.000031
 21
517.3
 31
0.0
  0
TEXT
  5
303
100
AcDbEntity
  8
LAY-6
  6
CONTINUOUS
 62
     2
100
AcDbText
 10
133.000016
 20
516.3
 30
0.0
 40
5.0
  1
１０４
 41
0.672
  7
EXCADSTD
 72
     5
 11
145.000016
 21
516.3
 31
0.0
100
AcDbText
  0
LINE
  5
304
100
AcDbEntity
  8
LAY-6
  6
CONTINUOUS
 62
     1
100
AcDbLine
 10
87.0
 20
515.8
 30
0.0
 11
191.000031
 21
515.8
 31
0.0
  0
LINE
  5
305
100
AcDbEntity
  8
LAY-6
  6
CONTINUOUS
 62
     1
100
AcDbLine
 10
90.0
 20
516.3
 30
0.0
 11
87.0
 21
515.8
 31
0.0
  0
LINE
  5
306
100
AcDbEntity
  8
LAY-6
  6
CONTINUOUS
 62
     1
100
AcDbLine
 10
87.0
 20
515.8
 30
0.0
 11
90.0
 21
515.3
 31
0.0
  0
LINE
  5
307
100
AcDbEntity
  8
LAY-6
  6
CONTINUOUS
 62
     1
100
AcDbLine
 10
188.000031
 20
515.3
 30
0.0
 11
191.000031
 21
515.8
 31
0.0
  0
LINE
  5
308
100
AcDbEntity
  8
LAY-6
  6
CONTINUOUS
 62
     1
100
AcDbLine
 10
191.000031
 20
515.8
 30
0.0
 11
188.000031
 21
516.3
 31
0.0
  0
LINE
  5
309
100
AcDbEntity
  8
LAY-6
  6
CONTINUOUS
 62
     1
100
AcDbLine
 10
327.0
 20
505.399969
 30
0.0
 11
327.0
 21
517.3
 31
0.0
  0
TEXT
  5
30A
100
AcDbEntity
  8
LAY-6
  6
CONTINUOUS
 62
     2
100
AcDbText
 10
253.000016
 20
516.3
 30
0.0
 40
5.0
  1
１３６
 41
0.672
  7
EXCADSTD
 72
     5
 11
265.000016
 21
516.3
 31
0.0
100
AcDbText
  0
LINE
  5
30B
100
AcDbEntity
  8
LAY-6
  6
CONTINUOUS
 62
     1
100
AcDbLine
 10
191.000031
 20
515.8
 30
0.0
 11
327.0
 21
515.8
 31
0.0
  0
LINE
  5
30C
100
AcDbEntity
  8
LAY-6
  6
CONTINUOUS
 62
     1
100
AcDbLine
 10
194.000031
 20
516.3
 30
0.0
 11
191.000031
 21
515.8
 31
0.0
  0
LINE
  5
30D
100
AcDbEntity
  8
LAY-6
  6
CONTINUOUS
 62
     1
100
AcDbLine
 10
191.000031
 20
515.8
 30
0.0
 11
194.000031
 21
515.3
 31
0.0
  0
LINE
  5
30E
100
AcDbEntity
  8
LAY-6
  6
CONTINUOUS
 62
     1
100
AcDbLine
 10
324.0
 20
515.3
 30
0.0
 11
327.0
 21
515.8
 31
0.0
  0
LINE
  5
30F
100
AcDbEntity
  8
LAY-6
  6
CONTINUOUS
 62
     1
100
AcDbLine
 10
327.0
 20
515.8
 30
0.0
 11
324.0
 21
516.3
 31
0.0
  0
LINE
  5
310
100
AcDbEntity
  8
LAY-6
  6
CONTINUOUS
 62
     1
100
AcDbLine
 10
87.0
 20
528.5
 30
0.0
 11
87.0
 21
540.9
 31
0.0
  0
LINE
  5
311
100
AcDbEntity
  8
LAY-6
  6
CONTINUOUS
 62
     1
100
AcDbLine
 10
227.0
 20
493.399969
 30
0.0
 11
227.0
 21
540.9
 31
0.0
  0
TEXT
  5
312
100
AcDbEntity
  8
LAY-6
  6
CONTINUOUS
 62
     2
100
AcDbText
 10
151.0
 20
539.9
 30
0.0
 40
5.0
  1
１４０
 41
0.672
  7
EXCADSTD
 72
     5
 11
163.0
 21
539.9
 31
0.0
100
AcDbText
  0
LINE
  5
313
100
AcDbEntity
  8
LAY-6
  6
CONTINUOUS
 62
     1
100
AcDbLine
 10
87.0
 20
539.4
 30
0.0
 11
227.0
 21
539.4
 31
0.0
  0
LINE
  5
314
100
AcDbEntity
  8
LAY-6
  6
CONTINUOUS
 62
     1
100
AcDbLine
 10
90.0
 20
539.9
 30
0.0
 11
87.0
 21
539.4
 31
0.0
  0
LINE
  5
315
100
AcDbEntity
  8
LAY-6
  6
CONTINUOUS
 62
     1
100
AcDbLine
 10
87.0
 20
539.4
 30
0.0
 11
90.0
 21
538.9
 31
0.0
  0
LINE
  5
316
100
AcDbEntity
  8
LAY-6
  6
CONTINUOUS
 62
     1
100
AcDbLine
 10
224.0
 20
538.9
 30
0.0
 11
227.0
 21
539.4
 31
0.0
  0
LINE
  5
317
100
AcDbEntity
  8
LAY-6
  6
CONTINUOUS
 62
     1
100
AcDbLine
 10
227.0
 20
539.4
 30
0.0
 11
224.0
 21
539.9
 31
0.0
  0
LINE
  5
318
100
AcDbEntity
  8
LAY-6
  6
CONTINUOUS
 62
     1
100
AcDbLine
 10
287.0
 20
490.2
 30
0.0
 11
287.0
 21
540.9
 31
0.0
  0
TEXT
  5
319
100
AcDbEntity
  8
LAY-6
  6
CONTINUOUS
 62
     2
100
AcDbText
 10
253.0
 20
539.9
 30
0.0
 40
5.0
  1
６０
 41
0.672
  7
EXCADSTD
 72
     5
 11
260.3328
 21
539.9
 31
0.0
100
AcDbText
  0
LINE
  5
31A
100
AcDbEntity
  8
LAY-6
  6
CONTINUOUS
 62
     1
100
AcDbLine
 10
227.0
 20
539.4
 30
0.0
 11
287.0
 21
539.4
 31
0.0
  0
LINE
  5
31B
100
AcDbEntity
  8
LAY-6
  6
CONTINUOUS
 62
     1
100
AcDbLine
 10
230.0
 20
539.9
 30
0.0
 11
227.0
 21
539.4
 31
0.0
  0
LINE
  5
31C
100
AcDbEntity
  8
LAY-6
  6
CONTINUOUS
 62
     1
100
AcDbLine
 10
227.0
 20
539.4
 30
0.0
 11
230.0
 21
538.9
 31
0.0
  0
LINE
  5
31D
100
AcDbEntity
  8
LAY-6
  6
CONTINUOUS
 62
     1
100
AcDbLine
 10
284.0
 20
538.9
 30
0.0
 11
287.0
 21
539.4
 31
0.0
  0
LINE
  5
31E
100
AcDbEntity
  8
LAY-6
  6
CONTINUOUS
 62
     1
100
AcDbLine
 10
287.0
 20
539.4
 30
0.0
 11
284.0
 21
539.9
 31
0.0
  0
LINE
  5
31F
100
AcDbEntity
  8
LAY-6
  6
CONTINUOUS
 62
     1
100
AcDbLine
 10
298.9
 20
470.5
 30
0.0
 11
309.4
 21
470.5
 31
0.0
  0
TEXT
  5
320
100
AcDbEntity
  8
LAY-6
  6
CONTINUOUS
 62
     2
100
AcDbText
 10
307.4
 20
359.419944
 30
0.0
 40
5.0
  1
２１３
 50
90.0
 41
0.672
  7
EXCADSTD
 72
     5
 11
307.4
 21
371.419944
 31
0.0
100
AcDbText
  0
TEXT
  5
321
100
AcDbEntity
  8
LAY-6
  6
CONTINUOUS
 62
     2
100
AcDbText
 10
236.341846
 20
351.826965
 30
0.0
 40
5.0
  1
２２０
 50
105.82662
 41
0.672
  7
EXCADSTD
 72
     5
 11
233.069119
 21
363.372061
 31
0.0
100
AcDbText
  0
LINE
  5
322
100
AcDbEntity
  8
LAY-6
  6
CONTINUOUS
 62
     1
100
AcDbLine
 10
265.813472
 20
252.334071
 30
0.0
 11
205.813472
 21
463.994176
 31
0.0
  0
LINE
  5
323
100
AcDbEntity
  8
LAY-6
  6
CONTINUOUS
 62
     1
100
AcDbLine
 10
264.514244
 20
255.083981
 30
0.0
 11
265.813472
 21
252.334071
 31
0.0
  0
LINE
  5
324
100
AcDbEntity
  8
LAY-6
  6
CONTINUOUS
 62
     1
100
AcDbLine
 10
265.813472
 20
252.334071
 30
0.0
 11
265.476336
 21
255.356709
 31
0.0
  0
LINE
  5
325
100
AcDbEntity
  8
LAY-6
  6
CONTINUOUS
 62
     1
100
AcDbLine
 10
207.112699
 20
461.244265
 30
0.0
 11
205.813472
 21
463.994176
 31
0.0
  0
LINE
  5
326
100
AcDbEntity
  8
LAY-6
  6
CONTINUOUS
 62
     1
100
AcDbLine
 10
205.813472
 20
463.994176
 30
0.0
 11
206.150608
 21
460.971538
 31
0.0
  0
LINE
  5
327
100
AcDbEntity
  8
LAY-6
  6
CONTINUOUS
 62
     1
100
AcDbLine
 10
725.599994
 20
150.4
 30
0.0
 11
727.8
 21
150.4
 31
0.0
  0
LINE
  5
328
100
AcDbEntity
  8
LAY-6
  6
CONTINUOUS
 62
     1
100
AcDbLine
 10
709.2
 20
168.4
 30
0.0
 11
727.8
 21
168.4
 31
0.0
  0
TEXT
  5
329
100
AcDbEntity
  8
LAY-6
  6
CONTINUOUS
 62
     2
100
AcDbText
 10
725.8
 20
155.4
 30
0.0
 40
5.0
  1
１８
 50
90.0
 41
0.672
  7
EXCADSTD
 72
     5
 11
725.8
 21
162.7328
 31
0.0
100
AcDbText
  0
LINE
  5
32A
100
AcDbEntity
  8
LAY-6
  6
CONTINUOUS
 62
     1
100
AcDbLine
 10
726.3
 20
150.4
 30
0.0
 11
726.3
 21
168.4
 31
0.0
  0
LINE
  5
32B
100
AcDbEntity
  8
LAY-6
  6
CONTINUOUS
 62
     1
100
AcDbLine
 10
725.8
 20
153.4
 30
0.0
 11
726.3
 21
150.4
 31
0.0
  0
LINE
  5
32C
100
AcDbEntity
  8
LAY-6
  6
CONTINUOUS
 62
     1
100
AcDbLine
 10
726.3
 20
150.4
 30
0.0
 11
726.8
 21
153.4
 31
0.0
  0
LINE
  5
32D
100
AcDbEntity
  8
LAY-6
  6
CONTINUOUS
 62
     1
100
AcDbLine
 10
726.8
 20
165.4
 30
0.0
 11
726.3
 21
168.4
 31
0.0
  0
LINE
  5
32E
100
AcDbEntity
  8
LAY-6
  6
CONTINUOUS
 62
     1
100
AcDbLine
 10
726.3
 20
168.4
 30
0.0
 11
725.8
 21
165.4
 31
0.0
  0
LINE
  5
32F
100
AcDbEntity
  8
LAY-6
  6
CONTINUOUS
 62
     1
100
AcDbLine
 10
706.2
 20
171.4
 30
0.0
 11
726.8
 21
171.4
 31
0.0
  0
TEXT
  5
330
100
AcDbEntity
  8
LAY-6
  6
CONTINUOUS
 62
     2
100
AcDbText
 10
725.8
 20
167.9
 30
0.0
 40
5.0
  1
３
 50
90.0
 41
0.672
  7
EXCADSTD
 72
     5
 11
725.8
 21
171.1
 31
0.0
100
AcDbText
  0
LINE
  5
331
100
AcDbEntity
  8
LAY-6
  6
CONTINUOUS
 62
     1
100
AcDbLine
 10
717.2
 20
188.4
 30
0.0
 11
727.8
 21
188.4
 31
0.0
  0
TEXT
  5
332
100
AcDbEntity
  8
LAY-6
  6
CONTINUOUS
 62
     2
100
AcDbText
 10
725.8
 20
175.9
 30
0.0
 40
5.0
  1
１７
 50
90.0
 41
0.672
  7
EXCADSTD
 72
     5
 11
725.8
 21
183.2328
 31
0.0
100
AcDbText
  0
LINE
  5
333
100
AcDbEntity
  8
LAY-6
  6
CONTINUOUS
 62
     1
100
AcDbLine
 10
726.3
 20
171.4
 30
0.0
 11
726.3
 21
188.4
 31
0.0
  0
LINE
  5
334
100
AcDbEntity
  8
LAY-6
  6
CONTINUOUS
 62
     1
100
AcDbLine
 10
725.8
 20
174.4
 30
0.0
 11
726.3
 21
171.4
 31
0.0
  0
LINE
  5
335
100
AcDbEntity
  8
LAY-6
  6
CONTINUOUS
 62
     1
100
AcDbLine
 10
726.3
 20
171.4
 30
0.0
 11
726.8
 21
174.4
 31
0.0
  0
LINE
  5
336
100
AcDbEntity
  8
LAY-6
  6
CONTINUOUS
 62
     1
100
AcDbLine
 10
726.8
 20
185.4
 30
0.0
 11
726.3
 21
188.4
 31
0.0
  0
LINE
  5
337
100
AcDbEntity
  8
LAY-6
  6
CONTINUOUS
 62
     1
100
AcDbLine
 10
726.3
 20
188.4
 30
0.0
 11
725.8
 21
185.4
 31
0.0
  0
LINE
  5
338
100
AcDbEntity
  8
LAY-6
  6
CONTINUOUS
 62
     1
100
AcDbLine
 10
670.6
 20
115.079489
 30
0.0
 11
670.6
 21
78.8
 31
0.0
  0
LINE
  5
339
100
AcDbEntity
  8
LAY-6
  6
CONTINUOUS
 62
     1
100
AcDbLine
 10
707.6
 20
55.5
 30
0.0
 11
707.6
 21
81.8
 31
0.0
  0
TEXT
  5
33A
100
AcDbEntity
  8
LAY-6
  6
CONTINUOUS
 62
     2
100
AcDbText
 10
685.1
 20
80.8
 30
0.0
 40
5.0
  1
３７
 41
0.672
  7
EXCADSTD
 72
     5
 11
692.4328
 21
80.8
 31
0.0
100
AcDbText
  0
LINE
  5
33B
100
AcDbEntity
  8
LAY-6
  6
CONTINUOUS
 62
     1
100
AcDbLine
 10
670.6
 20
80.3
 30
0.0
 11
707.6
 21
80.3
 31
0.0
  0
LINE
  5
33C
100
AcDbEntity
  8
LAY-6
  6
CONTINUOUS
 62
     1
100
AcDbLine
 10
673.6
 20
80.8
 30
0.0
 11
670.6
 21
80.3
 31
0.0
  0
LINE
  5
33D
100
AcDbEntity
  8
LAY-6
  6
CONTINUOUS
 62
     1
100
AcDbLine
 10
670.6
 20
80.3
 30
0.0
 11
673.6
 21
79.8
 31
0.0
  0
LINE
  5
33E
100
AcDbEntity
  8
LAY-6
  6
CONTINUOUS
 62
     1
100
AcDbLine
 10
704.6
 20
79.8
 30
0.0
 11
707.6
 21
80.3
 31
0.0
  0
LINE
  5
33F
100
AcDbEntity
  8
LAY-6
  6
CONTINUOUS
 62
     1
100
AcDbLine
 10
707.6
 20
80.3
 30
0.0
 11
704.6
 21
80.8
 31
0.0
  0
LINE
  5
340
100
AcDbEntity
  8
LAY-6
  6
CONTINUOUS
 62
     1
100
AcDbLine
 10
191.0
 20
143.8
 30
0.0
 11
191.0
 21
132.3
 31
0.0
  0
TEXT
  5
341
100
AcDbEntity
  8
LAY-6
  6
CONTINUOUS
 62
     2
100
AcDbText
 10
133.0
 20
134.3
 30
0.0
 40
5.0
  1
１０４
 41
0.672
  7
EXCADSTD
 72
     5
 11
145.0
 21
134.3
 31
0.0
100
AcDbText
  0
LINE
  5
342
100
AcDbEntity
  8
LAY-6
  6
CONTINUOUS
 62
     1
100
AcDbLine
 10
87.0
 20
133.8
 30
0.0
 11
191.0
 21
133.8
 31
0.0
  0
LINE
  5
343
100
AcDbEntity
  8
LAY-6
  6
CONTINUOUS
 62
     1
100
AcDbLine
 10
90.0
 20
134.3
 30
0.0
 11
87.0
 21
133.8
 31
0.0
  0
LINE
  5
344
100
AcDbEntity
  8
LAY-6
  6
CONTINUOUS
 62
     1
100
AcDbLine
 10
87.0
 20
133.8
 30
0.0
 11
90.0
 21
133.3
 31
0.0
  0
LINE
  5
345
100
AcDbEntity
  8
LAY-6
  6
CONTINUOUS
 62
     1
100
AcDbLine
 10
188.0
 20
133.3
 30
0.0
 11
191.0
 21
133.8
 31
0.0
  0
LINE
  5
346
100
AcDbEntity
  8
LAY-6
  6
CONTINUOUS
 62
     1
100
AcDbLine
 10
191.0
 20
133.8
 30
0.0
 11
188.0
 21
134.3
 31
0.0
  0
LINE
  5
347
100
AcDbEntity
  8
LAY-6
  6
CONTINUOUS
 62
     1
100
AcDbLine
 10
327.0
 20
143.8
 30
0.0
 11
327.0
 21
132.3
 31
0.0
  0
TEXT
  5
348
100
AcDbEntity
  8
LAY-6
  6
CONTINUOUS
 62
     2
100
AcDbText
 10
253.0
 20
134.3
 30
0.0
 40
5.0
  1
１３６
 41
0.672
  7
EXCADSTD
 72
     5
 11
265.0
 21
134.3
 31
0.0
100
AcDbText
  0
LINE
  5
349
100
AcDbEntity
  8
LAY-6
  6
CONTINUOUS
 62
     1
100
AcDbLine
 10
191.0
 20
133.8
 30
0.0
 11
327.0
 21
133.8
 31
0.0
  0
LINE
  5
34A
100
AcDbEntity
  8
LAY-6
  6
CONTINUOUS
 62
     1
100
AcDbLine
 10
194.0
 20
134.3
 30
0.0
 11
191.0
 21
133.8
 31
0.0
  0
LINE
  5
34B
100
AcDbEntity
  8
LAY-6
  6
CONTINUOUS
 62
     1
100
AcDbLine
 10
191.0
 20
133.8
 30
0.0
 11
194.0
 21
133.3
 31
0.0
  0
LINE
  5
34C
100
AcDbEntity
  8
LAY-6
  6
CONTINUOUS
 62
     1
100
AcDbLine
 10
324.0
 20
133.3
 30
0.0
 11
327.0
 21
133.8
 31
0.0
  0
LINE
  5
34D
100
AcDbEntity
  8
LAY-6
  6
CONTINUOUS
 62
     1
100
AcDbLine
 10
327.0
 20
133.8
 30
0.0
 11
324.0
 21
134.3
 31
0.0
  0
LINE
  5
34E
100
AcDbEntity
  8
LAY-6
  6
CONTINUOUS
 62
     1
100
AcDbLine
 10
161.0
 20
98.9
 30
0.0
 11
161.0
 21
82.9
 31
0.0
  0
LINE
  5
34F
100
AcDbEntity
  8
LAY-6
  6
CONTINUOUS
 62
     1
100
AcDbLine
 10
349.0
 20
98.9
 30
0.0
 11
349.0
 21
82.9
 31
0.0
  0
TEXT
  5
350
100
AcDbEntity
  8
LAY-6
  6
CONTINUOUS
 62
     2
100
AcDbText
 10
249.0
 20
84.9
 30
0.0
 40
5.0
  1
１８８
 41
0.672
  7
EXCADSTD
 72
     5
 11
261.0
 21
84.9
 31
0.0
100
AcDbText
  0
LINE
  5
351
100
AcDbEntity
  8
LAY-6
  6
CONTINUOUS
 62
     1
100
AcDbLine
 10
161.0
 20
84.4
 30
0.0
 11
349.0
 21
84.4
 31
0.0
  0
LINE
  5
352
100
AcDbEntity
  8
LAY-6
  6
CONTINUOUS
 62
     1
100
AcDbLine
 10
164.0
 20
84.9
 30
0.0
 11
161.0
 21
84.4
 31
0.0
  0
LINE
  5
353
100
AcDbEntity
  8
LAY-6
  6
CONTINUOUS
 62
     1
100
AcDbLine
 10
161.0
 20
84.4
 30
0.0
 11
164.0
 21
83.9
 31
0.0
  0
LINE
  5
354
100
AcDbEntity
  8
LAY-6
  6
CONTINUOUS
 62
     1
100
AcDbLine
 10
346.0
 20
83.9
 30
0.0
 11
349.0
 21
84.4
 31
0.0
  0
LINE
  5
355
100
AcDbEntity
  8
LAY-6
  6
CONTINUOUS
 62
     1
100
AcDbLine
 10
349.0
 20
84.4
 30
0.0
 11
346.0
 21
84.9
 31
0.0
  0
TEXT
  5
356
100
AcDbEntity
  8
LAY-6
  6
CONTINUOUS
 62
     2
100
AcDbText
 10
725.800064
 20
220.701042
 30
0.0
 40
5.0
  1
２－Ｍ５×１０丸皿小ネジ（Ｐ＝０．８）
 50
0.074604
 41
0.672
  7
EXCADSTD
 72
     5
 11
801.8
 21
220.8
 31
0.0
100
AcDbText
  0
TEXT
  5
357
100
AcDbEntity
  8
LAY-6
  6
CONTINUOUS
 62
     2
100
AcDbText
 10
551.600081
 20
142.774992
 30
0.0
 40
5.0
  1
（スチール扉）２－Ｍ６×５０皿小ネジ（Ｄ＝１０）
 50
0.074604
 41
0.672
  7
EXCADSTD
 72
     5
 11
647.6
 21
142.899992
 31
0.0
100
AcDbText
  0
LINE
  5
358
100
AcDbEntity
  8
LAY-6
  6
CONTINUOUS
 62
     1
100
AcDbLine
 10
87.0
 20
490.1
 30
0.0
 11
87.0
 21
505.4
 31
0.0
  0
LINE
  5
359
100
AcDbEntity
  8
LAY-6
  6
CONTINUOUS
 62
     1
100
AcDbLine
 10
267.0
 20
505.4
 30
0.0
 11
267.0
 21
502.4
 31
0.0
  0
TEXT
  5
35A
100
AcDbEntity
  8
LAY-6
  6
CONTINUOUS
 62
     2
100
AcDbText
 10
171.0
 20
504.4
 30
0.0
 40
5.0
  1
１８０
 41
0.672
  7
EXCADSTD
 72
     5
 11
183.0
 21
504.4
 31
0.0
100
AcDbText
  0
LINE
  5
35B
100
AcDbEntity
  8
LAY-6
  6
CONTINUOUS
 62
     1
100
AcDbLine
 10
87.0
 20
503.9
 30
0.0
 11
267.0
 21
503.9
 31
0.0
  0
LINE
  5
35C
100
AcDbEntity
  8
LAY-6
  6
CONTINUOUS
 62
     1
100
AcDbLine
 10
90.0
 20
504.4
 30
0.0
 11
87.0
 21
503.9
 31
0.0
  0
LINE
  5
35D
100
AcDbEntity
  8
LAY-6
  6
CONTINUOUS
 62
     1
100
AcDbLine
 10
87.0
 20
503.9
 30
0.0
 11
90.0
 21
503.4
 31
0.0
  0
LINE
  5
35E
100
AcDbEntity
  8
LAY-6
  6
CONTINUOUS
 62
     1
100
AcDbLine
 10
264.0
 20
503.4
 30
0.0
 11
267.0
 21
503.9
 31
0.0
  0
LINE
  5
35F
100
AcDbEntity
  8
LAY-6
  6
CONTINUOUS
 62
     1
100
AcDbLine
 10
267.0
 20
503.9
 30
0.0
 11
264.0
 21
504.4
 31
0.0
  0
TEXT
  5
360
100
AcDbEntity
  8
LAY-6
  6
CONTINUOUS
 62
     2
100
AcDbText
 10
112.8
 20
125.5
 30
0.0
 40
5.0
  1
閉扉速度調整バルブ
 41
0.672
  7
EXCADSTD
 72
     5
 11
148.8
 21
125.5
 31
0.0
100
AcDbText
  0
POLYLINE
  5
361
100
AcDbEntity
  8
LAY-6
  6
CONTINUOUS
 62
     1
100
AcDb2dPolyline
 66
     1
 10
0.0
 20
0.0
 30
0.0
 70
   128
  0
VERTEX
  5
362
100
AcDbEntity
  8
LAY-6
  6
CONTINUOUS
 62
     1
100
AcDbVertex
100
AcDb2dVertex
 10
161.0
 20
142.4
 30
0.0
  0
VERTEX
  5
363
100
AcDbEntity
  8
LAY-6
  6
CONTINUOUS
 62
     1
100
AcDbVertex
100
AcDb2dVertex
 10
148.5
 20
125.4
 30
0.0
  0
VERTEX
  5
364
100
AcDbEntity
  8
LAY-6
  6
CONTINUOUS
 62
     1
100
AcDbVertex
100
AcDb2dVertex
 10
111.9
 20
125.4
 30
0.0
  0
SEQEND
  5
365
100
AcDbEntity
  8
LAY-6
  6
CONTINUOUS
 62
     1
  0
LINE
  5
366
100
AcDbEntity
  8
LAY-6
  6
CONTINUOUS
 62
     1
100
AcDbLine
 10
159.625654
 20
139.686852
 30
0.0
 11
161.0
 21
142.4
 31
0.0
  0
LINE
  5
367
100
AcDbEntity
  8
LAY-6
  6
CONTINUOUS
 62
     1
100
AcDbLine
 10
161.0
 20
142.4
 30
0.0
 11
158.820003
 21
140.279242
 31
0.0
  0
LINE
  5
368
100
AcDbEntity
  8
LAY-6
  6
CONTINUOUS
 62
     1
100
AcDbLine
 10
333.300001
 20
150.4
 30
0.0
 11
358.7
 21
150.4
 31
0.0
  0
TEXT
  5
369
100
AcDbEntity
  8
LAY-6
  6
CONTINUOUS
 62
     2
100
AcDbText
 10
356.7
 20
154.4
 30
0.0
 40
5.0
  1
１８
 50
90.0
 41
0.672
  7
EXCADSTD
 72
     5
 11
356.7
 21
161.7328
 31
0.0
100
AcDbText
  0
LINE
  5
36A
100
AcDbEntity
  8
LAY-6
  6
CONTINUOUS
 62
     1
100
AcDbLine
 10
357.2
 20
150.4
 30
0.0
 11
357.2
 21
168.4
 31
0.0
  0
LINE
  5
36B
100
AcDbEntity
  8
LAY-6
  6
CONTINUOUS
 62
     1
100
AcDbLine
 10
356.7
 20
153.4
 30
0.0
 11
357.2
 21
150.4
 31
0.0
  0
LINE
  5
36C
100
AcDbEntity
  8
LAY-6
  6
CONTINUOUS
 62
     1
100
AcDbLine
 10
357.2
 20
150.4
 30
0.0
 11
357.7
 21
153.4
 31
0.0
  0
LINE
  5
36D
100
AcDbEntity
  8
LAY-6
  6
CONTINUOUS
 62
     1
100
AcDbLine
 10
357.7
 20
165.4
 30
0.0
 11
357.2
 21
168.4
 31
0.0
  0
LINE
  5
36E
100
AcDbEntity
  8
LAY-6
  6
CONTINUOUS
 62
     1
100
AcDbLine
 10
357.2
 20
168.4
 30
0.0
 11
356.7
 21
165.4
 31
0.0
  0
TEXT
  5
36F
100
AcDbEntity
  8
LAY-6
  6
CONTINUOUS
 62
     2
100
AcDbText
 10
356.7
 20
167.9
 30
0.0
 40
5.0
  1
３
 50
90.0
 41
0.672
  7
EXCADSTD
 72
     5
 11
356.7
 21
171.1
 31
0.0
100
AcDbText
  0
LINE
  5
370
100
AcDbEntity
  8
LAY-6
  6
CONTINUOUS
 62
     1
100
AcDbLine
 10
316.7
 20
188.4
 30
0.0
 11
359.3
 21
188.4
 31
0.0
  0
TEXT
  5
371
100
AcDbEntity
  8
LAY-6
  6
CONTINUOUS
 62
     2
100
AcDbText
 10
356.7
 20
175.9
 30
0.0
 40
5.0
  1
１７
 50
90.0
 41
0.672
  7
EXCADSTD
 72
     5
 11
356.7
 21
183.2328
 31
0.0
100
AcDbText
  0
LINE
  5
372
100
AcDbEntity
  8
LAY-6
  6
CONTINUOUS
 62
     1
100
AcDbLine
 10
357.2
 20
171.4
 30
0.0
 11
357.2
 21
188.4
 31
0.0
  0
LINE
  5
373
100
AcDbEntity
  8
LAY-6
  6
CONTINUOUS
 62
     1
100
AcDbLine
 10
356.7
 20
174.4
 30
0.0
 11
357.2
 21
171.4
 31
0.0
  0
LINE
  5
374
100
AcDbEntity
  8
LAY-6
  6
CONTINUOUS
 62
     1
100
AcDbLine
 10
357.2
 20
171.4
 30
0.0
 11
357.7
 21
174.4
 31
0.0
  0
LINE
  5
375
100
AcDbEntity
  8
LAY-6
  6
CONTINUOUS
 62
     1
100
AcDbLine
 10
357.7
 20
185.4
 30
0.0
 11
357.2
 21
188.4
 31
0.0
  0
LINE
  5
376
100
AcDbEntity
  8
LAY-6
  6
CONTINUOUS
 62
     1
100
AcDbLine
 10
357.2
 20
188.4
 30
0.0
 11
356.7
 21
185.4
 31
0.0
  0
TEXT
  5
377
100
AcDbEntity
  8
LAY-6
  6
CONTINUOUS
 62
     2
100
AcDbText
 10
618.9
 20
109.9
 30
0.0
 40
5.0
  1
第一速度調整バルブ
 41
0.672
  7
EXCADSTD
 72
     5
 11
654.9
 21
109.9
 31
0.0
100
AcDbText
  0
POLYLINE
  5
378
100
AcDbEntity
  8
LAY-6
  6
CONTINUOUS
 62
     1
100
AcDb2dPolyline
 66
     1
 10
0.0
 20
0.0
 30
0.0
 70
   128
  0
VERTEX
  5
379
100
AcDbEntity
  8
LAY-6
  6
CONTINUOUS
 62
     1
100
AcDbVertex
100
AcDb2dVertex
 10
702.555157
 20
139.216842
 30
0.0
  0
VERTEX
  5
37A
100
AcDbEntity
  8
LAY-6
  6
CONTINUOUS
 62
     1
100
AcDbVertex
100
AcDb2dVertex
 10
717.1
 20
110.4
 30
0.0
  0
VERTEX
  5
37B
100
AcDbEntity
  8
LAY-6
  6
CONTINUOUS
 62
     1
100
AcDbVertex
100
AcDb2dVertex
 10
753.5
 20
110.4
 30
0.0
  0
SEQEND
  5
37C
100
AcDbEntity
  8
LAY-6
  6
CONTINUOUS
 62
     1
  0
LINE
  5
37D
100
AcDbEntity
  8
LAY-6
  6
CONTINUOUS
 62
     1
100
AcDbLine
 10
704.353297
 20
136.763947
 30
0.0
 11
702.555157
 21
139.216842
 31
0.0
  0
LINE
  5
37E
100
AcDbEntity
  8
LAY-6
  6
CONTINUOUS
 62
     1
100
AcDbLine
 10
702.555157
 20
139.216842
 30
0.0
 11
703.460566
 21
136.313356
 31
0.0
  0
LINE
  5
37F
100
AcDbEntity
  8
LAY-6
  6
CONTINUOUS
 62
     1
100
AcDbLine
 10
688.6
 20
157.4
 30
0.0
 11
664.0
 21
157.4
 31
0.0
  0
LINE
  5
380
100
AcDbEntity
  8
LAY-6
  6
CONTINUOUS
 62
     1
100
AcDbLine
 10
678.760248
 20
99.4
 30
0.0
 11
664.0
 21
99.4
 31
0.0
  0
TEXT
  5
381
100
AcDbEntity
  8
LAY-6
  6
CONTINUOUS
 62
     2
100
AcDbText
 10
664.5
 20
124.4
 30
0.0
 40
5.0
  1
５８
 50
90.0
 41
0.672
  7
EXCADSTD
 72
     5
 11
664.5
 21
131.7328
 31
0.0
100
AcDbText
  0
LINE
  5
382
100
AcDbEntity
  8
LAY-6
  6
CONTINUOUS
 62
     1
100
AcDbLine
 10
665.0
 20
157.4
 30
0.0
 11
665.0
 21
99.4
 31
0.0
  0
LINE
  5
383
100
AcDbEntity
  8
LAY-6
  6
CONTINUOUS
 62
     1
100
AcDbLine
 10
665.333333
 20
155.4
 30
0.0
 11
665.0
 21
157.4
 31
0.0
  0
LINE
  5
384
100
AcDbEntity
  8
LAY-6
  6
CONTINUOUS
 62
     1
100
AcDbLine
 10
665.0
 20
157.4
 30
0.0
 11
664.666667
 21
155.4
 31
0.0
  0
LINE
  5
385
100
AcDbEntity
  8
LAY-6
  6
CONTINUOUS
 62
     1
100
AcDbLine
 10
664.666667
 20
101.4
 30
0.0
 11
665.0
 21
99.4
 31
0.0
  0
LINE
  5
386
100
AcDbEntity
  8
LAY-6
  6
CONTINUOUS
 62
     1
100
AcDbLine
 10
665.0
 20
99.4
 30
0.0
 11
665.333333
 21
101.4
 31
0.0
  0
LINE
  5
387
100
AcDbEntity
  8
LAY-6
  6
CONTINUOUS
 62
     1
100
AcDbLine
 10
428.6
 20
218.4
 30
0.0
 11
444.7
 21
218.4
 31
0.0
  0
TEXT
  5
388
100
AcDbEntity
  8
LAY-6
  6
CONTINUOUS
 62
     2
100
AcDbText
 10
442.7
 20
185.4
 30
0.0
 40
5.0
  1
５０以上
 50
90.0
 41
0.672
  7
EXCADSTD
 72
     5
 11
442.7
 21
201.4
 31
0.0
100
AcDbText
  0
LINE
  5
389
100
AcDbEntity
  8
LAY-6
  6
CONTINUOUS
 62
     1
100
AcDbLine
 10
443.2
 20
218.4
 30
0.0
 11
443.2
 21
168.4
 31
0.0
  0
LINE
  5
38A
100
AcDbEntity
  8
LAY-6
  6
CONTINUOUS
 62
     1
100
AcDbLine
 10
443.7
 20
215.4
 30
0.0
 11
443.2
 21
218.4
 31
0.0
  0
LINE
  5
38B
100
AcDbEntity
  8
LAY-6
  6
CONTINUOUS
 62
     1
100
AcDbLine
 10
443.2
 20
218.4
 30
0.0
 11
442.7
 21
215.4
 31
0.0
  0
LINE
  5
38C
100
AcDbEntity
  8
LAY-6
  6
CONTINUOUS
 62
     1
100
AcDbLine
 10
442.7
 20
171.4
 30
0.0
 11
443.2
 21
168.4
 31
0.0
  0
LINE
  5
38D
100
AcDbEntity
  8
LAY-6
  6
CONTINUOUS
 62
     1
100
AcDbLine
 10
443.2
 20
168.4
 30
0.0
 11
443.7
 21
171.4
 31
0.0
  0
LINE
  5
38E
100
AcDbEntity
  8
LAY-6
  6
CONTINUOUS
 62
     1
100
AcDbLine
 10
87.0
 20
196.9
 30
0.0
 11
87.0
 21
216.0
 31
0.0
  0
LINE
  5
38F
100
AcDbEntity
  8
LAY-6
  6
CONTINUOUS
 62
     1
100
AcDbLine
 10
267.0
 20
196.4
 30
0.0
 11
267.0
 21
216.0
 31
0.0
  0
TEXT
  5
390
100
AcDbEntity
  8
LAY-6
  6
CONTINUOUS
 62
     2
100
AcDbText
 10
171.0
 20
215.5
 30
0.0
 40
5.0
  1
１８０
 41
0.672
  7
EXCADSTD
 72
     5
 11
183.0
 21
215.5
 31
0.0
100
AcDbText
  0
LINE
  5
391
100
AcDbEntity
  8
LAY-6
  6
CONTINUOUS
 62
     1
100
AcDbLine
 10
87.0
 20
215.0
 30
0.0
 11
267.0
 21
215.0
 31
0.0
  0
LINE
  5
392
100
AcDbEntity
  8
LAY-6
  6
CONTINUOUS
 62
     1
100
AcDbLine
 10
89.0
 20
215.333333
 30
0.0
 11
87.0
 21
215.0
 31
0.0
  0
LINE
  5
393
100
AcDbEntity
  8
LAY-6
  6
CONTINUOUS
 62
     1
100
AcDbLine
 10
87.0
 20
215.0
 30
0.0
 11
89.0
 21
214.666667
 31
0.0
  0
LINE
  5
394
100
AcDbEntity
  8
LAY-6
  6
CONTINUOUS
 62
     1
100
AcDbLine
 10
265.0
 20
214.666667
 30
0.0
 11
267.0
 21
215.0
 31
0.0
  0
LINE
  5
395
100
AcDbEntity
  8
LAY-6
  6
CONTINUOUS
 62
     1
100
AcDbLine
 10
267.0
 20
215.0
 30
0.0
 11
265.0
 21
215.333333
 31
0.0
  0
LINE
  5
396
100
AcDbEntity
  8
LAY-6
  6
CONTINUOUS
 62
     1
100
AcDbLine
 10
307.0
 20
196.4
 30
0.0
 11
307.0
 21
216.0
 31
0.0
  0
TEXT
  5
397
100
AcDbEntity
  8
LAY-6
  6
CONTINUOUS
 62
     2
100
AcDbText
 10
283.0
 20
215.5
 30
0.0
 40
5.0
  1
４０
 41
0.672
  7
EXCADSTD
 72
     5
 11
290.3328
 21
215.5
 31
0.0
100
AcDbText
  0
LINE
  5
398
100
AcDbEntity
  8
LAY-6
  6
CONTINUOUS
 62
     1
100
AcDbLine
 10
267.0
 20
215.0
 30
0.0
 11
307.0
 21
215.0
 31
0.0
  0
LINE
  5
399
100
AcDbEntity
  8
LAY-6
  6
CONTINUOUS
 62
     1
100
AcDbLine
 10
269.0
 20
215.333333
 30
0.0
 11
267.0
 21
215.0
 31
0.0
  0
LINE
  5
39A
100
AcDbEntity
  8
LAY-6
  6
CONTINUOUS
 62
     1
100
AcDbLine
 10
267.0
 20
215.0
 30
0.0
 11
269.0
 21
214.666667
 31
0.0
  0
LINE
  5
39B
100
AcDbEntity
  8
LAY-6
  6
CONTINUOUS
 62
     1
100
AcDbLine
 10
305.0
 20
214.666667
 30
0.0
 11
307.0
 21
215.0
 31
0.0
  0
LINE
  5
39C
100
AcDbEntity
  8
LAY-6
  6
CONTINUOUS
 62
     1
100
AcDbLine
 10
307.0
 20
215.0
 30
0.0
 11
305.0
 21
215.333333
 31
0.0
  0
TEXT
  5
39D
100
AcDbEntity
  8
LAY-6
  6
CONTINUOUS
 62
     2
100
AcDbText
 10
721.099999
 20
65.8
 30
0.0
 40
6.0
  1
ド　ア
 41
0.672
  7
EXCADSTD
 72
     5
 11
735.5
 21
65.8
 31
0.0
100
AcDbText
  0
TEXT
  5
39E
100
AcDbEntity
  8
LAY-6
  6
CONTINUOUS
 62
     2
100
AcDbText
 10
756.299999
 20
178.1
 30
0.0
 40
6.0
  1
上　枠
 41
0.672
  7
EXCADSTD
 72
     5
 11
770.7
 21
178.1
 31
0.0
100
AcDbText
  0
TEXT
  5
39F
100
AcDbEntity
  8
LAY-6
  6
CONTINUOUS
 62
     2
100
AcDbText
 10
725.200024
 20
226.563542
 30
0.0
 40
5.0
  1
（スチール枠）
 50
0.074604
 41
0.672
  7
EXCADSTD
 72
     5
 11
753.2
 21
226.6
 31
0.0
100
AcDbText
  0
TEXT
  5
3A0
100
AcDbEntity
  8
LAY-6
  6
CONTINUOUS
 62
     2
100
AcDbText
 10
725.300058
 20
215.711458
 30
0.0
 40
5.0
  1
（木枠）２－５．１×２５丸皿木ネジ
 50
0.074604
 41
0.672
  7
EXCADSTD
 72
     5
 11
793.3
 21
215.8
 31
0.0
100
AcDbText
  0
TEXT
  5
3A1
100
AcDbEntity
  8
LAY-6
  6
CONTINUOUS
 62
     2
100
AcDbText
 10
64.9
 20
74.9
 30
0.0
 40
6.0
  1
竪　枠
 41
0.672
  7
EXCADSTD
 72
     5
 11
79.300001
 21
74.9
 31
0.0
100
AcDbText
  0
TEXT
  5
3A2
100
AcDbEntity
  8
LAY-6
  6
CONTINUOUS
 62
     2
100
AcDbText
 10
378.5
 20
178.6
 30
0.0
 40
7.0
  1
上　枠
 41
0.672
  7
EXCADSTD
 72
     5
 11
395.3
 21
178.6
 31
0.0
100
AcDbText
  0
TEXT
  5
3A3
100
AcDbEntity
  8
LAY-6
  6
CONTINUOUS
 62
     2
100
AcDbText
 10
379.3
 20
154.3
 30
0.0
 40
7.0
  1
ド　ア
 41
0.672
  7
EXCADSTD
 72
     5
 11
396.1
 21
154.3
 31
0.0
100
AcDbText
  0
LINE
  5
3A4
100
AcDbEntity
  8
LAY-6
  6
CONTINUOUS
 62
     1
100
AcDbLine
 10
87.0
 20
154.4
 30
0.0
 11
87.0
 21
65.1
 31
0.0
  0
POLYLINE
  5
3A5
100
AcDbEntity
  8
LAY-6
  6
CONTINUOUS
 62
     1
100
AcDb2dPolyline
 66
     1
 10
0.0
 20
0.0
 30
0.0
 70
   128
  0
VERTEX
  5
3A6
100
AcDbEntity
  8
LAY-6
  6
CONTINUOUS
 62
     1
100
AcDbVertex
100
AcDb2dVertex
 10
712.6
 20
188.4
 30
0.0
  0
VERTEX
  5
3A7
100
AcDbEntity
  8
LAY-6
  6
CONTINUOUS
 62
     1
100
AcDbVertex
100
AcDb2dVertex
 10
724.9
 20
220.9
 30
0.0
  0
VERTEX
  5
3A8
100
AcDbEntity
  8
LAY-6
  6
CONTINUOUS
 62
     1
100
AcDbVertex
100
AcDb2dVertex
 10
800.4
 20
220.9
 30
0.0
  0
SEQEND
  5
3A9
100
AcDbEntity
  8
LAY-6
  6
CONTINUOUS
 62
     1
  0
LINE
  5
3AA
100
AcDbEntity
  8
LAY-6
  6
CONTINUOUS
 62
     1
100
AcDbLine
 10
712.996167
 20
190.388508
 30
0.0
 11
712.6
 21
188.4
 31
0.0
  0
LINE
  5
3AB
100
AcDbEntity
  8
LAY-6
  6
CONTINUOUS
 62
     1
100
AcDbLine
 10
712.6
 20
188.4
 30
0.0
 11
713.619674
 21
190.152534
 31
0.0
  0
TEXT
  5
3AC
100
AcDbEntity
  8
LAY-6
  6
CONTINUOUS
 62
     2
100
AcDbText
 10
71.4
 20
503.1
 30
0.0
 40
5.0
  1
竪
 41
0.672
  7
EXCADSTD
 72
     5
 11
74.6
 21
503.1
 31
0.0
100
AcDbText
  0
TEXT
  5
3AD
100
AcDbEntity
  8
LAY-6
  6
CONTINUOUS
 62
     2
100
AcDbText
 10
71.4
 20
498.1
 30
0.0
 40
5.0
  1
枠
 41
0.672
  7
EXCADSTD
 72
     5
 11
74.6
 21
498.1
 31
0.0
100
AcDbText
  0
TEXT
  5
3AE
100
AcDbEntity
  8
LAY-6
  6
CONTINUOUS
 62
     2
100
AcDbText
 10
76.8
 20
546.1
 30
0.0
 40
5.0
  1
ドア吊り芯
 41
0.672
  7
EXCADSTD
 72
     5
 11
96.8
 21
546.1
 31
0.0
100
AcDbText
  0
TEXT
  5
3AF
100
AcDbEntity
  8
LAY-6
  6
CONTINUOUS
 62
     2
100
AcDbText
 10
371.1
 20
505.5
 30
0.0
 40
5.0
  1
ドア
 41
0.672
  7
EXCADSTD
 72
     5
 11
378.4328
 21
505.5
 31
0.0
100
AcDbText
  0
TEXT
  5
3B0
100
AcDbEntity
  8
LAY-6
  6
CONTINUOUS
 62
     2
100
AcDbText
 10
466.8
 20
157.4
 30
0.0
 40
6.0
  1
ドア上縁線
 41
0.672
  7
EXCADSTD
 72
     5
 11
490.800001
 21
157.4
 31
0.0
100
AcDbText
  0
TEXT
  5
3B1
100
AcDbEntity
  8
LAY-6
  6
CONTINUOUS
 62
     2
100
AcDbText
 10
471.5
 20
228.5
 30
0.0
 40
6.0
  1
天　井
 41
0.672
  7
EXCADSTD
 72
     5
 11
485.900001
 21
228.5
 31
0.0
100
AcDbText
  0
LINE
  5
3B2
100
AcDbEntity
  8
LAY-6
  6
CONTINUOUS
 62
     1
100
AcDbLine
 10
307.9
 20
470.5
 30
0.0
 11
307.9
 21
258.339887
 31
0.0
  0
LINE
  5
3B3
100
AcDbEntity
  8
LAY-6
  6
CONTINUOUS
 62
     1
100
AcDbLine
 10
307.9
 20
470.5
 30
0.0
 11
308.676457
 21
467.602223
 31
0.0
  0
LINE
  5
3B4
100
AcDbEntity
  8
LAY-6
  6
CONTINUOUS
 62
     1
100
AcDbLine
 10
307.9
 20
470.5
 30
0.0
 11
307.123543
 21
467.602223
 31
0.0
  0
LINE
  5
3B5
100
AcDbEntity
  8
LAY-6
  6
CONTINUOUS
 62
     1
100
AcDbLine
 10
307.9
 20
258.339887
 30
0.0
 11
307.123543
 21
261.237665
 31
0.0
  0
LINE
  5
3B6
100
AcDbEntity
  8
LAY-6
  6
CONTINUOUS
 62
     1
100
AcDbLine
 10
307.9
 20
258.339887
 30
0.0
 11
308.676457
 21
261.237665
 31
0.0
  0
LINE
  5
3B7
100
AcDbEntity
  8
LAY-6
  6
CONTINUOUS
 62
     1
100
AcDbLine
 10
227.0
 20
469.999992
 30
0.0
 11
204.370335
 21
463.585085
 31
0.0
  0
LINE
  5
3B8
100
AcDbEntity
  8
LAY-6
  6
CONTINUOUS
 62
     1
100
AcDbLine
 10
287.039203
 20
258.351
 30
0.0
 11
264.370335
 21
251.92498
 31
0.0
  0
LINE
  5
3B9
100
AcDbEntity
  8
LAY-6
  6
CONTINUOUS
 62
     1
100
AcDbLine
 10
287.039203
 20
258.339887
 30
0.0
 11
309.4
 21
258.339887
 31
0.0
  0
TEXT
  5
3BA
100
AcDbEntity
  8
LAY-6
  6
CONTINUOUS
 62
     2
100
AcDbText
 10
696.7
 20
546.1
 30
0.0
 40
6.0
  1
※　左右勝手があります。
 41
0.672
  7
EXCADSTD
 72
     5
 11
754.300002
 21
546.1
 31
0.0
100
AcDbText
  0
TEXT
  5
3BB
100
AcDbEntity
  8
LAY-6
  6
CONTINUOUS
 62
     2
100
AcDbText
 10
705.4
 20
534.4
 30
0.0
 40
6.0
  1
本図は右開き（Ｓ－５００２Ｒ）を示す。
 41
0.672
  7
EXCADSTD
 72
     5
 11
796.600004
 21
534.4
 31
0.0
100
AcDbText
  0
POLYLINE
  5
3BC
100
AcDbEntity
  8
LAY-6
  6
CONTINUOUS
 62
     1
100
AcDb2dPolyline
 66
     1
 10
0.0
 20
0.0
 30
0.0
 70
   128
  0
VERTEX
  5
3BD
100
AcDbEntity
  8
LAY-6
  6
CONTINUOUS
 62
     1
100
AcDbVertex
100
AcDb2dVertex
 10
671.1
 20
150.4
 30
0.0
  0
VERTEX
  5
3BE
100
AcDbEntity
  8
LAY-6
  6
CONTINUOUS
 62
     1
100
AcDbVertex
100
AcDb2dVertex
 10
649.2
 20
142.3
 30
0.0
  0
VERTEX
  5
3BF
100
AcDbEntity
  8
LAY-6
  6
CONTINUOUS
 62
     1
100
AcDbVertex
100
AcDb2dVertex
 10
549.6
 20
142.3
 30
0.0
  0
SEQEND
  5
3C0
100
AcDbEntity
  8
LAY-6
  6
CONTINUOUS
 62
     1
  0
LINE
  5
3C1
100
AcDbEntity
  8
LAY-6
  6
CONTINUOUS
 62
     1
100
AcDbLine
 10
669.339825
 20
149.393574
 30
0.0
 11
671.1
 21
150.4
 31
0.0
  0
LINE
  5
3C2
100
AcDbEntity
  8
LAY-6
  6
CONTINUOUS
 62
     1
100
AcDbLine
 10
671.1
 20
150.4
 30
0.0
 11
669.108561
 21
150.018843
 31
0.0
  0
TEXT
  5
3C3
100
AcDbEntity
  8
LAY-6
  6
CONTINUOUS
 62
     2
100
AcDbText
 10
551.700075
 20
136.685409
 30
0.0
 40
5.0
  1
（木扉）２－５．８×６３皿木ネジ（Ｄ＝１０）
 50
0.074604
 41
0.672
  7
EXCADSTD
 72
     5
 11
639.7
 21
136.799992
 31
0.0
100
AcDbText
  0
POLYLINE
  5
3C4
100
AcDbEntity
  8
LAY-6
  6
CONTINUOUS
 62
     1
100
AcDb2dPolyline
 66
     1
 10
0.0
 20
0.0
 30
0.0
 70
   128
  0
VERTEX
  5
3C5
100
AcDbEntity
  8
LAY-6
  6
CONTINUOUS
 62
     1
100
AcDbVertex
100
AcDb2dVertex
 10
675.212958
 20
139.452282
 30
0.0
  0
VERTEX
  5
3C6
100
AcDbEntity
  8
LAY-6
  6
CONTINUOUS
 62
     1
100
AcDbVertex
100
AcDb2dVertex
 10
654.9
 20
109.7
 30
0.0
  0
VERTEX
  5
3C7
100
AcDbEntity
  8
LAY-6
  6
CONTINUOUS
 62
     1
100
AcDbVertex
100
AcDb2dVertex
 10
617.900702
 20
109.712901
 30
0.0
  0
SEQEND
  5
3C8
100
AcDbEntity
  8
LAY-6
  6
CONTINUOUS
 62
     1
  0
LINE
  5
3C9
100
AcDbEntity
  8
LAY-6
  6
CONTINUOUS
 62
     1
100
AcDbLine
 10
674.360541
 20
137.612582
 30
0.0
 11
675.212958
 21
139.452282
 31
0.0
  0
LINE
  5
3CA
100
AcDbEntity
  8
LAY-6
  6
CONTINUOUS
 62
     1
100
AcDbLine
 10
675.212958
 20
139.452282
 30
0.0
 11
673.809958
 21
137.988485
 31
0.0
  0
TEXT
  5
3CB
100
AcDbEntity
  8
LAY-6
  6
CONTINUOUS
 62
     2
100
AcDbText
 10
717.0
 20
110.7
 30
0.0
 40
5.0
  1
第二速度調整バルブ
 41
0.672
  7
EXCADSTD
 72
     5
 11
753.0
 21
110.7
 31
0.0
100
AcDbText
  0
TEXT
  5
3CC
100
AcDbEntity
  8
LAY-6
  6
CONTINUOUS
 62
     2
100
AcDbText
 10
657.09961
 20
221.043124
 30
0.0
 40
5.0
  1
裏板３.２ｔ以上（別途）
 41
0.654222
  7
EXCADSTD
 72
     5
 11
703.09961
 21
221.043124
 31
0.0
100
AcDbText
  0
POLYLINE
  5
3CD
100
AcDbEntity
  8
LAY-6
  6
CONTINUOUS
 62
     1
100
AcDb2dPolyline
 66
     1
 10
0.0
 20
0.0
 30
0.0
 70
   128
  0
VERTEX
  5
3CE
100
AcDbEntity
  8
LAY-6
  6
CONTINUOUS
 62
     1
100
AcDbVertex
100
AcDb2dVertex
 10
708.0
 20
194.3
 30
0.0
  0
VERTEX
  5
3CF
100
AcDbEntity
  8
LAY-6
  6
CONTINUOUS
 62
     1
100
AcDbVertex
100
AcDb2dVertex
 10
703.6
 20
220.8
 30
0.0
  0
VERTEX
  5
3D0
100
AcDbEntity
  8
LAY-6
  6
CONTINUOUS
 62
     1
100
AcDbVertex
100
AcDb2dVertex
 10
656.6
 20
220.8
 30
0.0
  0
SEQEND
  5
3D1
100
AcDbEntity
  8
LAY-6
  6
CONTINUOUS
 62
     1
  0
LINE
  5
3D2
100
AcDbEntity
  8
LAY-6
  6
CONTINUOUS
 62
     1
100
AcDbLine
 10
707.343578
 20
196.21839
 30
0.0
 11
708.0
 21
194.3
 31
0.0
  0
LINE
  5
3D3
100
AcDbEntity
  8
LAY-6
  6
CONTINUOUS
 62
     1
100
AcDbLine
 10
708.0
 20
194.3
 30
0.0
 11
708.001241
 21
196.327587
 31
0.0
  0
TEXT
  5
3D4
100
AcDbEntity
  8
LAY-6
  6
CONTINUOUS
 62
     2
100
AcDbText
 10
712.69961
 20
92.943124
 30
0.0
 40
5.0
  1
裏板３.２ｔ以上（別途）
 41
0.654222
  7
EXCADSTD
 72
     5
 11
758.69961
 21
92.943124
 31
0.0
100
AcDbText
  0
POLYLINE
  5
3D5
100
AcDbEntity
  8
LAY-6
  6
CONTINUOUS
 62
     1
100
AcDb2dPolyline
 66
     1
 10
0.0
 20
0.0
 30
0.0
 70
   128
  0
VERTEX
  5
3D6
100
AcDbEntity
  8
LAY-6
  6
CONTINUOUS
 62
     1
100
AcDbVertex
100
AcDb2dVertex
 10
709.6
 20
105.4
 30
0.0
  0
VERTEX
  5
3D7
100
AcDbEntity
  8
LAY-6
  6
CONTINUOUS
 62
     1
100
AcDbVertex
100
AcDb2dVertex
 10
712.2
 20
92.8
 30
0.0
  0
VERTEX
  5
3D8
100
AcDbEntity
  8
LAY-6
  6
CONTINUOUS
 62
     1
100
AcDbVertex
100
AcDb2dVertex
 10
757.2
 20
92.8
 30
0.0
  0
SEQEND
  5
3D9
100
AcDbEntity
  8
LAY-6
  6
CONTINUOUS
 62
     1
  0
LINE
  5
3DA
100
AcDbEntity
  8
LAY-6
  6
CONTINUOUS
 62
     1
100
AcDbLine
 10
710.330639
 20
103.508631
 30
0.0
 11
709.6
 21
105.4
 31
0.0
  0
LINE
  5
3DB
100
AcDbEntity
  8
LAY-6
  6
CONTINUOUS
 62
     1
100
AcDbLine
 10
709.6
 20
105.4
 30
0.0
 11
709.677728
 21
103.373903
 31
0.0
  0
LINE
  5
3DC
100
AcDbEntity
  8
LAY-9
  6
CONTINUOUS
 62
     1
100
AcDbLine
 10
709.2
 20
168.4
 30
0.0
 11
727.8
 21
168.4
 31
0.0
  0
LINE
  5
3DD
100
AcDbEntity
  8
LAY-9
  6
CONTINUOUS
 62
     1
100
AcDbLine
 10
707.2
 20
171.4
 30
0.0
 11
727.8
 21
171.4
 31
0.0
  0
LINE
  5
3DE
100
AcDbEntity
  8
LAY-9
  6
CONTINUOUS
 62
     1
100
AcDbLine
 10
707.6
 20
55.5
 30
0.0
 11
707.6
 21
81.8
 31
0.0
  0
LINE
  5
3DF
100
AcDbEntity
  8
LAY-9
  6
CONTINUOUS
 62
     1
100
AcDbLine
 10
87.0
 20
489.1
 30
0.0
 11
87.0
 21
504.4
 31
0.0
  0
LINE
  5
3E0
100
AcDbEntity
  8
LAY-9
  6
CONTINUOUS
 62
     1
100
AcDbLine
 10
403.5
 20
168.4
 30
0.0
 11
338.7
 21
168.4
 31
0.0
  0
LINE
  5
3E1
100
AcDbEntity
  8
LAY-9
  6
CONTINUOUS
 62
     1
100
AcDbLine
 10
402.5
 20
171.4
 30
0.0
 11
338.7
 21
171.4
 31
0.0
  0
LINE
  5
3E2
100
AcDbEntity
  8
LAY-9
  6
CONTINUOUS
 62
     1
100
AcDbLine
 10
428.6
 20
222.494949
 30
0.0
 11
434.505051
 21
228.4
 31
0.0
  0
LINE
  5
3E3
100
AcDbEntity
  8
LAY-9
  6
CONTINUOUS
 62
     1
100
AcDbLine
 10
431.576118
 20
218.4
 30
0.0
 11
441.576118
 21
228.4
 31
0.0
  0
LINE
  5
3E4
100
AcDbEntity
  8
LAY-9
  6
CONTINUOUS
 62
     1
100
AcDbLine
 10
438.647186
 20
218.4
 30
0.0
 11
448.647186
 21
228.4
 31
0.0
  0
LINE
  5
3E5
100
AcDbEntity
  8
LAY-9
  6
CONTINUOUS
 62
     1
100
AcDbLine
 10
445.718254
 20
218.4
 30
0.0
 11
455.718254
 21
228.4
 31
0.0
  0
LINE
  5
3E6
100
AcDbEntity
  8
LAY-9
  6
CONTINUOUS
 62
     1
100
AcDbLine
 10
452.789322
 20
218.4
 30
0.0
 11
462.789322
 21
228.4
 31
0.0
  0
LINE
  5
3E7
100
AcDbEntity
  8
LAY-9
  6
CONTINUOUS
 62
     1
100
AcDbLine
 10
459.86039
 20
218.4
 30
0.0
 11
469.86039
 21
228.4
 31
0.0
  0
LINE
  5
3E8
100
AcDbEntity
  8
LAY-9
  6
CONTINUOUS
 62
     1
100
AcDbLine
 10
466.931458
 20
218.4
 30
0.0
 11
476.931458
 21
228.4
 31
0.0
  0
LINE
  5
3E9
100
AcDbEntity
  8
LAY-9
  6
CONTINUOUS
 62
     1
100
AcDbLine
 10
474.002525
 20
218.4
 30
0.0
 11
484.002525
 21
228.4
 31
0.0
  0
LINE
  5
3EA
100
AcDbEntity
  8
LAY-9
  6
CONTINUOUS
 62
     1
100
AcDbLine
 10
481.073593
 20
218.4
 30
0.0
 11
491.073593
 21
228.4
 31
0.0
  0
LINE
  5
3EB
100
AcDbEntity
  8
LAY-9
  6
CONTINUOUS
 62
     1
100
AcDbLine
 10
488.144661
 20
218.4
 30
0.0
 11
498.144661
 21
228.4
 31
0.0
  0
LINE
  5
3EC
100
AcDbEntity
  8
LAY-9
  6
CONTINUOUS
 62
     1
100
AcDbLine
 10
495.215729
 20
218.4
 30
0.0
 11
505.215729
 21
228.4
 31
0.0
  0
LINE
  5
3ED
100
AcDbEntity
  8
LAY-9
  6
CONTINUOUS
 62
     1
100
AcDbLine
 10
502.286797
 20
218.4
 30
0.0
 11
512.286797
 21
228.4
 31
0.0
  0
LINE
  5
3EE
100
AcDbEntity
  8
LAY-9
  6
CONTINUOUS
 62
     1
100
AcDbLine
 10
509.357864
 20
218.4
 30
0.0
 11
519.357864
 21
228.4
 31
0.0
  0
LINE
  5
3EF
100
AcDbEntity
  8
LAY-9
  6
CONTINUOUS
 62
     1
100
AcDbLine
 10
516.428932
 20
218.4
 30
0.0
 11
526.428932
 21
228.4
 31
0.0
  0
LINE
  5
3F0
100
AcDbEntity
  8
LAY-9
  6
CONTINUOUS
 62
     1
100
AcDbLine
 10
523.5
 20
218.4
 30
0.0
 11
533.5
 21
228.4
 31
0.0
  0
LINE
  5
3F1
100
AcDbEntity
  8
LAY-9
  6
CONTINUOUS
 62
     1
100
AcDbLine
 10
530.571068
 20
218.4
 30
0.0
 11
540.571068
 21
228.4
 31
0.0
  0
LINE
  5
3F2
100
AcDbEntity
  8
LAY-9
  6
CONTINUOUS
 62
     1
100
AcDbLine
 10
537.642136
 20
218.4
 30
0.0
 11
547.642136
 21
228.4
 31
0.0
  0
LINE
  5
3F3
100
AcDbEntity
  8
LAY-9
  6
CONTINUOUS
 62
     1
100
AcDbLine
 10
544.713203
 20
218.4
 30
0.0
 11
553.4
 21
227.086797
 31
0.0
  0
LINE
  5
3F4
100
AcDbEntity
  8
LAY-9
  6
CONTINUOUS
 62
     1
100
AcDbLine
 10
551.784271
 20
218.4
 30
0.0
 11
553.4
 21
220.015729
 31
0.0
  0
LINE
  5
3F5
100
AcDbEntity
  8
LAY-9
  6
CONTINUOUS
 62
     1
100
AcDbLine
 10
749.6
 20
158.0
 30
0.0
 11
749.6
 21
171.4
 31
0.0
  0
LINE
  5
3F6
100
AcDbEntity
  8
LAY-9
  6
CONTINUOUS
 62
     1
100
AcDbLine
 10
749.6
 20
171.4
 30
0.0
 11
706.2
 21
171.4
 31
0.0
  0
LINE
  5
3F7
100
AcDbEntity
  8
LAY-9
  6
CONTINUOUS
 62
     1
100
AcDbLine
 10
746.0
 20
168.4
 30
0.0
 11
709.2
 21
168.4
 31
0.0
  0
ARC
  5
3F8
100
AcDbEntity
  8
LAY-9
  6
CONTINUOUS
 62
     1
100
AcDbCircle
 10
706.2
 20
173.0
 30
0.0
 40
1.6
100
AcDbArc
 50
180.0
 51
270.0
  0
ARC
  5
3F9
100
AcDbEntity
  8
LAY-9
  6
CONTINUOUS
 62
     1
100
AcDbCircle
 10
751.2
 20
158.0
 30
0.0
 40
1.6
100
AcDbArc
 50
180.0
 51
270.0
  0
ARC
  5
3FA
100
AcDbEntity
  8
LAY-9
  6
CONTINUOUS
 62
     1
100
AcDbCircle
 10
746.0
 20
166.8
 30
0.0
 40
1.6
100
AcDbArc
 50
0.0
 51
90.0
  0
ARC
  5
3FB
100
AcDbEntity
  8
LAY-9
  6
CONTINUOUS
 62
     1
100
AcDbCircle
 10
709.2
 20
166.8
 30
0.0
 40
1.6
100
AcDbArc
 50
90.0
 51
180.0
  0
LINE
  5
3FC
100
AcDbEntity
  8
LAY-9
  6
CONTINUOUS
 62
     1
100
AcDbLine
 10
97.4
 20
529.5
 30
0.0
 11
84.0
 21
529.5
 31
0.0
  0
LINE
  5
3FD
100
AcDbEntity
  8
LAY-9
  6
CONTINUOUS
 62
     1
100
AcDbLine
 10
84.0
 20
529.5
 30
0.0
 11
84.0
 21
486.1
 31
0.0
  0
LINE
  5
3FE
100
AcDbEntity
  8
LAY-9
  6
CONTINUOUS
 62
     1
100
AcDbLine
 10
82.4
 20
484.5
 30
0.0
 11
60.6
 21
484.5
 31
0.0
  0
LINE
  5
3FF
100
AcDbEntity
  8
LAY-9
  6
CONTINUOUS
 62
     1
100
AcDbLine
 10
59.0
 20
486.1
 30
0.0
 11
59.0
 21
499.5
 31
0.0
  0
LINE
  5
400
100
AcDbEntity
  8
LAY-9
  6
CONTINUOUS
 62
     1
100
AcDbLine
 10
87.0
 20
525.9
 30
0.0
 11
87.0
 21
489.1
 31
0.0
  0
LINE
  5
401
100
AcDbEntity
  8
LAY-9
  6
CONTINUOUS
 62
     1
100
AcDbLine
 10
88.6
 20
527.5
 30
0.0
 11
432.4
 21
527.5
 31
0.0
  0
ARC
  5
402
100
AcDbEntity
  8
LAY-9
  6
CONTINUOUS
 62
     1
100
AcDbCircle
 10
60.6
 20
486.1
 30
0.0
 40
1.6
100
AcDbArc
 50
180.0
 51
270.0
  0
ARC
  5
403
100
AcDbEntity
  8
LAY-9
  6
CONTINUOUS
 62
     1
100
AcDbCircle
 10
82.4
 20
486.1
 30
0.0
 40
1.6
100
AcDbArc
 50
270.0
 51
0.0
  0
ARC
  5
404
100
AcDbEntity
  8
LAY-9
  6
CONTINUOUS
 62
     1
100
AcDbCircle
 10
97.4
 20
531.1
 30
0.0
 40
1.6
100
AcDbArc
 50
270.0
 51
0.0
  0
ARC
  5
405
100
AcDbEntity
  8
LAY-9
  6
CONTINUOUS
 62
     1
100
AcDbCircle
 10
88.6
 20
525.9
 30
0.0
 40
1.6
100
AcDbArc
 50
90.0
 51
180.0
  0
ARC
  5
406
100
AcDbEntity
  8
LAY-9
  6
CONTINUOUS
 62
     1
100
AcDbCircle
 10
88.6
 20
489.1
 30
0.0
 40
1.6
100
AcDbArc
 50
180.0
 51
270.0
  0
POLYLINE
  5
407
100
AcDbEntity
  8
LAY-9
  6
CONTINUOUS
 62
     1
100
AcDb2dPolyline
 66
     1
 10
0.0
 20
0.0
 30
0.0
 70
   128
  0
VERTEX
  5
408
100
AcDbEntity
  8
LAY-9
  6
CONTINUOUS
 62
     1
100
AcDbVertex
100
AcDb2dVertex
 10
251.0
 20
484.5
 30
0.0
  0
VERTEX
  5
409
100
AcDbEntity
  8
LAY-9
  6
CONTINUOUS
 62
     1
100
AcDbVertex
100
AcDb2dVertex
 10
250.980592
 20
484.544319
 30
0.0
  0
VERTEX
  5
40A
100
AcDbEntity
  8
LAY-9
  6
CONTINUOUS
 62
     1
100
AcDbVertex
100
AcDb2dVertex
 10
250.927154
 20
484.670127
 30
0.0
  0
VERTEX
  5
40B
100
AcDbEntity
  8
LAY-9
  6
CONTINUOUS
 62
     1
100
AcDbVertex
100
AcDb2dVertex
 10
250.846871
 20
484.8667
 30
0.0
  0
VERTEX
  5
40C
100
AcDbEntity
  8
LAY-9
  6
CONTINUOUS
 62
     1
100
AcDbVertex
100
AcDb2dVertex
 10
250.746923
 20
485.123315
 30
0.0
  0
VERTEX
  5
40D
100
AcDbEntity
  8
LAY-9
  6
CONTINUOUS
 62
     1
100
AcDbVertex
100
AcDb2dVertex
 10
250.634493
 20
485.429248
 30
0.0
  0
VERTEX
  5
40E
100
AcDbEntity
  8
LAY-9
  6
CONTINUOUS
 62
     1
100
AcDbVertex
100
AcDb2dVertex
 10
250.516764
 20
485.773775
 30
0.0
  0
VERTEX
  5
40F
100
AcDbEntity
  8
LAY-9
  6
CONTINUOUS
 62
     1
100
AcDbVertex
100
AcDb2dVertex
 10
250.400917
 20
486.146173
 30
0.0
  0
VERTEX
  5
410
100
AcDbEntity
  8
LAY-9
  6
CONTINUOUS
 62
     1
100
AcDbVertex
100
AcDb2dVertex
 10
250.294135
 20
486.535718
 30
0.0
  0
VERTEX
  5
411
100
AcDbEntity
  8
LAY-9
  6
CONTINUOUS
 62
     1
100
AcDbVertex
100
AcDb2dVertex
 10
250.2036
 20
486.931687
 30
0.0
  0
VERTEX
  5
412
100
AcDbEntity
  8
LAY-9
  6
CONTINUOUS
 62
     1
100
AcDbVertex
100
AcDb2dVertex
 10
250.136494
 20
487.323355
 30
0.0
  0
VERTEX
  5
413
100
AcDbEntity
  8
LAY-9
  6
CONTINUOUS
 62
     1
100
AcDbVertex
100
AcDb2dVertex
 10
250.1
 20
487.7
 30
0.0
  0
VERTEX
  5
414
100
AcDbEntity
  8
LAY-9
  6
CONTINUOUS
 62
     1
100
AcDbVertex
100
AcDb2dVertex
 10
250.096595
 20
487.980854
 30
0.0
  0
VERTEX
  5
415
100
AcDbEntity
  8
LAY-9
  6
CONTINUOUS
 62
     1
100
AcDbVertex
100
AcDb2dVertex
 10
250.11467
 20
488.246989
 30
0.0
  0
VERTEX
  5
416
100
AcDbEntity
  8
LAY-9
  6
CONTINUOUS
 62
     1
100
AcDbVertex
100
AcDb2dVertex
 10
250.152142
 20
488.499739
 30
0.0
  0
VERTEX
  5
417
100
AcDbEntity
  8
LAY-9
  6
CONTINUOUS
 62
     1
100
AcDbVertex
100
AcDb2dVertex
 10
250.206925
 20
488.740437
 30
0.0
  0
VERTEX
  5
418
100
AcDbEntity
  8
LAY-9
  6
CONTINUOUS
 62
     1
100
AcDbVertex
100
AcDb2dVertex
 10
250.276934
 20
488.970419
 30
0.0
  0
VERTEX
  5
419
100
AcDbEntity
  8
LAY-9
  6
CONTINUOUS
 62
     1
100
AcDbVertex
100
AcDb2dVertex
 10
250.360085
 20
489.19102
 30
0.0
  0
VERTEX
  5
41A
100
AcDbEntity
  8
LAY-9
  6
CONTINUOUS
 62
     1
100
AcDbVertex
100
AcDb2dVertex
 10
250.454293
 20
489.403573
 30
0.0
  0
VERTEX
  5
41B
100
AcDbEntity
  8
LAY-9
  6
CONTINUOUS
 62
     1
100
AcDbVertex
100
AcDb2dVertex
 10
250.557474
 20
489.609413
 30
0.0
  0
VERTEX
  5
41C
100
AcDbEntity
  8
LAY-9
  6
CONTINUOUS
 62
     1
100
AcDbVertex
100
AcDb2dVertex
 10
250.667541
 20
489.809874
 30
0.0
  0
VERTEX
  5
41D
100
AcDbEntity
  8
LAY-9
  6
CONTINUOUS
 62
     1
100
AcDbVertex
100
AcDb2dVertex
 10
250.782412
 20
490.006292
 30
0.0
  0
VERTEX
  5
41E
100
AcDbEntity
  8
LAY-9
  6
CONTINUOUS
 62
     1
100
AcDbVertex
100
AcDb2dVertex
 10
250.9
 20
490.2
 30
0.0
  0
VERTEX
  5
41F
100
AcDbEntity
  8
LAY-9
  6
CONTINUOUS
 62
     1
100
AcDbVertex
100
AcDb2dVertex
 10
251.038198
 20
490.424777
 30
0.0
  0
VERTEX
  5
420
100
AcDbEntity
  8
LAY-9
  6
CONTINUOUS
 62
     1
100
AcDbVertex
100
AcDb2dVertex
 10
251.17468
 20
490.650088
 30
0.0
  0
VERTEX
  5
421
100
AcDbEntity
  8
LAY-9
  6
CONTINUOUS
 62
     1
100
AcDbVertex
100
AcDb2dVertex
 10
251.306865
 20
490.878347
 30
0.0
  0
VERTEX
  5
422
100
AcDbEntity
  8
LAY-9
  6
CONTINUOUS
 62
     1
100
AcDbVertex
100
AcDb2dVertex
 10
251.432174
 20
491.111965
 30
0.0
  0
VERTEX
  5
423
100
AcDbEntity
  8
LAY-9
  6
CONTINUOUS
 62
     1
100
AcDbVertex
100
AcDb2dVertex
 10
251.548024
 20
491.353354
 30
0.0
  0
VERTEX
  5
424
100
AcDbEntity
  8
LAY-9
  6
CONTINUOUS
 62
     1
100
AcDbVertex
100
AcDb2dVertex
 10
251.651836
 20
491.604928
 30
0.0
  0
VERTEX
  5
425
100
AcDbEntity
  8
LAY-9
  6
CONTINUOUS
 62
     1
100
AcDbVertex
100
AcDb2dVertex
 10
251.741029
 20
491.869099
 30
0.0
  0
VERTEX
  5
426
100
AcDbEntity
  8
LAY-9
  6
CONTINUOUS
 62
     1
100
AcDbVertex
100
AcDb2dVertex
 10
251.813023
 20
492.148279
 30
0.0
  0
VERTEX
  5
427
100
AcDbEntity
  8
LAY-9
  6
CONTINUOUS
 62
     1
100
AcDbVertex
100
AcDb2dVertex
 10
251.865236
 20
492.444881
 30
0.0
  0
VERTEX
  5
428
100
AcDbEntity
  8
LAY-9
  6
CONTINUOUS
 62
     1
100
AcDbVertex
100
AcDb2dVertex
 10
251.895089
 20
492.761317
 30
0.0
  0
VERTEX
  5
429
100
AcDbEntity
  8
LAY-9
  6
CONTINUOUS
 62
     1
100
AcDbVertex
100
AcDb2dVertex
 10
251.9
 20
493.1
 30
0.0
  0
VERTEX
  5
42A
100
AcDbEntity
  8
LAY-9
  6
CONTINUOUS
 62
     1
100
AcDbVertex
100
AcDb2dVertex
 10
251.882126
 20
493.422261
 30
0.0
  0
VERTEX
  5
42B
100
AcDbEntity
  8
LAY-9
  6
CONTINUOUS
 62
     1
100
AcDbVertex
100
AcDb2dVertex
 10
251.846333
 20
493.755501
 30
0.0
  0
VERTEX
  5
42C
100
AcDbEntity
  8
LAY-9
  6
CONTINUOUS
 62
     1
100
AcDbVertex
100
AcDb2dVertex
 10
251.796756
 20
494.09094
 30
0.0
  0
VERTEX
  5
42D
100
AcDbEntity
  8
LAY-9
  6
CONTINUOUS
 62
     1
100
AcDbVertex
100
AcDb2dVertex
 10
251.737529
 20
494.419797
 30
0.0
  0
VERTEX
  5
42E
100
AcDbEntity
  8
LAY-9
  6
CONTINUOUS
 62
     1
100
AcDbVertex
100
AcDb2dVertex
 10
251.672785
 20
494.733293
 30
0.0
  0
VERTEX
  5
42F
100
AcDbEntity
  8
LAY-9
  6
CONTINUOUS
 62
     1
100
AcDbVertex
100
AcDb2dVertex
 10
251.60666
 20
495.022648
 30
0.0
  0
VERTEX
  5
430
100
AcDbEntity
  8
LAY-9
  6
CONTINUOUS
 62
     1
100
AcDbVertex
100
AcDb2dVertex
 10
251.543287
 20
495.279081
 30
0.0
  0
VERTEX
  5
431
100
AcDbEntity
  8
LAY-9
  6
CONTINUOUS
 62
     1
100
AcDbVertex
100
AcDb2dVertex
 10
251.4868
 20
495.493813
 30
0.0
  0
VERTEX
  5
432
100
AcDbEntity
  8
LAY-9
  6
CONTINUOUS
 62
     1
100
AcDbVertex
100
AcDb2dVertex
 10
251.441334
 20
495.658064
 30
0.0
  0
VERTEX
  5
433
100
AcDbEntity
  8
LAY-9
  6
CONTINUOUS
 62
     1
100
AcDbVertex
100
AcDb2dVertex
 10
251.411022
 20
495.763053
 30
0.0
  0
VERTEX
  5
434
100
AcDbEntity
  8
LAY-9
  6
CONTINUOUS
 62
     1
100
AcDbVertex
100
AcDb2dVertex
 10
251.4
 20
495.8
 30
0.0
  0
SEQEND
  5
435
100
AcDbEntity
  8
LAY-9
  6
CONTINUOUS
 62
     1
  0
POLYLINE
  5
436
100
AcDbEntity
  8
LAY-9
  6
CONTINUOUS
 62
     1
100
AcDb2dPolyline
 66
     1
 10
0.0
 20
0.0
 30
0.0
 70
   128
  0
VERTEX
  5
437
100
AcDbEntity
  8
LAY-9
  6
CONTINUOUS
 62
     1
100
AcDbVertex
100
AcDb2dVertex
 10
321.0
 20
484.5
 30
0.0
  0
VERTEX
  5
438
100
AcDbEntity
  8
LAY-9
  6
CONTINUOUS
 62
     1
100
AcDbVertex
100
AcDb2dVertex
 10
320.980592
 20
484.544319
 30
0.0
  0
VERTEX
  5
439
100
AcDbEntity
  8
LAY-9
  6
CONTINUOUS
 62
     1
100
AcDbVertex
100
AcDb2dVertex
 10
320.927154
 20
484.670127
 30
0.0
  0
VERTEX
  5
43A
100
AcDbEntity
  8
LAY-9
  6
CONTINUOUS
 62
     1
100
AcDbVertex
100
AcDb2dVertex
 10
320.846871
 20
484.8667
 30
0.0
  0
VERTEX
  5
43B
100
AcDbEntity
  8
LAY-9
  6
CONTINUOUS
 62
     1
100
AcDbVertex
100
AcDb2dVertex
 10
320.746923
 20
485.123315
 30
0.0
  0
VERTEX
  5
43C
100
AcDbEntity
  8
LAY-9
  6
CONTINUOUS
 62
     1
100
AcDbVertex
100
AcDb2dVertex
 10
320.634493
 20
485.429248
 30
0.0
  0
VERTEX
  5
43D
100
AcDbEntity
  8
LAY-9
  6
CONTINUOUS
 62
     1
100
AcDbVertex
100
AcDb2dVertex
 10
320.516764
 20
485.773775
 30
0.0
  0
VERTEX
  5
43E
100
AcDbEntity
  8
LAY-9
  6
CONTINUOUS
 62
     1
100
AcDbVertex
100
AcDb2dVertex
 10
320.400917
 20
486.146173
 30
0.0
  0
VERTEX
  5
43F
100
AcDbEntity
  8
LAY-9
  6
CONTINUOUS
 62
     1
100
AcDbVertex
100
AcDb2dVertex
 10
320.294135
 20
486.535718
 30
0.0
  0
VERTEX
  5
440
100
AcDbEntity
  8
LAY-9
  6
CONTINUOUS
 62
     1
100
AcDbVertex
100
AcDb2dVertex
 10
320.2036
 20
486.931687
 30
0.0
  0
VERTEX
  5
441
100
AcDbEntity
  8
LAY-9
  6
CONTINUOUS
 62
     1
100
AcDbVertex
100
AcDb2dVertex
 10
320.136494
 20
487.323355
 30
0.0
  0
VERTEX
  5
442
100
AcDbEntity
  8
LAY-9
  6
CONTINUOUS
 62
     1
100
AcDbVertex
100
AcDb2dVertex
 10
320.1
 20
487.7
 30
0.0
  0
VERTEX
  5
443
100
AcDbEntity
  8
LAY-9
  6
CONTINUOUS
 62
     1
100
AcDbVertex
100
AcDb2dVertex
 10
320.096595
 20
487.980854
 30
0.0
  0
VERTEX
  5
444
100
AcDbEntity
  8
LAY-9
  6
CONTINUOUS
 62
     1
100
AcDbVertex
100
AcDb2dVertex
 10
320.11467
 20
488.246989
 30
0.0
  0
VERTEX
  5
445
100
AcDbEntity
  8
LAY-9
  6
CONTINUOUS
 62
     1
100
AcDbVertex
100
AcDb2dVertex
 10
320.152142
 20
488.499739
 30
0.0
  0
VERTEX
  5
446
100
AcDbEntity
  8
LAY-9
  6
CONTINUOUS
 62
     1
100
AcDbVertex
100
AcDb2dVertex
 10
320.206925
 20
488.740437
 30
0.0
  0
VERTEX
  5
447
100
AcDbEntity
  8
LAY-9
  6
CONTINUOUS
 62
     1
100
AcDbVertex
100
AcDb2dVertex
 10
320.276934
 20
488.970419
 30
0.0
  0
VERTEX
  5
448
100
AcDbEntity
  8
LAY-9
  6
CONTINUOUS
 62
     1
100
AcDbVertex
100
AcDb2dVertex
 10
320.360085
 20
489.19102
 30
0.0
  0
VERTEX
  5
449
100
AcDbEntity
  8
LAY-9
  6
CONTINUOUS
 62
     1
100
AcDbVertex
100
AcDb2dVertex
 10
320.454293
 20
489.403573
 30
0.0
  0
VERTEX
  5
44A
100
AcDbEntity
  8
LAY-9
  6
CONTINUOUS
 62
     1
100
AcDbVertex
100
AcDb2dVertex
 10
320.557474
 20
489.609413
 30
0.0
  0
VERTEX
  5
44B
100
AcDbEntity
  8
LAY-9
  6
CONTINUOUS
 62
     1
100
AcDbVertex
100
AcDb2dVertex
 10
320.667541
 20
489.809874
 30
0.0
  0
VERTEX
  5
44C
100
AcDbEntity
  8
LAY-9
  6
CONTINUOUS
 62
     1
100
AcDbVertex
100
AcDb2dVertex
 10
320.782412
 20
490.006292
 30
0.0
  0
VERTEX
  5
44D
100
AcDbEntity
  8
LAY-9
  6
CONTINUOUS
 62
     1
100
AcDbVertex
100
AcDb2dVertex
 10
320.9
 20
490.2
 30
0.0
  0
VERTEX
  5
44E
100
AcDbEntity
  8
LAY-9
  6
CONTINUOUS
 62
     1
100
AcDbVertex
100
AcDb2dVertex
 10
321.038198
 20
490.424777
 30
0.0
  0
VERTEX
  5
44F
100
AcDbEntity
  8
LAY-9
  6
CONTINUOUS
 62
     1
100
AcDbVertex
100
AcDb2dVertex
 10
321.17468
 20
490.650088
 30
0.0
  0
VERTEX
  5
450
100
AcDbEntity
  8
LAY-9
  6
CONTINUOUS
 62
     1
100
AcDbVertex
100
AcDb2dVertex
 10
321.306865
 20
490.878347
 30
0.0
  0
VERTEX
  5
451
100
AcDbEntity
  8
LAY-9
  6
CONTINUOUS
 62
     1
100
AcDbVertex
100
AcDb2dVertex
 10
321.432174
 20
491.111965
 30
0.0
  0
VERTEX
  5
452
100
AcDbEntity
  8
LAY-9
  6
CONTINUOUS
 62
     1
100
AcDbVertex
100
AcDb2dVertex
 10
321.548024
 20
491.353354
 30
0.0
  0
VERTEX
  5
453
100
AcDbEntity
  8
LAY-9
  6
CONTINUOUS
 62
     1
100
AcDbVertex
100
AcDb2dVertex
 10
321.651836
 20
491.604928
 30
0.0
  0
VERTEX
  5
454
100
AcDbEntity
  8
LAY-9
  6
CONTINUOUS
 62
     1
100
AcDbVertex
100
AcDb2dVertex
 10
321.741029
 20
491.869099
 30
0.0
  0
VERTEX
  5
455
100
AcDbEntity
  8
LAY-9
  6
CONTINUOUS
 62
     1
100
AcDbVertex
100
AcDb2dVertex
 10
321.813023
 20
492.148279
 30
0.0
  0
VERTEX
  5
456
100
AcDbEntity
  8
LAY-9
  6
CONTINUOUS
 62
     1
100
AcDbVertex
100
AcDb2dVertex
 10
321.865236
 20
492.444881
 30
0.0
  0
VERTEX
  5
457
100
AcDbEntity
  8
LAY-9
  6
CONTINUOUS
 62
     1
100
AcDbVertex
100
AcDb2dVertex
 10
321.895089
 20
492.761317
 30
0.0
  0
VERTEX
  5
458
100
AcDbEntity
  8
LAY-9
  6
CONTINUOUS
 62
     1
100
AcDbVertex
100
AcDb2dVertex
 10
321.9
 20
493.1
 30
0.0
  0
VERTEX
  5
459
100
AcDbEntity
  8
LAY-9
  6
CONTINUOUS
 62
     1
100
AcDbVertex
100
AcDb2dVertex
 10
321.882126
 20
493.422261
 30
0.0
  0
VERTEX
  5
45A
100
AcDbEntity
  8
LAY-9
  6
CONTINUOUS
 62
     1
100
AcDbVertex
100
AcDb2dVertex
 10
321.846333
 20
493.755501
 30
0.0
  0
VERTEX
  5
45B
100
AcDbEntity
  8
LAY-9
  6
CONTINUOUS
 62
     1
100
AcDbVertex
100
AcDb2dVertex
 10
321.796756
 20
494.09094
 30
0.0
  0
VERTEX
  5
45C
100
AcDbEntity
  8
LAY-9
  6
CONTINUOUS
 62
     1
100
AcDbVertex
100
AcDb2dVertex
 10
321.737529
 20
494.419797
 30
0.0
  0
VERTEX
  5
45D
100
AcDbEntity
  8
LAY-9
  6
CONTINUOUS
 62
     1
100
AcDbVertex
100
AcDb2dVertex
 10
321.672785
 20
494.733293
 30
0.0
  0
VERTEX
  5
45E
100
AcDbEntity
  8
LAY-9
  6
CONTINUOUS
 62
     1
100
AcDbVertex
100
AcDb2dVertex
 10
321.60666
 20
495.022648
 30
0.0
  0
VERTEX
  5
45F
100
AcDbEntity
  8
LAY-9
  6
CONTINUOUS
 62
     1
100
AcDbVertex
100
AcDb2dVertex
 10
321.543287
 20
495.279081
 30
0.0
  0
VERTEX
  5
460
100
AcDbEntity
  8
LAY-9
  6
CONTINUOUS
 62
     1
100
AcDbVertex
100
AcDb2dVertex
 10
321.4868
 20
495.493813
 30
0.0
  0
VERTEX
  5
461
100
AcDbEntity
  8
LAY-9
  6
CONTINUOUS
 62
     1
100
AcDbVertex
100
AcDb2dVertex
 10
321.441334
 20
495.658064
 30
0.0
  0
VERTEX
  5
462
100
AcDbEntity
  8
LAY-9
  6
CONTINUOUS
 62
     1
100
AcDbVertex
100
AcDb2dVertex
 10
321.411022
 20
495.763053
 30
0.0
  0
VERTEX
  5
463
100
AcDbEntity
  8
LAY-9
  6
CONTINUOUS
 62
     1
100
AcDbVertex
100
AcDb2dVertex
 10
321.4
 20
495.8
 30
0.0
  0
SEQEND
  5
464
100
AcDbEntity
  8
LAY-9
  6
CONTINUOUS
 62
     1
  0
LINE
  5
465
100
AcDbEntity
  8
LAY-9
  6
DASHED2
 62
     1
100
AcDbLine
 10
257.0
 20
484.5
 30
0.0
 11
257.0
 21
489.0
 31
0.0
  0
LINE
  5
466
100
AcDbEntity
  8
LAY-9
  6
DASHED2
 62
     1
100
AcDbLine
 10
257.0
 20
489.0
 30
0.0
 11
317.0
 21
489.0
 31
0.0
  0
LINE
  5
467
100
AcDbEntity
  8
LAY-9
  6
DASHED2
 62
     1
100
AcDbLine
 10
317.0
 20
489.0
 30
0.0
 11
317.0
 21
484.5
 31
0.0
  0
LINE
  5
468
100
AcDbEntity
  8
LAY-9
  6
CONTINUOUS
 62
     1
100
AcDbLine
 10
84.0
 20
171.4
 30
0.0
 11
217.782117
 21
171.4
 31
0.0
  0
LINE
  5
469
100
AcDbEntity
  8
LAY-9
  6
CONTINUOUS
 62
     1
100
AcDbLine
 10
69.0
 20
168.4
 30
0.0
 11
214.5
 21
168.4
 31
0.0
  0
LINE
  5
46A
100
AcDbEntity
  8
LAY-9
  6
DASHED2
 62
     1
100
AcDbLine
 10
709.1
 20
196.4
 30
0.0
 11
709.1
 21
171.4
 31
0.0
  0
LINE
  5
46B
100
AcDbEntity
  8
LAY-9
  6
DASHED2
 62
     1
100
AcDbLine
 10
707.6
 20
165.4
 30
0.0
 11
712.1
 21
165.4
 31
0.0
  0
LINE
  5
46C
100
AcDbEntity
  8
LAY-9
  6
DASHED2
 62
     1
100
AcDbLine
 10
707.6
 20
105.4
 30
0.0
 11
712.1
 21
105.4
 31
0.0
  0
LINE
  5
46D
100
AcDbEntity
  8
LAY-9
  6
DASHED2
 62
     1
100
AcDbLine
 10
712.1
 20
165.4
 30
0.0
 11
712.1
 21
105.4
 31
0.0
  0
LINE
  5
46E
100
AcDbEntity
  8
LAY-9
  6
DASHED2
 62
     1
100
AcDbLine
 10
157.5
 20
487.5
 30
0.0
 11
157.5
 21
492.0
 31
0.0
  0
LINE
  5
46F
100
AcDbEntity
  8
LAY-9
  6
DASHED2
 62
     1
100
AcDbLine
 10
352.5
 20
487.5
 30
0.0
 11
352.5
 21
492.0
 31
0.0
  0
LINE
  5
470
100
AcDbEntity
  8
LAY-9
  6
DASHED2
 62
     1
100
AcDbLine
 10
157.5
 20
492.0
 30
0.0
 11
251.298333
 21
492.0
 31
0.0
  0
LINE
  5
471
100
AcDbEntity
  8
LAY-9
  6
CONTINUOUS
 62
     1
100
AcDbLine
 10
242.950518
 20
171.4
 30
0.0
 11
402.5
 21
171.4
 31
0.0
  0
LINE
  5
472
100
AcDbEntity
  8
LAY-9
  6
CONTINUOUS
 62
     1
100
AcDbLine
 10
242.14667
 20
168.4
 30
0.0
 11
403.5
 21
168.4
 31
0.0
  0
POLYLINE
  5
473
100
AcDbEntity
  8
LAY-9
  6
CONTINUOUS
 62
     1
100
AcDb2dPolyline
 66
     1
 10
0.0
 20
0.0
 30
0.0
 70
   128
  0
VERTEX
  5
474
100
AcDbEntity
  8
LAY-9
  6
CONTINUOUS
 62
     1
100
AcDbVertex
100
AcDb2dVertex
 10
403.5
 20
168.4
 30
0.0
  0
VERTEX
  5
475
100
AcDbEntity
  8
LAY-9
  6
CONTINUOUS
 62
     1
100
AcDbVertex
100
AcDb2dVertex
 10
403.525267
 20
168.320251
 30
0.0
  0
VERTEX
  5
476
100
AcDbEntity
  8
LAY-9
  6
CONTINUOUS
 62
     1
100
AcDbVertex
100
AcDb2dVertex
 10
403.59526
 20
168.094391
 30
0.0
  0
VERTEX
  5
477
100
AcDbEntity
  8
LAY-9
  6
CONTINUOUS
 62
     1
100
AcDbVertex
100
AcDb2dVertex
 10
403.701264
 20
167.742502
 30
0.0
  0
VERTEX
  5
478
100
AcDbEntity
  8
LAY-9
  6
CONTINUOUS
 62
     1
100
AcDbVertex
100
AcDb2dVertex
 10
403.834565
 20
167.284663
 30
0.0
  0
VERTEX
  5
479
100
AcDbEntity
  8
LAY-9
  6
CONTINUOUS
 62
     1
100
AcDbVertex
100
AcDb2dVertex
 10
403.986449
 20
166.740956
 30
0.0
  0
VERTEX
  5
47A
100
AcDbEntity
  8
LAY-9
  6
CONTINUOUS
 62
     1
100
AcDbVertex
100
AcDb2dVertex
 10
404.148202
 20
166.131461
 30
0.0
  0
VERTEX
  5
47B
100
AcDbEntity
  8
LAY-9
  6
CONTINUOUS
 62
     1
100
AcDbVertex
100
AcDb2dVertex
 10
404.311109
 20
165.47626
 30
0.0
  0
VERTEX
  5
47C
100
AcDbEntity
  8
LAY-9
  6
CONTINUOUS
 62
     1
100
AcDbVertex
100
AcDb2dVertex
 10
404.466457
 20
164.795432
 30
0.0
  0
VERTEX
  5
47D
100
AcDbEntity
  8
LAY-9
  6
CONTINUOUS
 62
     1
100
AcDbVertex
100
AcDb2dVertex
 10
404.60553
 20
164.109059
 30
0.0
  0
VERTEX
  5
47E
100
AcDbEntity
  8
LAY-9
  6
CONTINUOUS
 62
     1
100
AcDbVertex
100
AcDb2dVertex
 10
404.719616
 20
163.437221
 30
0.0
  0
VERTEX
  5
47F
100
AcDbEntity
  8
LAY-9
  6
CONTINUOUS
 62
     1
100
AcDbVertex
100
AcDb2dVertex
 10
404.8
 20
162.8
 30
0.0
  0
VERTEX
  5
480
100
AcDbEntity
  8
LAY-9
  6
CONTINUOUS
 62
     1
100
AcDbVertex
100
AcDb2dVertex
 10
404.841924
 20
162.160664
 30
0.0
  0
VERTEX
  5
481
100
AcDbEntity
  8
LAY-9
  6
CONTINUOUS
 62
     1
100
AcDbVertex
100
AcDb2dVertex
 10
404.839243
 20
161.574068
 30
0.0
  0
VERTEX
  5
482
100
AcDbEntity
  8
LAY-9
  6
CONTINUOUS
 62
     1
100
AcDbVertex
100
AcDb2dVertex
 10
404.79797
 20
161.027678
 30
0.0
  0
VERTEX
  5
483
100
AcDbEntity
  8
LAY-9
  6
CONTINUOUS
 62
     1
100
AcDbVertex
100
AcDb2dVertex
 10
404.724118
 20
160.50896
 30
0.0
  0
VERTEX
  5
484
100
AcDbEntity
  8
LAY-9
  6
CONTINUOUS
 62
     1
100
AcDbVertex
100
AcDb2dVertex
 10
404.623699
 20
160.005383
 30
0.0
  0
VERTEX
  5
485
100
AcDbEntity
  8
LAY-9
  6
CONTINUOUS
 62
     1
100
AcDbVertex
100
AcDb2dVertex
 10
404.502727
 20
159.504412
 30
0.0
  0
VERTEX
  5
486
100
AcDbEntity
  8
LAY-9
  6
CONTINUOUS
 62
     1
100
AcDbVertex
100
AcDb2dVertex
 10
404.367213
 20
158.993515
 30
0.0
  0
VERTEX
  5
487
100
AcDbEntity
  8
LAY-9
  6
CONTINUOUS
 62
     1
100
AcDbVertex
100
AcDb2dVertex
 10
404.223171
 20
158.460158
 30
0.0
  0
VERTEX
  5
488
100
AcDbEntity
  8
LAY-9
  6
CONTINUOUS
 62
     1
100
AcDbVertex
100
AcDb2dVertex
 10
404.076613
 20
157.891809
 30
0.0
  0
VERTEX
  5
489
100
AcDbEntity
  8
LAY-9
  6
CONTINUOUS
 62
     1
100
AcDbVertex
100
AcDb2dVertex
 10
403.933552
 20
157.275934
 30
0.0
  0
VERTEX
  5
48A
100
AcDbEntity
  8
LAY-9
  6
CONTINUOUS
 62
     1
100
AcDbVertex
100
AcDb2dVertex
 10
403.8
 20
156.6
 30
0.0
  0
VERTEX
  5
48B
100
AcDbEntity
  8
LAY-9
  6
CONTINUOUS
 62
     1
100
AcDbVertex
100
AcDb2dVertex
 10
403.714466
 20
156.083684
 30
0.0
  0
VERTEX
  5
48C
100
AcDbEntity
  8
LAY-9
  6
CONTINUOUS
 62
     1
100
AcDbVertex
100
AcDb2dVertex
 10
403.636724
 20
155.546113
 30
0.0
  0
VERTEX
  5
48D
100
AcDbEntity
  8
LAY-9
  6
CONTINUOUS
 62
     1
100
AcDbVertex
100
AcDb2dVertex
 10
403.566848
 20
155.002127
 30
0.0
  0
VERTEX
  5
48E
100
AcDbEntity
  8
LAY-9
  6
CONTINUOUS
 62
     1
100
AcDbVertex
100
AcDb2dVertex
 10
403.504915
 20
154.466565
 30
0.0
  0
VERTEX
  5
48F
100
AcDbEntity
  8
LAY-9
  6
CONTINUOUS
 62
     1
100
AcDbVertex
100
AcDb2dVertex
 10
403.450997
 20
153.954267
 30
0.0
  0
VERTEX
  5
490
100
AcDbEntity
  8
LAY-9
  6
CONTINUOUS
 62
     1
100
AcDbVertex
100
AcDb2dVertex
 10
403.40517
 20
153.480071
 30
0.0
  0
VERTEX
  5
491
100
AcDbEntity
  8
LAY-9
  6
CONTINUOUS
 62
     1
100
AcDbVertex
100
AcDb2dVertex
 10
403.367507
 20
153.058816
 30
0.0
  0
VERTEX
  5
492
100
AcDbEntity
  8
LAY-9
  6
CONTINUOUS
 62
     1
100
AcDbVertex
100
AcDb2dVertex
 10
403.338085
 20
152.705343
 30
0.0
  0
VERTEX
  5
493
100
AcDbEntity
  8
LAY-9
  6
CONTINUOUS
 62
     1
100
AcDbVertex
100
AcDb2dVertex
 10
403.316976
 20
152.43449
 30
0.0
  0
VERTEX
  5
494
100
AcDbEntity
  8
LAY-9
  6
CONTINUOUS
 62
     1
100
AcDbVertex
100
AcDb2dVertex
 10
403.304256
 20
152.261096
 30
0.0
  0
VERTEX
  5
495
100
AcDbEntity
  8
LAY-9
  6
CONTINUOUS
 62
     1
100
AcDbVertex
100
AcDb2dVertex
 10
403.3
 20
152.2
 30
0.0
  0
SEQEND
  5
496
100
AcDbEntity
  8
LAY-9
  6
CONTINUOUS
 62
     1
  0
LINE
  5
497
100
AcDbEntity
  8
LAY-9
  6
CONTINUOUS
 62
     1
100
AcDbLine
 10
84.0
 20
154.4
 30
0.0
 11
84.0
 21
64.6
 31
0.0
  0
LINE
  5
498
100
AcDbEntity
  8
LAY-9
  6
CONTINUOUS
 62
     1
100
AcDbLine
 10
59.0
 20
196.4
 30
0.0
 11
59.0
 21
64.6
 31
0.0
  0
LINE
  5
499
100
AcDbEntity
  8
LAY-9
  6
CONTINUOUS
 62
     1
100
AcDbLine
 10
87.0
 20
154.4
 30
0.0
 11
87.0
 21
65.1
 31
0.0
  0
POLYLINE
  5
49A
100
AcDbEntity
  8
LAY-9
  6
CONTINUOUS
 62
     1
100
AcDb2dPolyline
 66
     1
 10
0.0
 20
0.0
 30
0.0
 70
   128
  0
VERTEX
  5
49B
100
AcDbEntity
  8
LAY-9
  6
CONTINUOUS
 62
     1
100
AcDbVertex
100
AcDb2dVertex
 10
59.0
 20
64.6
 30
0.0
  0
VERTEX
  5
49C
100
AcDbEntity
  8
LAY-9
  6
CONTINUOUS
 62
     1
100
AcDbVertex
100
AcDb2dVertex
 10
59.209891
 20
64.574927
 30
0.0
  0
VERTEX
  5
49D
100
AcDbEntity
  8
LAY-9
  6
CONTINUOUS
 62
     1
100
AcDbVertex
100
AcDb2dVertex
 10
59.801228
 20
64.506101
 30
0.0
  0
VERTEX
  5
49E
100
AcDbEntity
  8
LAY-9
  6
CONTINUOUS
 62
     1
100
AcDbVertex
100
AcDb2dVertex
 10
60.716506
 20
64.40311
 30
0.0
  0
VERTEX
  5
49F
100
AcDbEntity
  8
LAY-9
  6
CONTINUOUS
 62
     1
100
AcDbVertex
100
AcDb2dVertex
 10
61.898219
 20
64.275546
 30
0.0
  0
VERTEX
  5
4A0
100
AcDbEntity
  8
LAY-9
  6
CONTINUOUS
 62
     1
100
AcDbVertex
100
AcDb2dVertex
 10
63.288863
 20
64.132995
 30
0.0
  0
VERTEX
  5
4A1
100
AcDbEntity
  8
LAY-9
  6
CONTINUOUS
 62
     1
100
AcDbVertex
100
AcDb2dVertex
 10
64.830934
 20
63.985049
 30
0.0
  0
VERTEX
  5
4A2
100
AcDbEntity
  8
LAY-9
  6
CONTINUOUS
 62
     1
100
AcDbVertex
100
AcDb2dVertex
 10
66.466925
 20
63.841296
 30
0.0
  0
VERTEX
  5
4A3
100
AcDbEntity
  8
LAY-9
  6
CONTINUOUS
 62
     1
100
AcDbVertex
100
AcDb2dVertex
 10
68.139332
 20
63.711325
 30
0.0
  0
VERTEX
  5
4A4
100
AcDbEntity
  8
LAY-9
  6
CONTINUOUS
 62
     1
100
AcDbVertex
100
AcDb2dVertex
 10
69.79065
 20
63.604726
 30
0.0
  0
VERTEX
  5
4A5
100
AcDbEntity
  8
LAY-9
  6
CONTINUOUS
 62
     1
100
AcDbVertex
100
AcDb2dVertex
 10
71.363375
 20
63.531088
 30
0.0
  0
VERTEX
  5
4A6
100
AcDbEntity
  8
LAY-9
  6
CONTINUOUS
 62
     1
100
AcDbVertex
100
AcDb2dVertex
 10
72.8
 20
63.5
 30
0.0
  0
VERTEX
  5
4A7
100
AcDbEntity
  8
LAY-9
  6
CONTINUOUS
 62
     1
100
AcDbVertex
100
AcDb2dVertex
 10
73.589307
 20
63.505406
 30
0.0
  0
VERTEX
  5
4A8
100
AcDbEntity
  8
LAY-9
  6
CONTINUOUS
 62
     1
100
AcDbVertex
100
AcDb2dVertex
 10
74.323385
 20
63.528707
 30
0.0
  0
VERTEX
  5
4A9
100
AcDbEntity
  8
LAY-9
  6
CONTINUOUS
 62
     1
100
AcDbVertex
100
AcDb2dVertex
 10
75.018934
 20
63.568424
 30
0.0
  0
VERTEX
  5
4AA
100
AcDbEntity
  8
LAY-9
  6
CONTINUOUS
 62
     1
100
AcDbVertex
100
AcDb2dVertex
 10
75.692651
 20
63.623082
 30
0.0
  0
VERTEX
  5
4AB
100
AcDbEntity
  8
LAY-9
  6
CONTINUOUS
 62
     1
100
AcDbVertex
100
AcDb2dVertex
 10
76.361233
 20
63.691205
 30
0.0
  0
VERTEX
  5
4AC
100
AcDbEntity
  8
LAY-9
  6
CONTINUOUS
 62
     1
100
AcDbVertex
100
AcDb2dVertex
 10
77.04138
 20
63.771315
 30
0.0
  0
VERTEX
  5
4AD
100
AcDbEntity
  8
LAY-9
  6
CONTINUOUS
 62
     1
100
AcDbVertex
100
AcDb2dVertex
 10
77.749788
 20
63.861936
 30
0.0
  0
VERTEX
  5
4AE
100
AcDbEntity
  8
LAY-9
  6
CONTINUOUS
 62
     1
100
AcDbVertex
100
AcDb2dVertex
 10
78.503157
 20
63.961592
 30
0.0
  0
VERTEX
  5
4AF
100
AcDbEntity
  8
LAY-9
  6
CONTINUOUS
 62
     1
100
AcDbVertex
100
AcDb2dVertex
 10
79.318183
 20
64.068805
 30
0.0
  0
VERTEX
  5
4B0
100
AcDbEntity
  8
LAY-9
  6
CONTINUOUS
 62
     1
100
AcDbVertex
100
AcDb2dVertex
 10
80.211565
 20
64.1821
 30
0.0
  0
VERTEX
  5
4B1
100
AcDbEntity
  8
LAY-9
  6
CONTINUOUS
 62
     1
100
AcDbVertex
100
AcDb2dVertex
 10
81.2
 20
64.3
 30
0.0
  0
VERTEX
  5
4B2
100
AcDbEntity
  8
LAY-9
  6
CONTINUOUS
 62
     1
100
AcDbVertex
100
AcDb2dVertex
 10
81.552479
 20
64.340005
 30
0.0
  0
VERTEX
  5
4B3
100
AcDbEntity
  8
LAY-9
  6
CONTINUOUS
 62
     1
100
AcDbVertex
100
AcDb2dVertex
 10
81.909396
 20
64.379634
 30
0.0
  0
VERTEX
  5
4B4
100
AcDbEntity
  8
LAY-9
  6
CONTINUOUS
 62
     1
100
AcDbVertex
100
AcDb2dVertex
 10
82.262743
 20
64.418164
 30
0.0
  0
VERTEX
  5
4B5
100
AcDbEntity
  8
LAY-9
  6
CONTINUOUS
 62
     1
100
AcDbVertex
100
AcDb2dVertex
 10
82.604511
 20
64.454872
 30
0.0
  0
VERTEX
  5
4B6
100
AcDbEntity
  8
LAY-9
  6
CONTINUOUS
 62
     1
100
AcDbVertex
100
AcDb2dVertex
 10
82.926693
 20
64.489033
 30
0.0
  0
VERTEX
  5
4B7
100
AcDbEntity
  8
LAY-9
  6
CONTINUOUS
 62
     1
100
AcDbVertex
100
AcDb2dVertex
 10
83.22128
 20
64.519924
 30
0.0
  0
VERTEX
  5
4B8
100
AcDbEntity
  8
LAY-9
  6
CONTINUOUS
 62
     1
100
AcDbVertex
100
AcDb2dVertex
 10
83.480264
 20
64.546822
 30
0.0
  0
VERTEX
  5
4B9
100
AcDbEntity
  8
LAY-9
  6
CONTINUOUS
 62
     1
100
AcDbVertex
100
AcDb2dVertex
 10
83.695636
 20
64.569002
 30
0.0
  0
VERTEX
  5
4BA
100
AcDbEntity
  8
LAY-9
  6
CONTINUOUS
 62
     1
100
AcDbVertex
100
AcDb2dVertex
 10
83.859388
 20
64.58574
 30
0.0
  0
VERTEX
  5
4BB
100
AcDbEntity
  8
LAY-9
  6
CONTINUOUS
 62
     1
100
AcDbVertex
100
AcDb2dVertex
 10
83.963512
 20
64.596315
 30
0.0
  0
VERTEX
  5
4BC
100
AcDbEntity
  8
LAY-9
  6
CONTINUOUS
 62
     1
100
AcDbVertex
100
AcDb2dVertex
 10
84.0
 20
64.6
 30
0.0
  0
SEQEND
  5
4BD
100
AcDbEntity
  8
LAY-9
  6
CONTINUOUS
 62
     1
  0
POLYLINE
  5
4BE
100
AcDbEntity
  8
LAY-9
  6
CONTINUOUS
 62
     1
100
AcDb2dPolyline
 66
     1
 10
0.0
 20
0.0
 30
0.0
 70
   128
  0
VERTEX
  5
4BF
100
AcDbEntity
  8
LAY-9
  6
CONTINUOUS
 62
     1
100
AcDbVertex
100
AcDb2dVertex
 10
87.0
 20
65.1
 30
0.0
  0
VERTEX
  5
4C0
100
AcDbEntity
  8
LAY-9
  6
CONTINUOUS
 62
     1
100
AcDbVertex
100
AcDb2dVertex
 10
87.113683
 20
65.083014
 30
0.0
  0
VERTEX
  5
4C1
100
AcDbEntity
  8
LAY-9
  6
CONTINUOUS
 62
     1
100
AcDbVertex
100
AcDb2dVertex
 10
87.435044
 20
65.036537
 30
0.0
  0
VERTEX
  5
4C2
100
AcDbEntity
  8
LAY-9
  6
CONTINUOUS
 62
     1
100
AcDbVertex
100
AcDb2dVertex
 10
87.934551
 20
64.967289
 30
0.0
  0
VERTEX
  5
4C3
100
AcDbEntity
  8
LAY-9
  6
CONTINUOUS
 62
     1
100
AcDbVertex
100
AcDb2dVertex
 10
88.582672
 20
64.88199
 30
0.0
  0
VERTEX
  5
4C4
100
AcDbEntity
  8
LAY-9
  6
CONTINUOUS
 62
     1
100
AcDbVertex
100
AcDb2dVertex
 10
89.349875
 20
64.787362
 30
0.0
  0
VERTEX
  5
4C5
100
AcDbEntity
  8
LAY-9
  6
CONTINUOUS
 62
     1
100
AcDbVertex
100
AcDb2dVertex
 10
90.206626
 20
64.690123
 30
0.0
  0
VERTEX
  5
4C6
100
AcDbEntity
  8
LAY-9
  6
CONTINUOUS
 62
     1
100
AcDbVertex
100
AcDb2dVertex
 10
91.123395
 20
64.596996
 30
0.0
  0
VERTEX
  5
4C7
100
AcDbEntity
  8
LAY-9
  6
CONTINUOUS
 62
     1
100
AcDbVertex
100
AcDb2dVertex
 10
92.070649
 20
64.514699
 30
0.0
  0
VERTEX
  5
4C8
100
AcDbEntity
  8
LAY-9
  6
CONTINUOUS
 62
     1
100
AcDbVertex
100
AcDb2dVertex
 10
93.018856
 20
64.449954
 30
0.0
  0
VERTEX
  5
4C9
100
AcDbEntity
  8
LAY-9
  6
CONTINUOUS
 62
     1
100
AcDbVertex
100
AcDb2dVertex
 10
93.938484
 20
64.409481
 30
0.0
  0
VERTEX
  5
4CA
100
AcDbEntity
  8
LAY-9
  6
CONTINUOUS
 62
     1
100
AcDbVertex
100
AcDb2dVertex
 10
94.8
 20
64.4
 30
0.0
  0
VERTEX
  5
4CB
100
AcDbEntity
  8
LAY-9
  6
CONTINUOUS
 62
     1
100
AcDbVertex
100
AcDb2dVertex
 10
95.441381
 20
64.418649
 30
0.0
  0
VERTEX
  5
4CC
100
AcDbEntity
  8
LAY-9
  6
CONTINUOUS
 62
     1
100
AcDbVertex
100
AcDb2dVertex
 10
96.035922
 20
64.459135
 30
0.0
  0
VERTEX
  5
4CD
100
AcDbEntity
  8
LAY-9
  6
CONTINUOUS
 62
     1
100
AcDbVertex
100
AcDb2dVertex
 10
96.594659
 20
64.51839
 30
0.0
  0
VERTEX
  5
4CE
100
AcDbEntity
  8
LAY-9
  6
CONTINUOUS
 62
     1
100
AcDbVertex
100
AcDb2dVertex
 10
97.128629
 20
64.593346
 30
0.0
  0
VERTEX
  5
4CF
100
AcDbEntity
  8
LAY-9
  6
CONTINUOUS
 62
     1
100
AcDbVertex
100
AcDb2dVertex
 10
97.648869
 20
64.680936
 30
0.0
  0
VERTEX
  5
4D0
100
AcDbEntity
  8
LAY-9
  6
CONTINUOUS
 62
     1
100
AcDbVertex
100
AcDb2dVertex
 10
98.166414
 20
64.778092
 30
0.0
  0
VERTEX
  5
4D1
100
AcDbEntity
  8
LAY-9
  6
CONTINUOUS
 62
     1
100
AcDbVertex
100
AcDb2dVertex
 10
98.692301
 20
64.881747
 30
0.0
  0
VERTEX
  5
4D2
100
AcDbEntity
  8
LAY-9
  6
CONTINUOUS
 62
     1
100
AcDbVertex
100
AcDb2dVertex
 10
99.237567
 20
64.988832
 30
0.0
  0
VERTEX
  5
4D3
100
AcDbEntity
  8
LAY-9
  6
CONTINUOUS
 62
     1
100
AcDbVertex
100
AcDb2dVertex
 10
99.813247
 20
65.096281
 30
0.0
  0
VERTEX
  5
4D4
100
AcDbEntity
  8
LAY-9
  6
CONTINUOUS
 62
     1
100
AcDbVertex
100
AcDb2dVertex
 10
100.43038
 20
65.201027
 30
0.0
  0
VERTEX
  5
4D5
100
AcDbEntity
  8
LAY-9
  6
CONTINUOUS
 62
     1
100
AcDbVertex
100
AcDb2dVertex
 10
101.1
 20
65.3
 30
0.0
  0
VERTEX
  5
4D6
100
AcDbEntity
  8
LAY-9
  6
CONTINUOUS
 62
     1
100
AcDbVertex
100
AcDb2dVertex
 10
101.786705
 20
65.385975
 30
0.0
  0
VERTEX
  5
4D7
100
AcDbEntity
  8
LAY-9
  6
CONTINUOUS
 62
     1
100
AcDbVertex
100
AcDb2dVertex
 10
102.50899
 20
65.46399
 30
0.0
  0
VERTEX
  5
4D8
100
AcDbEntity
  8
LAY-9
  6
CONTINUOUS
 62
     1
100
AcDbVertex
100
AcDb2dVertex
 10
103.24558
 20
65.533998
 30
0.0
  0
VERTEX
  5
4D9
100
AcDbEntity
  8
LAY-9
  6
CONTINUOUS
 62
     1
100
AcDbVertex
100
AcDb2dVertex
 10
103.975197
 20
65.595949
 30
0.0
  0
VERTEX
  5
4DA
100
AcDbEntity
  8
LAY-9
  6
CONTINUOUS
 62
     1
100
AcDbVertex
100
AcDb2dVertex
 10
104.676564
 20
65.649796
 30
0.0
  0
VERTEX
  5
4DB
100
AcDbEntity
  8
LAY-9
  6
CONTINUOUS
 62
     1
100
AcDbVertex
100
AcDb2dVertex
 10
105.328404
 20
65.695491
 30
0.0
  0
VERTEX
  5
4DC
100
AcDbEntity
  8
LAY-9
  6
CONTINUOUS
 62
     1
100
AcDbVertex
100
AcDb2dVertex
 10
105.90944
 20
65.732986
 30
0.0
  0
VERTEX
  5
4DD
100
AcDbEntity
  8
LAY-9
  6
CONTINUOUS
 62
     1
100
AcDbVertex
100
AcDb2dVertex
 10
106.398394
 20
65.762233
 30
0.0
  0
VERTEX
  5
4DE
100
AcDbEntity
  8
LAY-9
  6
CONTINUOUS
 62
     1
100
AcDbVertex
100
AcDb2dVertex
 10
106.773991
 20
65.783182
 30
0.0
  0
VERTEX
  5
4DF
100
AcDbEntity
  8
LAY-9
  6
CONTINUOUS
 62
     1
100
AcDbVertex
100
AcDb2dVertex
 10
107.014951
 20
65.795788
 30
0.0
  0
VERTEX
  5
4E0
100
AcDbEntity
  8
LAY-9
  6
CONTINUOUS
 62
     1
100
AcDbVertex
100
AcDb2dVertex
 10
107.1
 20
65.8
 30
0.0
  0
SEQEND
  5
4E1
100
AcDbEntity
  8
LAY-9
  6
CONTINUOUS
 62
     1
  0
ARC
  5
4E2
100
AcDbEntity
  8
LAY-9
  6
CONTINUOUS
 62
     1
100
AcDbCircle
 10
87.0
 20
465.5
 30
0.0
 40
18.0
100
AcDbArc
 50
90.0
 51
300.0
  0
LINE
  5
4E3
100
AcDbEntity
  8
LAY-9
  6
CONTINUOUS
 62
     1
100
AcDbLine
 10
96.0
 20
449.911543
 30
0.0
 11
144.0
 21
477.624356
 31
0.0
  0
LINE
  5
4E4
100
AcDbEntity
  8
LAY-9
  6
CONTINUOUS
 62
     1
100
AcDbLine
 10
145.0
 20
487.5
 30
0.0
 11
145.0
 21
479.356406
 31
0.0
  0
ARC
  5
4E5
100
AcDbEntity
  8
LAY-9
  6
CONTINUOUS
 62
     1
100
AcDbCircle
 10
143.0
 20
479.356406
 30
0.0
 40
2.0
100
AcDbArc
 50
300.0
 51
0.0
  0
LINE
  5
4E6
100
AcDbEntity
  8
LAY-9
  6
CONTINUOUS
 62
     1
100
AcDbLine
 10
87.0
 20
483.5
 30
0.0
 11
89.0
 21
483.5
 31
0.0
  0
ARC
  5
4E7
100
AcDbEntity
  8
LAY-9
  6
CONTINUOUS
 62
     1
100
AcDbCircle
 10
89.0
 20
485.5
 30
0.0
 40
2.0
100
AcDbArc
 50
270.0
 51
0.0
  0
LINE
  5
4E8
100
AcDbEntity
  8
LAY-9
  6
CONTINUOUS
 62
     1
100
AcDbLine
 10
91.0
 20
485.5
 30
0.0
 11
91.0
 21
487.5
 31
0.0
  0
LINE
  5
4E9
100
AcDbEntity
  8
LAY-9
  6
CONTINUOUS
 62
     1
100
AcDbLine
 10
93.25
 20
171.4
 30
0.0
 11
93.25
 21
168.4
 31
0.0
  0
LINE
  5
4EA
100
AcDbEntity
  8
LAY-9
  6
CONTINUOUS
 62
     1
100
AcDbLine
 10
80.75
 20
171.4
 30
0.0
 11
80.75
 21
168.4
 31
0.0
  0
LINE
  5
4EB
100
AcDbEntity
  8
LAY-9
  6
CONTINUOUS
 62
     1
100
AcDbLine
 10
69.0
 20
168.4
 30
0.0
 11
69.0
 21
155.4
 31
0.0
  0
LINE
  5
4EC
100
AcDbEntity
  8
LAY-9
  6
CONTINUOUS
 62
     1
100
AcDbLine
 10
145.0
 20
168.4
 30
0.0
 11
145.0
 21
155.4
 31
0.0
  0
LINE
  5
4ED
100
AcDbEntity
  8
LAY-9
  6
CONTINUOUS
 62
     1
100
AcDbLine
 10
69.0
 20
185.4
 30
0.0
 11
145.0
 21
185.4
 31
0.0
  0
LINE
  5
4EE
100
AcDbEntity
  8
LAY-9
  6
CONTINUOUS
 62
     1
100
AcDbLine
 10
144.0
 20
154.4
 30
0.0
 11
70.0
 21
154.4
 31
0.0
  0
ARC
  5
4EF
100
AcDbEntity
  8
LAY-9
  6
CONTINUOUS
 62
     1
100
AcDbCircle
 10
70.0
 20
155.4
 30
0.0
 40
1.0
100
AcDbArc
 50
180.0
 51
270.0
  0
LINE
  5
4F0
100
AcDbEntity
  8
LAY-9
  6
CONTINUOUS
 62
     1
100
AcDbLine
 10
69.0
 20
185.4
 30
0.0
 11
69.0
 21
172.4
 31
0.0
  0
LINE
  5
4F1
100
AcDbEntity
  8
LAY-9
  6
CONTINUOUS
 62
     1
100
AcDbLine
 10
144.0
 20
171.4
 30
0.0
 11
70.0
 21
171.4
 31
0.0
  0
ARC
  5
4F2
100
AcDbEntity
  8
LAY-9
  6
CONTINUOUS
 62
     1
100
AcDbCircle
 10
70.0
 20
172.4
 30
0.0
 40
1.0
100
AcDbArc
 50
180.0
 51
270.0
  0
LINE
  5
4F3
100
AcDbEntity
  8
LAY-9
  6
CONTINUOUS
 62
     1
100
AcDbLine
 10
145.0
 20
185.4
 30
0.0
 11
145.0
 21
172.4
 31
0.0
  0
ARC
  5
4F4
100
AcDbEntity
  8
LAY-9
  6
CONTINUOUS
 62
     1
100
AcDbCircle
 10
144.0
 20
172.4
 30
0.0
 40
1.0
100
AcDbArc
 50
270.0
 51
0.0
  0
LINE
  5
4F5
100
AcDbEntity
  8
LAY-9
  6
CONTINUOUS
 62
     1
100
AcDbLine
 10
59.0
 20
196.4
 30
0.0
 11
273.0
 21
196.4
 31
0.0
  0
LINE
  5
4F6
100
AcDbEntity
  8
LAY-9
  6
CONTINUOUS
 62
     1
100
AcDbLine
 10
301.0
 20
196.4
 30
0.0
 11
402.5
 21
196.4
 31
0.0
  0
POLYLINE
  5
4F7
100
AcDbEntity
  8
LAY-9
  6
CONTINUOUS
 62
     1
100
AcDb2dPolyline
 66
     1
 10
0.0
 20
0.0
 30
0.0
 70
   128
  0
VERTEX
  5
4F8
100
AcDbEntity
  8
LAY-9
  6
CONTINUOUS
 62
     1
100
AcDbVertex
100
AcDb2dVertex
 10
402.5
 20
171.4
 30
0.0
  0
VERTEX
  5
4F9
100
AcDbEntity
  8
LAY-9
  6
CONTINUOUS
 62
     1
100
AcDbVertex
100
AcDb2dVertex
 10
402.475749
 20
171.491286
 30
0.0
  0
VERTEX
  5
4FA
100
AcDbEntity
  8
LAY-9
  6
CONTINUOUS
 62
     1
100
AcDbVertex
100
AcDb2dVertex
 10
402.409392
 20
171.750119
 30
0.0
  0
VERTEX
  5
4FB
100
AcDbEntity
  8
LAY-9
  6
CONTINUOUS
 62
     1
100
AcDbVertex
100
AcDb2dVertex
 10
402.310519
 20
172.153957
 30
0.0
  0
VERTEX
  5
4FC
100
AcDbEntity
  8
LAY-9
  6
CONTINUOUS
 62
     1
100
AcDbVertex
100
AcDb2dVertex
 10
402.188723
 20
172.68026
 30
0.0
  0
VERTEX
  5
4FD
100
AcDbEntity
  8
LAY-9
  6
CONTINUOUS
 62
     1
100
AcDbVertex
100
AcDb2dVertex
 10
402.053596
 20
173.306488
 30
0.0
  0
VERTEX
  5
4FE
100
AcDbEntity
  8
LAY-9
  6
CONTINUOUS
 62
     1
100
AcDbVertex
100
AcDb2dVertex
 10
401.914728
 20
174.010099
 30
0.0
  0
VERTEX
  5
4FF
100
AcDbEntity
  8
LAY-9
  6
CONTINUOUS
 62
     1
100
AcDbVertex
100
AcDb2dVertex
 10
401.781712
 20
174.768554
 30
0.0
  0
VERTEX
  5
500
100
AcDbEntity
  8
LAY-9
  6
CONTINUOUS
 62
     1
100
AcDbVertex
100
AcDb2dVertex
 10
401.664139
 20
175.559312
 30
0.0
  0
VERTEX
  5
501
100
AcDbEntity
  8
LAY-9
  6
CONTINUOUS
 62
     1
100
AcDbVertex
100
AcDb2dVertex
 10
401.571602
 20
176.359833
 30
0.0
  0
VERTEX
  5
502
100
AcDbEntity
  8
LAY-9
  6
CONTINUOUS
 62
     1
100
AcDbVertex
100
AcDb2dVertex
 10
401.513692
 20
177.147576
 30
0.0
  0
VERTEX
  5
503
100
AcDbEntity
  8
LAY-9
  6
CONTINUOUS
 62
     1
100
AcDbVertex
100
AcDb2dVertex
 10
401.5
 20
177.9
 30
0.0
  0
VERTEX
  5
504
100
AcDbEntity
  8
LAY-9
  6
CONTINUOUS
 62
     1
100
AcDbVertex
100
AcDb2dVertex
 10
401.554048
 20
178.764402
 30
0.0
  0
VERTEX
  5
505
100
AcDbEntity
  8
LAY-9
  6
CONTINUOUS
 62
     1
100
AcDbVertex
100
AcDb2dVertex
 10
401.678147
 20
179.554019
 30
0.0
  0
VERTEX
  5
506
100
AcDbEntity
  8
LAY-9
  6
CONTINUOUS
 62
     1
100
AcDbVertex
100
AcDb2dVertex
 10
401.858676
 20
180.284031
 30
0.0
  0
VERTEX
  5
507
100
AcDbEntity
  8
LAY-9
  6
CONTINUOUS
 62
     1
100
AcDbVertex
100
AcDb2dVertex
 10
402.082016
 20
180.969618
 30
0.0
  0
VERTEX
  5
508
100
AcDbEntity
  8
LAY-9
  6
CONTINUOUS
 62
     1
100
AcDbVertex
100
AcDb2dVertex
 10
402.334546
 20
181.625962
 30
0.0
  0
VERTEX
  5
509
100
AcDbEntity
  8
LAY-9
  6
CONTINUOUS
 62
     1
100
AcDbVertex
100
AcDb2dVertex
 10
402.602646
 20
182.268242
 30
0.0
  0
VERTEX
  5
50A
100
AcDbEntity
  8
LAY-9
  6
CONTINUOUS
 62
     1
100
AcDbVertex
100
AcDb2dVertex
 10
402.872696
 20
182.911638
 30
0.0
  0
VERTEX
  5
50B
100
AcDbEntity
  8
LAY-9
  6
CONTINUOUS
 62
     1
100
AcDbVertex
100
AcDb2dVertex
 10
403.131077
 20
183.571332
 30
0.0
  0
VERTEX
  5
50C
100
AcDbEntity
  8
LAY-9
  6
CONTINUOUS
 62
     1
100
AcDbVertex
100
AcDb2dVertex
 10
403.364168
 20
184.262503
 30
0.0
  0
VERTEX
  5
50D
100
AcDbEntity
  8
LAY-9
  6
CONTINUOUS
 62
     1
100
AcDbVertex
100
AcDb2dVertex
 10
403.558349
 20
185.000333
 30
0.0
  0
VERTEX
  5
50E
100
AcDbEntity
  8
LAY-9
  6
CONTINUOUS
 62
     1
100
AcDbVertex
100
AcDb2dVertex
 10
403.7
 20
185.8
 30
0.0
  0
VERTEX
  5
50F
100
AcDbEntity
  8
LAY-9
  6
CONTINUOUS
 62
     1
100
AcDbVertex
100
AcDb2dVertex
 10
403.79122
 20
186.945267
 30
0.0
  0
VERTEX
  5
510
100
AcDbEntity
  8
LAY-9
  6
CONTINUOUS
 62
     1
100
AcDbVertex
100
AcDb2dVertex
 10
403.78847
 20
188.1792
 30
0.0
  0
VERTEX
  5
511
100
AcDbEntity
  8
LAY-9
  6
CONTINUOUS
 62
     1
100
AcDbVertex
100
AcDb2dVertex
 10
403.70972
 20
189.460135
 30
0.0
  0
VERTEX
  5
512
100
AcDbEntity
  8
LAY-9
  6
CONTINUOUS
 62
     1
100
AcDbVertex
100
AcDb2dVertex
 10
403.572939
 20
190.746409
 30
0.0
  0
VERTEX
  5
513
100
AcDbEntity
  8
LAY-9
  6
CONTINUOUS
 62
     1
100
AcDbVertex
100
AcDb2dVertex
 10
403.396096
 20
191.996356
 30
0.0
  0
VERTEX
  5
514
100
AcDbEntity
  8
LAY-9
  6
CONTINUOUS
 62
     1
100
AcDbVertex
100
AcDb2dVertex
 10
403.19716
 20
193.168313
 30
0.0
  0
VERTEX
  5
515
100
AcDbEntity
  8
LAY-9
  6
CONTINUOUS
 62
     1
100
AcDbVertex
100
AcDb2dVertex
 10
402.9941
 20
194.220616
 30
0.0
  0
VERTEX
  5
516
100
AcDbEntity
  8
LAY-9
  6
CONTINUOUS
 62
     1
100
AcDbVertex
100
AcDb2dVertex
 10
402.804885
 20
195.1116
 30
0.0
  0
VERTEX
  5
517
100
AcDbEntity
  8
LAY-9
  6
CONTINUOUS
 62
     1
100
AcDbVertex
100
AcDb2dVertex
 10
402.647484
 20
195.799602
 30
0.0
  0
VERTEX
  5
518
100
AcDbEntity
  8
LAY-9
  6
CONTINUOUS
 62
     1
100
AcDbVertex
100
AcDb2dVertex
 10
402.539866
 20
196.242956
 30
0.0
  0
VERTEX
  5
519
100
AcDbEntity
  8
LAY-9
  6
CONTINUOUS
 62
     1
100
AcDbVertex
100
AcDb2dVertex
 10
402.5
 20
196.4
 30
0.0
  0
SEQEND
  5
51A
100
AcDbEntity
  8
LAY-9
  6
CONTINUOUS
 62
     1
  0
LINE
  5
51B
100
AcDbEntity
  8
LAY-9
  6
CONTINUOUS
 62
     1
100
AcDbLine
 10
706.2
 20
196.4
 30
0.0
 11
719.6
 21
196.4
 31
0.0
  0
ARC
  5
51C
100
AcDbEntity
  8
LAY-9
  6
CONTINUOUS
 62
     1
100
AcDbCircle
 10
706.2
 20
194.8
 30
0.0
 40
1.6
100
AcDbArc
 50
90.0
 51
180.0
  0
ARC
  5
51D
100
AcDbEntity
  8
LAY-9
  6
CONTINUOUS
 62
     1
100
AcDbCircle
 10
144.0
 20
155.4
 30
0.0
 40
1.0
100
AcDbArc
 50
270.0
 51
0.0
  0
LINE
  5
51E
100
AcDbEntity
  8
LAY-9
  6
CONTINUOUS
 62
     1
100
AcDbLine
 10
88.6
 20
487.5
 30
0.0
 11
161.0
 21
487.5
 31
0.0
  0
LINE
  5
51F
100
AcDbEntity
  8
LAY-9
  6
CONTINUOUS
 62
     1
100
AcDbLine
 10
349.0
 20
487.5
 30
0.0
 11
432.4
 21
487.5
 31
0.0
  0
LINE
  5
520
100
AcDbEntity
  8
LAY-9
  6
CONTINUOUS
 62
     1
100
AcDbLine
 10
314.5
 20
484.5
 30
0.0
 11
321.0
 21
484.5
 31
0.0
  0
LINE
  5
521
100
AcDbEntity
  8
LAY-9
  6
CONTINUOUS
 62
     1
100
AcDbLine
 10
251.0
 20
484.5
 30
0.0
 11
259.5
 21
484.5
 31
0.0
  0
LINE
  5
522
100
AcDbEntity
  8
LAY-9
  6
CONTINUOUS
 62
     1
100
AcDbLine
 10
704.6
 20
173.0
 30
0.0
 11
704.6
 21
180.9
 31
0.0
  0
LINE
  5
523
100
AcDbEntity
  8
LAY-9
  6
CONTINUOUS
 62
     1
100
AcDbLine
 10
707.6
 20
113.9
 30
0.0
 11
707.6
 21
55.5
 31
0.0
  0
LINE
  5
524
100
AcDbEntity
  8
LAY-9
  6
CONTINUOUS
 62
     1
100
AcDbLine
 10
707.6
 20
166.8
 30
0.0
 11
707.6
 21
156.9
 31
0.0
  0
LINE
  5
525
100
AcDbEntity
  8
LAY-9
  6
CONTINUOUS
 62
     1
100
AcDbLine
 10
99.0
 20
534.6
 30
0.0
 11
99.0
 21
531.1
 31
0.0
  0
LINE
  5
526
100
AcDbEntity
  8
LAY-9
  6
CONTINUOUS
 62
     1
100
AcDbLine
 10
553.9
 20
218.4
 30
0.0
 11
428.6
 21
218.4
 31
0.0
  0
LINE
  5
527
100
AcDbEntity
  8
LAY-9
  6
DIVIDE
 62
     1
100
AcDbLine
 10
553.4
 20
168.4
 30
0.0
 11
428.6
 21
168.4
 31
0.0
  0
LINE
  5
528
100
AcDbEntity
  8
LAY-9
  6
CONTINUOUS
 62
     1
100
AcDbLine
 10
769.9
 20
156.4
 30
0.0
 11
751.2
 21
156.4
 31
0.0
  0
LINE
  5
529
100
AcDbEntity
  8
LAY-9
  6
DASHED2
 62
     1
100
AcDbLine
 10
352.5
 20
492.0
 30
0.0
 11
321.774785
 21
492.0
 31
0.0
  0
LINE
  5
52A
100
AcDbEntity
  8
LAY-9
  6
CONTINUOUS
 62
     1
100
AcDbLine
 10
747.6
 20
166.8
 30
0.0
 11
747.6
 21
116.5
 31
0.0
  0
LINE
  5
52B
100
AcDbEntity
  8
LAY-9
  6
CONTINUOUS
 62
     1
100
AcDbLine
 10
747.6
 20
91.2
 30
0.0
 11
747.6
 21
55.5
 31
0.0
  0
LINE
  5
52C
100
AcDbEntity
  8
LAY-9
  6
CONTINUOUS
 62
     1
100
AcDbLine
 10
747.6
 20
109.5
 30
0.0
 11
747.6
 21
99.6
 31
0.0
  0
LINE
  5
52D
100
AcDbEntity
  8
LAY-10
  6
CONTINUOUS
 62
     5
100
AcDbLine
 10
15.0
 20
15.0
 30
0.0
 11
826.0
 21
15.0
 31
0.0
  0
LINE
  5
52E
100
AcDbEntity
  8
LAY-10
  6
CONTINUOUS
 62
     5
100
AcDbLine
 10
826.0
 20
15.0
 30
0.0
 11
826.0
 21
579.0
 31
0.0
  0
LINE
  5
52F
100
AcDbEntity
  8
LAY-10
  6
CONTINUOUS
 62
     5
100
AcDbLine
 10
15.0
 20
15.0
 30
0.0
 11
15.0
 21
579.0
 31
0.0
  0
LINE
  5
530
100
AcDbEntity
  8
LAY-10
  6
CONTINUOUS
 62
     5
100
AcDbLine
 10
15.0
 20
579.0
 30
0.0
 11
826.0
 21
579.0
 31
0.0
  0
LINE
  5
531
100
AcDbEntity
  8
LAY-10
  6
CONTINUOUS
 62
     5
100
AcDbLine
 10
15.0
 20
40.0
 30
0.0
 11
826.0
 21
40.0
 31
0.0
  0
LINE
  5
532
100
AcDbEntity
  8
LAY-10
  6
CONTINUOUS
 62
     1
100
AcDbLine
 10
224.0
 20
40.0
 30
0.0
 11
224.0
 21
15.0
 31
0.0
  0
LINE
  5
533
100
AcDbEntity
  8
LAY-10
  6
CONTINUOUS
 62
     1
100
AcDbLine
 10
249.5
 20
40.0
 30
0.0
 11
249.5
 21
15.0
 31
0.0
  0
LINE
  5
534
100
AcDbEntity
  8
LAY-10
  6
CONTINUOUS
 62
     1
100
AcDbLine
 10
275.0
 20
40.0
 30
0.0
 11
275.0
 21
15.0
 31
0.0
  0
LINE
  5
535
100
AcDbEntity
  8
LAY-10
  6
CONTINUOUS
 62
     1
100
AcDbLine
 10
300.5
 20
40.0
 30
0.0
 11
300.5
 21
15.0
 31
0.0
  0
LINE
  5
536
100
AcDbEntity
  8
LAY-10
  6
CONTINUOUS
 62
     1
100
AcDbLine
 10
326.0
 20
40.0
 30
0.0
 11
326.0
 21
15.0
 31
0.0
  0
LINE
  5
537
100
AcDbEntity
  8
LAY-10
  6
CONTINUOUS
 62
     1
100
AcDbLine
 10
377.0
 20
40.0
 30
0.0
 11
377.0
 21
15.0
 31
0.0
  0
LINE
  5
538
100
AcDbEntity
  8
LAY-10
  6
CONTINUOUS
 62
     1
100
AcDbLine
 10
738.0
 20
40.0
 30
0.0
 11
738.0
 21
15.0
 31
0.0
  0
LINE
  5
539
100
AcDbEntity
  8
LAY-10
  6
CONTINUOUS
 62
     1
100
AcDbLine
 10
224.0
 20
32.0
 30
0.0
 11
377.0
 21
32.0
 31
0.0
  0
TEXT
  5
53A
100
AcDbEntity
  8
LAY-10
  6
CONTINUOUS
 62
     4
100
AcDbText
 10
227.5
 20
33.0
 30
0.0
 40
6.0
  1
検　  図
 41
0.57856
  7
EXCADSTD
 72
     5
 11
246.700001
 21
33.0
 31
0.0
100
AcDbText
  0
TEXT
  5
53B
100
AcDbEntity
  8
LAY-10
  6
CONTINUOUS
 62
     4
100
AcDbText
 10
253.2
 20
33.0
 30
0.0
 40
6.0
  1
担　　当
 41
0.672
  7
EXCADSTD
 72
     5
 11
272.400001
 21
33.0
 31
0.0
100
AcDbText
  0
TEXT
  5
53C
100
AcDbEntity
  8
LAY-10
  6
CONTINUOUS
 62
     4
100
AcDbText
 10
278.4
 20
33.0
 30
0.0
 40
6.0
  1
製　　図
 41
0.672
  7
EXCADSTD
 72
     5
 11
297.600001
 21
33.0
 31
0.0
100
AcDbText
  0
TEXT
  5
53D
100
AcDbEntity
  8
LAY-10
  6
CONTINUOUS
 62
     4
100
AcDbText
 10
303.9
 20
33.0
 30
0.0
 40
6.0
  1
尺　　度
 41
0.672
  7
EXCADSTD
 72
     5
 11
323.100001
 21
33.0
 31
0.0
100
AcDbText
  0
TEXT
  5
53E
100
AcDbEntity
  8
LAY-10
  6
CONTINUOUS
 62
     4
100
AcDbText
 10
339.5
 20
33.0
 30
0.0
 40
6.0
  1
作成年月日
 41
0.672
  7
EXCADSTD
 72
     5
 11
363.500001
 21
33.0
 31
0.0
100
AcDbText
  0
TEXT
  5
53F
100
AcDbEntity
  8
LAY-10
  6
CONTINUOUS
 62
   134
100
AcDbText
 10
42.98
 20
20.91
 30
0.0
 40
13.0
  1
日本ドアーチエック製造株式会社
 41
0.653908
  7
EXCADSTD
 72
     5
 11
194.779994
 21
20.91
 31
0.0
100
AcDbText
  0
LINE
  5
540
100
AcDbEntity
  8
LAY-10
  6
CONTINUOUS
 62
     1
100
AcDbLine
 10
841.0
 20
0.0
 30
0.0
 11
841.0
 21
2.0
 31
0.0
  0
LINE
  5
541
100
AcDbEntity
  8
LAY-10
  6
CONTINUOUS
 62
     1
100
AcDbLine
 10
841.0
 20
592.0
 30
0.0
 11
841.0
 21
594.0
 31
0.0
  0
LINE
  5
542
100
AcDbEntity
  8
LAY-10
  6
CONTINUOUS
 62
     1
100
AcDbLine
 10
841.0
 20
594.0
 30
0.0
 11
839.0
 21
594.0
 31
0.0
  0
LINE
  5
543
100
AcDbEntity
  8
LAY-10
  6
CONTINUOUS
 62
     1
100
AcDbLine
 10
2.0
 20
594.0
 30
0.0
 11
0.0
 21
594.0
 31
0.0
  0
LINE
  5
544
100
AcDbEntity
  8
LAY-10
  6
CONTINUOUS
 62
     1
100
AcDbLine
 10
0.0
 20
594.0
 30
0.0
 11
0.0
 21
592.0
 31
0.0
  0
LINE
  5
545
100
AcDbEntity
  8
LAY-10
  6
CONTINUOUS
 62
     1
100
AcDbLine
 10
0.0
 20
2.0
 30
0.0
 11
0.0
 21
0.0
 31
0.0
  0
LINE
  5
546
100
AcDbEntity
  8
LAY-10
  6
CONTINUOUS
 62
     1
100
AcDbLine
 10
0.0
 20
0.0
 30
0.0
 11
2.0
 21
0.0
 31
0.0
  0
LINE
  5
547
100
AcDbEntity
  8
LAY-10
  6
CONTINUOUS
 62
     1
100
AcDbLine
 10
839.0
 20
0.0
 30
0.0
 11
841.0
 21
0.0
 31
0.0
  0
TEXT
  5
548
100
AcDbEntity
  8
LAY-10
  6
CONTINUOUS
 62
     4
100
AcDbText
 10
383.0
 20
33.0
 30
0.0
 40
6.0
  1
図 面 名
 41
0.57856
  7
EXCADSTD
 72
     5
 11
402.200001
 21
33.0
 31
0.0
100
AcDbText
  0
TEXT
  5
549
100
AcDbEntity
  8
LAY-10
  6
CONTINUOUS
 62
     4
100
AcDbText
 10
744.0
 20
33.0
 30
0.0
 40
6.0
  1
図面番号
 41
0.672
  7
EXCADSTD
 72
     5
 11
763.200001
 21
33.0
 31
0.0
100
AcDbText
  0
TEXT
  5
54A
100
AcDbEntity
  8
LAY-10
  6
CONTINUOUS
 62
     2
100
AcDbText
 10
306.5
 20
20.2
 30
0.0
 40
6.0
  1
１／１
 41
0.672
  7
EXCADSTD
 72
     5
 11
320.900001
 21
20.2
 31
0.0
100
AcDbText
  0
TEXT
  5
54B
100
AcDbEntity
  8
LAY-10
  6
CONTINUOUS
 62
     2
100
AcDbText
 10
406.828367
 20
19.274519
 30
0.0
 40
10.0
  1
ドアクローザ　Ｓ－５００２　Ｒ／Ｌ　納まり図
 41
0.672
  7
EXCADSTD
 72
     5
 11
582.828367
 21
19.274519
 31
0.0
100
AcDbText
  0
TEXT
  5
54C
100
AcDbEntity
  8
LAY-10
  6
CONTINUOUS
 62
     2
100
AcDbText
 10
332.6
 20
20.2
 30
0.0
 40
6.0
  1
Ｈ１４.　６.　１
 41
0.622617
  7
EXCADSTD
 72
     5
 11
371.000002
 21
20.2
 31
0.0
100
AcDbText
  0
ENDSEC
  0
SECTION
  2
OBJECTS
  0
DICTIONARY
  5
19
100
AcDbDictionary
  3
ACAD_GROUP
350
1A
  3
ACAD_MLINESTYLE
350
1B
  0
DICTIONARY
  5
1A
102
{ACAD_REACTORS
330
19
102
}
100
AcDbDictionary
  0
DICTIONARY
  5
1B
102
{ACAD_REACTORS
330
19
102
}
100
AcDbDictionary
  3
STANDARD
350
1C
  0
MLINESTYLE
  5
1C
102
{ACAD_REACTORS
330
1B
102
}
100
AcDbMlineStyle
  2
Standard
 70
     0
  3

 62
     0
 51
90.0
 52
90.0
 71
     2
 49
0.5
 62
   256
  6
ByLayer
 49
-0.5
 62
   256
  6
ByLayer
  0
ENDSEC
  0
EOF
