  0
SECTION
  2
HEADER
  9
$ACADVER
  1
AC1014
  9
$ACADMAINTVER
 70
     0
  9
$DWGCODEPAGE
  3
ANSI_932
  9
$INSBASE
 10
0.0
 20
0.0
 30
0.0
  9
$EXTMIN
 10
0.0
 20
0.0
 30
0.0
  9
$EXTMAX
 10
841.0
 20
594.0
 30
0.0
  9
$LIMMIN
 10
0.0
 20
0.0
  9
$LIMMAX
 10
841.0
 20
594.0
  9
$ORTHOMODE
 70
     0
  9
$REGENMODE
 70
     1
  9
$FILLMODE
 70
     1
  9
$QTEXTMODE
 70
     0
  9
$MIRRTEXT
 70
     1
  9
$DRAGMODE
 70
     2
  9
$LTSCALE
 40
1.0
  9
$OSMODE
 70
     0
  9
$ATTMODE
 70
     1
  9
$TEXTSIZE
 40
0.2
  9
$TRACEWID
 40
0.05
  9
$TEXTSTYLE
  7
STANDARD
  9
$CLAYER
  8
LAY-1
  9
$CELTYPE
  6
CONTINUOUS
  9
$CECOLOR
 62
   256
  9
$CELTSCALE
 40
1.0
  9
$DELOBJ
 70
     1
  9
$DISPSILH
 70
     0
  9
$DIMSCALE
 40
1.0
  9
$DIMASZ
 40
0.18
  9
$DIMEXO
 40
0.0625
  9
$DIMDLI
 40
0.38
  9
$DIMRND
 40
0.0
  9
$DIMDLE
 40
0.0
  9
$DIMEXE
 40
0.18
  9
$DIMTP
 40
0.0
  9
$DIMTM
 40
0.0
  9
$DIMTXT
 40
0.18
  9
$DIMCEN
 40
0.09
  9
$DIMTSZ
 40
0.0
  9
$DIMTOL
 70
     0
  9
$DIMLIM
 70
     0
  9
$DIMTIH
 70
     1
  9
$DIMTOH
 70
     1
  9
$DIMSE1
 70
     0
  9
$DIMSE2
 70
     0
  9
$DIMTAD
 70
     0
  9
$DIMZIN
 70
     0
  9
$DIMBLK
  1

  9
$DIMASO
 70
     1
  9
$DIMSHO
 70
     1
  9
$DIMPOST
  1

  9
$DIMAPOST
  1

  9
$DIMALT
 70
     0
  9
$DIMALTD
 70
     2
  9
$DIMALTF
 40
25.4
  9
$DIMLFAC
 40
1.0
  9
$DIMTOFL
 70
     0
  9
$DIMTVP
 40
0.0
  9
$DIMTIX
 70
     0
  9
$DIMSOXD
 70
     0
  9
$DIMSAH
 70
     0
  9
$DIMBLK1
  1

  9
$DIMBLK2
  1

  9
$DIMSTYLE
  2
STANDARD
  9
$DIMCLRD
 70
     0
  9
$DIMCLRE
 70
     0
  9
$DIMCLRT
 70
     0
  9
$DIMTFAC
 40
1.0
  9
$DIMGAP
 40
0.09
  9
$DIMJUST
 70
     0
  9
$DIMSD1
 70
     0
  9
$DIMSD2
 70
     0
  9
$DIMTOLJ
 70
     1
  9
$DIMTZIN
 70
     0
  9
$DIMALTZ
 70
     0
  9
$DIMALTTZ
 70
     0
  9
$DIMFIT
 70
     3
  9
$DIMUPT
 70
     0
  9
$DIMUNIT
 70
     2
  9
$DIMDEC
 70
     4
  9
$DIMTDEC
 70
     4
  9
$DIMALTU
 70
     2
  9
$DIMALTTD
 70
     2
  9
$DIMTXSTY
  7
STANDARD
  9
$DIMAUNIT
 70
     0
  9
$LUNITS
 70
     2
  9
$LUPREC
 70
     4
  9
$SKETCHINC
 40
0.1
  9
$FILLETRAD
 40
0.0
  9
$AUNITS
 70
     0
  9
$AUPREC
 70
     0
  9
$MENU
  1
acad
  9
$ELEVATION
 40
0.0
  9
$PELEVATION
 40
0.0
  9
$THICKNESS
 40
0.0
  9
$LIMCHECK
 70
     0
  9
$BLIPMODE
 70
     1
  9
$CHAMFERA
 40
0.0
  9
$CHAMFERB
 40
0.0
  9
$CHAMFERC
 40
0.0
  9
$CHAMFERD
 40
0.0
  9
$SKPOLY
 70
     0
  9
$TDCREATE
 40
2454541.762355486
  9
$TDUPDATE
 40
2454541.762355486
  9
$TDINDWG
 40
0.0000000000
  9
$TDUSRTIMER
 40
0.0000000000
  9
$USRTIMER
 70
     1
  9
$ANGBASE
 50
0.0
  9
$ANGDIR
 70
     0
  9
$PDMODE
 70
     0
  9
$PDSIZE
 40
0.0
  9
$PLINEWID
 40
0.0
  9
$COORDS
 70
     1
  9
$SPLFRAME
 70
     0
  9
$SPLINETYPE
 70
     6
  9
$SPLINESEGS
 70
     8
  9
$ATTDIA
 70
     0
  9
$ATTREQ
 70
     1
  9
$HANDLING
 70
     1
  9
$HANDSEED
  5
643
  9
$SURFTAB1
 70
     6
  9
$SURFTAB2
 70
     6
  9
$SURFTYPE
 70
     6
  9
$SURFU
 70
     6
  9
$SURFV
 70
     6
  9
$UCSNAME
  2

  9
$UCSORG
 10
0.0
 20
0.0
 30
0.0
  9
$UCSXDIR
 10
1.0
 20
0.0
 30
0.0
  9
$UCSYDIR
 10
0.0
 20
1.0
 30
0.0
  9
$PUCSNAME
  2

  9
$PUCSORG
 10
0.0
 20
0.0
 30
0.0
  9
$PUCSXDIR
 10
1.0
 20
0.0
 30
0.0
  9
$PUCSYDIR
 10
0.0
 20
1.0
 30
0.0
  9
$USERI1
 70
     0
  9
$USERI2
 70
     0
  9
$USERI3
 70
     0
  9
$USERI4
 70
     0
  9
$USERI5
 70
     0
  9
$USERR1
 40
0.0
  9
$USERR2
 40
0.0
  9
$USERR3
 40
0.0
  9
$USERR4
 40
0.0
  9
$USERR5
 40
0.0
  9
$WORLDVIEW
 70
     1
  9
$SHADEDGE
 70
     3
  9
$SHADEDIF
 70
    70
  9
$TILEMODE
 70
     1
  9
$MAXACTVP
 70
    16
  9
$PINSBASE
 10
0.0
 20
0.0
 30
0.0
  9
$PLIMCHECK
 70
     0
  9
$PEXTMIN
 10
1.000000E+20
 20
1.000000E+20
 30
1.000000E+20
  9
$PEXTMAX
 10
-1.000000E+20
 20
-1.000000E+20
 30
-1.000000E+20
  9
$PLIMMIN
 10
0.0
 20
0.0
  9
$PLIMMAX
 10
12.0
 20
9.0
  9
$UNITMODE
 70
     0
  9
$VISRETAIN
 70
     0
  9
$PLINEGEN
 70
     1
  9
$PSLTSCALE
 70
     0
  9
$TREEDEPTH
 70
  3020
  9
$PICKSTYLE
 70
     1
  9
$CMLSTYLE
  2
Standard
  9
$CMLJUST
 70
     0
  9
$CMLSCALE
 40
1.0
  9
$PROXYGRAPHICS
 70
     0
  9
$MEASUREMENT
 70
     0
  0
ENDSEC
  0
SECTION
  2
CLASSES
  0
CLASS
  1
LWPOLYLINE
  2
AcDbPolyline
  3
"AutoCAD"
 90
        0
280
     0
281
     1
  0
CLASS
  1
IMAGE
  2
AcDbRasterImage
  3
ISM
 90
      127
280
     0
281
     1
  0
CLASS
  1
OLE2FRAME
  2
AcDbOle2Frame
  3
""
 90
        0
280
     0
281
     1
  0
CLASS
  1
HATCH
  2
AcDbHatch
  3
"ACAD_SEDONA"
 90
        0
280
     0
281
     1
  0
CLASS
  1
DICTIONARYVAR
  2
AcDbDictionaryVar
  3
"AutoCAD"
 90
        0
280
     0
281
     0
  0
CLASS
  1
RASTERVARIABLES
  2
AcDbRasterVariables
  3
ISM
 90
        0
280
     0
281
     0
  0
CLASS
  1
IMAGEDEF
  2
AcDbRasterImageDef
  3
ISM
 90
        0
280
     0
281
     0
  0
CLASS
  1
IMAGEDEF_REACTOR
  2
AcDbRasterImageDefReactor
  3
ISM
 90
        1
280
     0
281
     0
  0
CLASS
  1
IDBUFFER
  2
AcDbIdBuffer
  3
"Acad"
 90
        0
280
     0
281
     0
  0
CLASS
  1
SPATIAL_FILTER
  2
AcDbSpatialFilter
  3
"Acad"
 90
        0
280
     0
281
     0
  0
CLASS
  1
XRECORD
  2
AcDbXrecord
  3
"<Built In>"
 90
        0
280
     0
281
     0
  0
CLASS
  1
SORTENTSTABLE
  2
AcDbSortentsTable
  3
"AutoCAD"
 90
        0
280
     0
281
     0
  0
CLASS
  1
LAYER_INDEX
  2
AcDbLayerIndex
  3
"Acad"
 90
        0
280
     0
281
     0
  0
CLASS
  1
SPATIAL_INDEX
  2
AcDbSpatialIndex
  3
"Acad"
 90
        0
280
     0
281
     0
  0
CLASS
  1
OBJECT_PTR
  2
CAseDLPNTableRecord
  3
"ASE-LPNTableRecord"
 90
        1
280
     0
281
     0
  0
CLASS
  1
LAYOUT
  2
AcDbLayout
  3
"AutoCAD 2000"
 90
        0
280
     0
281
     0
  0
CLASS
  1
PLOTSETTINGS
  2
AcDbPlotSettings
  3
"AutoCAD 2000"
 90
        0
280
     0
281
     0
  0
CLASS
  1
ACDBDICTIONARYWDFLT
  2
AcDbDictionaryWithDefault
  3
"AutoCAD 2000"
 90
        0
280
     0
281
     0
  0
CLASS
  1
ACDBPLACEHOLDER
  2
AcDbPlaceHolder
  3
"AutoCAD 2000"
 90
        0
280
     0
281
     0
  0
CLASS
  1
VBA_PROJECT
  2
AcDbVbaProject
  3
"acadvba"
 90
        0
280
     0
281
     0
  0
CLASS
  1
WIPEOUT
  2
AcDbWipeout
  3
WipeOut|AutoCAD Express Tool|expresstools@autodesk.com
 90
      127
280
     0
281
     1
  0
CLASS
  1
WIPEOUTVARIABLES
  2
AcDbWipeoutVariables
  3
WipeOut|AutoCAD Express Tool|expresstools@autodesk.com
 90
        0
280
     0
281
     0
  0
CLASS
  1
RTEXT
  2
RText
  3
RText|AutoCAD Express Tool|expresstools@autodesk.com
 90
        0
280
     0
281
     1
  0
CLASS
  1
ARCALIGNEDTEXT
  2
AcDbArcAlignedText
  3
ATEXT|AutoCAD Express Tool|expresstools@autodesk.com
 90
        0
280
     0
281
     1
  0
ENDSEC
  0
SECTION
  2
TABLES
  0
TABLE
  2
VPORT
  5
7
100
AcDbSymbolTable
 70
     1
  0
VPORT
  5
15
100
AcDbSymbolTableRecord
100
AcDbViewportTableRecord
  2
*ACTIVE
 70
     0
 10
0.0
 20
0.0
 11
1.0
 21
1.0
 12
420.5
 22
297.0
 13
0.0
 23
0.0
 14
1.0
 24
1.0
 15
0.0
 25
0.0
 16
0.0
 26
0.0
 36
1.0
 17
0.0
 27
0.0
 37
0.0
 40
594.0
 41
1.722533
 42
50.0
 43
0.0
 44
0.0
 50
0.0
 51
0.0
 71
     0
 72
   100
 73
     1
 74
     1
 75
     0
 76
     0
 77
     0
 78
     0
  0
ENDTAB
  0
TABLE
  2
LTYPE
  5
4
100
AcDbSymbolTable
 70
     9
  0
LTYPE
  5
11
100
AcDbSymbolTableRecord
100
AcDbLinetypeTableRecord
  2
BYBLOCK
 70
    64
  3

 72
    65
 73
     0
 40
0.0
  0
LTYPE
  5
12
100
AcDbSymbolTableRecord
100
AcDbLinetypeTableRecord
  2
BYLAYER
 70
    64
  3

 72
    65
 73
     0
 40
0.0
  0
LTYPE
  5
13
100
AcDbSymbolTableRecord
100
AcDbLinetypeTableRecord
  2
CONTINUOUS
 70
    64
  3
実線
 72
    65
 73
     0
 40
0.0
  0
LTYPE
  5
1D
100
AcDbSymbolTableRecord
100
AcDbLinetypeTableRecord
  2
DASHED
 70
    64
  3
Dashed __ __ __ __ __ __ __ __ __ __ __ __ __ _
 72
    65
 73
     2
 40
19.05
 49
12.7
 74
     0
 49
-6.35
 74
     0
  0
LTYPE
  5
1E
100
AcDbSymbolTableRecord
100
AcDbLinetypeTableRecord
  2
DASHED2
 70
    64
  3
Dashed (.5x) _ _ _ _ _ _ _ _ _ _ _ _ _ _ _ _ _ 
 72
    65
 73
     2
 40
9.525
 49
6.35
 74
     0
 49
-3.175
 74
     0
  0
LTYPE
  5
1F
100
AcDbSymbolTableRecord
100
AcDbLinetypeTableRecord
  2
DASHDOT
 70
    64
  3
Dash dot __ . __ . __ . __ . __ . __ . __ . __
 72
    65
 73
     4
 40
25.4
 49
12.7
 74
     0
 49
-6.35
 74
     0
 49
0.0
 74
     0
 49
-6.35
 74
     0
  0
LTYPE
  5
20
100
AcDbSymbolTableRecord
100
AcDbLinetypeTableRecord
  2
DIVIDE
 70
    64
  3
Divide ____ . . ____ . . ____ . . ____ . . ____
 72
    65
 73
     6
 40
31.75
 49
12.7
 74
     0
 49
-6.35
 74
     0
 49
0.0
 74
     0
 49
-6.35
 74
     0
 49
0.0
 74
     0
 49
-6.35
 74
     0
  0
LTYPE
  5
21
100
AcDbSymbolTableRecord
100
AcDbLinetypeTableRecord
  2
ACAD_ISO06W100
 70
    64
  3
ISO long-dash triple-dot ____ ... ____ ... ____
 72
    65
 73
     8
 40
36.0
 49
24.0
 74
     0
 49
-3.0
 74
     0
 49
0.0
 74
     0
 49
-3.0
 74
     0
 49
0.0
 74
     0
 49
-3.0
 74
     0
 49
0.0
 74
     0
 49
-3.0
 74
     0
  0
LTYPE
  5
22
100
AcDbSymbolTableRecord
100
AcDbLinetypeTableRecord
  2
ACAD_ISO15W100
 70
    64
  3
ISO double-dash triple-dot __ __ . . . __ __ . .
 72
    65
 73
    10
 40
39.0
 49
12.0
 74
     0
 49
-3.0
 74
     0
 49
12.0
 74
     0
 49
-3.0
 74
     0
 49
0.0
 74
     0
 49
-3.0
 74
     0
 49
0.0
 74
     0
 49
-3.0
 74
     0
 49
0.0
 74
     0
 49
-3.0
 74
     0
  0
ENDTAB
  0
TABLE
  2
LAYER
  5
2
100
AcDbSymbolTable
 70
     9
  0
LAYER
  5
14
100
AcDbSymbolTableRecord
100
AcDbLayerTableRecord
  2
0
 70
     0
 62
     7
  6
CONTINUOUS
  0
LAYER
  5
25
100
AcDbSymbolTableRecord
100
AcDbLayerTableRecord
  2
LAY-1
 70
    64
 62
     3
  6
CONTINUOUS
  0
LAYER
  5
26
100
AcDbSymbolTableRecord
100
AcDbLayerTableRecord
  2
LAY-2
 70
    64
 62
     3
  6
CONTINUOUS
  0
LAYER
  5
27
100
AcDbSymbolTableRecord
100
AcDbLayerTableRecord
  2
LAY-3
 70
    64
 62
     3
  6
CONTINUOUS
  0
LAYER
  5
28
100
AcDbSymbolTableRecord
100
AcDbLayerTableRecord
  2
LAY-4
 70
    64
 62
     3
  6
CONTINUOUS
  0
LAYER
  5
29
100
AcDbSymbolTableRecord
100
AcDbLayerTableRecord
  2
LAY-5
 70
    64
 62
     1
  6
DASHDOT
  0
LAYER
  5
2A
100
AcDbSymbolTableRecord
100
AcDbLayerTableRecord
  2
LAY-6
 70
    64
 62
     2
  6
CONTINUOUS
  0
LAYER
  5
2B
100
AcDbSymbolTableRecord
100
AcDbLayerTableRecord
  2
LAY-9
 70
    64
 62
     1
  6
CONTINUOUS
  0
LAYER
  5
2C
100
AcDbSymbolTableRecord
100
AcDbLayerTableRecord
  2
LAY-10
 70
    64
 62
     5
  6
CONTINUOUS
  0
ENDTAB
  0
TABLE
  2
STYLE
  5
3
100
AcDbSymbolTable
 70
     3
  0
STYLE
  5
17
100
AcDbSymbolTableRecord
100
AcDbTextStyleTableRecord
  2
STANDARD
 70
     0
 40
0.0
 41
1.0
 50
0.0
 71
     0
 42
0.0
  3
monotxt
  4
extfont
  0
STYLE
  5
23
100
AcDbSymbolTableRecord
100
AcDbTextStyleTableRecord
  2
EXCADSTD
 70
    64
 40
0.0
 41
1.0
 50
0.0
 71
     0
 42
0.2
  3
monotxt
  4
extfont
  0
STYLE
  5
24
100
AcDbSymbolTableRecord
100
AcDbTextStyleTableRecord
  2
EXCADVERT
 70
    68
 40
0.0
 41
1.0
 50
0.0
 71
     0
 42
0.286885
  3
monotxt
  4
extfont
  0
ENDTAB
  0
TABLE
  2
VIEW
  5
5
100
AcDbSymbolTable
 70
     0
  0
ENDTAB
  0
TABLE
  2
UCS
  5
6
100
AcDbSymbolTable
 70
     0
  0
ENDTAB
  0
TABLE
  2
APPID
  5
8
100
AcDbSymbolTable
 70
     1
  0
APPID
  5
16
100
AcDbSymbolTableRecord
100
AcDbRegAppTableRecord
  2
ACAD
 70
     0
  0
ENDTAB
  0
TABLE
  2
DIMSTYLE
  5
9
100
AcDbSymbolTable
 70
     1
  0
DIMSTYLE
105
18
100
AcDbSymbolTableRecord
100
AcDbDimStyleTableRecord
  2
STANDARD
 70
     0
  3

  4

  5

  6

  7

 40
1.0
 41
0.18
 42
0.0625
 43
0.38
 44
0.18
 45
0.0
 46
0.0
 47
0.0
 48
0.0
 71
     0
 72
     0
 73
     1
 74
     1
 75
     0
 76
     0
 77
     0
 78
     0
140
0.18
141
0.09
142
0.0
143
25.4
144
1.0
145
0.0
146
1.0
147
0.09
170
     0
171
     2
172
     1
173
     0
174
     0
175
     0
176
     0
177
     0
178
     0
270
     2
271
     4
272
     4
273
     2
274
     2
275
     0
280
     0
281
     0
282
     0
283
     1
284
     0
285
     0
286
     0
287
     3
288
     0
340
17
  0
ENDTAB
  0
TABLE
  2
BLOCK_RECORD
  5
1
100
AcDbSymbolTable
 70
    14
  0
BLOCK_RECORD
  5
A
100
AcDbSymbolTableRecord
100
AcDbBlockTableRecord
  2
*MODEL_SPACE
  0
BLOCK_RECORD
  5
B
100
AcDbSymbolTableRecord
100
AcDbBlockTableRecord
  2
*PAPER_SPACE
  0
BLOCK_RECORD
  5
2D
100
AcDbSymbolTableRecord
100
AcDbBlockTableRecord
  2
_EX_NORM
  0
BLOCK_RECORD
  5
2E
100
AcDbSymbolTableRecord
100
AcDbBlockTableRecord
  2
_EX_BNORM
  0
BLOCK_RECORD
  5
2F
100
AcDbSymbolTableRecord
100
AcDbBlockTableRecord
  2
_EX_BCIR
  0
BLOCK_RECORD
  5
30
100
AcDbSymbolTableRecord
100
AcDbBlockTableRecord
  2
_EX_RCIVIL
  0
BLOCK_RECORD
  5
31
100
AcDbSymbolTableRecord
100
AcDbBlockTableRecord
  2
_EX_SLANT
  0
BLOCK_RECORD
  5
32
100
AcDbSymbolTableRecord
100
AcDbBlockTableRecord
  2
_EX_NONE
  0
BLOCK_RECORD
  5
33
100
AcDbSymbolTableRecord
100
AcDbBlockTableRecord
  2
_EX_CIVIL
  0
BLOCK_RECORD
  5
34
100
AcDbSymbolTableRecord
100
AcDbBlockTableRecord
  2
_EX_WCIR
  0
BLOCK_RECORD
  5
35
100
AcDbSymbolTableRecord
100
AcDbBlockTableRecord
  2
_EX_WCIR2
  0
BLOCK_RECORD
  5
36
100
AcDbSymbolTableRecord
100
AcDbBlockTableRecord
  2
_EX_WNORM
  0
BLOCK_RECORD
  5
37
100
AcDbSymbolTableRecord
100
AcDbBlockTableRecord
  2
_EX_NNORM
  0
BLOCK_RECORD
  5
38
100
AcDbSymbolTableRecord
100
AcDbBlockTableRecord
  2
_EX_BBOX
  0
BLOCK_RECORD
  5
39
100
AcDbSymbolTableRecord
100
AcDbBlockTableRecord
  2
_EX_WBOX
  0
BLOCK_RECORD
  5
3A
100
AcDbSymbolTableRecord
100
AcDbBlockTableRecord
  2
_EX_INTEGRAL
  0
ENDTAB
  0
ENDSEC
  0
SECTION
  2
BLOCKS
  0
BLOCK
  5
D
100
AcDbEntity
  8
0
100
AcDbBlockBegin
  2
*MODEL_SPACE
 70
     0
 10
0.0
 20
0.0
 30
0.0
  3
*MODEL_SPACE
  1

  0
ENDBLK
  5
E
100
AcDbEntity
  8
0
100
AcDbBlockEnd
  0
BLOCK
  5
F
100
AcDbEntity
 67
     1
  8
0
100
AcDbBlockBegin
  2
*PAPER_SPACE
 70
     0
 10
0.0
 20
0.0
 30
0.0
  3
*PAPER_SPACE
  1

  0
ENDBLK
  5
10
100
AcDbEntity
 67
     1
  8
0
100
AcDbBlockEnd
  0
BLOCK
  5
3B
100
AcDbEntity
  8
0
100
AcDbBlockBegin
  2
_EX_NORM
 70
     0
 10
0.0
 20
0.0
 30
0.0
  3
_EX_NORM
  1

  0
LINE
  5
3C
100
AcDbEntity
  8
0
  6
CONTINUOUS
 62
     0
100
AcDbLine
 10
0.0
 20
0.0
 30
0.0
 11
-1.0
 21
0.0
 31
0.0
  0
LINE
  5
3D
100
AcDbEntity
  8
0
  6
CONTINUOUS
 62
     0
100
AcDbLine
 10
0.0
 20
0.0
 30
0.0
 11
-1.0
 21
0.166667
 31
0.0
  0
LINE
  5
3E
100
AcDbEntity
  8
0
  6
CONTINUOUS
 62
     0
100
AcDbLine
 10
0.0
 20
0.0
 30
0.0
 11
-1.0
 21
-0.166667
 31
0.0
  0
ENDBLK
  5
3F
100
AcDbEntity
  8
0
100
AcDbBlockEnd
  0
BLOCK
  5
40
100
AcDbEntity
  8
0
100
AcDbBlockBegin
  2
_EX_BNORM
 70
     0
 10
0.0
 20
0.0
 30
0.0
  3
_EX_BNORM
  1

  0
LINE
  5
41
100
AcDbEntity
  8
0
  6
CONTINUOUS
 62
     0
100
AcDbLine
 10
0.0
 20
0.0
 30
0.0
 11
-1.0
 21
0.0
 31
0.0
  0
LINE
  5
42
100
AcDbEntity
  8
0
  6
CONTINUOUS
 62
     0
100
AcDbLine
 10
0.0
 20
0.0
 30
0.0
 11
-1.0
 21
0.166667
 31
0.0
  0
LINE
  5
43
100
AcDbEntity
  8
0
  6
CONTINUOUS
 62
     0
100
AcDbLine
 10
0.0
 20
0.0
 30
0.0
 11
-1.0
 21
-0.166667
 31
0.0
  0
LINE
  5
44
100
AcDbEntity
  8
0
  6
CONTINUOUS
 62
     0
100
AcDbLine
 10
0.0
 20
0.0
 30
0.0
 11
-1.0
 21
0.083333
 31
0.0
  0
LINE
  5
45
100
AcDbEntity
  8
0
  6
CONTINUOUS
 62
     0
100
AcDbLine
 10
0.0
 20
0.0
 30
0.0
 11
-1.0
 21
-0.083333
 31
0.0
  0
LINE
  5
46
100
AcDbEntity
  8
0
  6
CONTINUOUS
 62
     0
100
AcDbLine
 10
-1.0
 20
0.166667
 30
0.0
 11
-1.0
 21
-0.166667
 31
0.0
  0
ENDBLK
  5
47
100
AcDbEntity
  8
0
100
AcDbBlockEnd
  0
BLOCK
  5
48
100
AcDbEntity
  8
0
100
AcDbBlockBegin
  2
_EX_BCIR
 70
     0
 10
0.0
 20
0.0
 30
0.0
  3
_EX_BCIR
  1

  0
LINE
  5
49
100
AcDbEntity
  8
0
  6
CONTINUOUS
 62
     0
100
AcDbLine
 10
0.0
 20
0.0
 30
0.0
 11
-1.0
 21
0.0
 31
0.0
  0
CIRCLE
  5
4A
100
AcDbEntity
  8
0
  6
CONTINUOUS
 62
     0
100
AcDbCircle
 10
0.0
 20
0.0
 30
0.0
 40
0.5
  0
CIRCLE
  5
4B
100
AcDbEntity
  8
0
  6
CONTINUOUS
 62
     0
100
AcDbCircle
 10
0.0
 20
0.0
 30
0.0
 40
0.25
  0
ENDBLK
  5
4C
100
AcDbEntity
  8
0
100
AcDbBlockEnd
  0
BLOCK
  5
4D
100
AcDbEntity
  8
0
100
AcDbBlockBegin
  2
_EX_RCIVIL
 70
     0
 10
0.0
 20
0.0
 30
0.0
  3
_EX_RCIVIL
  1

  0
LINE
  5
4E
100
AcDbEntity
  8
0
  6
CONTINUOUS
 62
     0
100
AcDbLine
 10
0.0
 20
0.0
 30
0.0
 11
-1.0
 21
0.0
 31
0.0
  0
LINE
  5
4F
100
AcDbEntity
  8
0
  6
CONTINUOUS
 62
     0
100
AcDbLine
 10
-1.0
 20
-0.25
 30
0.0
 11
0.0
 21
-0.25
 31
0.0
  0
LINE
  5
50
100
AcDbEntity
  8
0
  6
CONTINUOUS
 62
     0
100
AcDbLine
 10
-1.0
 20
-0.125
 30
0.0
 11
0.0
 21
-0.125
 31
0.0
  0
ENDBLK
  5
51
100
AcDbEntity
  8
0
100
AcDbBlockEnd
  0
BLOCK
  5
52
100
AcDbEntity
  8
0
100
AcDbBlockBegin
  2
_EX_SLANT
 70
     0
 10
0.0
 20
0.0
 30
0.0
  3
_EX_SLANT
  1

  0
LINE
  5
53
100
AcDbEntity
  8
0
  6
CONTINUOUS
 62
     0
100
AcDbLine
 10
0.0
 20
0.0
 30
0.0
 11
-1.0
 21
0.0
 31
0.0
  0
LINE
  5
54
100
AcDbEntity
  8
0
  6
CONTINUOUS
 62
     0
100
AcDbLine
 10
0.707107
 20
0.707107
 30
0.0
 11
-0.707107
 21
-0.707107
 31
0.0
  0
ENDBLK
  5
55
100
AcDbEntity
  8
0
100
AcDbBlockEnd
  0
BLOCK
  5
56
100
AcDbEntity
  8
0
100
AcDbBlockBegin
  2
_EX_NONE
 70
     0
 10
0.0
 20
0.0
 30
0.0
  3
_EX_NONE
  1

  0
LINE
  5
57
100
AcDbEntity
  8
0
  6
CONTINUOUS
 62
     0
100
AcDbLine
 10
0.0
 20
0.0
 30
0.0
 11
-1.0
 21
0.0
 31
0.0
  0
ENDBLK
  5
58
100
AcDbEntity
  8
0
100
AcDbBlockEnd
  0
BLOCK
  5
59
100
AcDbEntity
  8
0
100
AcDbBlockBegin
  2
_EX_CIVIL
 70
     0
 10
0.0
 20
0.0
 30
0.0
  3
_EX_CIVIL
  1

  0
LINE
  5
5A
100
AcDbEntity
  8
0
  6
CONTINUOUS
 62
     0
100
AcDbLine
 10
0.0
 20
0.0
 30
0.0
 11
-1.0
 21
0.0
 31
0.0
  0
LINE
  5
5B
100
AcDbEntity
  8
0
  6
CONTINUOUS
 62
     0
100
AcDbLine
 10
-1.0
 20
0.25
 30
0.0
 11
0.0
 21
0.25
 31
0.0
  0
LINE
  5
5C
100
AcDbEntity
  8
0
  6
CONTINUOUS
 62
     0
100
AcDbLine
 10
-1.0
 20
0.125
 30
0.0
 11
0.0
 21
0.125
 31
0.0
  0
ENDBLK
  5
5D
100
AcDbEntity
  8
0
100
AcDbBlockEnd
  0
BLOCK
  5
5E
100
AcDbEntity
  8
0
100
AcDbBlockBegin
  2
_EX_WCIR
 70
     0
 10
0.0
 20
0.0
 30
0.0
  3
_EX_WCIR
  1

  0
LINE
  5
5F
100
AcDbEntity
  8
0
  6
CONTINUOUS
 62
     0
100
AcDbLine
 10
0.0
 20
0.0
 30
0.0
 11
-1.0
 21
0.0
 31
0.0
  0
CIRCLE
  5
60
100
AcDbEntity
  8
0
  6
CONTINUOUS
 62
     0
100
AcDbCircle
 10
0.0
 20
0.0
 30
0.0
 40
0.5
  0
ENDBLK
  5
61
100
AcDbEntity
  8
0
100
AcDbBlockEnd
  0
BLOCK
  5
62
100
AcDbEntity
  8
0
100
AcDbBlockBegin
  2
_EX_WCIR2
 70
     0
 10
0.0
 20
0.0
 30
0.0
  3
_EX_WCIR2
  1

  0
LINE
  5
63
100
AcDbEntity
  8
0
  6
CONTINUOUS
 62
     0
100
AcDbLine
 10
-0.5
 20
0.0
 30
0.0
 11
-1.0
 21
0.0
 31
0.0
  0
CIRCLE
  5
64
100
AcDbEntity
  8
0
  6
CONTINUOUS
 62
     0
100
AcDbCircle
 10
0.0
 20
0.0
 30
0.0
 40
0.5
  0
ENDBLK
  5
65
100
AcDbEntity
  8
0
100
AcDbBlockEnd
  0
BLOCK
  5
66
100
AcDbEntity
  8
0
100
AcDbBlockBegin
  2
_EX_WNORM
 70
     0
 10
0.0
 20
0.0
 30
0.0
  3
_EX_WNORM
  1

  0
LINE
  5
67
100
AcDbEntity
  8
0
  6
CONTINUOUS
 62
     0
100
AcDbLine
 10
-1.0
 20
0.0
 30
0.0
 11
-1.0
 21
0.0
 31
0.0
  0
LINE
  5
68
100
AcDbEntity
  8
0
  6
CONTINUOUS
 62
     0
100
AcDbLine
 10
0.0
 20
0.0
 30
0.0
 11
-1.0
 21
0.166667
 31
0.0
  0
LINE
  5
69
100
AcDbEntity
  8
0
  6
CONTINUOUS
 62
     0
100
AcDbLine
 10
0.0
 20
0.0
 30
0.0
 11
-1.0
 21
-0.166667
 31
0.0
  0
LINE
  5
6A
100
AcDbEntity
  8
0
  6
CONTINUOUS
 62
     0
100
AcDbLine
 10
-1.0
 20
0.166667
 30
0.0
 11
-1.0
 21
-0.166667
 31
0.0
  0
ENDBLK
  5
6B
100
AcDbEntity
  8
0
100
AcDbBlockEnd
  0
BLOCK
  5
6C
100
AcDbEntity
  8
0
100
AcDbBlockBegin
  2
_EX_NNORM
 70
     0
 10
0.0
 20
0.0
 30
0.0
  3
_EX_NNORM
  1

  0
LINE
  5
6D
100
AcDbEntity
  8
0
  6
CONTINUOUS
 62
     0
100
AcDbLine
 10
0.0
 20
0.0
 30
0.0
 11
-1.0
 21
0.0
 31
0.0
  0
LINE
  5
6E
100
AcDbEntity
  8
0
  6
CONTINUOUS
 62
     0
100
AcDbLine
 10
0.0
 20
0.0
 30
0.0
 11
-1.0
 21
0.166667
 31
0.0
  0
LINE
  5
6F
100
AcDbEntity
  8
0
  6
CONTINUOUS
 62
     0
100
AcDbLine
 10
0.0
 20
0.0
 30
0.0
 11
-1.0
 21
-0.166667
 31
0.0
  0
LINE
  5
70
100
AcDbEntity
  8
0
  6
CONTINUOUS
 62
     0
100
AcDbLine
 10
-1.0
 20
0.166667
 30
0.0
 11
-1.0
 21
-0.166667
 31
0.0
  0
ENDBLK
  5
71
100
AcDbEntity
  8
0
100
AcDbBlockEnd
  0
BLOCK
  5
72
100
AcDbEntity
  8
0
100
AcDbBlockBegin
  2
_EX_BBOX
 70
     0
 10
0.0
 20
0.0
 30
0.0
  3
_EX_BBOX
  1

  0
LINE
  5
73
100
AcDbEntity
  8
0
  6
CONTINUOUS
 62
     0
100
AcDbLine
 10
0.0
 20
0.0
 30
0.0
 11
-1.0
 21
0.0
 31
0.0
  0
LINE
  5
74
100
AcDbEntity
  8
0
  6
CONTINUOUS
 62
     0
100
AcDbLine
 10
-0.5
 20
0.5
 30
0.0
 11
0.5
 21
0.5
 31
0.0
  0
LINE
  5
75
100
AcDbEntity
  8
0
  6
CONTINUOUS
 62
     0
100
AcDbLine
 10
0.5
 20
0.5
 30
0.0
 11
0.5
 21
-0.5
 31
0.0
  0
LINE
  5
76
100
AcDbEntity
  8
0
  6
CONTINUOUS
 62
     0
100
AcDbLine
 10
0.5
 20
-0.5
 30
0.0
 11
-0.5
 21
-0.5
 31
0.0
  0
LINE
  5
77
100
AcDbEntity
  8
0
  6
CONTINUOUS
 62
     0
100
AcDbLine
 10
-0.5
 20
-0.5
 30
0.0
 11
-0.5
 21
0.5
 31
0.0
  0
LINE
  5
78
100
AcDbEntity
  8
0
  6
CONTINUOUS
 62
     0
100
AcDbLine
 10
-0.25
 20
0.25
 30
0.0
 11
0.25
 21
0.25
 31
0.0
  0
LINE
  5
79
100
AcDbEntity
  8
0
  6
CONTINUOUS
 62
     0
100
AcDbLine
 10
0.25
 20
0.25
 30
0.0
 11
0.25
 21
-0.25
 31
0.0
  0
LINE
  5
7A
100
AcDbEntity
  8
0
  6
CONTINUOUS
 62
     0
100
AcDbLine
 10
0.25
 20
-0.25
 30
0.0
 11
-0.25
 21
-0.25
 31
0.0
  0
LINE
  5
7B
100
AcDbEntity
  8
0
  6
CONTINUOUS
 62
     0
100
AcDbLine
 10
-0.25
 20
-0.25
 30
0.0
 11
-0.25
 21
0.25
 31
0.0
  0
ENDBLK
  5
7C
100
AcDbEntity
  8
0
100
AcDbBlockEnd
  0
BLOCK
  5
7D
100
AcDbEntity
  8
0
100
AcDbBlockBegin
  2
_EX_WBOX
 70
     0
 10
0.0
 20
0.0
 30
0.0
  3
_EX_WBOX
  1

  0
LINE
  5
7E
100
AcDbEntity
  8
0
  6
CONTINUOUS
 62
     0
100
AcDbLine
 10
-0.5
 20
0.0
 30
0.0
 11
-1.0
 21
0.0
 31
0.0
  0
LINE
  5
7F
100
AcDbEntity
  8
0
  6
CONTINUOUS
 62
     0
100
AcDbLine
 10
-0.5
 20
0.5
 30
0.0
 11
0.5
 21
0.5
 31
0.0
  0
LINE
  5
80
100
AcDbEntity
  8
0
  6
CONTINUOUS
 62
     0
100
AcDbLine
 10
0.5
 20
0.5
 30
0.0
 11
0.5
 21
-0.5
 31
0.0
  0
LINE
  5
81
100
AcDbEntity
  8
0
  6
CONTINUOUS
 62
     0
100
AcDbLine
 10
0.5
 20
-0.5
 30
0.0
 11
-0.5
 21
-0.5
 31
0.0
  0
LINE
  5
82
100
AcDbEntity
  8
0
  6
CONTINUOUS
 62
     0
100
AcDbLine
 10
-0.5
 20
-0.5
 30
0.0
 11
-0.5
 21
0.5
 31
0.0
  0
ENDBLK
  5
83
100
AcDbEntity
  8
0
100
AcDbBlockEnd
  0
BLOCK
  5
84
100
AcDbEntity
  8
0
100
AcDbBlockBegin
  2
_EX_INTEGRAL
 70
     0
 10
0.0
 20
0.0
 30
0.0
  3
_EX_INTEGRAL
  1

  0
LINE
  5
85
100
AcDbEntity
  8
0
  6
CONTINUOUS
 62
     0
100
AcDbLine
 10
0.0
 20
0.0
 30
0.0
 11
-1.0
 21
0.0
 31
0.0
  0
ARC
  5
86
100
AcDbEntity
  8
0
  6
CONTINUOUS
 62
     0
100
AcDbCircle
 10
0.542115
 20
0.164992
 30
0.0
 40
0.56667
100
AcDbArc
 50
73.07249
 51
196.927513
  0
ARC
  5
87
100
AcDbEntity
  8
0
  6
CONTINUOUS
 62
     0
100
AcDbCircle
 10
-0.542115
 20
-0.164992
 30
0.0
 40
0.56667
100
AcDbArc
 50
253.072487
 51
16.927513
  0
ENDBLK
  5
88
100
AcDbEntity
  8
0
100
AcDbBlockEnd
  0
ENDSEC
  0
SECTION
  2
ENTITIES
  0
LINE
  5
89
100
AcDbEntity
  8
LAY-1
  6
CONTINUOUS
 62
     3
100
AcDbLine
 10
369.7
 20
403.568725
 30
0.0
 11
369.7
 21
439.50003
 31
0.0
  0
LINE
  5
8A
100
AcDbEntity
  8
LAY-1
  6
CONTINUOUS
 62
     3
100
AcDbLine
 10
181.7
 20
439.5
 30
0.0
 11
369.7
 21
439.5
 31
0.0
  0
LINE
  5
8B
100
AcDbEntity
  8
LAY-1
  6
DASHED2
 62
     3
100
AcDbLine
 10
214.700031
 20
452.499992
 30
0.0
 11
208.700031
 21
452.499992
 31
0.0
  0
LINE
  5
8C
100
AcDbEntity
  8
LAY-1
  6
DASHED2
 62
     3
100
AcDbLine
 10
350.7
 20
452.499992
 30
0.0
 11
344.7
 21
452.499992
 31
0.0
  0
ARC
  5
8D
100
AcDbEntity
  8
LAY-1
  6
CONTINUOUS
 62
     3
100
AcDbCircle
 10
247.699969
 20
421.000053
 30
0.0
 40
15.999999
100
AcDbArc
 50
19.719332
 51
111.280085
  0
LINE
  5
8E
100
AcDbEntity
  8
LAY-1
  6
CONTINUOUS
 62
     3
100
AcDbLine
 10
181.7
 20
183.4
 30
0.0
 11
181.7
 21
124.9
 31
0.0
  0
LINE
  5
8F
100
AcDbEntity
  8
LAY-1
  6
CONTINUOUS
 62
     3
100
AcDbLine
 10
181.7
 20
183.4
 30
0.0
 11
369.7
 21
183.4
 31
0.0
  0
LINE
  5
90
100
AcDbEntity
  8
LAY-1
  6
CONTINUOUS
 62
     3
100
AcDbLine
 10
369.7
 20
183.4
 30
0.0
 11
369.7
 21
124.9
 31
0.0
  0
LINE
  5
91
100
AcDbEntity
  8
LAY-1
  6
CONTINUOUS
 62
     3
100
AcDbLine
 10
181.7
 20
138.4
 30
0.0
 11
369.7
 21
138.4
 31
0.0
  0
LINE
  5
92
100
AcDbEntity
  8
LAY-1
  6
CONTINUOUS
 62
     3
100
AcDbLine
 10
181.7
 20
125.4
 30
0.0
 11
369.7
 21
125.4
 31
0.0
  0
LINE
  5
93
100
AcDbEntity
  8
LAY-1
  6
CONTINUOUS
 62
     3
100
AcDbLine
 10
181.7
 20
124.9
 30
0.0
 11
369.7
 21
124.9
 31
0.0
  0
LINE
  5
94
100
AcDbEntity
  8
LAY-1
  6
CONTINUOUS
 62
     3
100
AcDbLine
 10
241.35
 20
189.9
 30
0.0
 11
241.35
 21
183.4
 31
0.0
  0
LINE
  5
95
100
AcDbEntity
  8
LAY-1
  6
CONTINUOUS
 62
     3
100
AcDbLine
 10
254.05
 20
189.9
 30
0.0
 11
254.05
 21
183.4
 31
0.0
  0
LINE
  5
96
100
AcDbEntity
  8
LAY-1
  6
CONTINUOUS
 62
     3
100
AcDbLine
 10
241.35
 20
189.9
 30
0.0
 11
254.05
 21
189.9
 31
0.0
  0
LINE
  5
97
100
AcDbEntity
  8
LAY-1
  6
CONTINUOUS
 62
     3
100
AcDbLine
 10
241.7
 20
190.4
 30
0.0
 11
241.35
 21
189.9
 31
0.0
  0
LINE
  5
98
100
AcDbEntity
  8
LAY-1
  6
CONTINUOUS
 62
     3
100
AcDbLine
 10
253.7
 20
190.4
 30
0.0
 11
254.05
 21
189.9
 31
0.0
  0
LINE
  5
99
100
AcDbEntity
  8
LAY-1
  6
CONTINUOUS
 62
     3
100
AcDbLine
 10
245.14
 20
421.639992
 30
0.0
 11
245.14
 21
420.359992
 31
0.0
  0
LINE
  5
9A
100
AcDbEntity
  8
LAY-1
  6
CONTINUOUS
 62
     3
100
AcDbLine
 10
250.26
 20
421.639992
 30
0.0
 11
250.26
 21
420.359992
 31
0.0
  0
LINE
  5
9B
100
AcDbEntity
  8
LAY-1
  6
CONTINUOUS
 62
     3
100
AcDbLine
 10
247.06
 20
423.559992
 30
0.0
 11
248.34
 21
423.559992
 31
0.0
  0
LINE
  5
9C
100
AcDbEntity
  8
LAY-1
  6
CONTINUOUS
 62
     3
100
AcDbLine
 10
247.06
 20
418.439992
 30
0.0
 11
248.34
 21
418.439992
 31
0.0
  0
LINE
  5
9D
100
AcDbEntity
  8
LAY-1
  6
CONTINUOUS
 62
     3
100
AcDbLine
 10
245.14
 20
421.639992
 30
0.0
 11
246.1
 21
421.639992
 31
0.0
  0
LINE
  5
9E
100
AcDbEntity
  8
LAY-1
  6
CONTINUOUS
 62
     3
100
AcDbLine
 10
249.3
 20
421.639992
 30
0.0
 11
250.26
 21
421.639992
 31
0.0
  0
LINE
  5
9F
100
AcDbEntity
  8
LAY-1
  6
CONTINUOUS
 62
     3
100
AcDbLine
 10
248.34
 20
423.559992
 30
0.0
 11
248.34
 21
422.599992
 31
0.0
  0
LINE
  5
A0
100
AcDbEntity
  8
LAY-1
  6
CONTINUOUS
 62
     3
100
AcDbLine
 10
248.34
 20
419.399992
 30
0.0
 11
248.34
 21
418.439992
 31
0.0
  0
LINE
  5
A1
100
AcDbEntity
  8
LAY-1
  6
CONTINUOUS
 62
     3
100
AcDbLine
 10
245.14
 20
420.359992
 30
0.0
 11
246.1
 21
420.359992
 31
0.0
  0
LINE
  5
A2
100
AcDbEntity
  8
LAY-1
  6
CONTINUOUS
 62
     3
100
AcDbLine
 10
249.3
 20
420.359992
 30
0.0
 11
250.26
 21
420.359992
 31
0.0
  0
LINE
  5
A3
100
AcDbEntity
  8
LAY-1
  6
CONTINUOUS
 62
     3
100
AcDbLine
 10
247.06
 20
423.559992
 30
0.0
 11
247.06
 21
422.599992
 31
0.0
  0
LINE
  5
A4
100
AcDbEntity
  8
LAY-1
  6
CONTINUOUS
 62
     3
100
AcDbLine
 10
247.06
 20
419.399992
 30
0.0
 11
247.06
 21
418.439992
 31
0.0
  0
ARC
  5
A5
100
AcDbEntity
  8
LAY-1
  6
CONTINUOUS
 62
     3
100
AcDbCircle
 10
246.1
 20
422.599992
 30
0.0
 40
0.96
100
AcDbArc
 50
270.0
 51
0.0
  0
ARC
  5
A6
100
AcDbEntity
  8
LAY-1
  6
CONTINUOUS
 62
     3
100
AcDbCircle
 10
249.3
 20
422.599992
 30
0.0
 40
0.96
100
AcDbArc
 50
180.0
 51
270.0
  0
ARC
  5
A7
100
AcDbEntity
  8
LAY-1
  6
CONTINUOUS
 62
     3
100
AcDbCircle
 10
249.3
 20
419.399992
 30
0.0
 40
0.96
100
AcDbArc
 50
90.0
 51
180.0
  0
ARC
  5
A8
100
AcDbEntity
  8
LAY-1
  6
CONTINUOUS
 62
     3
100
AcDbCircle
 10
246.1
 20
419.399992
 30
0.0
 40
0.96
100
AcDbArc
 50
0.0
 51
90.0
  0
LINE
  5
A9
100
AcDbEntity
  8
LAY-1
  6
DASHED2
 62
     3
100
AcDbLine
 10
350.7
 20
404.999992
 30
0.0
 11
344.7
 21
404.999992
 31
0.0
  0
LINE
  5
AA
100
AcDbEntity
  8
LAY-1
  6
DASHED2
 62
     3
100
AcDbLine
 10
350.7
 20
404.999992
 30
0.0
 11
353.2
 21
402.499992
 31
0.0
  0
LINE
  5
AB
100
AcDbEntity
  8
LAY-1
  6
DASHED2
 62
     3
100
AcDbLine
 10
350.7
 20
427.499992
 30
0.0
 11
344.7
 21
427.499992
 31
0.0
  0
LINE
  5
AC
100
AcDbEntity
  8
LAY-1
  6
DASHED2
 62
     1
100
AcDbLine
 10
350.2
 20
427.499992
 30
0.0
 11
350.7
 21
426.633967
 31
0.0
  0
LINE
  5
AD
100
AcDbEntity
  8
LAY-1
  6
DASHED2
 62
     1
100
AcDbLine
 10
345.2
 20
427.499992
 30
0.0
 11
344.7
 21
426.633967
 31
0.0
  0
LINE
  5
AE
100
AcDbEntity
  8
LAY-1
  6
CONTINUOUS
 62
     3
100
AcDbLine
 10
181.7
 20
170.4
 30
0.0
 11
188.7
 21
168.4
 31
0.0
  0
LINE
  5
AF
100
AcDbEntity
  8
LAY-1
  6
CONTINUOUS
 62
     3
100
AcDbLine
 10
188.7
 20
168.4
 30
0.0
 11
181.7
 21
166.4
 31
0.0
  0
LINE
  5
B0
100
AcDbEntity
  8
LAY-1
  6
CONTINUOUS
 62
     1
100
AcDbLine
 10
187.875049
 20
168.164282
 30
0.0
 11
187.215075
 21
168.824256
 31
0.0
  0
LINE
  5
B1
100
AcDbEntity
  8
LAY-1
  6
CONTINUOUS
 62
     1
100
AcDbLine
 10
187.050097
 20
167.928565
 30
0.0
 11
185.730151
 21
169.248511
 31
0.0
  0
LINE
  5
B2
100
AcDbEntity
  8
LAY-1
  6
CONTINUOUS
 62
     1
100
AcDbLine
 10
186.225146
 20
167.692847
 30
0.0
 11
184.245227
 21
169.672797
 31
0.0
  0
LINE
  5
B3
100
AcDbEntity
  8
LAY-1
  6
CONTINUOUS
 62
     1
100
AcDbLine
 10
185.400195
 20
167.45716
 30
0.0
 11
182.760303
 21
170.097052
 31
0.0
  0
LINE
  5
B4
100
AcDbEntity
  8
LAY-1
  6
CONTINUOUS
 62
     1
100
AcDbLine
 10
184.575244
 20
167.221442
 30
0.0
 11
181.70003
 21
170.096686
 31
0.0
  0
LINE
  5
B5
100
AcDbEntity
  8
LAY-1
  6
CONTINUOUS
 62
     1
100
AcDbLine
 10
183.750293
 20
166.985724
 30
0.0
 11
181.70003
 21
169.036017
 31
0.0
  0
LINE
  5
B6
100
AcDbEntity
  8
LAY-1
  6
CONTINUOUS
 62
     1
100
AcDbLine
 10
182.925342
 20
166.750006
 30
0.0
 11
181.70003
 21
167.975348
 31
0.0
  0
LINE
  5
B7
100
AcDbEntity
  8
LAY-1
  6
CONTINUOUS
 62
     1
100
AcDbLine
 10
182.10039
 20
166.514319
 30
0.0
 11
181.70003
 21
166.914679
 31
0.0
  0
LINE
  5
B8
100
AcDbEntity
  8
LAY-1
  6
DASHED2
 62
     3
100
AcDbLine
 10
344.7
 20
404.999992
 30
0.0
 11
342.200008
 21
402.5
 31
0.0
  0
ARC
  5
B9
100
AcDbEntity
  8
LAY-1
  6
CONTINUOUS
 62
     3
100
AcDbCircle
 10
247.7
 20
420.999992
 30
0.0
 40
9.0
100
AcDbArc
 50
229.945179
 51
123.748989
  0
POLYLINE
  5
BA
100
AcDbEntity
  8
LAY-1
  6
CONTINUOUS
 62
     3
100
AcDb2dPolyline
 66
     1
 10
0.0
 20
0.0
 30
0.0
 70
   128
  0
VERTEX
  5
BB
100
AcDbEntity
  8
LAY-1
  6
CONTINUOUS
 62
     3
100
AcDbVertex
100
AcDb2dVertex
 10
242.7
 20
417.886743
 30
0.0
  0
VERTEX
  5
BC
100
AcDbEntity
  8
LAY-1
  6
CONTINUOUS
 62
     3
100
AcDbVertex
100
AcDb2dVertex
 10
247.7
 20
414.999992
 30
0.0
  0
VERTEX
  5
BD
100
AcDbEntity
  8
LAY-1
  6
CONTINUOUS
 62
     3
100
AcDbVertex
100
AcDb2dVertex
 10
252.896152
 20
417.999992
 30
0.0
  0
VERTEX
  5
BE
100
AcDbEntity
  8
LAY-1
  6
CONTINUOUS
 62
     3
100
AcDbVertex
100
AcDb2dVertex
 10
252.896152
 20
423.999992
 30
0.0
  0
VERTEX
  5
BF
100
AcDbEntity
  8
LAY-1
  6
CONTINUOUS
 62
     3
100
AcDbVertex
100
AcDb2dVertex
 10
247.7
 20
426.999992
 30
0.0
  0
SEQEND
  5
C0
100
AcDbEntity
  8
LAY-1
  6
CONTINUOUS
 62
     3
  0
LINE
  5
C1
100
AcDbEntity
  8
LAY-1
  6
CONTINUOUS
 62
     3
100
AcDbLine
 10
247.7
 20
426.999992
 30
0.0
 11
242.7
 21
424.113241
 31
0.0
  0
ARC
  5
C2
100
AcDbEntity
  8
LAY-1
  6
CONTINUOUS
 62
     3
100
AcDbCircle
 10
247.7
 20
420.999992
 30
0.0
 40
6.0
100
AcDbArc
 50
213.55731
 51
146.44269
  0
ARC
  5
C3
100
AcDbEntity
  8
LAY-1
  6
CONTINUOUS
 62
     3
100
AcDbCircle
 10
247.699969
 20
421.000053
 30
0.0
 40
15.999999
100
AcDbArc
 50
212.090178
 51
311.261594
  0
ARC
  5
C4
100
AcDbEntity
  8
LAY-1
  6
CONTINUOUS
 62
     3
100
AcDbCircle
 10
213.2
 20
177.9
 30
0.0
 40
1.0
100
AcDbArc
 50
180.0
 51
270.0
  0
ARC
  5
C5
100
AcDbEntity
  8
LAY-1
  6
CONTINUOUS
 62
     3
100
AcDbCircle
 10
210.2
 20
174.9
 30
0.0
 40
1.0
100
AcDbArc
 50
0.0
 51
90.0
  0
ARC
  5
C6
100
AcDbEntity
  8
LAY-1
  6
CONTINUOUS
 62
     3
100
AcDbCircle
 10
210.2
 20
177.9
 30
0.0
 40
1.0
100
AcDbArc
 50
270.0
 51
0.0
  0
ARC
  5
C7
100
AcDbEntity
  8
LAY-1
  6
CONTINUOUS
 62
     3
100
AcDbCircle
 10
213.2
 20
174.9
 30
0.0
 40
1.0
100
AcDbArc
 50
90.0
 51
180.0
  0
ARC
  5
C8
100
AcDbEntity
  8
LAY-1
  6
CONTINUOUS
 62
     3
100
AcDbCircle
 10
213.2
 20
177.9
 30
0.0
 40
1.0
100
AcDbArc
 50
180.0
 51
270.0
  0
ARC
  5
C9
100
AcDbEntity
  8
LAY-1
  6
CONTINUOUS
 62
     3
100
AcDbCircle
 10
213.2
 20
174.9
 30
0.0
 40
1.0
100
AcDbArc
 50
90.0
 51
180.0
  0
CIRCLE
  5
CA
100
AcDbEntity
  8
LAY-1
  6
CONTINUOUS
 62
     3
100
AcDbCircle
 10
211.7
 20
176.4
 30
0.0
 40
5.0
  0
LINE
  5
CB
100
AcDbEntity
  8
LAY-1
  6
CONTINUOUS
 62
     3
100
AcDbLine
 10
212.2
 20
177.9
 30
0.0
 11
212.2
 21
178.95
 31
0.0
  0
LINE
  5
CC
100
AcDbEntity
  8
LAY-1
  6
CONTINUOUS
 62
     3
100
AcDbLine
 10
211.2
 20
178.95
 30
0.0
 11
212.2
 21
178.95
 31
0.0
  0
LINE
  5
CD
100
AcDbEntity
  8
LAY-1
  6
CONTINUOUS
 62
     3
100
AcDbLine
 10
211.2
 20
177.9
 30
0.0
 11
211.2
 21
178.95
 31
0.0
  0
LINE
  5
CE
100
AcDbEntity
  8
LAY-1
  6
CONTINUOUS
 62
     3
100
AcDbLine
 10
211.2
 20
177.9
 30
0.0
 11
211.2
 21
178.95
 31
0.0
  0
LINE
  5
CF
100
AcDbEntity
  8
LAY-1
  6
CONTINUOUS
 62
     3
100
AcDbLine
 10
212.2
 20
178.95
 30
0.0
 11
211.2
 21
178.95
 31
0.0
  0
LINE
  5
D0
100
AcDbEntity
  8
LAY-1
  6
CONTINUOUS
 62
     3
100
AcDbLine
 10
212.2
 20
177.9
 30
0.0
 11
212.2
 21
178.95
 31
0.0
  0
LINE
  5
D1
100
AcDbEntity
  8
LAY-1
  6
CONTINUOUS
 62
     3
100
AcDbLine
 10
209.15
 20
175.9
 30
0.0
 11
209.15
 21
176.9
 31
0.0
  0
LINE
  5
D2
100
AcDbEntity
  8
LAY-1
  6
CONTINUOUS
 62
     3
100
AcDbLine
 10
210.2
 20
175.9
 30
0.0
 11
209.15
 21
175.9
 31
0.0
  0
LINE
  5
D3
100
AcDbEntity
  8
LAY-1
  6
CONTINUOUS
 62
     3
100
AcDbLine
 10
210.2
 20
176.9
 30
0.0
 11
209.15
 21
176.9
 31
0.0
  0
LINE
  5
D4
100
AcDbEntity
  8
LAY-1
  6
CONTINUOUS
 62
     3
100
AcDbLine
 10
212.2
 20
173.85
 30
0.0
 11
211.2
 21
173.85
 31
0.0
  0
LINE
  5
D5
100
AcDbEntity
  8
LAY-1
  6
CONTINUOUS
 62
     3
100
AcDbLine
 10
212.2
 20
174.9
 30
0.0
 11
212.2
 21
173.85
 31
0.0
  0
LINE
  5
D6
100
AcDbEntity
  8
LAY-1
  6
CONTINUOUS
 62
     3
100
AcDbLine
 10
211.2
 20
174.9
 30
0.0
 11
211.2
 21
173.85
 31
0.0
  0
LINE
  5
D7
100
AcDbEntity
  8
LAY-1
  6
CONTINUOUS
 62
     3
100
AcDbLine
 10
211.2
 20
174.9
 30
0.0
 11
211.2
 21
173.85
 31
0.0
  0
LINE
  5
D8
100
AcDbEntity
  8
LAY-1
  6
CONTINUOUS
 62
     3
100
AcDbLine
 10
212.2
 20
174.9
 30
0.0
 11
212.2
 21
173.85
 31
0.0
  0
LINE
  5
D9
100
AcDbEntity
  8
LAY-1
  6
CONTINUOUS
 62
     3
100
AcDbLine
 10
214.25
 20
176.9
 30
0.0
 11
214.25
 21
175.9
 31
0.0
  0
LINE
  5
DA
100
AcDbEntity
  8
LAY-1
  6
CONTINUOUS
 62
     3
100
AcDbLine
 10
213.2
 20
175.9
 30
0.0
 11
214.25
 21
175.9
 31
0.0
  0
LINE
  5
DB
100
AcDbEntity
  8
LAY-1
  6
CONTINUOUS
 62
     3
100
AcDbLine
 10
213.2
 20
176.9
 30
0.0
 11
214.25
 21
176.9
 31
0.0
  0
LINE
  5
DC
100
AcDbEntity
  8
LAY-1
  6
CONTINUOUS
 62
     3
100
AcDbLine
 10
213.2
 20
176.9
 30
0.0
 11
214.25
 21
176.9
 31
0.0
  0
ARC
  5
DD
100
AcDbEntity
  8
LAY-1
  6
CONTINUOUS
 62
     3
100
AcDbCircle
 10
349.2
 20
177.9
 30
0.0
 40
1.0
100
AcDbArc
 50
180.0
 51
270.0
  0
ARC
  5
DE
100
AcDbEntity
  8
LAY-1
  6
CONTINUOUS
 62
     3
100
AcDbCircle
 10
346.2
 20
174.9
 30
0.0
 40
1.0
100
AcDbArc
 50
0.0
 51
90.0
  0
ARC
  5
DF
100
AcDbEntity
  8
LAY-1
  6
CONTINUOUS
 62
     3
100
AcDbCircle
 10
346.2
 20
177.9
 30
0.0
 40
1.0
100
AcDbArc
 50
270.0
 51
0.0
  0
ARC
  5
E0
100
AcDbEntity
  8
LAY-1
  6
CONTINUOUS
 62
     3
100
AcDbCircle
 10
349.2
 20
174.9
 30
0.0
 40
1.0
100
AcDbArc
 50
90.0
 51
180.0
  0
ARC
  5
E1
100
AcDbEntity
  8
LAY-1
  6
CONTINUOUS
 62
     3
100
AcDbCircle
 10
349.2
 20
177.9
 30
0.0
 40
1.0
100
AcDbArc
 50
180.0
 51
270.0
  0
ARC
  5
E2
100
AcDbEntity
  8
LAY-1
  6
CONTINUOUS
 62
     3
100
AcDbCircle
 10
349.2
 20
174.9
 30
0.0
 40
1.0
100
AcDbArc
 50
90.0
 51
180.0
  0
CIRCLE
  5
E3
100
AcDbEntity
  8
LAY-1
  6
CONTINUOUS
 62
     3
100
AcDbCircle
 10
347.7
 20
176.4
 30
0.0
 40
5.0
  0
LINE
  5
E4
100
AcDbEntity
  8
LAY-1
  6
CONTINUOUS
 62
     3
100
AcDbLine
 10
348.2
 20
177.9
 30
0.0
 11
348.2
 21
178.95
 31
0.0
  0
LINE
  5
E5
100
AcDbEntity
  8
LAY-1
  6
CONTINUOUS
 62
     3
100
AcDbLine
 10
347.2
 20
178.95
 30
0.0
 11
348.2
 21
178.95
 31
0.0
  0
LINE
  5
E6
100
AcDbEntity
  8
LAY-1
  6
CONTINUOUS
 62
     3
100
AcDbLine
 10
347.2
 20
177.9
 30
0.0
 11
347.2
 21
178.95
 31
0.0
  0
LINE
  5
E7
100
AcDbEntity
  8
LAY-1
  6
CONTINUOUS
 62
     3
100
AcDbLine
 10
347.2
 20
177.9
 30
0.0
 11
347.2
 21
178.95
 31
0.0
  0
LINE
  5
E8
100
AcDbEntity
  8
LAY-1
  6
CONTINUOUS
 62
     3
100
AcDbLine
 10
348.2
 20
178.95
 30
0.0
 11
347.2
 21
178.95
 31
0.0
  0
LINE
  5
E9
100
AcDbEntity
  8
LAY-1
  6
CONTINUOUS
 62
     3
100
AcDbLine
 10
348.2
 20
177.9
 30
0.0
 11
348.2
 21
178.95
 31
0.0
  0
LINE
  5
EA
100
AcDbEntity
  8
LAY-1
  6
CONTINUOUS
 62
     3
100
AcDbLine
 10
345.15
 20
175.9
 30
0.0
 11
345.15
 21
176.9
 31
0.0
  0
LINE
  5
EB
100
AcDbEntity
  8
LAY-1
  6
CONTINUOUS
 62
     3
100
AcDbLine
 10
346.2
 20
175.9
 30
0.0
 11
345.15
 21
175.9
 31
0.0
  0
LINE
  5
EC
100
AcDbEntity
  8
LAY-1
  6
CONTINUOUS
 62
     3
100
AcDbLine
 10
346.2
 20
176.9
 30
0.0
 11
345.15
 21
176.9
 31
0.0
  0
LINE
  5
ED
100
AcDbEntity
  8
LAY-1
  6
CONTINUOUS
 62
     3
100
AcDbLine
 10
348.2
 20
173.85
 30
0.0
 11
347.2
 21
173.85
 31
0.0
  0
LINE
  5
EE
100
AcDbEntity
  8
LAY-1
  6
CONTINUOUS
 62
     3
100
AcDbLine
 10
348.2
 20
174.9
 30
0.0
 11
348.2
 21
173.85
 31
0.0
  0
LINE
  5
EF
100
AcDbEntity
  8
LAY-1
  6
CONTINUOUS
 62
     3
100
AcDbLine
 10
347.2
 20
174.9
 30
0.0
 11
347.2
 21
173.85
 31
0.0
  0
LINE
  5
F0
100
AcDbEntity
  8
LAY-1
  6
CONTINUOUS
 62
     3
100
AcDbLine
 10
347.2
 20
174.9
 30
0.0
 11
347.2
 21
173.85
 31
0.0
  0
LINE
  5
F1
100
AcDbEntity
  8
LAY-1
  6
CONTINUOUS
 62
     3
100
AcDbLine
 10
348.2
 20
174.9
 30
0.0
 11
348.2
 21
173.85
 31
0.0
  0
LINE
  5
F2
100
AcDbEntity
  8
LAY-1
  6
CONTINUOUS
 62
     3
100
AcDbLine
 10
350.25
 20
176.9
 30
0.0
 11
350.25
 21
175.9
 31
0.0
  0
LINE
  5
F3
100
AcDbEntity
  8
LAY-1
  6
CONTINUOUS
 62
     3
100
AcDbLine
 10
349.2
 20
175.9
 30
0.0
 11
350.25
 21
175.9
 31
0.0
  0
LINE
  5
F4
100
AcDbEntity
  8
LAY-1
  6
CONTINUOUS
 62
     3
100
AcDbLine
 10
349.2
 20
176.9
 30
0.0
 11
350.25
 21
176.9
 31
0.0
  0
LINE
  5
F5
100
AcDbEntity
  8
LAY-1
  6
CONTINUOUS
 62
     3
100
AcDbLine
 10
349.2
 20
176.9
 30
0.0
 11
350.25
 21
176.9
 31
0.0
  0
LINE
  5
F6
100
AcDbEntity
  8
LAY-1
  6
CONTINUOUS
 62
     3
100
AcDbLine
 10
241.7
 20
190.4
 30
0.0
 11
253.7
 21
190.4
 31
0.0
  0
LINE
  5
F7
100
AcDbEntity
  8
LAY-1
  6
CONTINUOUS
 62
     3
100
AcDbLine
 10
238.7
 20
196.932281
 30
0.0
 11
238.7
 21
196.4
 31
0.0
  0
LINE
  5
F8
100
AcDbEntity
  8
LAY-1
  6
CONTINUOUS
 62
     3
100
AcDbLine
 10
256.7
 20
196.909589
 30
0.0
 11
256.7
 21
196.4
 31
0.0
  0
LINE
  5
F9
100
AcDbEntity
  8
LAY-1
  6
CONTINUOUS
 62
     3
100
AcDbLine
 10
369.7
 20
402.499992
 30
0.0
 11
369.700031
 21
402.499992
 31
0.0
  0
LINE
  5
FA
100
AcDbEntity
  8
LAY-1
  6
CONTINUOUS
 62
     3
100
AcDbLine
 10
369.7
 20
402.499992
 30
0.0
 11
369.7
 21
403.568725
 31
0.0
  0
LINE
  5
FB
100
AcDbEntity
  8
LAY-1
  6
CONTINUOUS
 62
     3
100
AcDbLine
 10
222.699996
 20
402.499992
 30
0.0
 11
283.263465
 21
402.499992
 31
0.0
  0
LINE
  5
FC
100
AcDbEntity
  8
LAY-1
  6
DASHED2
 62
     1
100
AcDbLine
 10
209.200031
 20
437.5
 30
0.0
 11
209.200031
 21
444.3
 31
0.0
  0
LINE
  5
FD
100
AcDbEntity
  8
LAY-1
  6
DASHED2
 62
     1
100
AcDbLine
 10
209.200031
 20
444.3
 30
0.0
 11
209.200031
 21
452.499992
 31
0.0
  0
LINE
  5
FE
100
AcDbEntity
  8
LAY-1
  6
DASHED2
 62
     3
100
AcDbLine
 10
208.700031
 20
437.5
 30
0.0
 11
208.700031
 21
444.3
 31
0.0
  0
LINE
  5
FF
100
AcDbEntity
  8
LAY-1
  6
DASHED2
 62
     3
100
AcDbLine
 10
208.700031
 20
444.3
 30
0.0
 11
208.700031
 21
452.499992
 31
0.0
  0
LINE
  5
100
100
AcDbEntity
  8
LAY-1
  6
DASHED2
 62
     3
100
AcDbLine
 10
214.700031
 20
452.499992
 30
0.0
 11
214.700031
 21
444.3
 31
0.0
  0
LINE
  5
101
100
AcDbEntity
  8
LAY-1
  6
DASHED2
 62
     3
100
AcDbLine
 10
214.700031
 20
444.3
 30
0.0
 11
214.700031
 21
437.5
 31
0.0
  0
LINE
  5
102
100
AcDbEntity
  8
LAY-1
  6
DASHED2
 62
     1
100
AcDbLine
 10
214.200031
 20
452.499992
 30
0.0
 11
214.200031
 21
444.3
 31
0.0
  0
LINE
  5
103
100
AcDbEntity
  8
LAY-1
  6
DASHED2
 62
     1
100
AcDbLine
 10
214.200031
 20
444.3
 30
0.0
 11
214.200031
 21
437.5
 31
0.0
  0
LINE
  5
104
100
AcDbEntity
  8
LAY-1
  6
DASHED2
 62
     3
100
AcDbLine
 10
344.7
 20
404.999992
 30
0.0
 11
344.7
 21
444.3
 31
0.0
  0
LINE
  5
105
100
AcDbEntity
  8
LAY-1
  6
DASHED2
 62
     3
100
AcDbLine
 10
344.7
 20
444.3
 30
0.0
 11
344.7
 21
452.499992
 31
0.0
  0
LINE
  5
106
100
AcDbEntity
  8
LAY-1
  6
DASHED2
 62
     1
100
AcDbLine
 10
345.2
 20
427.499992
 30
0.0
 11
345.2
 21
444.3
 31
0.0
  0
LINE
  5
107
100
AcDbEntity
  8
LAY-1
  6
DASHED2
 62
     1
100
AcDbLine
 10
345.2
 20
444.3
 30
0.0
 11
345.2
 21
452.499992
 31
0.0
  0
LINE
  5
108
100
AcDbEntity
  8
LAY-1
  6
DASHED2
 62
     3
100
AcDbLine
 10
350.7
 20
452.499992
 30
0.0
 11
350.7
 21
444.3
 31
0.0
  0
LINE
  5
109
100
AcDbEntity
  8
LAY-1
  6
DASHED2
 62
     3
100
AcDbLine
 10
350.7
 20
444.3
 30
0.0
 11
350.7
 21
404.999992
 31
0.0
  0
LINE
  5
10A
100
AcDbEntity
  8
LAY-1
  6
DASHED2
 62
     1
100
AcDbLine
 10
350.2
 20
452.499992
 30
0.0
 11
350.2
 21
444.3
 31
0.0
  0
LINE
  5
10B
100
AcDbEntity
  8
LAY-1
  6
DASHED2
 62
     1
100
AcDbLine
 10
350.2
 20
444.3
 30
0.0
 11
350.2
 21
427.499992
 31
0.0
  0
LINE
  5
10C
100
AcDbEntity
  8
LAY-1
  6
CONTINUOUS
 62
     3
100
AcDbLine
 10
181.7
 20
437.5
 30
0.0
 11
181.7
 21
439.5
 31
0.0
  0
LINE
  5
10D
100
AcDbEntity
  8
LAY-1
  6
CONTINUOUS
 62
     3
100
AcDbLine
 10
369.728909
 20
402.691652
 30
0.0
 11
369.72894
 21
402.691652
 31
0.0
  0
LINE
  5
10E
100
AcDbEntity
  8
LAY-1
  6
DASHED2
 62
     3
100
AcDbLine
 10
283.263465
 20
402.5
 30
0.0
 11
355.108995
 21
402.5
 31
0.0
  0
LINE
  5
10F
100
AcDbEntity
  8
LAY-1
  6
CONTINUOUS
 62
     3
100
AcDbLine
 10
355.108995
 20
402.5
 30
0.0
 11
369.7
 21
402.5
 31
0.0
  0
CIRCLE
  5
110
100
AcDbEntity
  8
LAY-1
  6
CONTINUOUS
 62
     3
100
AcDbCircle
 10
633.1
 20
151.4
 30
0.0
 40
16.200001
  0
LINE
  5
111
100
AcDbEntity
  8
LAY-1
  6
CONTINUOUS
 62
     3
100
AcDbLine
 10
631.6
 20
124.9
 30
0.0
 11
631.6
 21
125.4
 31
0.0
  0
LINE
  5
112
100
AcDbEntity
  8
LAY-1
  6
CONTINUOUS
 62
     3
100
AcDbLine
 10
634.6
 20
124.9
 30
0.0
 11
634.6
 21
125.4
 31
0.0
  0
LINE
  5
113
100
AcDbEntity
  8
LAY-1
  6
CONTINUOUS
 62
     3
100
AcDbLine
 10
634.6
 20
124.9
 30
0.0
 11
631.6
 21
124.9
 31
0.0
  0
LINE
  5
114
100
AcDbEntity
  8
LAY-1
  6
CONTINUOUS
 62
     3
100
AcDbLine
 10
631.6
 20
125.4
 30
0.0
 11
623.260248
 21
125.4
 31
0.0
  0
LINE
  5
115
100
AcDbEntity
  8
LAY-1
  6
CONTINUOUS
 62
     3
100
AcDbLine
 10
634.6
 20
125.4
 30
0.0
 11
642.939737
 21
125.4
 31
0.0
  0
LINE
  5
116
100
AcDbEntity
  8
LAY-1
  6
CONTINUOUS
 62
     3
100
AcDbLine
 10
644.671785
 20
126.4
 30
0.0
 11
650.260256
 21
136.079489
 31
0.0
  0
LINE
  5
117
100
AcDbEntity
  8
LAY-1
  6
CONTINUOUS
 62
     3
100
AcDbLine
 10
651.6
 20
141.079489
 30
0.0
 11
651.6
 21
182.9
 31
0.0
  0
LINE
  5
118
100
AcDbEntity
  8
LAY-1
  6
CONTINUOUS
 62
     3
100
AcDbLine
 10
651.6
 20
182.9
 30
0.0
 11
633.1
 21
183.4
 31
0.0
  0
LINE
  5
119
100
AcDbEntity
  8
LAY-1
  6
CONTINUOUS
 62
     3
100
AcDbLine
 10
633.1
 20
183.4
 30
0.0
 11
614.6
 21
182.9
 31
0.0
  0
LINE
  5
11A
100
AcDbEntity
  8
LAY-1
  6
CONTINUOUS
 62
     3
100
AcDbLine
 10
614.6
 20
182.9
 30
0.0
 11
614.6
 21
141.079489
 31
0.0
  0
LINE
  5
11B
100
AcDbEntity
  8
LAY-1
  6
CONTINUOUS
 62
     3
100
AcDbLine
 10
615.939745
 20
136.079489
 30
0.0
 11
621.5282
 21
126.4
 31
0.0
  0
ARC
  5
11C
100
AcDbEntity
  8
LAY-1
  6
CONTINUOUS
 62
     3
100
AcDbCircle
 10
641.6
 20
141.079489
 30
0.0
 40
10.0
100
AcDbArc
 50
329.999967
 51
359.99998
  0
ARC
  5
11D
100
AcDbEntity
  8
LAY-1
  6
CONTINUOUS
 62
     3
100
AcDbCircle
 10
624.6
 20
141.079489
 30
0.0
 40
10.0
100
AcDbArc
 50
180.000018
 51
209.999973
  0
ARC
  5
11E
100
AcDbEntity
  8
LAY-1
  6
CONTINUOUS
 62
     3
100
AcDbCircle
 10
642.939737
 20
127.4
 30
0.0
 40
2.0
100
AcDbArc
 50
270.0
 51
329.999967
  0
ARC
  5
11F
100
AcDbEntity
  8
LAY-1
  6
CONTINUOUS
 62
     3
100
AcDbCircle
 10
623.260248
 20
127.4
 30
0.0
 40
2.0
100
AcDbArc
 50
209.999973
 51
270.0
  0
CIRCLE
  5
120
100
AcDbEntity
  8
LAY-1
  6
DASHED2
 62
     3
100
AcDbCircle
 10
621.100008
 20
168.4
 30
0.0
 40
3.5
  0
LINE
  5
121
100
AcDbEntity
  8
LAY-1
  6
DASHED2
 62
     3
100
AcDbLine
 10
624.047716
 20
170.287054
 30
0.0
 11
622.160661
 21
168.4
 31
0.0
  0
LINE
  5
122
100
AcDbEntity
  8
LAY-1
  6
DASHED2
 62
     3
100
AcDbLine
 10
622.160661
 20
168.4
 30
0.0
 11
624.047716
 21
166.512946
 31
0.0
  0
LINE
  5
123
100
AcDbEntity
  8
LAY-1
  6
DASHED2
 62
     3
100
AcDbLine
 10
622.987062
 20
165.452277
 30
0.0
 11
621.100008
 21
167.339331
 31
0.0
  0
LINE
  5
124
100
AcDbEntity
  8
LAY-1
  6
DASHED2
 62
     3
100
AcDbLine
 10
621.100008
 20
167.339331
 30
0.0
 11
619.212953
 21
165.452277
 31
0.0
  0
LINE
  5
125
100
AcDbEntity
  8
LAY-1
  6
DASHED2
 62
     3
100
AcDbLine
 10
618.152284
 20
166.512946
 30
0.0
 11
620.039339
 21
168.4
 31
0.0
  0
LINE
  5
126
100
AcDbEntity
  8
LAY-1
  6
DASHED2
 62
     3
100
AcDbLine
 10
620.039339
 20
168.4
 30
0.0
 11
618.152284
 21
170.287054
 31
0.0
  0
LINE
  5
127
100
AcDbEntity
  8
LAY-1
  6
DASHED2
 62
     3
100
AcDbLine
 10
619.212953
 20
171.347723
 30
0.0
 11
621.100008
 21
169.460669
 31
0.0
  0
LINE
  5
128
100
AcDbEntity
  8
LAY-1
  6
DASHED2
 62
     3
100
AcDbLine
 10
621.100008
 20
169.460669
 30
0.0
 11
622.987062
 21
171.347723
 31
0.0
  0
CIRCLE
  5
129
100
AcDbEntity
  8
LAY-1
  6
DASHED2
 62
     3
100
AcDbCircle
 10
645.1
 20
168.4
 30
0.0
 40
3.5
  0
LINE
  5
12A
100
AcDbEntity
  8
LAY-1
  6
DASHED2
 62
     3
100
AcDbLine
 10
648.047708
 20
170.287054
 30
0.0
 11
646.160654
 21
168.4
 31
0.0
  0
LINE
  5
12B
100
AcDbEntity
  8
LAY-1
  6
DASHED2
 62
     3
100
AcDbLine
 10
646.160654
 20
168.4
 30
0.0
 11
648.047708
 21
166.512946
 31
0.0
  0
LINE
  5
12C
100
AcDbEntity
  8
LAY-1
  6
DASHED2
 62
     3
100
AcDbLine
 10
646.987055
 20
165.452277
 30
0.0
 11
645.1
 21
167.339331
 31
0.0
  0
LINE
  5
12D
100
AcDbEntity
  8
LAY-1
  6
DASHED2
 62
     3
100
AcDbLine
 10
645.1
 20
167.339331
 30
0.0
 11
643.212946
 21
165.452277
 31
0.0
  0
LINE
  5
12E
100
AcDbEntity
  8
LAY-1
  6
DASHED2
 62
     3
100
AcDbLine
 10
642.152277
 20
166.512946
 30
0.0
 11
644.039331
 21
168.4
 31
0.0
  0
LINE
  5
12F
100
AcDbEntity
  8
LAY-1
  6
DASHED2
 62
     3
100
AcDbLine
 10
644.039331
 20
168.4
 30
0.0
 11
642.152277
 21
170.287054
 31
0.0
  0
LINE
  5
130
100
AcDbEntity
  8
LAY-1
  6
DASHED2
 62
     3
100
AcDbLine
 10
643.212946
 20
171.347723
 30
0.0
 11
645.1
 21
169.460669
 31
0.0
  0
LINE
  5
131
100
AcDbEntity
  8
LAY-1
  6
DASHED2
 62
     3
100
AcDbLine
 10
645.1
 20
169.460669
 30
0.0
 11
646.987055
 21
171.347723
 31
0.0
  0
LINE
  5
132
100
AcDbEntity
  8
LAY-1
  6
DASHED2
 62
     3
100
AcDbLine
 10
617.1
 20
179.4
 30
0.0
 11
617.1
 21
173.4
 31
0.0
  0
LINE
  5
133
100
AcDbEntity
  8
LAY-1
  6
DASHED2
 62
     3
100
AcDbLine
 10
615.1
 20
171.4
 30
0.0
 11
617.1
 21
173.4
 31
0.0
  0
LINE
  5
134
100
AcDbEntity
  8
LAY-1
  6
DASHED2
 62
     3
100
AcDbLine
 10
615.1
 20
181.4
 30
0.0
 11
615.1
 21
171.4
 31
0.0
  0
LINE
  5
135
100
AcDbEntity
  8
LAY-1
  6
DASHED2
 62
     3
100
AcDbLine
 10
617.1
 20
179.4
 30
0.0
 11
615.1
 21
181.4
 31
0.0
  0
LINE
  5
136
100
AcDbEntity
  8
LAY-1
  6
DASHED2
 62
     3
100
AcDbLine
 10
615.1
 20
181.4
 30
0.0
 11
614.600008
 21
181.4
 31
0.0
  0
LINE
  5
137
100
AcDbEntity
  8
LAY-1
  6
DASHED2
 62
     3
100
AcDbLine
 10
615.1
 20
171.4
 30
0.0
 11
614.600008
 21
171.4
 31
0.0
  0
LINE
  5
138
100
AcDbEntity
  8
LAY-1
  6
CONTINUOUS
 62
     3
100
AcDbLine
 10
651.6
 20
139.9
 30
0.0
 11
651.6
 21
182.9
 31
0.0
  0
LINE
  5
139
100
AcDbEntity
  8
LAY-1
  6
DASHED2
 62
     3
100
AcDbLine
 10
664.6
 20
179.4
 30
0.0
 11
664.6
 21
173.4
 31
0.0
  0
LINE
  5
13A
100
AcDbEntity
  8
LAY-1
  6
CONTINUOUS
 62
     3
100
AcDbLine
 10
627.1
 20
190.4
 30
0.0
 11
639.1
 21
190.4
 31
0.0
  0
LINE
  5
13B
100
AcDbEntity
  8
LAY-1
  6
CONTINUOUS
 62
     3
100
AcDbLine
 10
639.45
 20
189.9
 30
0.0
 11
639.45
 21
183.228378
 31
0.0
  0
LINE
  5
13C
100
AcDbEntity
  8
LAY-1
  6
CONTINUOUS
 62
     3
100
AcDbLine
 10
626.75
 20
189.9
 30
0.0
 11
626.75
 21
183.228378
 31
0.0
  0
LINE
  5
13D
100
AcDbEntity
  8
LAY-1
  6
CONTINUOUS
 62
     3
100
AcDbLine
 10
639.45
 20
189.9
 30
0.0
 11
626.75
 21
189.9
 31
0.0
  0
LINE
  5
13E
100
AcDbEntity
  8
LAY-1
  6
CONTINUOUS
 62
     3
100
AcDbLine
 10
639.1
 20
190.4
 30
0.0
 11
639.45
 21
189.9
 31
0.0
  0
LINE
  5
13F
100
AcDbEntity
  8
LAY-1
  6
CONTINUOUS
 62
     3
100
AcDbLine
 10
627.1
 20
190.4
 30
0.0
 11
626.75
 21
189.9
 31
0.0
  0
LINE
  5
140
100
AcDbEntity
  8
LAY-1
  6
DASHED2
 62
     3
100
AcDbLine
 10
639.6
 20
179.4
 30
0.0
 11
639.6
 21
173.4
 31
0.0
  0
LINE
  5
141
100
AcDbEntity
  8
LAY-1
  6
DASHED2
 62
     1
100
AcDbLine
 10
639.6
 20
178.9
 30
0.0
 11
638.733975
 21
179.4
 31
0.0
  0
LINE
  5
142
100
AcDbEntity
  8
LAY-1
  6
DASHED2
 62
     1
100
AcDbLine
 10
639.6
 20
173.9
 30
0.0
 11
638.733975
 21
173.4
 31
0.0
  0
LINE
  5
143
100
AcDbEntity
  8
LAY-1
  6
CONTINUOUS
 62
     3
100
AcDbLine
 10
642.1
 20
198.0
 30
0.0
 11
642.1
 21
196.4
 31
0.0
  0
LINE
  5
144
100
AcDbEntity
  8
LAY-1
  6
CONTINUOUS
 62
     3
100
AcDbLine
 10
624.1
 20
198.0
 30
0.0
 11
624.1
 21
196.4
 31
0.0
  0
ARC
  5
145
100
AcDbEntity
  8
LAY-1
  6
CONTINUOUS
 62
     3
100
AcDbCircle
 10
633.1
 20
198.0
 30
0.0
 40
5.0
100
AcDbArc
 50
53.130102
 51
126.869898
  0
ARC
  5
146
100
AcDbEntity
  8
LAY-1
  6
CONTINUOUS
 62
     3
100
AcDbCircle
 10
637.6
 20
201.375
 30
0.0
 40
1.625
100
AcDbArc
 50
22.619865
 51
157.380135
  0
ARC
  5
147
100
AcDbEntity
  8
LAY-1
  6
CONTINUOUS
 62
     3
100
AcDbCircle
 10
628.6
 20
201.375
 30
0.0
 40
1.625
100
AcDbArc
 50
22.619865
 51
157.380135
  0
LINE
  5
148
100
AcDbEntity
  8
LAY-1
  6
CONTINUOUS
 62
     3
100
AcDbLine
 10
638.725579
 20
202.547048
 30
0.0
 11
638.19
 21
203.0
 31
0.0
  0
LINE
  5
149
100
AcDbEntity
  8
LAY-1
  6
CONTINUOUS
 62
     3
100
AcDbLine
 10
642.1
 20
198.0
 30
0.0
 11
624.1
 21
198.0
 31
0.0
  0
ARC
  5
14A
100
AcDbEntity
  8
LAY-1
  6
CONTINUOUS
 62
     3
100
AcDbCircle
 10
633.1
 20
204.0
 30
0.0
 40
5.0
100
AcDbArc
 50
233.130102
 51
306.869898
  0
ARC
  5
14B
100
AcDbEntity
  8
LAY-1
  6
CONTINUOUS
 62
     3
100
AcDbCircle
 10
637.6
 20
200.625
 30
0.0
 40
1.625
100
AcDbArc
 50
202.619865
 51
337.380135
  0
ARC
  5
14C
100
AcDbEntity
  8
LAY-1
  6
CONTINUOUS
 62
     3
100
AcDbCircle
 10
628.6
 20
200.625
 30
0.0
 40
1.625
100
AcDbArc
 50
202.619865
 51
337.380135
  0
LINE
  5
14D
100
AcDbEntity
  8
LAY-1
  6
CONTINUOUS
 62
     3
100
AcDbLine
 10
636.1
 20
202.0
 30
0.0
 11
636.1
 21
200.0
 31
0.0
  0
LINE
  5
14E
100
AcDbEntity
  8
LAY-1
  6
CONTINUOUS
 62
     3
100
AcDbLine
 10
630.1
 20
202.0
 30
0.0
 11
630.1
 21
200.0
 31
0.0
  0
LINE
  5
14F
100
AcDbEntity
  8
LAY-1
  6
CONTINUOUS
 62
     3
100
AcDbLine
 10
639.1
 20
199.0
 30
0.0
 11
627.1
 21
199.0
 31
0.0
  0
LINE
  5
150
100
AcDbEntity
  8
LAY-1
  6
CONTINUOUS
 62
     3
100
AcDbLine
 10
638.725579
 20
199.452952
 30
0.0
 11
638.19
 21
199.0
 31
0.0
  0
LINE
  5
151
100
AcDbEntity
  8
LAY-1
  6
CONTINUOUS
 62
     3
100
AcDbLine
 10
627.474421
 20
202.547048
 30
0.0
 11
628.01
 21
203.0
 31
0.0
  0
LINE
  5
152
100
AcDbEntity
  8
LAY-1
  6
CONTINUOUS
 62
     3
100
AcDbLine
 10
627.474421
 20
199.452952
 30
0.0
 11
628.01
 21
199.0
 31
0.0
  0
LINE
  5
153
100
AcDbEntity
  8
LAY-1
  6
CONTINUOUS
 62
     3
100
AcDbLine
 10
639.1
 20
202.0
 30
0.0
 11
639.1
 21
200.0
 31
0.0
  0
LINE
  5
154
100
AcDbEntity
  8
LAY-1
  6
CONTINUOUS
 62
     3
100
AcDbLine
 10
639.1
 20
199.0
 30
0.0
 11
639.1
 21
198.0
 31
0.0
  0
LINE
  5
155
100
AcDbEntity
  8
LAY-1
  6
CONTINUOUS
 62
     3
100
AcDbLine
 10
627.1
 20
199.0
 30
0.0
 11
627.1
 21
198.0
 31
0.0
  0
LINE
  5
156
100
AcDbEntity
  8
LAY-1
  6
CONTINUOUS
 62
     3
100
AcDbLine
 10
627.1
 20
202.0
 30
0.0
 11
627.1
 21
200.0
 31
0.0
  0
LINE
  5
157
100
AcDbEntity
  8
LAY-1
  6
CONTINUOUS
 62
     3
100
AcDbLine
 10
638.19
 20
203.0
 30
0.0
 11
628.01
 21
203.0
 31
0.0
  0
LINE
  5
158
100
AcDbEntity
  8
LAY-1
  6
DASHED2
 62
     3
100
AcDbLine
 10
664.6
 20
179.4
 30
0.0
 11
656.4
 21
179.4
 31
0.0
  0
LINE
  5
159
100
AcDbEntity
  8
LAY-1
  6
DASHED2
 62
     3
100
AcDbLine
 10
656.4
 20
179.4
 30
0.0
 11
617.1
 21
179.4
 31
0.0
  0
LINE
  5
15A
100
AcDbEntity
  8
LAY-1
  6
DASHED2
 62
     1
100
AcDbLine
 10
664.6
 20
178.9
 30
0.0
 11
656.4
 21
178.9
 31
0.0
  0
LINE
  5
15B
100
AcDbEntity
  8
LAY-1
  6
DASHED2
 62
     1
100
AcDbLine
 10
656.4
 20
178.9
 30
0.0
 11
639.6
 21
178.9
 31
0.0
  0
LINE
  5
15C
100
AcDbEntity
  8
LAY-1
  6
DASHED2
 62
     3
100
AcDbLine
 10
617.1
 20
173.4
 30
0.0
 11
656.4
 21
173.4
 31
0.0
  0
LINE
  5
15D
100
AcDbEntity
  8
LAY-1
  6
DASHED2
 62
     3
100
AcDbLine
 10
656.4
 20
173.4
 30
0.0
 11
664.6
 21
173.4
 31
0.0
  0
LINE
  5
15E
100
AcDbEntity
  8
LAY-1
  6
DASHED2
 62
     1
100
AcDbLine
 10
639.6
 20
173.9
 30
0.0
 11
656.4
 21
173.9
 31
0.0
  0
LINE
  5
15F
100
AcDbEntity
  8
LAY-1
  6
DASHED2
 62
     1
100
AcDbLine
 10
656.4
 20
173.9
 30
0.0
 11
664.6
 21
173.9
 31
0.0
  0
POLYLINE
  5
160
100
AcDbEntity
  8
LAY-1
  6
CONTINUOUS
 62
     3
100
AcDb2dPolyline
 66
     1
 10
0.0
 20
0.0
 30
0.0
 70
   128
  0
VERTEX
  5
161
100
AcDbEntity
  8
LAY-1
  6
CONTINUOUS
 62
     3
100
AcDbVertex
100
AcDb2dVertex
 10
633.1
 20
163.524356
 30
0.0
  0
VERTEX
  5
162
100
AcDbEntity
  8
LAY-1
  6
CONTINUOUS
 62
     3
100
AcDbVertex
100
AcDb2dVertex
 10
622.6
 20
157.462178
 30
0.0
  0
VERTEX
  5
163
100
AcDbEntity
  8
LAY-1
  6
CONTINUOUS
 62
     3
100
AcDbVertex
100
AcDb2dVertex
 10
622.6
 20
145.337822
 30
0.0
  0
VERTEX
  5
164
100
AcDbEntity
  8
LAY-1
  6
CONTINUOUS
 62
     3
100
AcDbVertex
100
AcDb2dVertex
 10
633.1
 20
139.275644
 30
0.0
  0
VERTEX
  5
165
100
AcDbEntity
  8
LAY-1
  6
CONTINUOUS
 62
     3
100
AcDbVertex
100
AcDb2dVertex
 10
643.6
 20
145.337822
 30
0.0
  0
VERTEX
  5
166
100
AcDbEntity
  8
LAY-1
  6
CONTINUOUS
 62
     3
100
AcDbVertex
100
AcDb2dVertex
 10
643.6
 20
157.462178
 30
0.0
  0
VERTEX
  5
167
100
AcDbEntity
  8
LAY-1
  6
CONTINUOUS
 62
     3
100
AcDbVertex
100
AcDb2dVertex
 10
633.1
 20
163.524356
 30
0.0
  0
SEQEND
  5
168
100
AcDbEntity
  8
LAY-1
  6
CONTINUOUS
 62
     3
  0
LINE
  5
169
100
AcDbEntity
  8
LAY-2
  6
CONTINUOUS
 62
     3
100
AcDbLine
 10
235.7
 20
191.4
 30
0.0
 11
235.7
 21
195.4
 31
0.0
  0
LINE
  5
16A
100
AcDbEntity
  8
LAY-2
  6
CONTINUOUS
 62
     3
100
AcDbLine
 10
259.7
 20
191.4
 30
0.0
 11
259.7
 21
191.9
 31
0.0
  0
LINE
  5
16B
100
AcDbEntity
  8
LAY-2
  6
CONTINUOUS
 62
     3
100
AcDbLine
 10
468.672994
 20
195.4
 30
0.0
 11
468.672994
 21
192.9
 31
0.0
  0
LINE
  5
16C
100
AcDbEntity
  8
LAY-2
  6
CONTINUOUS
 62
     3
100
AcDbLine
 10
236.7
 20
190.4
 30
0.0
 11
258.7
 21
190.4
 31
0.0
  0
ARC
  5
16D
100
AcDbEntity
  8
LAY-2
  6
CONTINUOUS
 62
     3
100
AcDbCircle
 10
236.7
 20
195.4
 30
0.0
 40
1.0
100
AcDbArc
 50
90.0
 51
180.0
  0
ARC
  5
16E
100
AcDbEntity
  8
LAY-2
  6
CONTINUOUS
 62
     3
100
AcDbCircle
 10
236.7
 20
191.4
 30
0.0
 40
1.0
100
AcDbArc
 50
180.0
 51
270.0
  0
ARC
  5
16F
100
AcDbEntity
  8
LAY-2
  6
CONTINUOUS
 62
     3
100
AcDbCircle
 10
258.7
 20
191.4
 30
0.0
 40
1.0
100
AcDbArc
 50
270.0
 51
0.0
  0
ARC
  5
170
100
AcDbEntity
  8
LAY-2
  6
CONTINUOUS
 62
     3
100
AcDbCircle
 10
467.672994
 20
195.4
 30
0.0
 40
1.0
100
AcDbArc
 50
0.0
 51
90.0
  0
ARC
  5
171
100
AcDbEntity
  8
LAY-2
  6
CONTINUOUS
 62
     3
100
AcDbCircle
 10
467.672994
 20
192.9
 30
0.0
 40
1.0
100
AcDbArc
 50
270.0
 51
0.0
  0
ARC
  5
172
100
AcDbEntity
  8
LAY-2
  6
CONTINUOUS
 62
     3
100
AcDbCircle
 10
258.7
 20
195.4
 30
0.0
 40
1.0
100
AcDbArc
 50
0.0
 51
90.0
  0
LINE
  5
173
100
AcDbEntity
  8
LAY-2
  6
CONTINUOUS
 62
     3
100
AcDbLine
 10
456.672994
 20
190.9
 30
0.0
 11
464.672994
 21
190.9
 31
0.0
  0
ARC
  5
174
100
AcDbEntity
  8
LAY-2
  6
CONTINUOUS
 62
     3
100
AcDbCircle
 10
456.672994
 20
191.9
 30
0.0
 40
1.0
100
AcDbArc
 50
180.0
 51
270.0
  0
ARC
  5
175
100
AcDbEntity
  8
LAY-2
  6
CONTINUOUS
 62
     3
100
AcDbCircle
 10
464.672994
 20
191.9
 30
0.0
 40
1.0
100
AcDbArc
 50
270.0
 51
0.0
  0
LINE
  5
176
100
AcDbEntity
  8
LAY-2
  6
CONTINUOUS
 62
     3
100
AcDbLine
 10
453.672994
 20
196.4
 30
0.0
 11
453.672994
 21
201.9
 31
0.0
  0
LINE
  5
177
100
AcDbEntity
  8
LAY-2
  6
CONTINUOUS
 62
     3
100
AcDbLine
 10
467.672994
 20
196.4
 30
0.0
 11
467.672994
 21
201.9
 31
0.0
  0
LINE
  5
178
100
AcDbEntity
  8
LAY-2
  6
CONTINUOUS
 62
     3
100
AcDbLine
 10
453.672994
 20
201.4
 30
0.0
 11
467.672994
 21
201.4
 31
0.0
  0
LINE
  5
179
100
AcDbEntity
  8
LAY-2
  6
CONTINUOUS
 62
     3
100
AcDbLine
 10
453.172994
 20
207.4
 30
0.0
 11
453.172994
 21
209.0
 31
0.0
  0
LINE
  5
17A
100
AcDbEntity
  8
LAY-2
  6
CONTINUOUS
 62
     3
100
AcDbLine
 10
468.172994
 20
207.4
 30
0.0
 11
468.172994
 21
209.0
 31
0.0
  0
LINE
  5
17B
100
AcDbEntity
  8
LAY-2
  6
CONTINUOUS
 62
     3
100
AcDbLine
 10
453.172994
 20
209.0
 30
0.0
 11
468.172994
 21
209.0
 31
0.0
  0
LINE
  5
17C
100
AcDbEntity
  8
LAY-2
  6
CONTINUOUS
 62
     3
100
AcDbLine
 10
468.172994
 20
207.4
 30
0.0
 11
453.172994
 21
207.4
 31
0.0
  0
LINE
  5
17D
100
AcDbEntity
  8
LAY-2
  6
CONTINUOUS
 62
     3
100
AcDbLine
 10
454.772994
 20
209.0
 30
0.0
 11
454.772994
 21
210.0
 31
0.0
  0
LINE
  5
17E
100
AcDbEntity
  8
LAY-2
  6
CONTINUOUS
 62
     3
100
AcDbLine
 10
466.572994
 20
209.0
 30
0.0
 11
466.572994
 21
210.0
 31
0.0
  0
LINE
  5
17F
100
AcDbEntity
  8
LAY-2
  6
CONTINUOUS
 62
     3
100
AcDbLine
 10
454.772994
 20
210.0
 30
0.0
 11
466.572994
 21
210.0
 31
0.0
  0
ARC
  5
180
100
AcDbEntity
  8
LAY-2
  6
CONTINUOUS
 62
     3
100
AcDbCircle
 10
460.672994
 20
202.761905
 30
0.0
 40
9.338095
100
AcDbArc
 50
50.815436
 51
129.184564
  0
LINE
  5
181
100
AcDbEntity
  8
LAY-2
  6
CONTINUOUS
 62
     3
100
AcDbLine
 10
238.7
 20
196.932281
 30
0.0
 11
238.7
 21
196.4
 31
0.0
  0
LINE
  5
182
100
AcDbEntity
  8
LAY-2
  6
CONTINUOUS
 62
     3
100
AcDbLine
 10
256.7
 20
196.909589
 30
0.0
 11
256.7
 21
196.4
 31
0.0
  0
LINE
  5
183
100
AcDbEntity
  8
LAY-2
  6
CONTINUOUS
 62
     3
100
AcDbLine
 10
453.672994
 20
201.9
 30
0.0
 11
467.672994
 21
201.9
 31
0.0
  0
LINE
  5
184
100
AcDbEntity
  8
LAY-2
  6
CONTINUOUS
 62
     3
100
AcDbLine
 10
465.872994
 20
207.4
 30
0.0
 11
465.872994
 21
206.893446
 31
0.0
  0
LINE
  5
185
100
AcDbEntity
  8
LAY-2
  6
CONTINUOUS
 62
     3
100
AcDbLine
 10
455.472994
 20
207.4
 30
0.0
 11
455.472994
 21
206.906557
 31
0.0
  0
LINE
  5
186
100
AcDbEntity
  8
LAY-2
  6
CONTINUOUS
 62
     3
100
AcDbLine
 10
455.472994
 20
202.406554
 30
0.0
 11
455.472994
 21
201.9
 31
0.0
  0
LINE
  5
187
100
AcDbEntity
  8
LAY-2
  6
CONTINUOUS
 62
     3
100
AcDbLine
 10
465.872994
 20
202.393443
 30
0.0
 11
465.872994
 21
201.9
 31
0.0
  0
LINE
  5
188
100
AcDbEntity
  8
LAY-2
  6
CONTINUOUS
 62
     3
100
AcDbLine
 10
236.7
 20
196.4
 30
0.0
 11
331.5
 21
196.4
 31
0.0
  0
LINE
  5
189
100
AcDbEntity
  8
LAY-2
  6
CONTINUOUS
 62
     3
100
AcDbLine
 10
438.055796
 20
196.4
 30
0.0
 11
467.672994
 21
196.4
 31
0.0
  0
LINE
  5
18A
100
AcDbEntity
  8
LAY-2
  6
CONTINUOUS
 62
     3
100
AcDbLine
 10
467.672994
 20
191.9
 30
0.0
 11
437.455796
 21
191.9
 31
0.0
  0
LINE
  5
18B
100
AcDbEntity
  8
LAY-2
  6
CONTINUOUS
 62
     3
100
AcDbLine
 10
440.0
 20
191.9
 30
0.0
 11
258.1
 21
191.9
 31
0.0
  0
ARC
  5
18C
100
AcDbEntity
  8
LAY-2
  6
CONTINUOUS
 62
     3
100
AcDbCircle
 10
462.141786
 20
367.471566
 30
0.0
 40
1.0
100
AcDbArc
 50
181.18
 51
271.18
  0
ARC
  5
18D
100
AcDbEntity
  8
LAY-2
  6
CONTINUOUS
 62
     3
100
AcDbCircle
 10
459.204202
 20
364.410422
 30
0.0
 40
1.0
100
AcDbArc
 50
1.18
 51
91.18
  0
ARC
  5
18E
100
AcDbEntity
  8
LAY-2
  6
CONTINUOUS
 62
     3
100
AcDbCircle
 10
459.142422
 20
367.409786
 30
0.0
 40
1.0
100
AcDbArc
 50
271.18
 51
1.18
  0
ARC
  5
18F
100
AcDbEntity
  8
LAY-2
  6
CONTINUOUS
 62
     3
100
AcDbCircle
 10
462.203566
 20
364.472202
 30
0.0
 40
1.0
100
AcDbArc
 50
91.18
 51
181.18
  0
ARC
  5
190
100
AcDbEntity
  8
LAY-2
  6
CONTINUOUS
 62
     3
100
AcDbCircle
 10
462.141786
 20
367.471566
 30
0.0
 40
1.0
100
AcDbArc
 50
181.18
 51
271.18
  0
ARC
  5
191
100
AcDbEntity
  8
LAY-2
  6
CONTINUOUS
 62
     3
100
AcDbCircle
 10
462.203566
 20
364.472202
 30
0.0
 40
1.0
100
AcDbArc
 50
91.18
 51
181.18
  0
CIRCLE
  5
192
100
AcDbEntity
  8
LAY-2
  6
CONTINUOUS
 62
     3
100
AcDbCircle
 10
460.672994
 20
365.940994
 30
0.0
 40
5.0
  0
LINE
  5
193
100
AcDbEntity
  8
LAY-2
  6
CONTINUOUS
 62
     3
100
AcDbLine
 10
461.141998
 20
367.450973
 30
0.0
 11
461.120375
 21
368.50075
 31
0.0
  0
LINE
  5
194
100
AcDbEntity
  8
LAY-2
  6
CONTINUOUS
 62
     3
100
AcDbLine
 10
460.120587
 20
368.480156
 30
0.0
 11
461.120375
 21
368.50075
 31
0.0
  0
LINE
  5
195
100
AcDbEntity
  8
LAY-2
  6
CONTINUOUS
 62
     3
100
AcDbLine
 10
460.14221
 20
367.430379
 30
0.0
 11
460.120587
 21
368.480156
 31
0.0
  0
LINE
  5
196
100
AcDbEntity
  8
LAY-2
  6
CONTINUOUS
 62
     3
100
AcDbLine
 10
460.14221
 20
367.430379
 30
0.0
 11
460.120587
 21
368.480156
 31
0.0
  0
LINE
  5
197
100
AcDbEntity
  8
LAY-2
  6
CONTINUOUS
 62
     3
100
AcDbLine
 10
461.120375
 20
368.50075
 30
0.0
 11
460.120587
 21
368.480156
 31
0.0
  0
LINE
  5
198
100
AcDbEntity
  8
LAY-2
  6
CONTINUOUS
 62
     3
100
AcDbLine
 10
461.141998
 20
367.450973
 30
0.0
 11
461.120375
 21
368.50075
 31
0.0
  0
LINE
  5
199
100
AcDbEntity
  8
LAY-2
  6
CONTINUOUS
 62
     3
100
AcDbLine
 10
458.133832
 20
365.388587
 30
0.0
 11
458.113238
 21
366.388375
 31
0.0
  0
LINE
  5
19A
100
AcDbEntity
  8
LAY-2
  6
CONTINUOUS
 62
     3
100
AcDbLine
 10
459.183609
 20
365.41021
 30
0.0
 11
458.133832
 21
365.388587
 31
0.0
  0
LINE
  5
19B
100
AcDbEntity
  8
LAY-2
  6
CONTINUOUS
 62
     3
100
AcDbLine
 10
459.163015
 20
366.409998
 30
0.0
 11
458.113238
 21
366.388375
 31
0.0
  0
LINE
  5
19C
100
AcDbEntity
  8
LAY-2
  6
CONTINUOUS
 62
     3
100
AcDbLine
 10
461.225401
 20
363.401831
 30
0.0
 11
460.225613
 21
363.381238
 31
0.0
  0
LINE
  5
19D
100
AcDbEntity
  8
LAY-2
  6
CONTINUOUS
 62
     3
100
AcDbLine
 10
461.203778
 20
364.451609
 30
0.0
 11
461.225401
 21
363.401831
 31
0.0
  0
LINE
  5
19E
100
AcDbEntity
  8
LAY-2
  6
CONTINUOUS
 62
     3
100
AcDbLine
 10
460.20399
 20
364.431015
 30
0.0
 11
460.225613
 21
363.381238
 31
0.0
  0
LINE
  5
19F
100
AcDbEntity
  8
LAY-2
  6
CONTINUOUS
 62
     3
100
AcDbLine
 10
460.20399
 20
364.431015
 30
0.0
 11
460.225613
 21
363.381238
 31
0.0
  0
LINE
  5
1A0
100
AcDbEntity
  8
LAY-2
  6
CONTINUOUS
 62
     3
100
AcDbLine
 10
461.203778
 20
364.451609
 30
0.0
 11
461.225401
 21
363.401831
 31
0.0
  0
LINE
  5
1A1
100
AcDbEntity
  8
LAY-2
  6
CONTINUOUS
 62
     3
100
AcDbLine
 10
463.212157
 20
366.493401
 30
0.0
 11
463.23275
 21
365.493613
 31
0.0
  0
LINE
  5
1A2
100
AcDbEntity
  8
LAY-2
  6
CONTINUOUS
 62
     3
100
AcDbLine
 10
462.182973
 20
365.47199
 30
0.0
 11
463.23275
 21
365.493613
 31
0.0
  0
LINE
  5
1A3
100
AcDbEntity
  8
LAY-2
  6
CONTINUOUS
 62
     3
100
AcDbLine
 10
462.162379
 20
366.471778
 30
0.0
 11
463.212157
 21
366.493401
 31
0.0
  0
LINE
  5
1A4
100
AcDbEntity
  8
LAY-2
  6
CONTINUOUS
 62
     3
100
AcDbLine
 10
462.162379
 20
366.471778
 30
0.0
 11
463.212157
 21
366.493401
 31
0.0
  0
CIRCLE
  5
1A5
100
AcDbEntity
  8
LAY-2
  6
CONTINUOUS
 62
     3
100
AcDbCircle
 10
460.672994
 20
365.940994
 30
0.0
 40
7.5
  0
ARC
  5
1A6
100
AcDbEntity
  8
LAY-2
  6
CONTINUOUS
 62
     3
100
AcDbCircle
 10
236.341151
 20
375.112309
 30
0.0
 40
59.148714
100
AcDbArc
 50
64.948877
 51
83.850031
  0
ARC
  5
1A7
100
AcDbEntity
  8
LAY-2
  6
CONTINUOUS
 62
     3
100
AcDbCircle
 10
203.862908
 20
432.344639
 30
0.0
 40
58.28125
100
AcDbArc
 50
335.540981
 51
355.440389
  0
ARC
  5
1A8
100
AcDbEntity
  8
LAY-2
  6
CONTINUOUS
 62
     3
100
AcDbCircle
 10
256.003605
 20
408.62778
 30
0.0
 40
1.0
100
AcDbArc
 50
266.032493
 51
335.540981
  0
LINE
  5
1A9
100
AcDbEntity
  8
LAY-2
  6
CONTINUOUS
 62
     3
100
AcDbLine
 10
258.16206
 20
408.996011
 30
0.0
 11
402.328697
 21
371.686977
 31
0.0
  0
ARC
  5
1AA
100
AcDbEntity
  8
LAY-2
  6
CONTINUOUS
 62
     3
100
AcDbCircle
 10
257.911522
 20
408.027904
 30
0.0
 40
1.0
100
AcDbArc
 50
75.490685
 51
162.546135
  0
ARC
  5
1AB
100
AcDbEntity
  8
LAY-2
  6
CONTINUOUS
 62
     3
100
AcDbCircle
 10
260.962873
 20
427.790993
 30
0.0
 40
1.0
100
AcDbArc
 50
355.440389
 51
64.948877
  0
ARC
  5
1AC
100
AcDbEntity
  8
LAY-2
  6
CONTINUOUS
 62
     3
100
AcDbCircle
 10
262.92227
 20
427.390042
 30
0.0
 40
1.0
100
AcDbArc
 50
168.435235
 51
255.490685
  0
LINE
  5
1AD
100
AcDbEntity
  8
LAY-2
  6
CONTINUOUS
 62
     3
100
AcDbLine
 10
262.671733
 20
426.421935
 30
0.0
 11
451.798562
 21
377.477606
 31
0.0
  0
ARC
  5
1AE
100
AcDbEntity
  8
LAY-2
  6
CONTINUOUS
 62
     3
100
AcDbCircle
 10
260.026956
 20
466.637137
 30
0.0
 40
59.148714
100
AcDbArc
 50
246.244325
 51
266.032493
  0
ARC
  5
1AF
100
AcDbEntity
  8
LAY-2
  6
CONTINUOUS
 62
     3
100
AcDbCircle
 10
449.042959
 20
368.918296
 30
0.0
 40
20.0
100
AcDbArc
 50
325.893675
 51
326.392551
  0
LINE
  5
1B0
100
AcDbEntity
  8
LAY-2
  6
CONTINUOUS
 62
     3
100
AcDbLine
 10
454.201224
 20
376.880224
 30
0.0
 11
451.804412
 21
377.500211
 31
0.0
  0
LINE
  5
1B1
100
AcDbEntity
  8
LAY-2
  6
CONTINUOUS
 62
     3
100
AcDbLine
 10
468.616159
 20
371.130225
 30
0.0
 11
468.650995
 21
371.116329
 31
0.0
  0
LINE
  5
1B2
100
AcDbEntity
  8
LAY-2
  6
CONTINUOUS
 62
     3
100
AcDbLine
 10
465.125749
 20
357.48806
 30
0.0
 11
465.078655
 21
357.494059
 31
0.0
  0
ARC
  5
1B3
100
AcDbEntity
  8
LAY-2
  6
CONTINUOUS
 62
     3
100
AcDbCircle
 10
449.042959
 20
368.918296
 30
0.0
 40
20.0
100
AcDbArc
 50
4.710864
 51
5.100529
  0
LINE
  5
1B4
100
AcDbEntity
  8
LAY-2
  6
CONTINUOUS
 62
     3
100
AcDbLine
 10
457.697206
 20
375.485705
 30
0.0
 11
454.201224
 21
376.880224
 31
0.0
  0
ARC
  5
1B5
100
AcDbEntity
  8
LAY-2
  6
CONTINUOUS
 62
     3
100
AcDbCircle
 10
468.465743
 20
370.651914
 30
0.0
 40
0.5
100
AcDbArc
 50
5.100529
 51
68.253351
  0
ARC
  5
1B6
100
AcDbEntity
  8
LAY-2
  6
CONTINUOUS
 62
     3
100
AcDbCircle
 10
465.188928
 20
357.984053
 30
0.0
 40
0.5
100
AcDbArc
 50
262.740852
 51
325.893675
  0
LINE
  5
1B7
100
AcDbEntity
  8
LAY-2
  6
CONTINUOUS
 62
     3
100
AcDbLine
 10
452.188605
 20
359.194025
 30
0.0
 11
449.072613
 21
359.59007
 31
0.0
  0
LINE
  5
1B8
100
AcDbEntity
  8
LAY-2
  6
CONTINUOUS
 62
     3
100
AcDbLine
 10
445.04038
 20
360.633575
 30
0.0
 11
449.072613
 21
359.59007
 31
0.0
  0
LINE
  5
1B9
100
AcDbEntity
  8
LAY-2
  6
CONTINUOUS
 62
     3
100
AcDbLine
 10
329.7
 20
196.4
 30
0.0
 11
440.0
 21
196.4
 31
0.0
  0
LINE
  5
1BA
100
AcDbEntity
  8
LAY-2
  6
CONTINUOUS
 62
     3
100
AcDbLine
 10
645.1
 20
191.4
 30
0.0
 11
645.1
 21
195.4
 31
0.0
  0
LINE
  5
1BB
100
AcDbEntity
  8
LAY-2
  6
CONTINUOUS
 62
     3
100
AcDbLine
 10
644.1
 20
190.4
 30
0.0
 11
622.1
 21
190.4
 31
0.0
  0
LINE
  5
1BC
100
AcDbEntity
  8
LAY-2
  6
CONTINUOUS
 62
     3
100
AcDbLine
 10
644.1
 20
196.4
 30
0.0
 11
572.6
 21
196.4
 31
0.0
  0
LINE
  5
1BD
100
AcDbEntity
  8
LAY-2
  6
CONTINUOUS
 62
     3
100
AcDbLine
 10
571.6
 20
195.4
 30
0.0
 11
571.6
 21
192.9
 31
0.0
  0
LINE
  5
1BE
100
AcDbEntity
  8
LAY-2
  6
CONTINUOUS
 62
     3
100
AcDbLine
 10
621.1
 20
191.4
 30
0.0
 11
621.1
 21
191.9
 31
0.0
  0
ARC
  5
1BF
100
AcDbEntity
  8
LAY-2
  6
CONTINUOUS
 62
     3
100
AcDbCircle
 10
644.1
 20
195.4
 30
0.0
 40
1.0
100
AcDbArc
 50
0.0
 51
90.0
  0
ARC
  5
1C0
100
AcDbEntity
  8
LAY-2
  6
CONTINUOUS
 62
     3
100
AcDbCircle
 10
644.1
 20
191.4
 30
0.0
 40
1.0
100
AcDbArc
 50
270.0
 51
0.0
  0
ARC
  5
1C1
100
AcDbEntity
  8
LAY-2
  6
CONTINUOUS
 62
     3
100
AcDbCircle
 10
572.6
 20
192.9
 30
0.0
 40
1.0
100
AcDbArc
 50
180.0
 51
270.0
  0
ARC
  5
1C2
100
AcDbEntity
  8
LAY-2
  6
CONTINUOUS
 62
     3
100
AcDbCircle
 10
622.1
 20
191.4
 30
0.0
 40
1.0
100
AcDbArc
 50
180.0
 51
270.0
  0
ARC
  5
1C3
100
AcDbEntity
  8
LAY-2
  6
CONTINUOUS
 62
     3
100
AcDbCircle
 10
622.1
 20
195.4
 30
0.0
 40
1.0
100
AcDbArc
 50
90.0
 51
180.0
  0
LINE
  5
1C4
100
AcDbEntity
  8
LAY-2
  6
CONTINUOUS
 62
     3
100
AcDbLine
 10
583.6
 20
190.9
 30
0.0
 11
575.6
 21
190.9
 31
0.0
  0
ARC
  5
1C5
100
AcDbEntity
  8
LAY-2
  6
CONTINUOUS
 62
     3
100
AcDbCircle
 10
583.6
 20
191.9
 30
0.0
 40
1.0
100
AcDbArc
 50
270.0
 51
0.0
  0
ARC
  5
1C6
100
AcDbEntity
  8
LAY-2
  6
CONTINUOUS
 62
     3
100
AcDbCircle
 10
575.6
 20
191.9
 30
0.0
 40
1.0
100
AcDbArc
 50
180.0
 51
270.0
  0
ARC
  5
1C7
100
AcDbEntity
  8
LAY-2
  6
CONTINUOUS
 62
     3
100
AcDbCircle
 10
572.6
 20
195.4
 30
0.0
 40
1.0
100
AcDbArc
 50
90.0
 51
180.0
  0
LINE
  5
1C8
100
AcDbEntity
  8
LAY-2
  6
CONTINUOUS
 62
     3
100
AcDbLine
 10
586.6
 20
196.4
 30
0.0
 11
586.6
 21
201.4
 31
0.0
  0
LINE
  5
1C9
100
AcDbEntity
  8
LAY-2
  6
CONTINUOUS
 62
     3
100
AcDbLine
 10
572.6
 20
196.4
 30
0.0
 11
572.6
 21
201.4
 31
0.0
  0
LINE
  5
1CA
100
AcDbEntity
  8
LAY-2
  6
CONTINUOUS
 62
     3
100
AcDbLine
 10
586.6
 20
201.4
 30
0.0
 11
586.6
 21
201.9
 31
0.0
  0
LINE
  5
1CB
100
AcDbEntity
  8
LAY-2
  6
CONTINUOUS
 62
     3
100
AcDbLine
 10
572.6
 20
201.4
 30
0.0
 11
586.6
 21
201.4
 31
0.0
  0
LINE
  5
1CC
100
AcDbEntity
  8
LAY-2
  6
CONTINUOUS
 62
     3
100
AcDbLine
 10
572.1
 20
207.4
 30
0.0
 11
572.1
 21
209.0
 31
0.0
  0
LINE
  5
1CD
100
AcDbEntity
  8
LAY-2
  6
CONTINUOUS
 62
     3
100
AcDbLine
 10
587.1
 20
207.4
 30
0.0
 11
587.1
 21
209.0
 31
0.0
  0
LINE
  5
1CE
100
AcDbEntity
  8
LAY-2
  6
CONTINUOUS
 62
     3
100
AcDbLine
 10
572.1
 20
209.0
 30
0.0
 11
587.1
 21
209.0
 31
0.0
  0
LINE
  5
1CF
100
AcDbEntity
  8
LAY-2
  6
CONTINUOUS
 62
     3
100
AcDbLine
 10
587.1
 20
207.4
 30
0.0
 11
572.1
 21
207.4
 31
0.0
  0
LINE
  5
1D0
100
AcDbEntity
  8
LAY-2
  6
CONTINUOUS
 62
     3
100
AcDbLine
 10
573.7
 20
209.0
 30
0.0
 11
573.7
 21
210.0
 31
0.0
  0
LINE
  5
1D1
100
AcDbEntity
  8
LAY-2
  6
CONTINUOUS
 62
     3
100
AcDbLine
 10
585.5
 20
209.0
 30
0.0
 11
585.5
 21
210.0
 31
0.0
  0
LINE
  5
1D2
100
AcDbEntity
  8
LAY-2
  6
CONTINUOUS
 62
     3
100
AcDbLine
 10
573.7
 20
210.0
 30
0.0
 11
585.5
 21
210.0
 31
0.0
  0
ARC
  5
1D3
100
AcDbEntity
  8
LAY-2
  6
CONTINUOUS
 62
     3
100
AcDbCircle
 10
579.6
 20
202.761905
 30
0.0
 40
9.338095
100
AcDbArc
 50
50.815436
 51
129.184564
  0
LINE
  5
1D4
100
AcDbEntity
  8
LAY-2
  6
CONTINUOUS
 62
     3
100
AcDbLine
 10
572.6
 20
201.9
 30
0.0
 11
586.6
 21
201.9
 31
0.0
  0
LINE
  5
1D5
100
AcDbEntity
  8
LAY-2
  6
CONTINUOUS
 62
     3
100
AcDbLine
 10
584.8
 20
207.4
 30
0.0
 11
584.8
 21
206.797922
 31
0.0
  0
LINE
  5
1D6
100
AcDbEntity
  8
LAY-2
  6
CONTINUOUS
 62
     3
100
AcDbLine
 10
574.4
 20
206.797922
 30
0.0
 11
574.4
 21
207.4
 31
0.0
  0
LINE
  5
1D7
100
AcDbEntity
  8
LAY-2
  6
CONTINUOUS
 62
     3
100
AcDbLine
 10
574.4
 20
202.298192
 30
0.0
 11
574.4
 21
201.9
 31
0.0
  0
LINE
  5
1D8
100
AcDbEntity
  8
LAY-2
  6
CONTINUOUS
 62
     3
100
AcDbLine
 10
584.8
 20
201.9
 30
0.0
 11
584.8
 21
202.298192
 31
0.0
  0
LINE
  5
1D9
100
AcDbEntity
  8
LAY-2
  6
CONTINUOUS
 62
     3
100
AcDbLine
 10
572.6
 20
191.9
 30
0.0
 11
622.6
 21
191.9
 31
0.0
  0
LINE
  5
1DA
100
AcDbEntity
  8
LAY-2
  6
CONTINUOUS
 62
     3
100
AcDbLine
 10
588.6
 20
206.797922
 30
0.0
 11
570.6
 21
206.797922
 31
0.0
  0
LINE
  5
1DB
100
AcDbEntity
  8
LAY-2
  6
CONTINUOUS
 62
     3
100
AcDbLine
 10
588.6
 20
202.298192
 30
0.0
 11
570.6
 21
202.298192
 31
0.0
  0
LINE
  5
1DC
100
AcDbEntity
  8
LAY-2
  6
CONTINUOUS
 62
     3
100
AcDbLine
 10
589.1
 20
202.798192
 30
0.0
 11
589.1
 21
206.297922
 31
0.0
  0
LINE
  5
1DD
100
AcDbEntity
  8
LAY-2
  6
CONTINUOUS
 62
     3
100
AcDbLine
 10
570.1
 20
206.297922
 30
0.0
 11
570.1
 21
202.798192
 31
0.0
  0
ARC
  5
1DE
100
AcDbEntity
  8
LAY-2
  6
CONTINUOUS
 62
     3
100
AcDbCircle
 10
570.6
 20
206.297922
 30
0.0
 40
0.5
100
AcDbArc
 50
90.0
 51
180.0
  0
ARC
  5
1DF
100
AcDbEntity
  8
LAY-2
  6
CONTINUOUS
 62
     3
100
AcDbCircle
 10
570.6
 20
202.798192
 30
0.0
 40
0.5
100
AcDbArc
 50
180.0
 51
270.0
  0
ARC
  5
1E0
100
AcDbEntity
  8
LAY-2
  6
CONTINUOUS
 62
     3
100
AcDbCircle
 10
588.6
 20
202.798192
 30
0.0
 40
0.5
100
AcDbArc
 50
270.0
 51
0.0
  0
LINE
  5
1E1
100
AcDbEntity
  8
LAY-2
  6
CONTINUOUS
 62
     3
100
AcDbLine
 10
572.6
 20
196.4
 30
0.0
 11
572.6
 21
201.4
 31
0.0
  0
LINE
  5
1E2
100
AcDbEntity
  8
LAY-2
  6
CONTINUOUS
 62
     3
100
AcDbLine
 10
572.6
 20
201.4
 30
0.0
 11
572.6
 21
201.9
 31
0.0
  0
ARC
  5
1E3
100
AcDbEntity
  8
LAY-2
  6
CONTINUOUS
 62
     3
100
AcDbCircle
 10
588.6
 20
206.297922
 30
0.0
 40
0.5
100
AcDbArc
 50
0.0
 51
90.0
  0
LINE
  5
1E4
100
AcDbEntity
  8
LAY-2
  6
CONTINUOUS
 62
     3
100
AcDbLine
 10
572.6
 20
201.9
 30
0.0
 11
579.975945
 21
201.9
 31
0.0
  0
LINE
  5
1E5
100
AcDbEntity
  8
LAY-2
  6
CONTINUOUS
 62
     3
100
AcDbLine
 10
571.6
 20
202.1
 30
0.0
 11
571.6
 21
201.994058
 31
0.0
  0
LINE
  5
1E6
100
AcDbEntity
  8
LAY-2
  6
CONTINUOUS
 62
     3
100
AcDbLine
 10
587.6
 20
201.973887
 30
0.0
 11
587.6
 21
202.1
 31
0.0
  0
LINE
  5
1E7
100
AcDbEntity
  8
LAY-3
  6
CONTINUOUS
 62
     3
100
AcDbLine
 10
322.697803
 20
366.758964
 30
0.0
 11
322.650377
 21
358.759105
 31
0.0
  0
LINE
  5
1E8
100
AcDbEntity
  8
LAY-3
  6
CONTINUOUS
 62
     3
100
AcDbLine
 10
223.699543
 20
367.345864
 30
0.0
 11
223.652117
 21
359.346005
 31
0.0
  0
LINE
  5
1E9
100
AcDbEntity
  8
LAY-3
  6
CONTINUOUS
 62
     3
100
AcDbLine
 10
223.652117
 20
359.346005
 30
0.0
 11
322.650377
 21
358.759105
 31
0.0
  0
ARC
  5
1EA
100
AcDbEntity
  8
LAY-3
  6
CONTINUOUS
 62
     3
100
AcDbCircle
 10
223.383388
 20
314.016802
 30
0.0
 40
45.33
100
AcDbArc
 50
89.660332
 51
109.699634
  0
ARC
  5
1EB
100
AcDbEntity
  8
LAY-3
  6
CONTINUOUS
 62
     3
100
AcDbCircle
 10
224.015698
 20
420.674927
 30
0.0
 40
45.33
100
AcDbArc
 50
255.54442
 51
269.660332
  0
LINE
  5
1EC
100
AcDbEntity
  8
LAY-3
  6
CONTINUOUS
 62
     3
100
AcDbLine
 10
223.699543
 20
367.345864
 30
0.0
 11
223.746969
 21
375.345724
 31
0.0
  0
LINE
  5
1ED
100
AcDbEntity
  8
LAY-3
  6
CONTINUOUS
 62
     3
100
AcDbLine
 10
223.746969
 20
375.345724
 30
0.0
 11
322.74523
 21
374.758824
 31
0.0
  0
LINE
  5
1EE
100
AcDbEntity
  8
LAY-3
  6
CONTINUOUS
 62
     3
100
AcDbLine
 10
322.697803
 20
366.758964
 30
0.0
 11
322.74523
 21
374.758824
 31
0.0
  0
ARC
  5
1EF
100
AcDbEntity
  8
LAY-3
  6
CONTINUOUS
 62
     3
100
AcDbCircle
 10
224.649526
 20
367.340233
 30
0.0
 40
5.55
100
AcDbArc
 50
99.516253
 51
259.804412
  0
LINE
  5
1F0
100
AcDbEntity
  8
LAY-3
  6
CONTINUOUS
 62
     3
100
AcDbLine
 10
324.439166
 20
376.563813
 30
0.0
 11
328.07269
 21
376.542273
 31
0.0
  0
LINE
  5
1F1
100
AcDbEntity
  8
LAY-3
  6
CONTINUOUS
 62
     3
100
AcDbLine
 10
324.410319
 20
371.697899
 30
0.0
 11
328.043843
 21
371.676358
 31
0.0
  0
LINE
  5
1F2
100
AcDbEntity
  8
LAY-3
  6
CONTINUOUS
 62
     3
100
AcDbLine
 10
329.741443
 20
374.099337
 30
0.0
 11
329.69768
 21
366.717466
 31
0.0
  0
LINE
  5
1F3
100
AcDbEntity
  8
LAY-3
  6
CONTINUOUS
 62
     3
100
AcDbLine
 10
324.351641
 20
361.800073
 30
0.0
 11
327.985165
 21
361.778532
 31
0.0
  0
LINE
  5
1F4
100
AcDbEntity
  8
LAY-3
  6
CONTINUOUS
 62
     3
100
AcDbLine
 10
324.322794
 20
356.934158
 30
0.0
 11
327.956318
 21
356.912617
 31
0.0
  0
LINE
  5
1F5
100
AcDbEntity
  8
LAY-3
  6
CONTINUOUS
 62
     3
100
AcDbLine
 10
322.697803
 20
366.758964
 30
0.0
 11
322.650377
 21
358.759105
 31
0.0
  0
LINE
  5
1F6
100
AcDbEntity
  8
LAY-3
  6
CONTINUOUS
 62
     3
100
AcDbLine
 10
329.653918
 20
359.335596
 30
0.0
 11
329.69768
 21
366.717466
 31
0.0
  0
ARC
  5
1F7
100
AcDbEntity
  8
LAY-3
  6
CONTINUOUS
 62
     3
100
AcDbCircle
 10
321.697821
 20
366.764893
 30
0.0
 40
8.0
100
AcDbArc
 50
321.444538
 51
37.876126
  0
ARC
  5
1F8
100
AcDbEntity
  8
LAY-3
  6
CONTINUOUS
 62
     3
100
AcDbCircle
 10
327.141489
 20
374.11475
 30
0.0
 40
2.6
100
AcDbArc
 50
289.659325
 51
69.013109
  0
ARC
  5
1F9
100
AcDbEntity
  8
LAY-3
  6
CONTINUOUS
 62
     3
100
AcDbCircle
 10
325.34152
 20
374.125421
 30
0.0
 40
2.6
100
AcDbArc
 50
110.307555
 51
249.66134
  0
ARC
  5
1FA
100
AcDbEntity
  8
LAY-3
  6
CONTINUOUS
 62
     3
100
AcDbCircle
 10
330.697663
 20
366.711538
 30
0.0
 40
8.0
100
AcDbArc
 50
141.444538
 51
217.876126
  0
ARC
  5
1FB
100
AcDbEntity
  8
LAY-3
  6
CONTINUOUS
 62
     3
100
AcDbCircle
 10
325.253995
 20
359.361681
 30
0.0
 40
2.6
100
AcDbArc
 50
109.659325
 51
249.013109
  0
ARC
  5
1FC
100
AcDbEntity
  8
LAY-3
  6
CONTINUOUS
 62
     3
100
AcDbCircle
 10
327.053964
 20
359.35101
 30
0.0
 40
2.6
100
AcDbArc
 50
290.307555
 51
69.66134
  0
ARC
  5
1FD
100
AcDbEntity
  8
LAY-3
  6
CONTINUOUS
 62
     3
100
AcDbCircle
 10
460.672994
 20
365.940994
 30
0.0
 40
9.5
100
AcDbArc
 50
269.660332
 51
89.660332
  0
LINE
  5
1FE
100
AcDbEntity
  8
LAY-3
  6
CONTINUOUS
 62
     3
100
AcDbLine
 10
460.729313
 20
375.440827
 30
0.0
 11
457.229374
 21
375.461576
 31
0.0
  0
LINE
  5
1FF
100
AcDbEntity
  8
LAY-3
  6
CONTINUOUS
 62
     3
100
AcDbLine
 10
460.616675
 20
356.441161
 30
0.0
 11
457.116737
 21
356.46191
 31
0.0
  0
LINE
  5
200
100
AcDbEntity
  8
LAY-3
  6
CONTINUOUS
 62
     3
100
AcDbLine
 10
449.7052
 20
371.40611
 30
0.0
 11
329.729693
 21
372.117372
 31
0.0
  0
LINE
  5
201
100
AcDbEntity
  8
LAY-3
  6
CONTINUOUS
 62
     3
100
AcDbLine
 10
329.665668
 20
361.317561
 30
0.0
 11
449.641175
 21
360.6063
 31
0.0
  0
LINE
  5
202
100
AcDbEntity
  8
LAY-3
  6
CONTINUOUS
 62
     3
100
AcDbLine
 10
457.229374
 20
375.461576
 30
0.0
 11
449.7052
 21
371.40611
 31
0.0
  0
LINE
  5
203
100
AcDbEntity
  8
LAY-3
  6
CONTINUOUS
 62
     3
100
AcDbLine
 10
449.641175
 20
360.6063
 30
0.0
 11
457.116737
 21
356.46191
 31
0.0
  0
LINE
  5
204
100
AcDbEntity
  8
LAY-3
  6
CONTINUOUS
 62
     3
100
AcDbLine
 10
449.641175
 20
360.6063
 30
0.0
 11
449.7052
 21
371.40611
 31
0.0
  0
ARC
  5
205
100
AcDbEntity
  8
LAY-3
  6
CONTINUOUS
 62
     3
100
AcDbCircle
 10
453.033128
 20
365.986286
 30
0.0
 40
6.36
100
AcDbArc
 50
121.551124
 51
237.769541
  0
LINE
  5
206
100
AcDbEntity
  8
LAY-3
  6
CONTINUOUS
 62
     3
100
AcDbLine
 10
355.710409
 20
372.563358
 30
0.0
 11
355.639269
 21
360.563569
 31
0.0
  0
LINE
  5
207
100
AcDbEntity
  8
LAY-3
  6
CONTINUOUS
 62
     3
100
AcDbLine
 10
329.73325
 20
372.717361
 30
0.0
 11
355.710409
 21
372.563358
 31
0.0
  0
LINE
  5
208
100
AcDbEntity
  8
LAY-3
  6
CONTINUOUS
 62
     3
100
AcDbLine
 10
329.662111
 20
360.717572
 30
0.0
 11
355.639269
 21
360.563569
 31
0.0
  0
LINE
  5
209
100
AcDbEntity
  8
LAY-3
  6
CONTINUOUS
 62
     3
100
AcDbLine
 10
322.7
 20
196.326384
 30
0.0
 11
322.7
 21
213.326397
 31
0.0
  0
LINE
  5
20A
100
AcDbEntity
  8
LAY-3
  6
CONTINUOUS
 62
     3
100
AcDbLine
 10
225.084565
 20
212.949459
 30
0.0
 11
322.7
 21
212.826397
 31
0.0
  0
LINE
  5
20B
100
AcDbEntity
  8
LAY-3
  6
CONTINUOUS
 62
     3
100
AcDbLine
 10
322.7
 20
196.826384
 30
0.0
 11
233.20063
 21
196.939214
 31
0.0
  0
LINE
  5
20C
100
AcDbEntity
  8
LAY-3
  6
CONTINUOUS
 62
     3
100
AcDbLine
 10
184.698739
 20
194.500357
 30
0.0
 11
232.399622
 21
194.440222
 31
0.0
  0
LINE
  5
20D
100
AcDbEntity
  8
LAY-3
  6
CONTINUOUS
 62
     3
100
AcDbLine
 10
185.70063
 20
201.9991
 30
0.0
 11
221.757219
 21
201.953644
 31
0.0
  0
LINE
  5
20E
100
AcDbEntity
  8
LAY-3
  6
CONTINUOUS
 62
     3
100
AcDbLine
 10
184.701261
 20
199.200358
 30
0.0
 11
185.2
 21
199.199729
 31
0.0
  0
LINE
  5
20F
100
AcDbEntity
  8
LAY-3
  6
CONTINUOUS
 62
     3
100
AcDbLine
 10
183.7
 20
198.200359
 30
0.0
 11
183.7
 21
195.500357
 31
0.0
  0
LINE
  5
210
100
AcDbEntity
  8
LAY-3
  6
CONTINUOUS
 62
     3
100
AcDbLine
 10
185.2
 20
201.499101
 30
0.0
 11
185.2
 21
199.199729
 31
0.0
  0
ARC
  5
211
100
AcDbEntity
  8
LAY-3
  6
CONTINUOUS
 62
     3
100
AcDbCircle
 10
184.7
 20
195.500357
 30
0.0
 40
1.0
100
AcDbArc
 50
180.0
 51
269.927769
  0
ARC
  5
212
100
AcDbEntity
  8
LAY-3
  6
CONTINUOUS
 62
     3
100
AcDbCircle
 10
184.7
 20
198.200359
 30
0.0
 40
1.0
100
AcDbArc
 50
89.927769
 51
180.0
  0
ARC
  5
213
100
AcDbEntity
  8
LAY-3
  6
CONTINUOUS
 62
     3
100
AcDbCircle
 10
185.7
 20
201.499101
 30
0.0
 40
0.5
100
AcDbArc
 50
89.927769
 51
180.0
  0
LINE
  5
214
100
AcDbEntity
  8
LAY-3
  6
CONTINUOUS
 62
     3
100
AcDbLine
 10
223.583882
 20
211.509657
 30
0.0
 11
223.257901
 21
203.393446
 31
0.0
  0
ARC
  5
215
100
AcDbEntity
  8
LAY-3
  6
CONTINUOUS
 62
     3
100
AcDbCircle
 10
221.75911
 20
203.453643
 30
0.0
 40
1.5
100
AcDbArc
 50
269.927769
 51
357.7
  0
ARC
  5
216
100
AcDbEntity
  8
LAY-3
  6
CONTINUOUS
 62
     3
100
AcDbCircle
 10
225.082674
 20
211.44946
 30
0.0
 40
1.5
100
AcDbArc
 50
89.927769
 51
177.7
  0
ARC
  5
217
100
AcDbEntity
  8
LAY-3
  6
CONTINUOUS
 62
     3
100
AcDbCircle
 10
224.65
 20
204.95
 30
0.0
 40
5.55
100
AcDbArc
 50
101.549427
 51
149.101852
  0
LINE
  5
218
100
AcDbEntity
  8
LAY-3
  6
CONTINUOUS
 62
     3
100
AcDbLine
 10
232.7
 20
196.439214
 30
0.0
 11
232.7
 21
194.740222
 31
0.0
  0
ARC
  5
219
100
AcDbEntity
  8
LAY-3
  6
CONTINUOUS
 62
     3
100
AcDbCircle
 10
232.4
 20
194.740222
 30
0.0
 40
0.3
100
AcDbArc
 50
269.927769
 51
0.0
  0
ARC
  5
21A
100
AcDbEntity
  8
LAY-3
  6
CONTINUOUS
 62
     3
100
AcDbCircle
 10
233.2
 20
196.439214
 30
0.0
 40
0.5
100
AcDbArc
 50
89.927769
 51
180.0
  0
LINE
  5
21B
100
AcDbEntity
  8
LAY-3
  6
CONTINUOUS
 62
     3
100
AcDbLine
 10
329.7
 20
196.317559
 30
0.0
 11
329.7
 21
213.317573
 31
0.0
  0
LINE
  5
21C
100
AcDbEntity
  8
LAY-3
  6
CONTINUOUS
 62
     3
100
AcDbLine
 10
322.7
 20
213.326397
 30
0.0
 11
329.7
 21
213.317573
 31
0.0
  0
LINE
  5
21D
100
AcDbEntity
  8
LAY-3
  6
CONTINUOUS
 62
     3
100
AcDbLine
 10
322.7
 20
196.326384
 30
0.0
 11
329.7
 21
196.317559
 31
0.0
  0
ARC
  5
21E
100
AcDbEntity
  8
LAY-3
  6
CONTINUOUS
 62
     3
100
AcDbCircle
 10
319.7
 20
209.080176
 30
0.0
 40
10.0
100
AcDbArc
 50
334.777105
 51
25.078432
  0
ARC
  5
21F
100
AcDbEntity
  8
LAY-3
  6
CONTINUOUS
 62
     3
100
AcDbCircle
 10
332.7
 20
209.080176
 30
0.0
 40
10.0
100
AcDbArc
 50
154.921568
 51
205.222895
  0
ARC
  5
220
100
AcDbEntity
  8
LAY-3
  6
CONTINUOUS
 62
     3
100
AcDbCircle
 10
332.689243
 20
200.547405
 30
0.0
 40
10.0
100
AcDbArc
 50
154.632642
 51
204.933969
  0
ARC
  5
221
100
AcDbEntity
  8
LAY-3
  6
CONTINUOUS
 62
     3
100
AcDbCircle
 10
319.689284
 20
200.580183
 30
0.0
 40
10.0
100
AcDbArc
 50
334.777105
 51
25.078432
  0
LINE
  5
222
100
AcDbEntity
  8
LAY-3
  6
CONTINUOUS
 62
     3
100
AcDbLine
 10
323.650408
 20
204.825192
 30
0.0
 11
328.746568
 21
204.818768
 31
0.0
  0
LINE
  5
223
100
AcDbEntity
  8
LAY-3
  6
CONTINUOUS
 62
     3
100
AcDbLine
 10
329.7
 20
210.817571
 30
0.0
 11
355.674839
 21
210.784825
 31
0.0
  0
LINE
  5
224
100
AcDbEntity
  8
LAY-3
  6
CONTINUOUS
 62
     3
100
AcDbLine
 10
329.7
 20
198.817561
 30
0.0
 11
355.674839
 21
198.784815
 31
0.0
  0
LINE
  5
225
100
AcDbEntity
  8
LAY-3
  6
CONTINUOUS
 62
     3
100
AcDbLine
 10
355.674839
 20
198.784815
 30
0.0
 11
355.674839
 21
210.784825
 31
0.0
  0
LINE
  5
226
100
AcDbEntity
  8
LAY-3
  6
CONTINUOUS
 62
     3
100
AcDbLine
 10
329.7
 20
210.21757
 30
0.0
 11
446.516561
 21
210.070302
 31
0.0
  0
LINE
  5
227
100
AcDbEntity
  8
LAY-3
  6
CONTINUOUS
 62
     3
100
AcDbLine
 10
329.7
 20
199.417561
 30
0.0
 11
446.529406
 21
199.270277
 31
0.0
  0
LINE
  5
228
100
AcDbEntity
  8
LAY-3
  6
CONTINUOUS
 62
     3
100
AcDbLine
 10
449.672994
 20
206.913869
 30
0.0
 11
470.172994
 21
206.888025
 31
0.0
  0
LINE
  5
229
100
AcDbEntity
  8
LAY-3
  6
CONTINUOUS
 62
     3
100
AcDbLine
 10
449.672994
 20
202.413866
 30
0.0
 11
470.172994
 21
202.388022
 31
0.0
  0
LINE
  5
22A
100
AcDbEntity
  8
LAY-3
  6
CONTINUOUS
 62
     3
100
AcDbLine
 10
470.172994
 20
202.388022
 30
0.0
 11
470.172994
 21
206.888025
 31
0.0
  0
LINE
  5
22B
100
AcDbEntity
  8
LAY-3
  6
CONTINUOUS
 62
     3
100
AcDbLine
 10
446.529406
 20
199.270277
 30
0.0
 11
449.672994
 21
202.413866
 31
0.0
  0
LINE
  5
22C
100
AcDbEntity
  8
LAY-3
  6
CONTINUOUS
 62
     3
100
AcDbLine
 10
446.516561
 20
210.070302
 30
0.0
 11
449.672994
 21
206.913869
 31
0.0
  0
LINE
  5
22D
100
AcDbEntity
  8
LAY-3
  6
CONTINUOUS
 62
     3
100
AcDbLine
 10
588.6
 20
206.797922
 30
0.0
 11
570.6
 21
206.797922
 31
0.0
  0
LINE
  5
22E
100
AcDbEntity
  8
LAY-3
  6
CONTINUOUS
 62
     3
100
AcDbLine
 10
588.6
 20
202.298192
 30
0.0
 11
570.6
 21
202.298192
 31
0.0
  0
LINE
  5
22F
100
AcDbEntity
  8
LAY-3
  6
CONTINUOUS
 62
     3
100
AcDbLine
 10
589.1
 20
202.798192
 30
0.0
 11
589.1
 21
206.297922
 31
0.0
  0
LINE
  5
230
100
AcDbEntity
  8
LAY-3
  6
CONTINUOUS
 62
     3
100
AcDbLine
 10
570.1
 20
206.297922
 30
0.0
 11
570.1
 21
202.798192
 31
0.0
  0
ARC
  5
231
100
AcDbEntity
  8
LAY-3
  6
CONTINUOUS
 62
     3
100
AcDbCircle
 10
570.6
 20
206.297922
 30
0.0
 40
0.5
100
AcDbArc
 50
90.0
 51
180.0
  0
ARC
  5
232
100
AcDbEntity
  8
LAY-3
  6
CONTINUOUS
 62
     3
100
AcDbCircle
 10
570.6
 20
202.798192
 30
0.0
 40
0.5
100
AcDbArc
 50
180.0
 51
270.0
  0
ARC
  5
233
100
AcDbEntity
  8
LAY-3
  6
CONTINUOUS
 62
     3
100
AcDbCircle
 10
588.6
 20
202.798192
 30
0.0
 40
0.5
100
AcDbArc
 50
270.0
 51
0.0
  0
ARC
  5
234
100
AcDbEntity
  8
LAY-3
  6
CONTINUOUS
 62
     3
100
AcDbCircle
 10
588.6
 20
206.297922
 30
0.0
 40
0.5
100
AcDbArc
 50
0.0
 51
90.0
  0
ARC
  5
235
100
AcDbEntity
  8
LAY-4
  6
CONTINUOUS
 62
     3
100
AcDbCircle
 10
247.7
 20
424.499992
 30
0.0
 40
9.0
100
AcDbArc
 50
140.560853
 51
141.057559
  0
LINE
  5
236
100
AcDbEntity
  8
LAY-4
  6
CONTINUOUS
 62
     3
100
AcDbLine
 10
156.7
 20
437.5
 30
0.0
 11
238.7
 21
437.5
 31
0.0
  0
LINE
  5
237
100
AcDbEntity
  8
LAY-4
  6
CONTINUOUS
 62
     3
100
AcDbLine
 10
156.7
 20
412.5
 30
0.0
 11
164.60983
 21
412.5
 31
0.0
  0
LINE
  5
238
100
AcDbEntity
  8
LAY-4
  6
CONTINUOUS
 62
     3
100
AcDbLine
 10
152.7
 20
433.5
 30
0.0
 11
152.7
 21
416.5
 31
0.0
  0
ARC
  5
239
100
AcDbEntity
  8
LAY-4
  6
CONTINUOUS
 62
     3
100
AcDbCircle
 10
156.7
 20
433.5
 30
0.0
 40
4.0
100
AcDbArc
 50
90.0
 51
180.0
  0
ARC
  5
23A
100
AcDbEntity
  8
LAY-4
  6
CONTINUOUS
 62
     3
100
AcDbCircle
 10
156.7
 20
416.5
 30
0.0
 40
4.0
100
AcDbArc
 50
180.0
 51
270.0
  0
ARC
  5
23B
100
AcDbEntity
  8
LAY-4
  6
CONTINUOUS
 62
     3
100
AcDbCircle
 10
238.7
 20
433.5
 30
0.0
 40
4.0
100
AcDbArc
 50
0.0
 51
90.0
  0
LINE
  5
23C
100
AcDbEntity
  8
LAY-4
  6
CONTINUOUS
 62
     3
100
AcDbLine
 10
242.7
 20
433.5
 30
0.0
 11
242.7
 21
416.5
 31
0.0
  0
ARC
  5
23D
100
AcDbEntity
  8
LAY-4
  6
CONTINUOUS
 62
     3
100
AcDbCircle
 10
238.7
 20
416.5
 30
0.0
 40
4.0
100
AcDbArc
 50
270.0
 51
0.0
  0
LINE
  5
23E
100
AcDbEntity
  8
LAY-4
  6
CONTINUOUS
 62
     3
100
AcDbLine
 10
238.7
 20
412.5
 30
0.0
 11
230.79017
 21
412.5
 31
0.0
  0
CIRCLE
  5
23F
100
AcDbEntity
  8
LAY-4
  6
CONTINUOUS
 62
     3
100
AcDbCircle
 10
159.7
 20
429.5
 30
0.0
 40
2.4
  0
CIRCLE
  5
240
100
AcDbEntity
  8
LAY-4
  6
DASHED2
 62
     3
100
AcDbCircle
 10
159.7
 20
429.5
 30
0.0
 40
5.1
  0
CIRCLE
  5
241
100
AcDbEntity
  8
LAY-4
  6
CONTINUOUS
 62
     3
100
AcDbCircle
 10
235.7
 20
429.5
 30
0.0
 40
2.4
  0
CIRCLE
  5
242
100
AcDbEntity
  8
LAY-4
  6
DASHED2
 62
     3
100
AcDbCircle
 10
235.7
 20
429.5
 30
0.0
 40
5.1
  0
CIRCLE
  5
243
100
AcDbEntity
  8
LAY-4
  6
CONTINUOUS
 62
     3
100
AcDbCircle
 10
177.7
 20
419.5
 30
0.0
 40
2.4
  0
CIRCLE
  5
244
100
AcDbEntity
  8
LAY-4
  6
DASHED2
 62
     3
100
AcDbCircle
 10
177.7
 20
419.5
 30
0.0
 40
5.1
  0
CIRCLE
  5
245
100
AcDbEntity
  8
LAY-4
  6
CONTINUOUS
 62
     3
100
AcDbCircle
 10
217.7
 20
419.5
 30
0.0
 40
2.4
  0
CIRCLE
  5
246
100
AcDbEntity
  8
LAY-4
  6
DASHED2
 62
     3
100
AcDbCircle
 10
217.7
 20
419.5
 30
0.0
 40
5.1
  0
LINE
  5
247
100
AcDbEntity
  8
LAY-4
  6
DASHED2
 62
     3
100
AcDbLine
 10
240.7
 20
222.8
 30
0.0
 11
240.7
 21
223.1
 31
0.0
  0
LINE
  5
248
100
AcDbEntity
  8
LAY-4
  6
DASHED2
 62
     3
100
AcDbLine
 10
238.2
 20
225.6
 30
0.0
 11
233.2
 21
225.6
 31
0.0
  0
LINE
  5
249
100
AcDbEntity
  8
LAY-4
  6
DASHED2
 62
     3
100
AcDbLine
 10
240.7
 20
223.1
 30
0.0
 11
238.2
 21
225.6
 31
0.0
  0
LINE
  5
24A
100
AcDbEntity
  8
LAY-4
  6
DASHED2
 62
     3
100
AcDbLine
 10
238.2
 20
225.6
 30
0.0
 11
238.2
 21
235.1
 31
0.0
  0
LINE
  5
24B
100
AcDbEntity
  8
LAY-4
  6
DASHED2
 62
     1
100
AcDbLine
 10
237.7
 20
225.6
 30
0.0
 11
237.7
 21
235.1
 31
0.0
  0
LINE
  5
24C
100
AcDbEntity
  8
LAY-4
  6
DASHED2
 62
     3
100
AcDbLine
 10
230.7
 20
222.8
 30
0.0
 11
230.7
 21
223.1
 31
0.0
  0
LINE
  5
24D
100
AcDbEntity
  8
LAY-4
  6
DASHED2
 62
     3
100
AcDbLine
 10
230.7
 20
223.1
 30
0.0
 11
233.2
 21
225.6
 31
0.0
  0
LINE
  5
24E
100
AcDbEntity
  8
LAY-4
  6
DASHED2
 62
     3
100
AcDbLine
 10
233.2
 20
225.6
 30
0.0
 11
233.2
 21
235.1
 31
0.0
  0
LINE
  5
24F
100
AcDbEntity
  8
LAY-4
  6
DASHED2
 62
     1
100
AcDbLine
 10
233.7
 20
225.6
 30
0.0
 11
233.7
 21
235.1
 31
0.0
  0
LINE
  5
250
100
AcDbEntity
  8
LAY-4
  6
CONTINUOUS
 62
     3
100
AcDbLine
 10
240.7
 20
222.8
 30
0.0
 11
230.7
 21
222.8
 31
0.0
  0
LINE
  5
251
100
AcDbEntity
  8
LAY-4
  6
DASHED2
 62
     3
100
AcDbLine
 10
240.7
 20
223.1
 30
0.0
 11
230.7
 21
223.1
 31
0.0
  0
ARC
  5
252
100
AcDbEntity
  8
LAY-4
  6
CONTINUOUS
 62
     3
100
AcDbCircle
 10
235.7
 20
232.616667
 30
0.0
 40
11.016667
100
AcDbArc
 50
243.008533
 51
296.991467
  0
LINE
  5
253
100
AcDbEntity
  8
LAY-4
  6
CONTINUOUS
 62
     3
100
AcDbLine
 10
152.7
 20
226.4
 30
0.0
 11
242.7
 21
226.4
 31
0.0
  0
LINE
  5
254
100
AcDbEntity
  8
LAY-4
  6
CONTINUOUS
 62
     3
100
AcDbLine
 10
152.7
 20
226.4
 30
0.0
 11
152.7
 21
222.8
 31
0.0
  0
LINE
  5
255
100
AcDbEntity
  8
LAY-4
  6
CONTINUOUS
 62
     3
100
AcDbLine
 10
152.7
 20
222.8
 30
0.0
 11
177.12563
 21
222.8
 31
0.0
  0
LINE
  5
256
100
AcDbEntity
  8
LAY-4
  6
CONTINUOUS
 62
     3
100
AcDbLine
 10
242.7
 20
226.4
 30
0.0
 11
242.7
 21
222.8
 31
0.0
  0
LINE
  5
257
100
AcDbEntity
  8
LAY-4
  6
CONTINUOUS
 62
     3
100
AcDbLine
 10
242.7
 20
222.8
 30
0.0
 11
218.27437
 21
222.8
 31
0.0
  0
LINE
  5
258
100
AcDbEntity
  8
LAY-4
  6
DASHED2
 62
     3
100
AcDbLine
 10
175.2
 20
226.4
 30
0.0
 11
175.2
 21
235.1
 31
0.0
  0
LINE
  5
259
100
AcDbEntity
  8
LAY-4
  6
DASHED2
 62
     1
100
AcDbLine
 10
175.7
 20
226.4
 30
0.0
 11
175.7
 21
235.1
 31
0.0
  0
LINE
  5
25A
100
AcDbEntity
  8
LAY-4
  6
DASHED2
 62
     3
100
AcDbLine
 10
180.2
 20
226.4
 30
0.0
 11
180.2
 21
235.1
 31
0.0
  0
LINE
  5
25B
100
AcDbEntity
  8
LAY-4
  6
DASHED2
 62
     1
100
AcDbLine
 10
179.7
 20
226.4
 30
0.0
 11
179.7
 21
235.1
 31
0.0
  0
LINE
  5
25C
100
AcDbEntity
  8
LAY-4
  6
DASHED2
 62
     3
100
AcDbLine
 10
215.2
 20
226.4
 30
0.0
 11
215.2
 21
235.1
 31
0.0
  0
LINE
  5
25D
100
AcDbEntity
  8
LAY-4
  6
DASHED2
 62
     1
100
AcDbLine
 10
215.7
 20
226.4
 30
0.0
 11
215.7
 21
235.1
 31
0.0
  0
LINE
  5
25E
100
AcDbEntity
  8
LAY-4
  6
DASHED2
 62
     3
100
AcDbLine
 10
220.2
 20
226.4
 30
0.0
 11
220.2
 21
235.1
 31
0.0
  0
LINE
  5
25F
100
AcDbEntity
  8
LAY-4
  6
DASHED2
 62
     1
100
AcDbLine
 10
219.7
 20
226.4
 30
0.0
 11
219.7
 21
235.1
 31
0.0
  0
LINE
  5
260
100
AcDbEntity
  8
LAY-4
  6
CONTINUOUS
 62
     3
100
AcDbLine
 10
172.7
 20
222.8
 30
0.0
 11
177.12563
 21
222.8
 31
0.0
  0
LINE
  5
261
100
AcDbEntity
  8
LAY-4
  6
CONTINUOUS
 62
     3
100
AcDbLine
 10
218.27437
 20
222.8
 30
0.0
 11
222.7
 21
222.8
 31
0.0
  0
ARC
  5
262
100
AcDbEntity
  8
LAY-4
  6
CONTINUOUS
 62
     3
100
AcDbCircle
 10
175.402519
 20
222.4
 30
0.0
 40
4.0
100
AcDbArc
 50
18.023626
 51
90.0
  0
LINE
  5
263
100
AcDbEntity
  8
LAY-4
  6
DASHED2
 62
     3
100
AcDbLine
 10
154.7
 20
222.8
 30
0.0
 11
154.7
 21
223.1
 31
0.0
  0
LINE
  5
264
100
AcDbEntity
  8
LAY-4
  6
DASHED2
 62
     3
100
AcDbLine
 10
157.2
 20
225.6
 30
0.0
 11
162.2
 21
225.6
 31
0.0
  0
LINE
  5
265
100
AcDbEntity
  8
LAY-4
  6
DASHED2
 62
     3
100
AcDbLine
 10
154.7
 20
223.1
 30
0.0
 11
157.2
 21
225.6
 31
0.0
  0
LINE
  5
266
100
AcDbEntity
  8
LAY-4
  6
DASHED2
 62
     3
100
AcDbLine
 10
157.2
 20
225.6
 30
0.0
 11
157.2
 21
235.1
 31
0.0
  0
LINE
  5
267
100
AcDbEntity
  8
LAY-4
  6
DASHED2
 62
     1
100
AcDbLine
 10
157.7
 20
225.6
 30
0.0
 11
157.7
 21
235.1
 31
0.0
  0
LINE
  5
268
100
AcDbEntity
  8
LAY-4
  6
DASHED2
 62
     3
100
AcDbLine
 10
164.7
 20
222.8
 30
0.0
 11
164.7
 21
223.1
 31
0.0
  0
LINE
  5
269
100
AcDbEntity
  8
LAY-4
  6
DASHED2
 62
     3
100
AcDbLine
 10
164.7
 20
223.1
 30
0.0
 11
162.2
 21
225.6
 31
0.0
  0
LINE
  5
26A
100
AcDbEntity
  8
LAY-4
  6
DASHED2
 62
     3
100
AcDbLine
 10
162.2
 20
225.6
 30
0.0
 11
162.2
 21
235.1
 31
0.0
  0
LINE
  5
26B
100
AcDbEntity
  8
LAY-4
  6
DASHED2
 62
     1
100
AcDbLine
 10
161.7
 20
225.6
 30
0.0
 11
161.7
 21
235.1
 31
0.0
  0
LINE
  5
26C
100
AcDbEntity
  8
LAY-4
  6
CONTINUOUS
 62
     3
100
AcDbLine
 10
154.7
 20
222.8
 30
0.0
 11
164.7
 21
222.8
 31
0.0
  0
LINE
  5
26D
100
AcDbEntity
  8
LAY-4
  6
DASHED2
 62
     3
100
AcDbLine
 10
154.7
 20
223.1
 30
0.0
 11
164.7
 21
223.1
 31
0.0
  0
ARC
  5
26E
100
AcDbEntity
  8
LAY-4
  6
CONTINUOUS
 62
     3
100
AcDbCircle
 10
159.7
 20
232.616667
 30
0.0
 40
11.016667
100
AcDbArc
 50
243.008533
 51
296.991467
  0
ARC
  5
26F
100
AcDbEntity
  8
LAY-4
  6
CONTINUOUS
 62
     3
100
AcDbCircle
 10
177.12563
 20
221.8
 30
0.0
 40
1.0
100
AcDbArc
 50
11.599464
 51
90.0
  0
ARC
  5
270
100
AcDbEntity
  8
LAY-4
  6
CONTINUOUS
 62
     3
100
AcDbCircle
 10
218.27437
 20
221.8
 30
0.0
 40
1.0
100
AcDbArc
 50
90.0
 51
168.400536
  0
ARC
  5
271
100
AcDbEntity
  8
LAY-4
  6
CONTINUOUS
 62
     3
100
AcDbCircle
 10
219.997481
 20
222.4
 30
0.0
 40
4.0
100
AcDbArc
 50
90.0
 51
161.976374
  0
LINE
  5
272
100
AcDbEntity
  8
LAY-4
  6
DASHED2
 62
     3
100
AcDbLine
 10
157.2
 20
235.1
 30
0.0
 11
162.2
 21
235.1
 31
0.0
  0
LINE
  5
273
100
AcDbEntity
  8
LAY-4
  6
DASHED2
 62
     3
100
AcDbLine
 10
233.2
 20
235.1
 30
0.0
 11
238.2
 21
235.1
 31
0.0
  0
LINE
  5
274
100
AcDbEntity
  8
LAY-4
  6
DASHED2
 62
     3
100
AcDbLine
 10
215.2
 20
235.1
 30
0.0
 11
220.2
 21
235.1
 31
0.0
  0
LINE
  5
275
100
AcDbEntity
  8
LAY-4
  6
DASHED2
 62
     3
100
AcDbLine
 10
175.2
 20
235.1
 30
0.0
 11
180.2
 21
235.1
 31
0.0
  0
ARC
  5
276
100
AcDbEntity
  8
LAY-4
  6
CONTINUOUS
 62
     3
100
AcDbCircle
 10
247.7
 20
424.499992
 30
0.0
 40
9.0
100
AcDbArc
 50
140.560853
 51
141.057559
  0
LINE
  5
277
100
AcDbEntity
  8
LAY-4
  6
CONTINUOUS
 62
     3
100
AcDbLine
 10
182.7
 20
382.5
 30
0.0
 11
182.7
 21
367.5
 31
0.0
  0
LINE
  5
278
100
AcDbEntity
  8
LAY-4
  6
CONTINUOUS
 62
     3
100
AcDbLine
 10
212.7
 20
367.5
 30
0.0
 11
212.7
 21
382.5
 31
0.0
  0
ARC
  5
279
100
AcDbEntity
  8
LAY-4
  6
CONTINUOUS
 62
     3
100
AcDbCircle
 10
197.7
 20
367.5
 30
0.0
 40
15.0
100
AcDbArc
 50
179.999999
 51
0.0
  0
LINE
  5
27A
100
AcDbEntity
  8
LAY-4
  6
CONTINUOUS
 62
     3
100
AcDbLine
 10
226.318034
 20
409.736068
 30
0.0
 11
212.7
 21
382.5
 31
0.0
  0
LINE
  5
27B
100
AcDbEntity
  8
LAY-4
  6
CONTINUOUS
 62
     3
100
AcDbLine
 10
169.081966
 20
409.736068
 30
0.0
 11
182.7
 21
382.5
 31
0.0
  0
ARC
  5
27C
100
AcDbEntity
  8
LAY-4
  6
CONTINUOUS
 62
     3
100
AcDbCircle
 10
197.7
 20
367.5
 30
0.0
 40
37.0
100
AcDbArc
 50
52.989295
 51
127.010705
  0
ARC
  5
27D
100
AcDbEntity
  8
LAY-4
  6
CONTINUOUS
 62
     3
100
AcDbCircle
 10
164.60983
 20
407.5
 30
0.0
 40
5.0
100
AcDbArc
 50
26.565051
 51
90.0
  0
ARC
  5
27E
100
AcDbEntity
  8
LAY-4
  6
CONTINUOUS
 62
     3
100
AcDbCircle
 10
230.79017
 20
407.5
 30
0.0
 40
5.0
100
AcDbArc
 50
90.0
 51
153.434949
  0
ARC
  5
27F
100
AcDbEntity
  8
LAY-4
  6
CONTINUOUS
 62
     3
100
AcDbCircle
 10
197.7
 20
367.5
 30
0.0
 40
15.5
100
AcDbArc
 50
14.592551
 51
165.407449
  0
CIRCLE
  5
280
100
AcDbEntity
  8
LAY-4
  6
CONTINUOUS
 62
     3
100
AcDbCircle
 10
197.7
 20
367.5
 30
0.0
 40
10.5
  0
CIRCLE
  5
281
100
AcDbEntity
  8
LAY-4
  6
CONTINUOUS
 62
     3
100
AcDbCircle
 10
197.7
 20
367.5
 30
0.0
 40
10.0
  0
CIRCLE
  5
282
100
AcDbEntity
  8
LAY-4
  6
CONTINUOUS
 62
     3
100
AcDbCircle
 10
197.7
 20
367.5
 30
0.0
 40
8.5
  0
LINE
  5
283
100
AcDbEntity
  8
LAY-4
  6
CONTINUOUS
 62
     3
100
AcDbLine
 10
192.792523
 20
359.0
 30
0.0
 11
202.607477
 21
359.0
 31
0.0
  0
LINE
  5
284
100
AcDbEntity
  8
LAY-4
  6
CONTINUOUS
 62
     3
100
AcDbLine
 10
192.792523
 20
376.0
 30
0.0
 11
202.607477
 21
376.0
 31
0.0
  0
LINE
  5
285
100
AcDbEntity
  8
LAY-4
  6
CONTINUOUS
 62
     3
100
AcDbLine
 10
187.885045
 20
367.5
 30
0.0
 11
192.792523
 21
376.0
 31
0.0
  0
LINE
  5
286
100
AcDbEntity
  8
LAY-4
  6
CONTINUOUS
 62
     3
100
AcDbLine
 10
202.607477
 20
359.0
 30
0.0
 11
207.514955
 21
367.5
 31
0.0
  0
LINE
  5
287
100
AcDbEntity
  8
LAY-4
  6
CONTINUOUS
 62
     3
100
AcDbLine
 10
187.885045
 20
367.5
 30
0.0
 11
192.792523
 21
359.0
 31
0.0
  0
LINE
  5
288
100
AcDbEntity
  8
LAY-4
  6
CONTINUOUS
 62
     3
100
AcDbLine
 10
207.514955
 20
367.5
 30
0.0
 11
202.607477
 21
376.0
 31
0.0
  0
CIRCLE
  5
289
100
AcDbEntity
  8
LAY-4
  6
CONTINUOUS
 62
     1
100
AcDbCircle
 10
197.7
 20
367.5
 30
0.0
 40
5.0
  0
CIRCLE
  5
28A
100
AcDbEntity
  8
LAY-4
  6
CONTINUOUS
 62
     3
100
AcDbCircle
 10
197.7
 20
367.5
 30
0.0
 40
4.5
  0
LINE
  5
28B
100
AcDbEntity
  8
LAY-4
  6
CONTINUOUS
 62
     3
100
AcDbLine
 10
212.7
 20
209.3
 30
0.0
 11
182.7
 21
209.3
 31
0.0
  0
LINE
  5
28C
100
AcDbEntity
  8
LAY-4
  6
CONTINUOUS
 62
     3
100
AcDbLine
 10
182.7
 20
212.9
 30
0.0
 11
212.7
 21
212.9
 31
0.0
  0
LINE
  5
28D
100
AcDbEntity
  8
LAY-4
  6
CONTINUOUS
 62
     3
100
AcDbLine
 10
182.7
 20
209.3
 30
0.0
 11
182.7
 21
212.9
 31
0.0
  0
LINE
  5
28E
100
AcDbEntity
  8
LAY-4
  6
CONTINUOUS
 62
     3
100
AcDbLine
 10
212.7
 20
209.3
 30
0.0
 11
212.7
 21
212.9
 31
0.0
  0
LINE
  5
28F
100
AcDbEntity
  8
LAY-4
  6
CONTINUOUS
 62
     3
100
AcDbLine
 10
212.7
 20
212.9
 30
0.0
 11
216.193765
 21
223.637637
 31
0.0
  0
LINE
  5
290
100
AcDbEntity
  8
LAY-4
  6
CONTINUOUS
 62
     3
100
AcDbLine
 10
182.7
 20
212.9
 30
0.0
 11
179.206235
 21
223.637637
 31
0.0
  0
LINE
  5
291
100
AcDbEntity
  8
LAY-4
  6
CONTINUOUS
 62
     3
100
AcDbLine
 10
182.7
 20
209.3
 30
0.0
 11
178.066247
 21
222.139468
 31
0.0
  0
LINE
  5
292
100
AcDbEntity
  8
LAY-4
  6
CONTINUOUS
 62
     3
100
AcDbLine
 10
212.7
 20
209.3
 30
0.0
 11
217.333753
 21
222.139468
 31
0.0
  0
LINE
  5
293
100
AcDbEntity
  8
LAY-4
  6
CONTINUOUS
 62
     3
100
AcDbLine
 10
185.2
 20
209.3
 30
0.0
 11
185.2
 21
208.55
 31
0.0
  0
LINE
  5
294
100
AcDbEntity
  8
LAY-4
  6
CONTINUOUS
 62
     3
100
AcDbLine
 10
210.2
 20
209.3
 30
0.0
 11
210.2
 21
208.55
 31
0.0
  0
LINE
  5
295
100
AcDbEntity
  8
LAY-4
  6
CONTINUOUS
 62
     3
100
AcDbLine
 10
183.7
 20
207.8
 30
0.0
 11
221.7
 21
207.8
 31
0.0
  0
LINE
  5
296
100
AcDbEntity
  8
LAY-4
  6
CONTINUOUS
 62
     3
100
AcDbLine
 10
184.7
 20
208.55
 30
0.0
 11
210.7
 21
208.55
 31
0.0
  0
LINE
  5
297
100
AcDbEntity
  8
LAY-4
  6
CONTINUOUS
 62
     3
100
AcDbLine
 10
208.2
 20
214.9
 30
0.0
 11
187.2
 21
214.9
 31
0.0
  0
LINE
  5
298
100
AcDbEntity
  8
LAY-4
  6
CONTINUOUS
 62
     3
100
AcDbLine
 10
187.2
 20
212.9
 30
0.0
 11
187.2
 21
214.9
 31
0.0
  0
LINE
  5
299
100
AcDbEntity
  8
LAY-4
  6
CONTINUOUS
 62
     3
100
AcDbLine
 10
208.2
 20
212.9
 30
0.0
 11
208.2
 21
214.9
 31
0.0
  0
LINE
  5
29A
100
AcDbEntity
  8
LAY-4
  6
CONTINUOUS
 62
     3
100
AcDbLine
 10
187.7
 20
214.9
 30
0.0
 11
187.7
 21
215.9
 31
0.0
  0
LINE
  5
29B
100
AcDbEntity
  8
LAY-4
  6
CONTINUOUS
 62
     3
100
AcDbLine
 10
207.7
 20
214.9
 30
0.0
 11
207.7
 21
215.9
 31
0.0
  0
LINE
  5
29C
100
AcDbEntity
  8
LAY-4
  6
CONTINUOUS
 62
     3
100
AcDbLine
 10
187.7
 20
215.9
 30
0.0
 11
207.7
 21
215.9
 31
0.0
  0
LINE
  5
29D
100
AcDbEntity
  8
LAY-4
  6
CONTINUOUS
 62
     3
100
AcDbLine
 10
187.885045
 20
217.481606
 30
0.0
 11
187.885045
 21
219.318394
 31
0.0
  0
LINE
  5
29E
100
AcDbEntity
  8
LAY-4
  6
CONTINUOUS
 62
     3
100
AcDbLine
 10
192.792523
 20
217.465319
 30
0.0
 11
192.792523
 21
219.334681
 31
0.0
  0
ARC
  5
29F
100
AcDbEntity
  8
LAY-4
  6
CONTINUOUS
 62
     3
100
AcDbCircle
 10
197.7
 20
212.9
 30
0.0
 40
8.0
100
AcDbArc
 50
90.0
 51
127.838268
  0
ARC
  5
2A0
100
AcDbEntity
  8
LAY-4
  6
CONTINUOUS
 62
     3
100
AcDbCircle
 10
190.342523
 20
218.2
 30
0.0
 40
2.7
100
AcDbArc
 50
22.562661
 51
155.529792
  0
LINE
  5
2A1
100
AcDbEntity
  8
LAY-4
  6
CONTINUOUS
 62
     3
100
AcDbLine
 10
190.342523
 20
220.9
 30
0.0
 11
197.7
 21
220.9
 31
0.0
  0
ARC
  5
2A2
100
AcDbEntity
  8
LAY-4
  6
CONTINUOUS
 62
     3
100
AcDbCircle
 10
197.7
 20
223.9
 30
0.0
 40
8.0
100
AcDbArc
 50
232.161732
 51
270.0
  0
ARC
  5
2A3
100
AcDbEntity
  8
LAY-4
  6
CONTINUOUS
 62
     3
100
AcDbCircle
 10
190.342523
 20
218.6
 30
0.0
 40
2.7
100
AcDbArc
 50
204.470208
 51
337.437339
  0
ARC
  5
2A4
100
AcDbEntity
  8
LAY-4
  6
CONTINUOUS
 62
     3
100
AcDbCircle
 10
197.7
 20
212.9
 30
0.0
 40
8.0
100
AcDbArc
 50
52.161732
 51
90.0
  0
ARC
  5
2A5
100
AcDbEntity
  8
LAY-4
  6
CONTINUOUS
 62
     3
100
AcDbCircle
 10
205.057477
 20
218.2
 30
0.0
 40
2.7
100
AcDbArc
 50
24.470208
 51
157.437339
  0
LINE
  5
2A6
100
AcDbEntity
  8
LAY-4
  6
CONTINUOUS
 62
     3
100
AcDbLine
 10
205.057477
 20
220.9
 30
0.0
 11
197.7
 21
220.9
 31
0.0
  0
ARC
  5
2A7
100
AcDbEntity
  8
LAY-4
  6
CONTINUOUS
 62
     3
100
AcDbCircle
 10
197.7
 20
223.9
 30
0.0
 40
8.0
100
AcDbArc
 50
270.0
 51
307.838268
  0
ARC
  5
2A8
100
AcDbEntity
  8
LAY-4
  6
CONTINUOUS
 62
     3
100
AcDbCircle
 10
205.057477
 20
218.6
 30
0.0
 40
2.7
100
AcDbArc
 50
202.562661
 51
335.529792
  0
LINE
  5
2A9
100
AcDbEntity
  8
LAY-4
  6
CONTINUOUS
 62
     3
100
AcDbLine
 10
202.607477
 20
217.465319
 30
0.0
 11
202.607477
 21
219.334681
 31
0.0
  0
LINE
  5
2AA
100
AcDbEntity
  8
LAY-4
  6
CONTINUOUS
 62
     3
100
AcDbLine
 10
207.514955
 20
217.481606
 30
0.0
 11
207.514955
 21
219.318394
 31
0.0
  0
LINE
  5
2AB
100
AcDbEntity
  8
LAY-4
  6
CONTINUOUS
 62
     3
100
AcDbLine
 10
183.7
 20
202.1
 30
0.0
 11
221.7
 21
202.1
 31
0.0
  0
LINE
  5
2AC
100
AcDbEntity
  8
LAY-4
  6
CONTINUOUS
 62
     3
100
AcDbLine
 10
183.7
 20
207.8
 30
0.0
 11
183.7
 21
202.1
 31
0.0
  0
LINE
  5
2AD
100
AcDbEntity
  8
LAY-4
  6
CONTINUOUS
 62
     3
100
AcDbLine
 10
184.7
 20
208.55
 30
0.0
 11
184.7
 21
207.8
 31
0.0
  0
LINE
  5
2AE
100
AcDbEntity
  8
LAY-4
  6
CONTINUOUS
 62
     3
100
AcDbLine
 10
210.7
 20
208.55
 30
0.0
 11
210.7
 21
207.8
 31
0.0
  0
LINE
  5
2AF
100
AcDbEntity
  8
LAY-4
  6
CONTINUOUS
 62
     3
100
AcDbLine
 10
221.7
 20
207.8
 30
0.0
 11
221.7
 21
202.1
 31
0.0
  0
LINE
  5
2B0
100
AcDbEntity
  8
LAY-4
  6
CONTINUOUS
 62
     3
100
AcDbLine
 10
188.7
 20
192.295311
 30
0.0
 11
206.7
 21
192.272619
 31
0.0
  0
LINE
  5
2B1
100
AcDbEntity
  8
LAY-4
  6
CONTINUOUS
 62
     3
100
AcDbLine
 10
187.7
 20
193.296573
 30
0.0
 11
187.7
 21
194.496574
 31
0.0
  0
LINE
  5
2B2
100
AcDbEntity
  8
LAY-4
  6
CONTINUOUS
 62
     3
100
AcDbLine
 10
207.7
 20
193.271359
 30
0.0
 11
207.7
 21
194.47136
 31
0.0
  0
LINE
  5
2B3
100
AcDbEntity
  8
LAY-4
  6
CONTINUOUS
 62
     3
100
AcDbLine
 10
187.7
 20
193.296573
 30
0.0
 11
207.7
 21
193.271359
 31
0.0
  0
LINE
  5
2B4
100
AcDbEntity
  8
LAY-4
  6
CONTINUOUS
 62
     3
100
AcDbLine
 10
187.7
 20
193.296573
 30
0.0
 11
188.7
 21
192.295311
 31
0.0
  0
LINE
  5
2B5
100
AcDbEntity
  8
LAY-4
  6
CONTINUOUS
 62
     3
100
AcDbLine
 10
207.7
 20
193.271359
 30
0.0
 11
206.7
 21
192.272619
 31
0.0
  0
LINE
  5
2B6
100
AcDbEntity
  8
LAY-4
  6
CONTINUOUS
 62
     3
100
AcDbLine
 10
189.7
 20
202.1
 30
0.0
 11
189.7
 21
201.994058
 31
0.0
  0
LINE
  5
2B7
100
AcDbEntity
  8
LAY-4
  6
CONTINUOUS
 62
     3
100
AcDbLine
 10
205.7
 20
201.973887
 30
0.0
 11
205.7
 21
202.1
 31
0.0
  0
LINE
  5
2B8
100
AcDbEntity
  8
LAY-4
  6
CONTINUOUS
 62
     3
100
AcDbLine
 10
193.2
 20
222.289662
 30
0.0
 11
202.2
 21
222.278316
 31
0.0
  0
LINE
  5
2B9
100
AcDbEntity
  8
LAY-4
  6
CONTINUOUS
 62
     3
100
AcDbLine
 10
192.7
 20
220.9
 30
0.0
 11
192.7
 21
221.790292
 31
0.0
  0
LINE
  5
2BA
100
AcDbEntity
  8
LAY-4
  6
CONTINUOUS
 62
     3
100
AcDbLine
 10
202.7
 20
220.9
 30
0.0
 11
202.7
 21
221.777685
 31
0.0
  0
LINE
  5
2BB
100
AcDbEntity
  8
LAY-4
  6
CONTINUOUS
 62
     3
100
AcDbLine
 10
193.2
 20
222.289662
 30
0.0
 11
193.2
 21
220.9
 31
0.0
  0
LINE
  5
2BC
100
AcDbEntity
  8
LAY-4
  6
CONTINUOUS
 62
     3
100
AcDbLine
 10
202.2
 20
222.278316
 30
0.0
 11
202.2
 21
220.9
 31
0.0
  0
LINE
  5
2BD
100
AcDbEntity
  8
LAY-4
  6
CONTINUOUS
 62
     3
100
AcDbLine
 10
192.7
 20
221.790292
 30
0.0
 11
202.7
 21
221.777685
 31
0.0
  0
LINE
  5
2BE
100
AcDbEntity
  8
LAY-4
  6
CONTINUOUS
 62
     3
100
AcDbLine
 10
193.2
 20
222.289662
 30
0.0
 11
192.7
 21
221.790292
 31
0.0
  0
LINE
  5
2BF
100
AcDbEntity
  8
LAY-4
  6
CONTINUOUS
 62
     3
100
AcDbLine
 10
202.2
 20
222.278316
 30
0.0
 11
202.7
 21
221.777685
 31
0.0
  0
LINE
  5
2C0
100
AcDbEntity
  8
LAY-4
  6
CONTINUOUS
 62
     3
100
AcDbLine
 10
649.6
 20
226.4
 30
0.0
 11
609.886876
 21
226.4
 31
0.0
  0
LINE
  5
2C1
100
AcDbEntity
  8
LAY-4
  6
CONTINUOUS
 62
     3
100
AcDbLine
 10
649.6
 20
222.8
 30
0.0
 11
608.74731
 21
222.8
 31
0.0
  0
LINE
  5
2C2
100
AcDbEntity
  8
LAY-4
  6
CONTINUOUS
 62
     3
100
AcDbLine
 10
649.6
 20
226.4
 30
0.0
 11
649.6
 21
222.8
 31
0.0
  0
LINE
  5
2C3
100
AcDbEntity
  8
LAY-4
  6
DASHED2
 62
     3
100
AcDbLine
 10
646.6
 20
222.8
 30
0.0
 11
646.6
 21
223.1
 31
0.0
  0
LINE
  5
2C4
100
AcDbEntity
  8
LAY-4
  6
DASHED2
 62
     3
100
AcDbLine
 10
644.1
 20
225.6
 30
0.0
 11
639.1
 21
225.6
 31
0.0
  0
LINE
  5
2C5
100
AcDbEntity
  8
LAY-4
  6
DASHED2
 62
     3
100
AcDbLine
 10
646.6
 20
223.1
 30
0.0
 11
644.1
 21
225.6
 31
0.0
  0
LINE
  5
2C6
100
AcDbEntity
  8
LAY-4
  6
DASHED2
 62
     3
100
AcDbLine
 10
636.6
 20
222.8
 30
0.0
 11
636.6
 21
223.1
 31
0.0
  0
LINE
  5
2C7
100
AcDbEntity
  8
LAY-4
  6
DASHED2
 62
     3
100
AcDbLine
 10
636.6
 20
223.1
 30
0.0
 11
639.1
 21
225.6
 31
0.0
  0
LINE
  5
2C8
100
AcDbEntity
  8
LAY-4
  6
CONTINUOUS
 62
     3
100
AcDbLine
 10
646.6
 20
222.8
 30
0.0
 11
636.6
 21
222.8
 31
0.0
  0
LINE
  5
2C9
100
AcDbEntity
  8
LAY-4
  6
DASHED2
 62
     3
100
AcDbLine
 10
646.6
 20
223.1
 30
0.0
 11
636.6
 21
223.1
 31
0.0
  0
ARC
  5
2CA
100
AcDbEntity
  8
LAY-4
  6
CONTINUOUS
 62
     3
100
AcDbCircle
 10
641.6
 20
232.616667
 30
0.0
 40
11.016667
100
AcDbArc
 50
243.008533
 51
296.991467
  0
LINE
  5
2CB
100
AcDbEntity
  8
LAY-4
  6
CONTINUOUS
 62
     3
100
AcDbLine
 10
624.6
 20
222.8
 30
0.0
 11
624.6
 21
226.4
 31
0.0
  0
LINE
  5
2CC
100
AcDbEntity
  8
LAY-4
  6
DASHED2
 62
     3
100
AcDbLine
 10
644.1
 20
235.1
 30
0.0
 11
639.1
 21
235.1
 31
0.0
  0
LINE
  5
2CD
100
AcDbEntity
  8
LAY-4
  6
DASHED2
 62
     3
100
AcDbLine
 10
644.1
 20
225.6
 30
0.0
 11
644.1
 21
231.2
 31
0.0
  0
LINE
  5
2CE
100
AcDbEntity
  8
LAY-4
  6
DASHED2
 62
     3
100
AcDbLine
 10
644.1
 20
231.2
 30
0.0
 11
644.1
 21
235.1
 31
0.0
  0
LINE
  5
2CF
100
AcDbEntity
  8
LAY-4
  6
DASHED2
 62
     1
100
AcDbLine
 10
643.6
 20
225.6
 30
0.0
 11
643.6
 21
231.2
 31
0.0
  0
LINE
  5
2D0
100
AcDbEntity
  8
LAY-4
  6
DASHED2
 62
     1
100
AcDbLine
 10
643.6
 20
231.2
 30
0.0
 11
643.6
 21
235.1
 31
0.0
  0
LINE
  5
2D1
100
AcDbEntity
  8
LAY-4
  6
DASHED2
 62
     1
100
AcDbLine
 10
639.6
 20
225.6
 30
0.0
 11
639.6
 21
231.2
 31
0.0
  0
LINE
  5
2D2
100
AcDbEntity
  8
LAY-4
  6
DASHED2
 62
     1
100
AcDbLine
 10
639.6
 20
231.2
 30
0.0
 11
639.6
 21
235.1
 31
0.0
  0
LINE
  5
2D3
100
AcDbEntity
  8
LAY-4
  6
DASHED2
 62
     3
100
AcDbLine
 10
639.1
 20
225.6
 30
0.0
 11
639.1
 21
231.2
 31
0.0
  0
LINE
  5
2D4
100
AcDbEntity
  8
LAY-4
  6
DASHED2
 62
     3
100
AcDbLine
 10
639.1
 20
231.2
 30
0.0
 11
639.1
 21
235.1
 31
0.0
  0
LINE
  5
2D5
100
AcDbEntity
  8
LAY-4
  6
DASHED2
 62
     3
100
AcDbLine
 10
636.6
 20
222.8
 30
0.0
 11
636.6
 21
223.1
 31
0.0
  0
LINE
  5
2D6
100
AcDbEntity
  8
LAY-4
  6
DASHED2
 62
     3
100
AcDbLine
 10
636.6
 20
223.1
 30
0.0
 11
634.1
 21
225.6
 31
0.0
  0
LINE
  5
2D7
100
AcDbEntity
  8
LAY-4
  6
DASHED2
 62
     3
100
AcDbLine
 10
626.6
 20
222.8
 30
0.0
 11
626.6
 21
223.1
 31
0.0
  0
LINE
  5
2D8
100
AcDbEntity
  8
LAY-4
  6
DASHED2
 62
     3
100
AcDbLine
 10
626.6
 20
223.1
 30
0.0
 11
629.1
 21
225.6
 31
0.0
  0
LINE
  5
2D9
100
AcDbEntity
  8
LAY-4
  6
CONTINUOUS
 62
     3
100
AcDbLine
 10
636.6
 20
222.8
 30
0.0
 11
626.6
 21
222.8
 31
0.0
  0
LINE
  5
2DA
100
AcDbEntity
  8
LAY-4
  6
DASHED2
 62
     3
100
AcDbLine
 10
636.6
 20
223.1
 30
0.0
 11
626.6
 21
223.1
 31
0.0
  0
ARC
  5
2DB
100
AcDbEntity
  8
LAY-4
  6
CONTINUOUS
 62
     3
100
AcDbCircle
 10
631.6
 20
232.616667
 30
0.0
 40
11.016667
100
AcDbArc
 50
243.008533
 51
296.991467
  0
LINE
  5
2DC
100
AcDbEntity
  8
LAY-4
  6
DASHED2
 62
     3
100
AcDbLine
 10
634.1
 20
235.1
 30
0.0
 11
629.1
 21
235.1
 31
0.0
  0
LINE
  5
2DD
100
AcDbEntity
  8
LAY-4
  6
DASHED2
 62
     3
100
AcDbLine
 10
634.1
 20
231.2
 30
0.0
 11
634.1
 21
235.1
 31
0.0
  0
LINE
  5
2DE
100
AcDbEntity
  8
LAY-4
  6
DASHED2
 62
     1
100
AcDbLine
 10
633.6
 20
231.2
 30
0.0
 11
633.6
 21
235.1
 31
0.0
  0
LINE
  5
2DF
100
AcDbEntity
  8
LAY-4
  6
DASHED2
 62
     1
100
AcDbLine
 10
629.6
 20
231.2
 30
0.0
 11
629.6
 21
235.1
 31
0.0
  0
LINE
  5
2E0
100
AcDbEntity
  8
LAY-4
  6
DASHED2
 62
     3
100
AcDbLine
 10
629.1
 20
231.2
 30
0.0
 11
629.1
 21
235.1
 31
0.0
  0
LINE
  5
2E1
100
AcDbEntity
  8
LAY-4
  6
DASHED2
 62
     3
100
AcDbLine
 10
634.1
 20
225.6
 30
0.0
 11
629.1
 21
225.6
 31
0.0
  0
LINE
  5
2E2
100
AcDbEntity
  8
LAY-4
  6
DASHED2
 62
     3
100
AcDbLine
 10
634.1
 20
225.6
 30
0.0
 11
634.1
 21
231.2
 31
0.0
  0
LINE
  5
2E3
100
AcDbEntity
  8
LAY-4
  6
DASHED2
 62
     1
100
AcDbLine
 10
633.6
 20
225.6
 30
0.0
 11
633.6
 21
231.2
 31
0.0
  0
LINE
  5
2E4
100
AcDbEntity
  8
LAY-4
  6
DASHED2
 62
     1
100
AcDbLine
 10
629.6
 20
225.6
 30
0.0
 11
629.6
 21
231.2
 31
0.0
  0
LINE
  5
2E5
100
AcDbEntity
  8
LAY-4
  6
DASHED2
 62
     3
100
AcDbLine
 10
629.1
 20
225.6
 30
0.0
 11
629.1
 21
231.2
 31
0.0
  0
LINE
  5
2E6
100
AcDbEntity
  8
LAY-4
  6
CONTINUOUS
 62
     3
100
AcDbLine
 10
564.6
 20
209.3
 30
0.0
 11
573.7
 21
209.3
 31
0.0
  0
LINE
  5
2E7
100
AcDbEntity
  8
LAY-4
  6
CONTINUOUS
 62
     3
100
AcDbLine
 10
564.6
 20
209.3
 30
0.0
 11
564.6
 21
212.9
 31
0.0
  0
LINE
  5
2E8
100
AcDbEntity
  8
LAY-4
  6
CONTINUOUS
 62
     3
100
AcDbLine
 10
564.6
 20
212.9
 30
0.0
 11
583.505124
 21
212.9
 31
0.0
  0
LINE
  5
2E9
100
AcDbEntity
  8
LAY-4
  6
CONTINUOUS
 62
     3
100
AcDbLine
 10
608.489219
 20
226.054535
 30
0.0
 11
583.505124
 21
212.9
 31
0.0
  0
LINE
  5
2EA
100
AcDbEntity
  8
LAY-4
  6
CONTINUOUS
 62
     3
100
AcDbLine
 10
617.636534
 20
222.8
 30
0.0
 11
596.868059
 21
209.75933
 31
0.0
  0
LINE
  5
2EB
100
AcDbEntity
  8
LAY-4
  6
CONTINUOUS
 62
     3
100
AcDbLine
 10
585.5
 20
209.3
 30
0.0
 11
595.272755
 21
209.3
 31
0.0
  0
LINE
  5
2EC
100
AcDbEntity
  8
LAY-4
  6
CONTINUOUS
 62
     3
100
AcDbLine
 10
585.067352
 20
210.332115
 30
0.0
 11
608.74731
 21
222.8
 31
0.0
  0
ARC
  5
2ED
100
AcDbEntity
  8
LAY-4
  6
CONTINUOUS
 62
     3
100
AcDbCircle
 10
609.886876
 20
223.4
 30
0.0
 40
3.0
100
AcDbArc
 50
90.0
 51
117.767539
  0
ARC
  5
2EE
100
AcDbEntity
  8
LAY-4
  6
CONTINUOUS
 62
     3
100
AcDbCircle
 10
595.272755
 20
212.3
 30
0.0
 40
3.0
100
AcDbArc
 50
270.0
 51
302.124998
  0
LINE
  5
2EF
100
AcDbEntity
  8
LAY-4
  6
CONTINUOUS
 62
     3
100
AcDbLine
 10
569.6
 20
215.9
 30
0.0
 11
589.202953
 21
215.9
 31
0.0
  0
LINE
  5
2F0
100
AcDbEntity
  8
LAY-4
  6
CONTINUOUS
 62
     3
100
AcDbLine
 10
569.1
 20
212.9
 30
0.0
 11
569.1
 21
214.9
 31
0.0
  0
LINE
  5
2F1
100
AcDbEntity
  8
LAY-4
  6
CONTINUOUS
 62
     3
100
AcDbLine
 10
569.6
 20
214.9
 30
0.0
 11
569.6
 21
215.9
 31
0.0
  0
LINE
  5
2F2
100
AcDbEntity
  8
LAY-4
  6
CONTINUOUS
 62
     3
100
AcDbLine
 10
587.303676
 20
214.9
 30
0.0
 11
569.1
 21
214.9
 31
0.0
  0
LINE
  5
2F3
100
AcDbEntity
  8
LAY-4
  6
CONTINUOUS
 62
     3
100
AcDbLine
 10
583.853785
 20
220.9
 30
0.0
 11
579.6
 21
220.9
 31
0.0
  0
LINE
  5
2F4
100
AcDbEntity
  8
LAY-4
  6
CONTINUOUS
 62
     3
100
AcDbLine
 10
571.1
 20
219.95371
 30
0.0
 11
571.1
 21
216.84629
 31
0.0
  0
ARC
  5
2F5
100
AcDbEntity
  8
LAY-4
  6
CONTINUOUS
 62
     3
100
AcDbCircle
 10
575.346215
 20
225.9
 30
0.0
 40
10.0
100
AcDbArc
 50
244.873295
 51
295.222895
  0
ARC
  5
2F6
100
AcDbEntity
  8
LAY-4
  6
CONTINUOUS
 62
     3
100
AcDbCircle
 10
575.346215
 20
210.9
 30
0.0
 40
10.0
100
AcDbArc
 50
64.777105
 51
115.126705
  0
ARC
  5
2F7
100
AcDbEntity
  8
LAY-4
  6
CONTINUOUS
 62
     3
100
AcDbCircle
 10
583.853785
 20
210.9
 30
0.0
 40
10.0
100
AcDbArc
 50
64.873295
 51
115.222895
  0
ARC
  5
2F8
100
AcDbEntity
  8
LAY-4
  6
CONTINUOUS
 62
     3
100
AcDbCircle
 10
583.853785
 20
225.9
 30
0.0
 40
10.0
100
AcDbArc
 50
244.777105
 51
295.126705
  0
LINE
  5
2F9
100
AcDbEntity
  8
LAY-4
  6
CONTINUOUS
 62
     3
100
AcDbLine
 10
588.1
 20
219.95371
 30
0.0
 11
588.1
 21
216.84629
 31
0.0
  0
LINE
  5
2FA
100
AcDbEntity
  8
LAY-4
  6
CONTINUOUS
 62
     3
100
AcDbLine
 10
579.6
 20
219.950155
 30
0.0
 11
579.6
 21
216.849845
 31
0.0
  0
LINE
  5
2FB
100
AcDbEntity
  8
LAY-4
  6
CONTINUOUS
 62
     3
100
AcDbLine
 10
565.6
 20
207.8
 30
0.0
 11
565.6
 21
202.1
 31
0.0
  0
LINE
  5
2FC
100
AcDbEntity
  8
LAY-4
  6
CONTINUOUS
 62
     3
100
AcDbLine
 10
592.1
 20
209.3
 30
0.0
 11
592.1
 21
208.55
 31
0.0
  0
LINE
  5
2FD
100
AcDbEntity
  8
LAY-4
  6
CONTINUOUS
 62
     3
100
AcDbLine
 10
566.6
 20
208.55
 30
0.0
 11
572.1
 21
208.55
 31
0.0
  0
LINE
  5
2FE
100
AcDbEntity
  8
LAY-4
  6
CONTINUOUS
 62
     3
100
AcDbLine
 10
567.1
 20
209.3
 30
0.0
 11
567.1
 21
208.55
 31
0.0
  0
LINE
  5
2FF
100
AcDbEntity
  8
LAY-4
  6
CONTINUOUS
 62
     3
100
AcDbLine
 10
566.6
 20
208.55
 30
0.0
 11
566.6
 21
207.8
 31
0.0
  0
LINE
  5
300
100
AcDbEntity
  8
LAY-4
  6
CONTINUOUS
 62
     3
100
AcDbLine
 10
592.6
 20
208.55
 30
0.0
 11
592.6
 21
207.8
 31
0.0
  0
ARC
  5
301
100
AcDbEntity
  8
LAY-4
  6
CONTINUOUS
 62
     3
100
AcDbCircle
 10
566.6
 20
195.500357
 30
0.0
 40
1.0
100
AcDbArc
 50
180.0
 51
269.927769
  0
LINE
  5
302
100
AcDbEntity
  8
LAY-4
  6
CONTINUOUS
 62
     3
100
AcDbLine
 10
569.6
 20
193.296573
 30
0.0
 11
571.6
 21
193.294051
 31
0.0
  0
LINE
  5
303
100
AcDbEntity
  8
LAY-4
  6
CONTINUOUS
 62
     3
100
AcDbLine
 10
569.6
 20
193.296573
 30
0.0
 11
570.6
 21
192.295311
 31
0.0
  0
LINE
  5
304
100
AcDbEntity
  8
LAY-4
  6
CONTINUOUS
 62
     3
100
AcDbLine
 10
569.6
 20
193.296573
 30
0.0
 11
569.6
 21
194.496574
 31
0.0
  0
LINE
  5
305
100
AcDbEntity
  8
LAY-4
  6
CONTINUOUS
 62
     3
100
AcDbLine
 10
570.6
 20
192.295311
 30
0.0
 11
571.804693
 21
192.293793
 31
0.0
  0
LINE
  5
306
100
AcDbEntity
  8
LAY-4
  6
CONTINUOUS
 62
     3
100
AcDbLine
 10
571.6
 20
202.1
 30
0.0
 11
571.6
 21
201.994058
 31
0.0
  0
LINE
  5
307
100
AcDbEntity
  8
LAY-4
  6
CONTINUOUS
 62
     3
100
AcDbLine
 10
587.6
 20
201.973887
 30
0.0
 11
587.6
 21
202.1
 31
0.0
  0
LINE
  5
308
100
AcDbEntity
  8
LAY-4
  6
CONTINUOUS
 62
     3
100
AcDbLine
 10
593.6
 20
202.1
 30
0.0
 11
593.6
 21
207.8
 31
0.0
  0
LINE
  5
309
100
AcDbEntity
  8
LAY-4
  6
CONTINUOUS
 62
     3
100
AcDbLine
 10
565.6
 20
207.8
 30
0.0
 11
572.1
 21
207.8
 31
0.0
  0
LINE
  5
30A
100
AcDbEntity
  8
LAY-4
  6
CONTINUOUS
 62
     3
100
AcDbLine
 10
565.6
 20
202.1
 30
0.0
 11
574.4
 21
202.1
 31
0.0
  0
LINE
  5
30B
100
AcDbEntity
  8
LAY-4
  6
CONTINUOUS
 62
     3
100
AcDbLine
 10
565.6
 20
201.000361
 30
0.0
 11
565.6
 21
195.500357
 31
0.0
  0
ARC
  5
30C
100
AcDbEntity
  8
LAY-4
  6
CONTINUOUS
 62
     3
100
AcDbCircle
 10
566.6
 20
201.000361
 30
0.0
 40
1.0
100
AcDbArc
 50
89.927769
 51
180.0
  0
LINE
  5
30D
100
AcDbEntity
  8
LAY-4
  6
CONTINUOUS
 62
     3
100
AcDbLine
 10
593.6
 20
201.000361
 30
0.0
 11
593.6
 21
196.4
 31
0.0
  0
ARC
  5
30E
100
AcDbEntity
  8
LAY-4
  6
CONTINUOUS
 62
     3
100
AcDbCircle
 10
592.6
 20
201.000361
 30
0.0
 40
1.0
100
AcDbArc
 50
0.0
 51
75.217532
  0
LINE
  5
30F
100
AcDbEntity
  8
LAY-4
  6
CONTINUOUS
 62
     3
100
AcDbLine
 10
566.601261
 20
202.00036
 30
0.0
 11
574.399862
 21
201.990529
 31
0.0
  0
LINE
  5
310
100
AcDbEntity
  8
LAY-4
  6
CONTINUOUS
 62
     3
100
AcDbLine
 10
566.598739
 20
194.500357
 30
0.0
 11
571.6
 21
194.494052
 31
0.0
  0
LINE
  5
311
100
AcDbEntity
  8
LAY-4
  6
CONTINUOUS
 62
     3
100
AcDbLine
 10
587.1
 20
208.55
 30
0.0
 11
592.6
 21
208.55
 31
0.0
  0
LINE
  5
312
100
AcDbEntity
  8
LAY-4
  6
CONTINUOUS
 62
     3
100
AcDbLine
 10
587.1
 20
207.8
 30
0.0
 11
593.6
 21
207.8
 31
0.0
  0
LINE
  5
313
100
AcDbEntity
  8
LAY-4
  6
CONTINUOUS
 62
     3
100
AcDbLine
 10
584.799845
 20
201.977418
 30
0.0
 11
592.85515
 21
201.967262
 31
0.0
  0
LINE
  5
314
100
AcDbEntity
  8
LAY-4
  6
CONTINUOUS
 62
     3
100
AcDbLine
 10
584.8
 20
202.1
 30
0.0
 11
593.6
 21
202.1
 31
0.0
  0
LINE
  5
315
100
AcDbEntity
  8
LAY-4
  6
CONTINUOUS
 62
     3
100
AcDbLine
 10
575.1
 20
222.289662
 30
0.0
 11
575.1
 21
220.896968
 31
0.0
  0
LINE
  5
316
100
AcDbEntity
  8
LAY-4
  6
CONTINUOUS
 62
     3
100
AcDbLine
 10
584.1
 20
222.278316
 30
0.0
 11
584.1
 21
220.896968
 31
0.0
  0
LINE
  5
317
100
AcDbEntity
  8
LAY-4
  6
CONTINUOUS
 62
     3
100
AcDbLine
 10
574.6
 20
221.790292
 30
0.0
 11
584.6
 21
221.777685
 31
0.0
  0
LINE
  5
318
100
AcDbEntity
  8
LAY-4
  6
CONTINUOUS
 62
     3
100
AcDbLine
 10
575.1
 20
222.289662
 30
0.0
 11
574.6
 21
221.790292
 31
0.0
  0
LINE
  5
319
100
AcDbEntity
  8
LAY-4
  6
CONTINUOUS
 62
     3
100
AcDbLine
 10
584.1
 20
222.278316
 30
0.0
 11
584.6
 21
221.777685
 31
0.0
  0
LINE
  5
31A
100
AcDbEntity
  8
LAY-4
  6
CONTINUOUS
 62
     3
100
AcDbLine
 10
584.6
 20
220.872119
 30
0.0
 11
584.6
 21
221.777685
 31
0.0
  0
LINE
  5
31B
100
AcDbEntity
  8
LAY-4
  6
CONTINUOUS
 62
     3
100
AcDbLine
 10
575.1
 20
222.289662
 30
0.0
 11
584.1
 21
222.278316
 31
0.0
  0
LINE
  5
31C
100
AcDbEntity
  8
LAY-4
  6
CONTINUOUS
 62
     3
100
AcDbLine
 10
574.6
 20
220.872119
 30
0.0
 11
574.6
 21
221.790292
 31
0.0
  0
LINE
  5
31D
100
AcDbEntity
  8
LAY-4
  6
CONTINUOUS
 62
     3
100
AcDbLine
 10
575.346215
 20
220.9
 30
0.0
 11
579.6
 21
220.9
 31
0.0
  0
ARC
  5
31E
100
AcDbEntity
  8
LAY-5
  6
CONTINUOUS
 62
     3
100
AcDbCircle
 10
247.7
 20
424.499992
 30
0.0
 40
9.0
100
AcDbArc
 50
140.560853
 51
141.057559
  0
ARC
  5
31F
100
AcDbEntity
  8
LAY-5
  6
CONTINUOUS
 62
     3
100
AcDbCircle
 10
247.7
 20
424.499992
 30
0.0
 40
9.0
100
AcDbArc
 50
140.560853
 51
141.057559
  0
LINE
  5
320
100
AcDbEntity
  8
LAY-5
  6
DASHDOT
 62
     1
100
AcDbLine
 10
230.1
 20
429.5
 30
0.0
 11
242.0
 21
429.5
 31
0.0
  0
LINE
  5
321
100
AcDbEntity
  8
LAY-5
  6
DASHDOT
 62
     1
100
AcDbLine
 10
154.1
 20
429.5
 30
0.0
 11
166.0
 21
429.5
 31
0.0
  0
LINE
  5
322
100
AcDbEntity
  8
LAY-5
  6
DASHDOT
 62
     1
100
AcDbLine
 10
233.9
 20
420.999992
 30
0.0
 11
264.678241
 21
420.999992
 31
0.0
  0
LINE
  5
323
100
AcDbEntity
  8
LAY-5
  6
DASHDOT
 62
     1
100
AcDbLine
 10
172.1
 20
419.5
 30
0.0
 11
184.0
 21
419.5
 31
0.0
  0
LINE
  5
324
100
AcDbEntity
  8
LAY-5
  6
DASHDOT
 62
     1
100
AcDbLine
 10
177.7
 20
425.899969
 30
0.0
 11
177.7
 21
412.699969
 31
0.0
  0
LINE
  5
325
100
AcDbEntity
  8
LAY-5
  6
DASHDOT
 62
     1
100
AcDbLine
 10
217.7
 20
425.899969
 30
0.0
 11
217.7
 21
412.699969
 31
0.0
  0
LINE
  5
326
100
AcDbEntity
  8
LAY-5
  6
DASHDOT
 62
     1
100
AcDbLine
 10
223.3
 20
419.5
 30
0.0
 11
211.4
 21
419.5
 31
0.0
  0
LINE
  5
327
100
AcDbEntity
  8
LAY-5
  6
DASHDOT
 62
     1
100
AcDbLine
 10
180.5
 20
367.5
 30
0.0
 11
215.3
 21
367.5
 31
0.0
  0
LINE
  5
328
100
AcDbEntity
  8
LAY-5
  6
DASHDOT
 62
     1
100
AcDbLine
 10
247.7
 20
399.9
 30
0.0
 11
247.7
 21
442.3
 31
0.0
  0
LINE
  5
329
100
AcDbEntity
  8
LAY-5
  6
DASHDOT
 62
     1
100
AcDbLine
 10
347.7
 20
400.5
 30
0.0
 11
347.7
 21
453.8
 31
0.0
  0
LINE
  5
32A
100
AcDbEntity
  8
LAY-5
  6
DASHDOT
 62
     1
100
AcDbLine
 10
179.1
 20
168.4
 30
0.0
 11
191.7
 21
168.4
 31
0.0
  0
LINE
  5
32B
100
AcDbEntity
  8
LAY-5
  6
DASHDOT
 62
     1
100
AcDbLine
 10
211.7
 20
182.6
 30
0.0
 11
211.7
 21
169.8
 31
0.0
  0
LINE
  5
32C
100
AcDbEntity
  8
LAY-5
  6
DASHDOT
 62
     1
100
AcDbLine
 10
205.5
 20
176.4
 30
0.0
 11
218.3
 21
176.4
 31
0.0
  0
LINE
  5
32D
100
AcDbEntity
  8
LAY-5
  6
DASHDOT
 62
     1
100
AcDbLine
 10
347.7
 20
182.6
 30
0.0
 11
347.7
 21
169.8
 31
0.0
  0
LINE
  5
32E
100
AcDbEntity
  8
LAY-5
  6
DASHDOT
 62
     1
100
AcDbLine
 10
341.5
 20
176.4
 30
0.0
 11
354.3
 21
176.4
 31
0.0
  0
LINE
  5
32F
100
AcDbEntity
  8
LAY-5
  6
DASHDOT
 62
     1
100
AcDbLine
 10
235.7
 20
237.4
 30
0.0
 11
235.7
 21
220.3
 31
0.0
  0
LINE
  5
330
100
AcDbEntity
  8
LAY-5
  6
DASHDOT
 62
     1
100
AcDbLine
 10
217.7
 20
237.4
 30
0.0
 11
217.7
 21
220.8
 31
0.0
  0
LINE
  5
331
100
AcDbEntity
  8
LAY-5
  6
DASHDOT
 62
     1
100
AcDbLine
 10
177.7
 20
237.4
 30
0.0
 11
177.7
 21
219.9
 31
0.0
  0
LINE
  5
332
100
AcDbEntity
  8
LAY-5
  6
DASHDOT
 62
     1
100
AcDbLine
 10
159.7
 20
237.4
 30
0.0
 11
159.7
 21
220.3
 31
0.0
  0
LINE
  5
333
100
AcDbEntity
  8
LAY-5
  6
DASHDOT
 62
     1
100
AcDbLine
 10
179.3
 20
151.4
 30
0.0
 11
373.6
 21
151.4
 31
0.0
  0
LINE
  5
334
100
AcDbEntity
  8
LAY-5
  6
DASHDOT
 62
     1
100
AcDbLine
 10
460.672994
 20
213.92
 30
0.0
 11
460.672994
 21
189.3
 31
0.0
  0
LINE
  5
335
100
AcDbEntity
  8
LAY-5
  6
DASHDOT
 62
     1
100
AcDbLine
 10
107.7
 20
279.7
 30
0.0
 11
107.7
 21
136.0
 31
0.0
  0
LINE
  5
336
100
AcDbEntity
  8
LAY-5
  6
DASHDOT
 62
     1
100
AcDbLine
 10
211.700031
 20
453.57
 30
0.0
 11
211.700031
 21
435.4
 31
0.0
  0
LINE
  5
337
100
AcDbEntity
  8
LAY-5
  6
DASHDOT
 62
     1
100
AcDbLine
 10
247.7
 20
204.8
 30
0.0
 11
247.7
 21
120.8
 31
0.0
  0
LINE
  5
338
100
AcDbEntity
  8
LAY-5
  6
DASHDOT
 62
     1
100
AcDbLine
 10
475.4
 20
365.853687
 30
0.0
 11
188.219897
 21
367.556202
 31
0.0
  0
LINE
  5
339
100
AcDbEntity
  8
LAY-5
  6
DASHDOT
 62
     1
100
AcDbLine
 10
475.4
 20
362.133684
 30
0.0
 11
234.391978
 21
424.440458
 31
0.0
  0
LINE
  5
33A
100
AcDbEntity
  8
LAY-5
  6
DASHDOT
 62
     1
100
AcDbLine
 10
457.120594
 20
352.2
 30
0.0
 11
464.514429
 21
380.8
 31
0.0
  0
LINE
  5
33B
100
AcDbEntity
  8
LAY-5
  6
DASHDOT
 62
     1
100
AcDbLine
 10
460.591532
 20
352.2
 30
0.0
 11
460.761084
 21
380.8
 31
0.0
  0
LINE
  5
33C
100
AcDbEntity
  8
LAY-5
  6
DASHDOT
 62
     1
100
AcDbLine
 10
197.7
 20
230.2
 30
0.0
 11
197.7
 21
189.6
 31
0.0
  0
LINE
  5
33D
100
AcDbEntity
  8
LAY-5
  6
DASHDOT
 62
     1
100
AcDbLine
 10
471.3
 20
204.639054
 30
0.0
 11
220.000953
 21
204.955861
 31
0.0
  0
LINE
  5
33E
100
AcDbEntity
  8
LAY-5
  6
DASHDOT
 62
     1
100
AcDbLine
 10
159.7
 20
435.6
 30
0.0
 11
159.7
 21
422.699969
 31
0.0
  0
LINE
  5
33F
100
AcDbEntity
  8
LAY-5
  6
DASHDOT
 62
     1
100
AcDbLine
 10
197.7
 20
440.1
 30
0.0
 11
197.7
 21
349.4
 31
0.0
  0
LINE
  5
340
100
AcDbEntity
  8
LAY-5
  6
DASHDOT
 62
     1
100
AcDbLine
 10
235.7
 20
435.5
 30
0.0
 11
235.7
 21
422.699969
 31
0.0
  0
LINE
  5
341
100
AcDbEntity
  8
LAY-5
  6
DASHDOT
 62
     1
100
AcDbLine
 10
645.1
 20
173.62757
 30
0.0
 11
645.1
 21
163.487219
 31
0.0
  0
LINE
  5
342
100
AcDbEntity
  8
LAY-5
  6
DASHDOT
 62
     1
100
AcDbLine
 10
621.1
 20
173.381964
 30
0.0
 11
621.1
 21
163.592505
 31
0.0
  0
LINE
  5
343
100
AcDbEntity
  8
LAY-5
  6
DASHDOT
 62
     1
100
AcDbLine
 10
633.1
 20
122.0
 30
0.0
 11
633.1
 21
206.7
 31
0.0
  0
LINE
  5
344
100
AcDbEntity
  8
LAY-5
  6
DASHDOT
 62
     1
100
AcDbLine
 10
625.966608
 20
168.4
 30
0.0
 11
615.931528
 21
168.4
 31
0.0
  0
LINE
  5
345
100
AcDbEntity
  8
LAY-5
  6
DASHDOT
 62
     1
100
AcDbLine
 10
649.826235
 20
168.4
 30
0.0
 11
640.14203
 21
168.4
 31
0.0
  0
LINE
  5
346
100
AcDbEntity
  8
LAY-5
  6
DASHDOT
 62
     1
100
AcDbLine
 10
641.6
 20
219.7
 30
0.0
 11
641.6
 21
237.0
 31
0.0
  0
LINE
  5
347
100
AcDbEntity
  8
LAY-5
  6
DASHDOT
 62
     1
100
AcDbLine
 10
612.7
 20
176.4
 30
0.0
 11
665.67
 21
176.4
 31
0.0
  0
LINE
  5
348
100
AcDbEntity
  8
LAY-5
  6
DASHDOT
 62
     1
100
AcDbLine
 10
610.999994
 20
151.4
 30
0.0
 11
655.3
 21
151.4
 31
0.0
  0
LINE
  5
349
100
AcDbEntity
  8
LAY-5
  6
DASHDOT
 62
     1
100
AcDbLine
 10
631.6
 20
219.7
 30
0.0
 11
631.6
 21
237.0
 31
0.0
  0
LINE
  5
34A
100
AcDbEntity
  8
LAY-5
  6
DASHDOT
 62
     1
100
AcDbLine
 10
579.6
 20
223.9
 30
0.0
 11
579.6
 21
189.3
 31
0.0
  0
LINE
  5
34B
100
AcDbEntity
  8
LAY-5
  6
DASHDOT
 62
     1
100
AcDbLine
 10
713.6
 20
263.267994
 30
0.0
 11
713.6
 21
215.167994
 31
0.0
  0
LINE
  5
34C
100
AcDbEntity
  8
LAY-5
  6
DASHDOT
 62
     1
100
AcDbLine
 10
85.5
 20
501.5
 30
0.0
 11
156.2
 21
501.5
 31
0.0
  0
LINE
  5
34D
100
AcDbEntity
  8
LAY-5
  6
DASHDOT
 62
     1
100
AcDbLine
 10
107.7
 20
522.4
 30
0.0
 11
107.7
 21
444.4
 31
0.0
  0
LINE
  5
34E
100
AcDbEntity
  8
LAY-6
  6
CONTINUOUS
 62
     1
100
AcDbLine
 10
632.6
 20
183.4
 30
0.0
 11
601.1
 21
183.4
 31
0.0
  0
LINE
  5
34F
100
AcDbEntity
  8
LAY-6
  6
CONTINUOUS
 62
     1
100
AcDbLine
 10
622.760248
 20
125.4
 30
0.0
 11
601.1
 21
125.4
 31
0.0
  0
TEXT
  5
350
100
AcDbEntity
  8
LAY-6
  6
CONTINUOUS
 62
     2
100
AcDbText
 10
601.6
 20
150.4
 30
0.0
 40
5.0
  1
５８
 50
90.0
 41
0.672
  7
EXCADSTD
 72
     5
 11
601.6
 21
157.7328
 31
0.0
100
AcDbText
  0
LINE
  5
351
100
AcDbEntity
  8
LAY-6
  6
CONTINUOUS
 62
     1
100
AcDbLine
 10
602.1
 20
183.4
 30
0.0
 11
602.1
 21
125.4
 31
0.0
  0
LINE
  5
352
100
AcDbEntity
  8
LAY-6
  6
CONTINUOUS
 62
     1
100
AcDbLine
 10
602.433333
 20
181.4
 30
0.0
 11
602.1
 21
183.4
 31
0.0
  0
LINE
  5
353
100
AcDbEntity
  8
LAY-6
  6
CONTINUOUS
 62
     1
100
AcDbLine
 10
602.1
 20
183.4
 30
0.0
 11
601.766667
 21
181.4
 31
0.0
  0
LINE
  5
354
100
AcDbEntity
  8
LAY-6
  6
CONTINUOUS
 62
     1
100
AcDbLine
 10
601.766667
 20
127.4
 30
0.0
 11
602.1
 21
125.4
 31
0.0
  0
LINE
  5
355
100
AcDbEntity
  8
LAY-6
  6
CONTINUOUS
 62
     1
100
AcDbLine
 10
602.1
 20
125.4
 30
0.0
 11
602.433333
 21
127.4
 31
0.0
  0
LINE
  5
356
100
AcDbEntity
  8
LAY-6
  6
CONTINUOUS
 62
     1
100
AcDbLine
 10
648.6
 20
226.4
 30
0.0
 11
672.6
 21
226.4
 31
0.0
  0
LINE
  5
357
100
AcDbEntity
  8
LAY-6
  6
CONTINUOUS
 62
     1
100
AcDbLine
 10
665.1
 20
176.4
 30
0.0
 11
672.6
 21
176.4
 31
0.0
  0
TEXT
  5
358
100
AcDbEntity
  8
LAY-6
  6
CONTINUOUS
 62
     2
100
AcDbText
 10
671.1
 20
197.4
 30
0.0
 40
5.0
  1
５０
 50
90.0
 41
0.672
  7
EXCADSTD
 72
     5
 11
671.1
 21
204.7328
 31
0.0
100
AcDbText
  0
LINE
  5
359
100
AcDbEntity
  8
LAY-6
  6
CONTINUOUS
 62
     1
100
AcDbLine
 10
671.6
 20
226.4
 30
0.0
 11
671.6
 21
176.4
 31
0.0
  0
LINE
  5
35A
100
AcDbEntity
  8
LAY-6
  6
CONTINUOUS
 62
     1
100
AcDbLine
 10
671.933333
 20
224.4
 30
0.0
 11
671.6
 21
226.4
 31
0.0
  0
LINE
  5
35B
100
AcDbEntity
  8
LAY-6
  6
CONTINUOUS
 62
     1
100
AcDbLine
 10
671.6
 20
226.4
 30
0.0
 11
671.266667
 21
224.4
 31
0.0
  0
LINE
  5
35C
100
AcDbEntity
  8
LAY-6
  6
CONTINUOUS
 62
     1
100
AcDbLine
 10
671.266667
 20
178.4
 30
0.0
 11
671.6
 21
176.4
 31
0.0
  0
LINE
  5
35D
100
AcDbEntity
  8
LAY-6
  6
CONTINUOUS
 62
     1
100
AcDbLine
 10
671.6
 20
176.4
 30
0.0
 11
671.933333
 21
178.4
 31
0.0
  0
LINE
  5
35E
100
AcDbEntity
  8
LAY-6
  6
CONTINUOUS
 62
     1
100
AcDbLine
 10
614.6
 20
140.579489
 30
0.0
 11
614.6
 21
111.3
 31
0.0
  0
LINE
  5
35F
100
AcDbEntity
  8
LAY-6
  6
CONTINUOUS
 62
     1
100
AcDbLine
 10
651.6
 20
139.4
 30
0.0
 11
651.6
 21
111.3
 31
0.0
  0
TEXT
  5
360
100
AcDbEntity
  8
LAY-6
  6
CONTINUOUS
 62
     2
100
AcDbText
 10
629.1
 20
112.8
 30
0.0
 40
5.0
  1
３７
 41
0.672
  7
EXCADSTD
 72
     5
 11
636.4328
 21
112.8
 31
0.0
100
AcDbText
  0
LINE
  5
361
100
AcDbEntity
  8
LAY-6
  6
CONTINUOUS
 62
     1
100
AcDbLine
 10
614.6
 20
112.3
 30
0.0
 11
651.6
 21
112.3
 31
0.0
  0
LINE
  5
362
100
AcDbEntity
  8
LAY-6
  6
CONTINUOUS
 62
     1
100
AcDbLine
 10
616.6
 20
112.633333
 30
0.0
 11
614.6
 21
112.3
 31
0.0
  0
LINE
  5
363
100
AcDbEntity
  8
LAY-6
  6
CONTINUOUS
 62
     1
100
AcDbLine
 10
614.6
 20
112.3
 30
0.0
 11
616.6
 21
111.966667
 31
0.0
  0
LINE
  5
364
100
AcDbEntity
  8
LAY-6
  6
CONTINUOUS
 62
     1
100
AcDbLine
 10
649.6
 20
111.966667
 30
0.0
 11
651.6
 21
112.3
 31
0.0
  0
LINE
  5
365
100
AcDbEntity
  8
LAY-6
  6
CONTINUOUS
 62
     1
100
AcDbLine
 10
651.6
 20
112.3
 30
0.0
 11
649.6
 21
112.633333
 31
0.0
  0
TEXT
  5
366
100
AcDbEntity
  8
LAY-6
  6
CONTINUOUS
 62
     2
100
AcDbText
 10
557.9
 20
118.3
 30
0.0
 40
5.0
  1
第一速度調整バルブ
 41
0.672
  7
EXCADSTD
 72
     5
 11
593.9
 21
118.3
 31
0.0
100
AcDbText
  0
POLYLINE
  5
367
100
AcDbEntity
  8
LAY-6
  6
CONTINUOUS
 62
     1
100
AcDb2dPolyline
 66
     1
 10
0.0
 20
0.0
 30
0.0
 70
   128
  0
VERTEX
  5
368
100
AcDbEntity
  8
LAY-6
  6
CONTINUOUS
 62
     1
100
AcDbVertex
100
AcDb2dVertex
 10
618.969866
 20
165.622862
 30
0.0
  0
VERTEX
  5
369
100
AcDbEntity
  8
LAY-6
  6
CONTINUOUS
 62
     1
100
AcDbVertex
100
AcDb2dVertex
 10
593.9
 20
118.3
 30
0.0
  0
VERTEX
  5
36A
100
AcDbEntity
  8
LAY-6
  6
CONTINUOUS
 62
     1
100
AcDbVertex
100
AcDb2dVertex
 10
557.4
 20
118.3
 30
0.0
  0
SEQEND
  5
36B
100
AcDbEntity
  8
LAY-6
  6
CONTINUOUS
 62
     1
  0
LINE
  5
36C
100
AcDbEntity
  8
LAY-6
  6
CONTINUOUS
 62
     1
100
AcDbLine
 10
618.32816
 20
163.699499
 30
0.0
 11
618.969866
 21
165.622862
 31
0.0
  0
LINE
  5
36D
100
AcDbEntity
  8
LAY-6
  6
CONTINUOUS
 62
     1
100
AcDbLine
 10
618.969866
 20
165.622862
 30
0.0
 11
617.739053
 21
164.011586
 31
0.0
  0
TEXT
  5
36E
100
AcDbEntity
  8
LAY-6
  6
CONTINUOUS
 62
     2
100
AcDbText
 10
661.8
 20
137.7
 30
0.0
 40
5.0
  1
第二速度調整バルブ
 41
0.672
  7
EXCADSTD
 72
     5
 11
697.8
 21
137.7
 31
0.0
100
AcDbText
  0
TEXT
  5
36F
100
AcDbEntity
  8
LAY-6
  6
CONTINUOUS
 62
     2
100
AcDbText
 10
696.1
 20
159.0
 30
0.0
 40
5.0
  1
（スチール扉）２－Ｍ６×５０皿小ネジ（Ｄ＝１０）
 41
0.672
  7
EXCADSTD
 72
     5
 11
792.1
 21
159.0
 31
0.0
100
AcDbText
  0
POLYLINE
  5
370
100
AcDbEntity
  8
LAY-6
  6
CONTINUOUS
 62
     1
100
AcDb2dPolyline
 66
     1
 10
0.0
 20
0.0
 30
0.0
 70
   128
  0
VERTEX
  5
371
100
AcDbEntity
  8
LAY-6
  6
CONTINUOUS
 62
     1
100
AcDbVertex
100
AcDb2dVertex
 10
664.6
 20
176.4
 30
0.0
  0
VERTEX
  5
372
100
AcDbEntity
  8
LAY-6
  6
CONTINUOUS
 62
     1
100
AcDbVertex
100
AcDb2dVertex
 10
696.1
 20
159.0
 30
0.0
  0
VERTEX
  5
373
100
AcDbEntity
  8
LAY-6
  6
CONTINUOUS
 62
     1
100
AcDbVertex
100
AcDb2dVertex
 10
791.5
 20
159.0
 30
0.0
  0
SEQEND
  5
374
100
AcDbEntity
  8
LAY-6
  6
CONTINUOUS
 62
     1
  0
LINE
  5
375
100
AcDbEntity
  8
LAY-6
  6
CONTINUOUS
 62
     1
100
AcDbLine
 10
666.511841
 20
175.724742
 30
0.0
 11
664.6
 21
176.4
 31
0.0
  0
LINE
  5
376
100
AcDbEntity
  8
LAY-6
  6
CONTINUOUS
 62
     1
100
AcDbLine
 10
664.6
 20
176.4
 30
0.0
 11
666.189496
 21
175.141186
 31
0.0
  0
TEXT
  5
377
100
AcDbEntity
  8
LAY-6
  6
CONTINUOUS
 62
     2
100
AcDbText
 10
664.8
 20
276.1
 30
0.0
 40
5.0
  1
４－Ｍ５×１２丸皿小ネジ（Ｐ＝０．８）
 41
0.672
  7
EXCADSTD
 72
     5
 11
740.8
 21
276.1
 31
0.0
100
AcDbText
  0
POLYLINE
  5
378
100
AcDbEntity
  8
LAY-6
  6
CONTINUOUS
 62
     1
100
AcDb2dPolyline
 66
     1
 10
0.0
 20
0.0
 30
0.0
 70
   128
  0
VERTEX
  5
379
100
AcDbEntity
  8
LAY-6
  6
CONTINUOUS
 62
     1
100
AcDbVertex
100
AcDb2dVertex
 10
654.8
 20
187.5
 30
0.0
  0
VERTEX
  5
37A
100
AcDbEntity
  8
LAY-6
  6
CONTINUOUS
 62
     1
100
AcDbVertex
100
AcDb2dVertex
 10
696.2
 20
202.9
 30
0.0
  0
VERTEX
  5
37B
100
AcDbEntity
  8
LAY-6
  6
CONTINUOUS
 62
     1
100
AcDbVertex
100
AcDb2dVertex
 10
741.8
 20
202.9
 30
0.0
  0
SEQEND
  5
37C
100
AcDbEntity
  8
LAY-6
  6
CONTINUOUS
 62
     1
  0
LINE
  5
37D
100
AcDbEntity
  8
LAY-6
  6
CONTINUOUS
 62
     1
100
AcDbLine
 10
656.558299
 20
188.509701
 30
0.0
 11
654.8
 21
187.5
 31
0.0
  0
LINE
  5
37E
100
AcDbEntity
  8
LAY-6
  6
CONTINUOUS
 62
     1
100
AcDbLine
 10
654.8
 20
187.5
 30
0.0
 11
656.790726
 21
187.884864
 31
0.0
  0
LINE
  5
37F
100
AcDbEntity
  8
LAY-6
  6
CONTINUOUS
 62
     1
100
AcDbLine
 10
159.7
 20
235.1
 30
0.0
 11
159.7
 21
271.1
 31
0.0
  0
LINE
  5
380
100
AcDbEntity
  8
LAY-6
  6
CONTINUOUS
 62
     1
100
AcDbLine
 10
177.7
 20
235.4
 30
0.0
 11
177.7
 21
271.1
 31
0.0
  0
TEXT
  5
381
100
AcDbEntity
  8
LAY-6
  6
CONTINUOUS
 62
     2
100
AcDbText
 10
164.7
 20
270.6
 30
0.0
 40
5.0
  1
１８
 41
0.672
  7
EXCADSTD
 72
     5
 11
172.0328
 21
270.6
 31
0.0
100
AcDbText
  0
LINE
  5
382
100
AcDbEntity
  8
LAY-6
  6
CONTINUOUS
 62
     1
100
AcDbLine
 10
159.7
 20
270.1
 30
0.0
 11
177.7
 21
270.1
 31
0.0
  0
LINE
  5
383
100
AcDbEntity
  8
LAY-6
  6
CONTINUOUS
 62
     1
100
AcDbLine
 10
161.7
 20
270.433333
 30
0.0
 11
159.7
 21
270.1
 31
0.0
  0
LINE
  5
384
100
AcDbEntity
  8
LAY-6
  6
CONTINUOUS
 62
     1
100
AcDbLine
 10
159.7
 20
270.1
 30
0.0
 11
161.7
 21
269.766667
 31
0.0
  0
LINE
  5
385
100
AcDbEntity
  8
LAY-6
  6
CONTINUOUS
 62
     1
100
AcDbLine
 10
175.7
 20
269.766667
 30
0.0
 11
177.7
 21
270.1
 31
0.0
  0
LINE
  5
386
100
AcDbEntity
  8
LAY-6
  6
CONTINUOUS
 62
     1
100
AcDbLine
 10
177.7
 20
270.1
 30
0.0
 11
175.7
 21
270.433333
 31
0.0
  0
LINE
  5
387
100
AcDbEntity
  8
LAY-6
  6
CONTINUOUS
 62
     1
100
AcDbLine
 10
217.7
 20
235.4
 30
0.0
 11
217.7
 21
271.1
 31
0.0
  0
TEXT
  5
388
100
AcDbEntity
  8
LAY-6
  6
CONTINUOUS
 62
     2
100
AcDbText
 10
193.7
 20
270.6
 30
0.0
 40
5.0
  1
４０
 41
0.672
  7
EXCADSTD
 72
     5
 11
201.0328
 21
270.6
 31
0.0
100
AcDbText
  0
LINE
  5
389
100
AcDbEntity
  8
LAY-6
  6
CONTINUOUS
 62
     1
100
AcDbLine
 10
177.7
 20
270.1
 30
0.0
 11
217.7
 21
270.1
 31
0.0
  0
LINE
  5
38A
100
AcDbEntity
  8
LAY-6
  6
CONTINUOUS
 62
     1
100
AcDbLine
 10
179.7
 20
270.433333
 30
0.0
 11
177.7
 21
270.1
 31
0.0
  0
LINE
  5
38B
100
AcDbEntity
  8
LAY-6
  6
CONTINUOUS
 62
     1
100
AcDbLine
 10
177.7
 20
270.1
 30
0.0
 11
179.7
 21
269.766667
 31
0.0
  0
LINE
  5
38C
100
AcDbEntity
  8
LAY-6
  6
CONTINUOUS
 62
     1
100
AcDbLine
 10
215.7
 20
269.766667
 30
0.0
 11
217.7
 21
270.1
 31
0.0
  0
LINE
  5
38D
100
AcDbEntity
  8
LAY-6
  6
CONTINUOUS
 62
     1
100
AcDbLine
 10
217.7
 20
270.1
 30
0.0
 11
215.7
 21
270.433333
 31
0.0
  0
LINE
  5
38E
100
AcDbEntity
  8
LAY-6
  6
CONTINUOUS
 62
     1
100
AcDbLine
 10
107.7
 20
263.9
 30
0.0
 11
107.7
 21
279.0
 31
0.0
  0
LINE
  5
38F
100
AcDbEntity
  8
LAY-6
  6
CONTINUOUS
 62
     1
100
AcDbLine
 10
159.7
 20
247.6
 30
0.0
 11
159.7
 21
279.0
 31
0.0
  0
TEXT
  5
390
100
AcDbEntity
  8
LAY-6
  6
CONTINUOUS
 62
     2
100
AcDbText
 10
129.7
 20
278.5
 30
0.0
 40
5.0
  1
５２
 41
0.672
  7
EXCADSTD
 72
     5
 11
137.0328
 21
278.5
 31
0.0
100
AcDbText
  0
LINE
  5
391
100
AcDbEntity
  8
LAY-6
  6
CONTINUOUS
 62
     1
100
AcDbLine
 10
107.7
 20
278.0
 30
0.0
 11
159.7
 21
278.0
 31
0.0
  0
LINE
  5
392
100
AcDbEntity
  8
LAY-6
  6
CONTINUOUS
 62
     1
100
AcDbLine
 10
109.7
 20
278.333333
 30
0.0
 11
107.7
 21
278.0
 31
0.0
  0
LINE
  5
393
100
AcDbEntity
  8
LAY-6
  6
CONTINUOUS
 62
     1
100
AcDbLine
 10
107.7
 20
278.0
 30
0.0
 11
109.7
 21
277.666667
 31
0.0
  0
LINE
  5
394
100
AcDbEntity
  8
LAY-6
  6
CONTINUOUS
 62
     1
100
AcDbLine
 10
157.7
 20
277.666667
 30
0.0
 11
159.7
 21
278.0
 31
0.0
  0
LINE
  5
395
100
AcDbEntity
  8
LAY-6
  6
CONTINUOUS
 62
     1
100
AcDbLine
 10
159.7
 20
278.0
 30
0.0
 11
157.7
 21
278.333333
 31
0.0
  0
LINE
  5
396
100
AcDbEntity
  8
LAY-6
  6
CONTINUOUS
 62
     1
100
AcDbLine
 10
235.7
 20
235.4
 30
0.0
 11
235.7
 21
279.0
 31
0.0
  0
TEXT
  5
397
100
AcDbEntity
  8
LAY-6
  6
CONTINUOUS
 62
     2
100
AcDbText
 10
193.7
 20
278.5
 30
0.0
 40
5.0
  1
７６
 41
0.672
  7
EXCADSTD
 72
     5
 11
201.0328
 21
278.5
 31
0.0
100
AcDbText
  0
LINE
  5
398
100
AcDbEntity
  8
LAY-6
  6
CONTINUOUS
 62
     1
100
AcDbLine
 10
159.7
 20
278.0
 30
0.0
 11
235.7
 21
278.0
 31
0.0
  0
LINE
  5
399
100
AcDbEntity
  8
LAY-6
  6
CONTINUOUS
 62
     1
100
AcDbLine
 10
161.7
 20
278.333333
 30
0.0
 11
159.7
 21
278.0
 31
0.0
  0
LINE
  5
39A
100
AcDbEntity
  8
LAY-6
  6
CONTINUOUS
 62
     1
100
AcDbLine
 10
159.7
 20
278.0
 30
0.0
 11
161.7
 21
277.666667
 31
0.0
  0
LINE
  5
39B
100
AcDbEntity
  8
LAY-6
  6
CONTINUOUS
 62
     1
100
AcDbLine
 10
233.7
 20
277.666667
 30
0.0
 11
235.7
 21
278.0
 31
0.0
  0
LINE
  5
39C
100
AcDbEntity
  8
LAY-6
  6
CONTINUOUS
 62
     1
100
AcDbLine
 10
235.7
 20
278.0
 30
0.0
 11
233.7
 21
278.333333
 31
0.0
  0
LINE
  5
39D
100
AcDbEntity
  8
LAY-6
  6
CONTINUOUS
 62
     1
100
AcDbLine
 10
205.0
 20
176.4
 30
0.0
 11
142.4
 21
176.4
 31
0.0
  0
TEXT
  5
39E
100
AcDbEntity
  8
LAY-6
  6
CONTINUOUS
 62
     2
100
AcDbText
 10
142.9
 20
197.4
 30
0.0
 40
5.0
  1
５０
 50
90.0
 41
0.672
  7
EXCADSTD
 72
     5
 11
142.9
 21
204.7328
 31
0.0
100
AcDbText
  0
LINE
  5
39F
100
AcDbEntity
  8
LAY-6
  6
CONTINUOUS
 62
     1
100
AcDbLine
 10
143.4
 20
176.4
 30
0.0
 11
143.4
 21
226.4
 31
0.0
  0
LINE
  5
3A0
100
AcDbEntity
  8
LAY-6
  6
CONTINUOUS
 62
     1
100
AcDbLine
 10
143.066667
 20
178.4
 30
0.0
 11
143.4
 21
176.4
 31
0.0
  0
LINE
  5
3A1
100
AcDbEntity
  8
LAY-6
  6
CONTINUOUS
 62
     1
100
AcDbLine
 10
143.4
 20
176.4
 30
0.0
 11
143.733333
 21
178.4
 31
0.0
  0
LINE
  5
3A2
100
AcDbEntity
  8
LAY-6
  6
CONTINUOUS
 62
     1
100
AcDbLine
 10
143.733333
 20
224.4
 30
0.0
 11
143.4
 21
226.4
 31
0.0
  0
LINE
  5
3A3
100
AcDbEntity
  8
LAY-6
  6
CONTINUOUS
 62
     1
100
AcDbLine
 10
143.4
 20
226.4
 30
0.0
 11
143.066667
 21
224.4
 31
0.0
  0
LINE
  5
3A4
100
AcDbEntity
  8
LAY-6
  6
CONTINUOUS
 62
     1
100
AcDbLine
 10
107.7
 20
160.6
 30
0.0
 11
107.7
 21
162.2
 31
0.0
  0
LINE
  5
3A5
100
AcDbEntity
  8
LAY-6
  6
CONTINUOUS
 62
     1
100
AcDbLine
 10
211.7
 20
170.9
 30
0.0
 11
211.7
 21
160.2
 31
0.0
  0
TEXT
  5
3A6
100
AcDbEntity
  8
LAY-6
  6
CONTINUOUS
 62
     2
100
AcDbText
 10
153.7
 20
161.7
 30
0.0
 40
5.0
  1
１０４
 41
0.672
  7
EXCADSTD
 72
     5
 11
165.7
 21
161.7
 31
0.0
100
AcDbText
  0
LINE
  5
3A7
100
AcDbEntity
  8
LAY-6
  6
CONTINUOUS
 62
     1
100
AcDbLine
 10
107.7
 20
161.2
 30
0.0
 11
211.7
 21
161.2
 31
0.0
  0
LINE
  5
3A8
100
AcDbEntity
  8
LAY-6
  6
CONTINUOUS
 62
     1
100
AcDbLine
 10
109.7
 20
161.533333
 30
0.0
 11
107.7
 21
161.2
 31
0.0
  0
LINE
  5
3A9
100
AcDbEntity
  8
LAY-6
  6
CONTINUOUS
 62
     1
100
AcDbLine
 10
107.7
 20
161.2
 30
0.0
 11
109.7
 21
160.866667
 31
0.0
  0
LINE
  5
3AA
100
AcDbEntity
  8
LAY-6
  6
CONTINUOUS
 62
     1
100
AcDbLine
 10
209.7
 20
160.866667
 30
0.0
 11
211.7
 21
161.2
 31
0.0
  0
LINE
  5
3AB
100
AcDbEntity
  8
LAY-6
  6
CONTINUOUS
 62
     1
100
AcDbLine
 10
211.7
 20
161.2
 30
0.0
 11
209.7
 21
161.533333
 31
0.0
  0
LINE
  5
3AC
100
AcDbEntity
  8
LAY-6
  6
CONTINUOUS
 62
     1
100
AcDbLine
 10
347.7
 20
170.9
 30
0.0
 11
347.7
 21
160.2
 31
0.0
  0
TEXT
  5
3AD
100
AcDbEntity
  8
LAY-6
  6
CONTINUOUS
 62
     2
100
AcDbText
 10
273.7
 20
161.7
 30
0.0
 40
5.0
  1
１３６
 41
0.672
  7
EXCADSTD
 72
     5
 11
285.7
 21
161.7
 31
0.0
100
AcDbText
  0
LINE
  5
3AE
100
AcDbEntity
  8
LAY-6
  6
CONTINUOUS
 62
     1
100
AcDbLine
 10
211.7
 20
161.2
 30
0.0
 11
347.7
 21
161.2
 31
0.0
  0
LINE
  5
3AF
100
AcDbEntity
  8
LAY-6
  6
CONTINUOUS
 62
     1
100
AcDbLine
 10
213.7
 20
161.533333
 30
0.0
 11
211.7
 21
161.2
 31
0.0
  0
LINE
  5
3B0
100
AcDbEntity
  8
LAY-6
  6
CONTINUOUS
 62
     1
100
AcDbLine
 10
211.7
 20
161.2
 30
0.0
 11
213.7
 21
160.866667
 31
0.0
  0
LINE
  5
3B1
100
AcDbEntity
  8
LAY-6
  6
CONTINUOUS
 62
     1
100
AcDbLine
 10
345.7
 20
160.866667
 30
0.0
 11
347.7
 21
161.2
 31
0.0
  0
LINE
  5
3B2
100
AcDbEntity
  8
LAY-6
  6
CONTINUOUS
 62
     1
100
AcDbLine
 10
347.7
 20
161.2
 30
0.0
 11
345.7
 21
161.533333
 31
0.0
  0
LINE
  5
3B3
100
AcDbEntity
  8
LAY-6
  6
CONTINUOUS
 62
     1
100
AcDbLine
 10
370.2
 20
183.4
 30
0.0
 11
381.8
 21
183.4
 31
0.0
  0
LINE
  5
3B4
100
AcDbEntity
  8
LAY-6
  6
CONTINUOUS
 62
     1
100
AcDbLine
 10
370.2
 20
125.4
 30
0.0
 11
381.8
 21
125.4
 31
0.0
  0
TEXT
  5
3B5
100
AcDbEntity
  8
LAY-6
  6
CONTINUOUS
 62
     2
100
AcDbText
 10
380.3
 20
150.4
 30
0.0
 40
5.0
  1
５８
 50
90.0
 41
0.672
  7
EXCADSTD
 72
     5
 11
380.3
 21
157.7328
 31
0.0
100
AcDbText
  0
LINE
  5
3B6
100
AcDbEntity
  8
LAY-6
  6
CONTINUOUS
 62
     1
100
AcDbLine
 10
380.8
 20
183.4
 30
0.0
 11
380.8
 21
125.4
 31
0.0
  0
LINE
  5
3B7
100
AcDbEntity
  8
LAY-6
  6
CONTINUOUS
 62
     1
100
AcDbLine
 10
381.133333
 20
181.4
 30
0.0
 11
380.8
 21
183.4
 31
0.0
  0
LINE
  5
3B8
100
AcDbEntity
  8
LAY-6
  6
CONTINUOUS
 62
     1
100
AcDbLine
 10
380.8
 20
183.4
 30
0.0
 11
380.466667
 21
181.4
 31
0.0
  0
LINE
  5
3B9
100
AcDbEntity
  8
LAY-6
  6
CONTINUOUS
 62
     1
100
AcDbLine
 10
380.466667
 20
127.4
 30
0.0
 11
380.8
 21
125.4
 31
0.0
  0
LINE
  5
3BA
100
AcDbEntity
  8
LAY-6
  6
CONTINUOUS
 62
     1
100
AcDbLine
 10
380.8
 20
125.4
 30
0.0
 11
381.133333
 21
127.4
 31
0.0
  0
LINE
  5
3BB
100
AcDbEntity
  8
LAY-6
  6
CONTINUOUS
 62
     1
100
AcDbLine
 10
181.7
 20
124.9
 30
0.0
 11
181.7
 21
114.6
 31
0.0
  0
LINE
  5
3BC
100
AcDbEntity
  8
LAY-6
  6
CONTINUOUS
 62
     1
100
AcDbLine
 10
369.7
 20
124.4
 30
0.0
 11
369.7
 21
114.6
 31
0.0
  0
TEXT
  5
3BD
100
AcDbEntity
  8
LAY-6
  6
CONTINUOUS
 62
     2
100
AcDbText
 10
269.7
 20
116.1
 30
0.0
 40
5.0
  1
１８８
 41
0.672
  7
EXCADSTD
 72
     5
 11
281.7
 21
116.1
 31
0.0
100
AcDbText
  0
LINE
  5
3BE
100
AcDbEntity
  8
LAY-6
  6
CONTINUOUS
 62
     1
100
AcDbLine
 10
181.7
 20
115.6
 30
0.0
 11
369.7
 21
115.6
 31
0.0
  0
LINE
  5
3BF
100
AcDbEntity
  8
LAY-6
  6
CONTINUOUS
 62
     1
100
AcDbLine
 10
183.7
 20
115.933333
 30
0.0
 11
181.7
 21
115.6
 31
0.0
  0
LINE
  5
3C0
100
AcDbEntity
  8
LAY-6
  6
CONTINUOUS
 62
     1
100
AcDbLine
 10
181.7
 20
115.6
 30
0.0
 11
183.7
 21
115.266667
 31
0.0
  0
LINE
  5
3C1
100
AcDbEntity
  8
LAY-6
  6
CONTINUOUS
 62
     1
100
AcDbLine
 10
367.7
 20
115.266667
 30
0.0
 11
369.7
 21
115.6
 31
0.0
  0
LINE
  5
3C2
100
AcDbEntity
  8
LAY-6
  6
CONTINUOUS
 62
     1
100
AcDbLine
 10
369.7
 20
115.6
 30
0.0
 11
367.7
 21
115.933333
 31
0.0
  0
TEXT
  5
3C3
100
AcDbEntity
  8
LAY-6
  6
CONTINUOUS
 62
     2
100
AcDbText
 10
166.4
 20
102.8
 30
0.0
 40
5.0
  1
閉扉速度調整バルブ
 41
0.672
  7
EXCADSTD
 72
     5
 11
202.4
 21
102.8
 31
0.0
100
AcDbText
  0
POLYLINE
  5
3C4
100
AcDbEntity
  8
LAY-6
  6
CONTINUOUS
 62
     1
100
AcDb2dPolyline
 66
     1
 10
0.0
 20
0.0
 30
0.0
 70
   128
  0
VERTEX
  5
3C5
100
AcDbEntity
  8
LAY-6
  6
CONTINUOUS
 62
     1
100
AcDbVertex
100
AcDb2dVertex
 10
181.7
 20
168.4
 30
0.0
  0
VERTEX
  5
3C6
100
AcDbEntity
  8
LAY-6
  6
CONTINUOUS
 62
     1
100
AcDbVertex
100
AcDb2dVertex
 10
163.4
 20
102.8
 30
0.0
  0
VERTEX
  5
3C7
100
AcDbEntity
  8
LAY-6
  6
CONTINUOUS
 62
     1
100
AcDbVertex
100
AcDb2dVertex
 10
202.8
 20
102.8
 30
0.0
  0
SEQEND
  5
3C8
100
AcDbEntity
  8
LAY-6
  6
CONTINUOUS
 62
     1
  0
LINE
  5
3C9
100
AcDbEntity
  8
LAY-6
  6
CONTINUOUS
 62
     1
100
AcDbLine
 10
181.483666
 20
166.383986
 30
0.0
 11
181.7
 21
168.4
 31
0.0
  0
LINE
  5
3CA
100
AcDbEntity
  8
LAY-6
  6
CONTINUOUS
 62
     1
100
AcDbLine
 10
181.7
 20
168.4
 30
0.0
 11
180.841518
 21
166.563122
 31
0.0
  0
LINE
  5
3CB
100
AcDbEntity
  8
LAY-6
  6
CONTINUOUS
 62
     1
100
AcDbLine
 10
107.7
 20
502.5
 30
0.0
 11
107.7
 21
511.0
 31
0.0
  0
LINE
  5
3CC
100
AcDbEntity
  8
LAY-6
  6
CONTINUOUS
 62
     1
100
AcDbLine
 10
247.7
 20
440.0
 30
0.0
 11
247.7
 21
511.0
 31
0.0
  0
TEXT
  5
3CD
100
AcDbEntity
  8
LAY-6
  6
CONTINUOUS
 62
     2
100
AcDbText
 10
171.7
 20
510.5
 30
0.0
 40
5.0
  1
１４０
 41
0.672
  7
EXCADSTD
 72
     5
 11
183.7
 21
510.5
 31
0.0
100
AcDbText
  0
LINE
  5
3CE
100
AcDbEntity
  8
LAY-6
  6
CONTINUOUS
 62
     1
100
AcDbLine
 10
107.7
 20
510.0
 30
0.0
 11
247.7
 21
510.0
 31
0.0
  0
LINE
  5
3CF
100
AcDbEntity
  8
LAY-6
  6
CONTINUOUS
 62
     1
100
AcDbLine
 10
109.7
 20
510.333333
 30
0.0
 11
107.7
 21
510.0
 31
0.0
  0
LINE
  5
3D0
100
AcDbEntity
  8
LAY-6
  6
CONTINUOUS
 62
     1
100
AcDbLine
 10
107.7
 20
510.0
 30
0.0
 11
109.7
 21
509.666667
 31
0.0
  0
LINE
  5
3D1
100
AcDbEntity
  8
LAY-6
  6
CONTINUOUS
 62
     1
100
AcDbLine
 10
245.7
 20
509.666667
 30
0.0
 11
247.7
 21
510.0
 31
0.0
  0
LINE
  5
3D2
100
AcDbEntity
  8
LAY-6
  6
CONTINUOUS
 62
     1
100
AcDbLine
 10
247.7
 20
510.0
 30
0.0
 11
245.7
 21
510.333333
 31
0.0
  0
LINE
  5
3D3
100
AcDbEntity
  8
LAY-6
  6
CONTINUOUS
 62
     1
100
AcDbLine
 10
247.7
 20
440.0
 30
0.0
 11
247.7
 21
502.0
 31
0.0
  0
TEXT
  5
3D4
100
AcDbEntity
  8
LAY-6
  6
CONTINUOUS
 62
     2
100
AcDbText
 10
218.7
 20
501.5
 30
0.0
 40
5.0
  1
５０
 41
0.672
  7
EXCADSTD
 72
     5
 11
226.0328
 21
501.5
 31
0.0
100
AcDbText
  0
LINE
  5
3D5
100
AcDbEntity
  8
LAY-6
  6
CONTINUOUS
 62
     1
100
AcDbLine
 10
197.7
 20
501.0
 30
0.0
 11
247.7
 21
501.0
 31
0.0
  0
LINE
  5
3D6
100
AcDbEntity
  8
LAY-6
  6
CONTINUOUS
 62
     1
100
AcDbLine
 10
199.7
 20
501.333333
 30
0.0
 11
197.7
 21
501.0
 31
0.0
  0
LINE
  5
3D7
100
AcDbEntity
  8
LAY-6
  6
CONTINUOUS
 62
     1
100
AcDbLine
 10
197.7
 20
501.0
 30
0.0
 11
199.7
 21
500.666667
 31
0.0
  0
LINE
  5
3D8
100
AcDbEntity
  8
LAY-6
  6
CONTINUOUS
 62
     1
100
AcDbLine
 10
245.7
 20
500.666667
 30
0.0
 11
247.7
 21
501.0
 31
0.0
  0
LINE
  5
3D9
100
AcDbEntity
  8
LAY-6
  6
CONTINUOUS
 62
     1
100
AcDbLine
 10
247.7
 20
501.0
 30
0.0
 11
245.7
 21
501.333333
 31
0.0
  0
LINE
  5
3DA
100
AcDbEntity
  8
LAY-6
  6
CONTINUOUS
 62
     1
100
AcDbLine
 10
347.7
 20
452.999992
 30
0.0
 11
347.7
 21
491.0
 31
0.0
  0
LINE
  5
3DB
100
AcDbEntity
  8
LAY-6
  6
CONTINUOUS
 62
     1
100
AcDbLine
 10
211.700031
 20
452.999992
 30
0.0
 11
211.700031
 21
491.0
 31
0.0
  0
TEXT
  5
3DC
100
AcDbEntity
  8
LAY-6
  6
CONTINUOUS
 62
     2
100
AcDbText
 10
273.700015
 20
490.5
 30
0.0
 40
5.0
  1
１３６
 41
0.672
  7
EXCADSTD
 72
     5
 11
285.700015
 21
490.5
 31
0.0
100
AcDbText
  0
LINE
  5
3DD
100
AcDbEntity
  8
LAY-6
  6
CONTINUOUS
 62
     1
100
AcDbLine
 10
347.7
 20
490.0
 30
0.0
 11
211.700031
 21
490.0
 31
0.0
  0
LINE
  5
3DE
100
AcDbEntity
  8
LAY-6
  6
CONTINUOUS
 62
     1
100
AcDbLine
 10
345.7
 20
489.666667
 30
0.0
 11
347.7
 21
490.0
 31
0.0
  0
LINE
  5
3DF
100
AcDbEntity
  8
LAY-6
  6
CONTINUOUS
 62
     1
100
AcDbLine
 10
347.7
 20
490.0
 30
0.0
 11
345.7
 21
490.333333
 31
0.0
  0
LINE
  5
3E0
100
AcDbEntity
  8
LAY-6
  6
CONTINUOUS
 62
     1
100
AcDbLine
 10
213.700031
 20
490.333333
 30
0.0
 11
211.700031
 21
490.0
 31
0.0
  0
LINE
  5
3E1
100
AcDbEntity
  8
LAY-6
  6
CONTINUOUS
 62
     1
100
AcDbLine
 10
211.700031
 20
490.0
 30
0.0
 11
213.700031
 21
489.666667
 31
0.0
  0
LINE
  5
3E2
100
AcDbEntity
  8
LAY-6
  6
CONTINUOUS
 62
     1
100
AcDbLine
 10
211.700031
 20
452.999992
 30
0.0
 11
211.700031
 21
491.0
 31
0.0
  0
LINE
  5
3E3
100
AcDbEntity
  8
LAY-6
  6
CONTINUOUS
 62
     1
100
AcDbLine
 10
107.7
 20
487.5
 30
0.0
 11
107.7
 21
491.0
 31
0.0
  0
LINE
  5
3E4
100
AcDbEntity
  8
LAY-6
  6
CONTINUOUS
 62
     1
100
AcDbLine
 10
211.700031
 20
490.0
 30
0.0
 11
107.7
 21
490.0
 31
0.0
  0
LINE
  5
3E5
100
AcDbEntity
  8
LAY-6
  6
CONTINUOUS
 62
     1
100
AcDbLine
 10
209.700031
 20
489.666667
 30
0.0
 11
211.700031
 21
490.0
 31
0.0
  0
LINE
  5
3E6
100
AcDbEntity
  8
LAY-6
  6
CONTINUOUS
 62
     1
100
AcDbLine
 10
211.700031
 20
490.0
 30
0.0
 11
209.700031
 21
490.333333
 31
0.0
  0
LINE
  5
3E7
100
AcDbEntity
  8
LAY-6
  6
CONTINUOUS
 62
     1
100
AcDbLine
 10
109.7
 20
490.333333
 30
0.0
 11
107.7
 21
490.0
 31
0.0
  0
LINE
  5
3E8
100
AcDbEntity
  8
LAY-6
  6
CONTINUOUS
 62
     1
100
AcDbLine
 10
107.7
 20
490.0
 30
0.0
 11
109.7
 21
489.666667
 31
0.0
  0
TEXT
  5
3E9
100
AcDbEntity
  8
LAY-6
  6
CONTINUOUS
 62
     2
100
AcDbText
 10
163.700015
 20
490.5
 30
0.0
 40
5.0
  1
１０４
 41
0.672
  7
EXCADSTD
 72
     5
 11
175.700015
 21
490.5
 31
0.0
100
AcDbText
  0
LINE
  5
3EA
100
AcDbEntity
  8
LAY-6
  6
CONTINUOUS
 62
     1
100
AcDbLine
 10
156.2
 20
437.5
 30
0.0
 11
138.5
 21
437.5
 31
0.0
  0
LINE
  5
3EB
100
AcDbEntity
  8
LAY-6
  6
CONTINUOUS
 62
     1
100
AcDbLine
 10
156.2
 20
412.5
 30
0.0
 11
138.5
 21
412.5
 31
0.0
  0
TEXT
  5
3EC
100
AcDbEntity
  8
LAY-6
  6
CONTINUOUS
 62
     2
100
AcDbText
 10
139.0
 20
421.0
 30
0.0
 40
5.0
  1
２５
 50
90.0
 41
0.672
  7
EXCADSTD
 72
     5
 11
139.0
 21
428.3328
 31
0.0
100
AcDbText
  0
LINE
  5
3ED
100
AcDbEntity
  8
LAY-6
  6
CONTINUOUS
 62
     1
100
AcDbLine
 10
139.5
 20
437.5
 30
0.0
 11
139.5
 21
412.5
 31
0.0
  0
LINE
  5
3EE
100
AcDbEntity
  8
LAY-6
  6
CONTINUOUS
 62
     1
100
AcDbLine
 10
139.833333
 20
435.5
 30
0.0
 11
139.5
 21
437.5
 31
0.0
  0
LINE
  5
3EF
100
AcDbEntity
  8
LAY-6
  6
CONTINUOUS
 62
     1
100
AcDbLine
 10
139.5
 20
437.5
 30
0.0
 11
139.166667
 21
435.5
 31
0.0
  0
LINE
  5
3F0
100
AcDbEntity
  8
LAY-6
  6
CONTINUOUS
 62
     1
100
AcDbLine
 10
139.166667
 20
414.5
 30
0.0
 11
139.5
 21
412.5
 31
0.0
  0
LINE
  5
3F1
100
AcDbEntity
  8
LAY-6
  6
CONTINUOUS
 62
     1
100
AcDbLine
 10
139.5
 20
412.5
 30
0.0
 11
139.833333
 21
414.5
 31
0.0
  0
LINE
  5
3F2
100
AcDbEntity
  8
LAY-6
  6
CONTINUOUS
 62
     1
100
AcDbLine
 10
155.7
 20
437.5
 30
0.0
 11
130.7
 21
437.5
 31
0.0
  0
TEXT
  5
3F3
100
AcDbEntity
  8
LAY-6
  6
CONTINUOUS
 62
     2
100
AcDbText
 10
131.2
 20
398.5
 30
0.0
 40
5.0
  1
７０
 50
90.0
 41
0.672
  7
EXCADSTD
 72
     5
 11
131.2
 21
405.8328
 31
0.0
100
AcDbText
  0
LINE
  5
3F4
100
AcDbEntity
  8
LAY-6
  6
CONTINUOUS
 62
     1
100
AcDbLine
 10
131.7
 20
437.5
 30
0.0
 11
131.7
 21
367.5
 31
0.0
  0
LINE
  5
3F5
100
AcDbEntity
  8
LAY-6
  6
CONTINUOUS
 62
     1
100
AcDbLine
 10
132.033333
 20
435.5
 30
0.0
 11
131.7
 21
437.5
 31
0.0
  0
LINE
  5
3F6
100
AcDbEntity
  8
LAY-6
  6
CONTINUOUS
 62
     1
100
AcDbLine
 10
131.7
 20
437.5
 30
0.0
 11
131.366667
 21
435.5
 31
0.0
  0
LINE
  5
3F7
100
AcDbEntity
  8
LAY-6
  6
CONTINUOUS
 62
     1
100
AcDbLine
 10
131.366667
 20
369.5
 30
0.0
 11
131.7
 21
367.5
 31
0.0
  0
LINE
  5
3F8
100
AcDbEntity
  8
LAY-6
  6
CONTINUOUS
 62
     1
100
AcDbLine
 10
131.7
 20
367.5
 30
0.0
 11
132.033333
 21
369.5
 31
0.0
  0
LINE
  5
3F9
100
AcDbEntity
  8
LAY-6
  6
CONTINUOUS
 62
     1
100
AcDbLine
 10
107.7
 20
467.6
 30
0.0
 11
107.7
 21
468.8
 31
0.0
  0
TEXT
  5
3FA
100
AcDbEntity
  8
LAY-6
  6
CONTINUOUS
 62
     2
100
AcDbText
 10
129.7
 20
468.3
 30
0.0
 40
5.0
  1
５２
 41
0.672
  7
EXCADSTD
 72
     5
 11
137.0328
 21
468.3
 31
0.0
100
AcDbText
  0
LINE
  5
3FB
100
AcDbEntity
  8
LAY-6
  6
CONTINUOUS
 62
     1
100
AcDbLine
 10
107.7
 20
467.8
 30
0.0
 11
159.7
 21
467.8
 31
0.0
  0
LINE
  5
3FC
100
AcDbEntity
  8
LAY-6
  6
CONTINUOUS
 62
     1
100
AcDbLine
 10
109.7
 20
468.133333
 30
0.0
 11
107.7
 21
467.8
 31
0.0
  0
LINE
  5
3FD
100
AcDbEntity
  8
LAY-6
  6
CONTINUOUS
 62
     1
100
AcDbLine
 10
107.7
 20
467.8
 30
0.0
 11
109.7
 21
467.466667
 31
0.0
  0
LINE
  5
3FE
100
AcDbEntity
  8
LAY-6
  6
CONTINUOUS
 62
     1
100
AcDbLine
 10
157.7
 20
467.466667
 30
0.0
 11
159.7
 21
467.8
 31
0.0
  0
LINE
  5
3FF
100
AcDbEntity
  8
LAY-6
  6
CONTINUOUS
 62
     1
100
AcDbLine
 10
159.7
 20
467.8
 30
0.0
 11
157.7
 21
468.133333
 31
0.0
  0
TEXT
  5
400
100
AcDbEntity
  8
LAY-6
  6
CONTINUOUS
 62
     2
100
AcDbText
 10
193.7
 20
468.3
 30
0.0
 40
5.0
  1
７６
 41
0.672
  7
EXCADSTD
 72
     5
 11
201.0328
 21
468.3
 31
0.0
100
AcDbText
  0
LINE
  5
401
100
AcDbEntity
  8
LAY-6
  6
CONTINUOUS
 62
     1
100
AcDbLine
 10
159.7
 20
467.8
 30
0.0
 11
235.7
 21
467.8
 31
0.0
  0
LINE
  5
402
100
AcDbEntity
  8
LAY-6
  6
CONTINUOUS
 62
     1
100
AcDbLine
 10
161.7
 20
468.133333
 30
0.0
 11
159.7
 21
467.8
 31
0.0
  0
LINE
  5
403
100
AcDbEntity
  8
LAY-6
  6
CONTINUOUS
 62
     1
100
AcDbLine
 10
159.7
 20
467.8
 30
0.0
 11
161.7
 21
467.466667
 31
0.0
  0
LINE
  5
404
100
AcDbEntity
  8
LAY-6
  6
CONTINUOUS
 62
     1
100
AcDbLine
 10
233.7
 20
467.466667
 30
0.0
 11
235.7
 21
467.8
 31
0.0
  0
LINE
  5
405
100
AcDbEntity
  8
LAY-6
  6
CONTINUOUS
 62
     1
100
AcDbLine
 10
235.7
 20
467.8
 30
0.0
 11
233.7
 21
468.133333
 31
0.0
  0
TEXT
  5
406
100
AcDbEntity
  8
LAY-6
  6
CONTINUOUS
 62
     2
100
AcDbText
 10
164.7
 20
459.9
 30
0.0
 40
5.0
  1
１８
 41
0.672
  7
EXCADSTD
 72
     5
 11
172.0328
 21
459.9
 31
0.0
100
AcDbText
  0
LINE
  5
407
100
AcDbEntity
  8
LAY-6
  6
CONTINUOUS
 62
     1
100
AcDbLine
 10
159.7
 20
459.4
 30
0.0
 11
177.7
 21
459.4
 31
0.0
  0
LINE
  5
408
100
AcDbEntity
  8
LAY-6
  6
CONTINUOUS
 62
     1
100
AcDbLine
 10
161.7
 20
459.733333
 30
0.0
 11
159.7
 21
459.4
 31
0.0
  0
LINE
  5
409
100
AcDbEntity
  8
LAY-6
  6
CONTINUOUS
 62
     1
100
AcDbLine
 10
159.7
 20
459.4
 30
0.0
 11
161.7
 21
459.066667
 31
0.0
  0
LINE
  5
40A
100
AcDbEntity
  8
LAY-6
  6
CONTINUOUS
 62
     1
100
AcDbLine
 10
175.7
 20
459.066667
 30
0.0
 11
177.7
 21
459.4
 31
0.0
  0
LINE
  5
40B
100
AcDbEntity
  8
LAY-6
  6
CONTINUOUS
 62
     1
100
AcDbLine
 10
177.7
 20
459.4
 30
0.0
 11
175.7
 21
459.733333
 31
0.0
  0
TEXT
  5
40C
100
AcDbEntity
  8
LAY-6
  6
CONTINUOUS
 62
     2
100
AcDbText
 10
193.7
 20
459.9
 30
0.0
 40
5.0
  1
４０
 41
0.672
  7
EXCADSTD
 72
     5
 11
201.0328
 21
459.9
 31
0.0
100
AcDbText
  0
LINE
  5
40D
100
AcDbEntity
  8
LAY-6
  6
CONTINUOUS
 62
     1
100
AcDbLine
 10
177.7
 20
459.4
 30
0.0
 11
217.7
 21
459.4
 31
0.0
  0
LINE
  5
40E
100
AcDbEntity
  8
LAY-6
  6
CONTINUOUS
 62
     1
100
AcDbLine
 10
179.7
 20
459.733333
 30
0.0
 11
177.7
 21
459.4
 31
0.0
  0
LINE
  5
40F
100
AcDbEntity
  8
LAY-6
  6
CONTINUOUS
 62
     1
100
AcDbLine
 10
177.7
 20
459.4
 30
0.0
 11
179.7
 21
459.066667
 31
0.0
  0
LINE
  5
410
100
AcDbEntity
  8
LAY-6
  6
CONTINUOUS
 62
     1
100
AcDbLine
 10
215.7
 20
459.066667
 30
0.0
 11
217.7
 21
459.4
 31
0.0
  0
LINE
  5
411
100
AcDbEntity
  8
LAY-6
  6
CONTINUOUS
 62
     1
100
AcDbLine
 10
217.7
 20
459.4
 30
0.0
 11
215.7
 21
459.733333
 31
0.0
  0
LINE
  5
412
100
AcDbEntity
  8
LAY-6
  6
CONTINUOUS
 62
     1
100
AcDbLine
 10
184.5
 20
419.5
 30
0.0
 11
192.5
 21
419.5
 31
0.0
  0
LINE
  5
413
100
AcDbEntity
  8
LAY-6
  6
CONTINUOUS
 62
     1
100
AcDbLine
 10
165.3
 20
429.5
 30
0.0
 11
192.5
 21
429.5
 31
0.0
  0
TEXT
  5
414
100
AcDbEntity
  8
LAY-6
  6
CONTINUOUS
 62
     2
100
AcDbText
 10
191.0
 20
420.5
 30
0.0
 40
5.0
  1
１０
 50
90.0
 41
0.672
  7
EXCADSTD
 72
     5
 11
191.0
 21
427.8328
 31
0.0
100
AcDbText
  0
LINE
  5
415
100
AcDbEntity
  8
LAY-6
  6
CONTINUOUS
 62
     1
100
AcDbLine
 10
191.5
 20
419.5
 30
0.0
 11
191.5
 21
429.5
 31
0.0
  0
LINE
  5
416
100
AcDbEntity
  8
LAY-6
  6
CONTINUOUS
 62
     1
100
AcDbLine
 10
191.166667
 20
421.5
 30
0.0
 11
191.5
 21
419.5
 31
0.0
  0
LINE
  5
417
100
AcDbEntity
  8
LAY-6
  6
CONTINUOUS
 62
     1
100
AcDbLine
 10
191.5
 20
419.5
 30
0.0
 11
191.833333
 21
421.5
 31
0.0
  0
LINE
  5
418
100
AcDbEntity
  8
LAY-6
  6
CONTINUOUS
 62
     1
100
AcDbLine
 10
191.833333
 20
427.5
 30
0.0
 11
191.5
 21
429.5
 31
0.0
  0
LINE
  5
419
100
AcDbEntity
  8
LAY-6
  6
CONTINUOUS
 62
     1
100
AcDbLine
 10
191.5
 20
429.5
 30
0.0
 11
191.166667
 21
427.5
 31
0.0
  0
LINE
  5
41A
100
AcDbEntity
  8
LAY-6
  6
CONTINUOUS
 62
     1
100
AcDbLine
 10
189.2
 20
437.5
 30
0.0
 11
192.5
 21
437.5
 31
0.0
  0
TEXT
  5
41B
100
AcDbEntity
  8
LAY-6
  6
CONTINUOUS
 62
     2
100
AcDbText
 10
191.0
 20
431.5
 30
0.0
 40
5.0
  1
８
 50
90.0
 41
0.672
  7
EXCADSTD
 72
     5
 11
191.0
 21
434.7
 31
0.0
100
AcDbText
  0
LINE
  5
41C
100
AcDbEntity
  8
LAY-6
  6
CONTINUOUS
 62
     1
100
AcDbLine
 10
191.5
 20
429.5
 30
0.0
 11
191.5
 21
437.5
 31
0.0
  0
LINE
  5
41D
100
AcDbEntity
  8
LAY-6
  6
CONTINUOUS
 62
     1
100
AcDbLine
 10
191.166667
 20
431.5
 30
0.0
 11
191.5
 21
429.5
 31
0.0
  0
LINE
  5
41E
100
AcDbEntity
  8
LAY-6
  6
CONTINUOUS
 62
     1
100
AcDbLine
 10
191.5
 20
429.5
 30
0.0
 11
191.833333
 21
431.5
 31
0.0
  0
LINE
  5
41F
100
AcDbEntity
  8
LAY-6
  6
CONTINUOUS
 62
     1
100
AcDbLine
 10
191.833333
 20
435.5
 30
0.0
 11
191.5
 21
437.5
 31
0.0
  0
LINE
  5
420
100
AcDbEntity
  8
LAY-6
  6
CONTINUOUS
 62
     1
100
AcDbLine
 10
191.5
 20
437.5
 30
0.0
 11
191.166667
 21
435.5
 31
0.0
  0
LINE
  5
421
100
AcDbEntity
  8
LAY-6
  6
CONTINUOUS
 62
     1
100
AcDbLine
 10
197.697036
 20
367.000009
 30
0.0
 11
197.551876
 21
342.514401
 31
0.0
  0
LINE
  5
422
100
AcDbEntity
  8
LAY-6
  6
CONTINUOUS
 62
     1
100
AcDbLine
 10
460.67003
 20
365.441003
 30
0.0
 11
460.52487
 21
340.955396
 31
0.0
  0
TEXT
  5
423
100
AcDbEntity
  8
LAY-6
  6
CONTINUOUS
 62
     2
100
AcDbText
 10
323.047371
 20
343.270442
 30
0.0
 40
5.0
  1
２６３
 50
359.660332
 41
0.672
  7
EXCADSTD
 72
     5
 11
335.04716
 21
343.199302
 31
0.0
100
AcDbText
  0
LINE
  5
424
100
AcDbEntity
  8
LAY-6
  6
CONTINUOUS
 62
     1
100
AcDbLine
 10
197.557804
 20
343.514384
 30
0.0
 11
460.530798
 21
341.955378
 31
0.0
  0
LINE
  5
425
100
AcDbEntity
  8
LAY-6
  6
CONTINUOUS
 62
     1
100
AcDbLine
 10
199.559745
 20
343.835855
 30
0.0
 11
197.557804
 21
343.514384
 31
0.0
  0
LINE
  5
426
100
AcDbEntity
  8
LAY-6
  6
CONTINUOUS
 62
     1
100
AcDbLine
 10
197.557804
 20
343.514384
 30
0.0
 11
199.555793
 21
343.1692
 31
0.0
  0
LINE
  5
427
100
AcDbEntity
  8
LAY-6
  6
CONTINUOUS
 62
     1
100
AcDbLine
 10
458.528857
 20
341.633907
 30
0.0
 11
460.530798
 21
341.955378
 31
0.0
  0
LINE
  5
428
100
AcDbEntity
  8
LAY-6
  6
CONTINUOUS
 62
     1
100
AcDbLine
 10
460.530798
 20
341.955378
 30
0.0
 11
458.532809
 21
342.300562
 31
0.0
  0
LINE
  5
429
100
AcDbEntity
  8
LAY-6
  6
CONTINUOUS
 62
     1
100
AcDbLine
 10
247.825148
 20
421.484077
 30
0.0
 11
252.332382
 21
438.918447
 31
0.0
  0
LINE
  5
42A
100
AcDbEntity
  8
LAY-6
  6
CONTINUOUS
 62
     1
100
AcDbLine
 10
460.798142
 20
366.425079
 30
0.0
 11
465.305376
 21
383.859449
 31
0.0
  0
TEXT
  5
42B
100
AcDbEntity
  8
LAY-6
  6
CONTINUOUS
 62
     2
100
AcDbText
 10
352.884715
 20
412.406643
 30
0.0
 40
5.0
  1
２２０
 50
345.504933
 41
0.672
  7
EXCADSTD
 72
     5
 11
364.502745
 21
409.403084
 31
0.0
100
AcDbText
  0
LINE
  5
42C
100
AcDbEntity
  8
LAY-6
  6
CONTINUOUS
 62
     1
100
AcDbLine
 10
252.082085
 20
437.950278
 30
0.0
 11
465.055079
 21
382.89128
 31
0.0
  0
LINE
  5
42D
100
AcDbEntity
  8
LAY-6
  6
CONTINUOUS
 62
     1
100
AcDbLine
 10
254.101856
 20
437.772408
 30
0.0
 11
252.082085
 21
437.950278
 31
0.0
  0
LINE
  5
42E
100
AcDbEntity
  8
LAY-6
  6
CONTINUOUS
 62
     1
100
AcDbLine
 10
252.082085
 20
437.950278
 30
0.0
 11
253.934991
 21
437.126962
 31
0.0
  0
LINE
  5
42F
100
AcDbEntity
  8
LAY-6
  6
CONTINUOUS
 62
     1
100
AcDbLine
 10
463.035308
 20
383.06915
 30
0.0
 11
465.055079
 21
382.89128
 31
0.0
  0
LINE
  5
430
100
AcDbEntity
  8
LAY-6
  6
CONTINUOUS
 62
     1
100
AcDbLine
 10
465.055079
 20
382.89128
 30
0.0
 11
463.202173
 21
383.714596
 31
0.0
  0
TEXT
  5
431
100
AcDbEntity
  8
LAY-6
  6
CONTINUOUS
 62
     2
100
AcDbText
 10
437.0
 20
216.7
 30
0.0
 40
5.0
  1
ドア
 41
0.672
  7
EXCADSTD
 72
     5
 11
444.3328
 21
216.7
 31
0.0
100
AcDbText
  0
TEXT
  5
432
100
AcDbEntity
  8
LAY-6
  6
CONTINUOUS
 62
     2
100
AcDbText
 10
437.7
 20
246.0
 30
0.0
 40
5.0
  1
上枠
 41
0.672
  7
EXCADSTD
 72
     5
 11
445.0328
 21
246.0
 31
0.0
100
AcDbText
  0
TEXT
  5
433
100
AcDbEntity
  8
LAY-6
  6
CONTINUOUS
 62
     2
100
AcDbText
 10
388.2
 20
459.3
 30
0.0
 40
5.0
  1
ドア
 41
0.672
  7
EXCADSTD
 72
     5
 11
395.5328
 21
459.3
 31
0.0
100
AcDbText
  0
TEXT
  5
434
100
AcDbEntity
  8
LAY-6
  6
CONTINUOUS
 62
     2
100
AcDbText
 10
94.1
 20
447.7
 30
0.0
 40
5.0
  1
竪
 41
0.672
  7
EXCADSTD
 72
     5
 11
97.3
 21
447.7
 31
0.0
100
AcDbText
  0
TEXT
  5
435
100
AcDbEntity
  8
LAY-6
  6
CONTINUOUS
 62
     2
100
AcDbText
 10
94.1
 20
442.7
 30
0.0
 40
5.0
  1
枠
 41
0.672
  7
EXCADSTD
 72
     5
 11
97.3
 21
442.7
 31
0.0
100
AcDbText
  0
LINE
  5
436
100
AcDbEntity
  8
LAY-6
  6
CONTINUOUS
 62
     1
100
AcDbLine
 10
180.5
 20
367.5
 30
0.0
 11
130.7
 21
367.5
 31
0.0
  0
LINE
  5
437
100
AcDbEntity
  8
LAY-6
  6
CONTINUOUS
 62
     1
100
AcDbLine
 10
159.7
 20
435.6
 30
0.0
 11
159.7
 21
468.8
 31
0.0
  0
LINE
  5
438
100
AcDbEntity
  8
LAY-6
  6
CONTINUOUS
 62
     1
100
AcDbLine
 10
159.7
 20
436.8
 30
0.0
 11
159.7
 21
460.4
 31
0.0
  0
LINE
  5
439
100
AcDbEntity
  8
LAY-6
  6
CONTINUOUS
 62
     1
100
AcDbLine
 10
177.7
 20
425.899969
 30
0.0
 11
177.7
 21
460.4
 31
0.0
  0
LINE
  5
43A
100
AcDbEntity
  8
LAY-6
  6
CONTINUOUS
 62
     1
100
AcDbLine
 10
197.7
 20
439.5
 30
0.0
 11
197.7
 21
502.0
 31
0.0
  0
LINE
  5
43B
100
AcDbEntity
  8
LAY-6
  6
CONTINUOUS
 62
     1
100
AcDbLine
 10
217.7
 20
425.899969
 30
0.0
 11
217.7
 21
460.4
 31
0.0
  0
LINE
  5
43C
100
AcDbEntity
  8
LAY-6
  6
CONTINUOUS
 62
     1
100
AcDbLine
 10
235.7
 20
435.5
 30
0.0
 11
235.7
 21
468.8
 31
0.0
  0
TEXT
  5
43D
100
AcDbEntity
  8
LAY-6
  6
CONTINUOUS
 62
     2
100
AcDbText
 10
665.8
 20
281.4
 30
0.0
 40
5.0
  1
（スチール枠）
 41
0.672
  7
EXCADSTD
 72
     5
 11
693.8
 21
281.4
 31
0.0
100
AcDbText
  0
TEXT
  5
43E
100
AcDbEntity
  8
LAY-6
  6
CONTINUOUS
 62
     2
100
AcDbText
 10
665.6
 20
271.1
 30
0.0
 40
5.0
  1
（木枠）４－５．１×２５丸皿木ネジ
 41
0.672
  7
EXCADSTD
 72
     5
 11
733.6
 21
271.1
 31
0.0
100
AcDbText
  0
TEXT
  5
43F
100
AcDbEntity
  8
LAY-6
  6
CONTINUOUS
 62
     2
100
AcDbText
 10
668.2
 20
120.0
 30
0.0
 40
5.0
  1
ドア
 41
0.672
  7
EXCADSTD
 72
     5
 11
675.5328
 21
120.0
 31
0.0
100
AcDbText
  0
TEXT
  5
440
100
AcDbEntity
  8
LAY-6
  6
CONTINUOUS
 62
     2
100
AcDbText
 10
669.4
 20
251.6
 30
0.0
 40
5.0
  1
上枠
 41
0.672
  7
EXCADSTD
 72
     5
 11
676.7328
 21
251.6
 31
0.0
100
AcDbText
  0
POLYLINE
  5
441
100
AcDbEntity
  8
LAY-6
  6
CONTINUOUS
 62
     1
100
AcDb2dPolyline
 66
     1
 10
0.0
 20
0.0
 30
0.0
 70
   128
  0
VERTEX
  5
442
100
AcDbEntity
  8
LAY-6
  6
CONTINUOUS
 62
     1
100
AcDbVertex
100
AcDb2dVertex
 10
631.6
 20
235.1
 30
0.0
  0
VERTEX
  5
443
100
AcDbEntity
  8
LAY-6
  6
CONTINUOUS
 62
     1
100
AcDbVertex
100
AcDb2dVertex
 10
663.5
 20
276.2
 30
0.0
  0
VERTEX
  5
444
100
AcDbEntity
  8
LAY-6
  6
CONTINUOUS
 62
     1
100
AcDbVertex
100
AcDb2dVertex
 10
739.5
 20
276.2
 30
0.0
  0
SEQEND
  5
445
100
AcDbEntity
  8
LAY-6
  6
CONTINUOUS
 62
     1
  0
LINE
  5
446
100
AcDbEntity
  8
LAY-6
  6
CONTINUOUS
 62
     1
100
AcDbLine
 10
632.56296
 20
236.884326
 30
0.0
 11
631.6
 21
235.1
 31
0.0
  0
LINE
  5
447
100
AcDbEntity
  8
LAY-6
  6
CONTINUOUS
 62
     1
100
AcDbLine
 10
631.6
 20
235.1
 30
0.0
 11
633.089608
 21
236.475565
 31
0.0
  0
TEXT
  5
448
100
AcDbEntity
  8
LAY-6
  6
CONTINUOUS
 62
     2
100
AcDbText
 10
696.9
 20
154.0
 30
0.0
 40
5.0
  1
（木扉）２－５．８×６３皿木ネジ（Ｄ＝１０）
 41
0.672
  7
EXCADSTD
 72
     5
 11
784.9
 21
154.0
 31
0.0
100
AcDbText
  0
POLYLINE
  5
449
100
AcDbEntity
  8
LAY-6
  6
CONTINUOUS
 62
     1
100
AcDb2dPolyline
 66
     1
 10
0.0
 20
0.0
 30
0.0
 70
   128
  0
VERTEX
  5
44A
100
AcDbEntity
  8
LAY-6
  6
CONTINUOUS
 62
     1
100
AcDbVertex
100
AcDb2dVertex
 10
647.574874
 20
165.925126
 30
0.0
  0
VERTEX
  5
44B
100
AcDbEntity
  8
LAY-6
  6
CONTINUOUS
 62
     1
100
AcDbVertex
100
AcDb2dVertex
 10
661.7
 20
137.6
 30
0.0
  0
VERTEX
  5
44C
100
AcDbEntity
  8
LAY-6
  6
CONTINUOUS
 62
     1
100
AcDbVertex
100
AcDb2dVertex
 10
698.3
 20
137.6
 30
0.0
  0
SEQEND
  5
44D
100
AcDbEntity
  8
LAY-6
  6
CONTINUOUS
 62
     1
  0
LINE
  5
44E
100
AcDbEntity
  8
LAY-6
  6
CONTINUOUS
 62
     1
100
AcDbLine
 10
648.765708
 20
164.284082
 30
0.0
 11
647.574874
 21
165.925126
 31
0.0
  0
LINE
  5
44F
100
AcDbEntity
  8
LAY-6
  6
CONTINUOUS
 62
     1
100
AcDbLine
 10
647.574874
 20
165.925126
 30
0.0
 11
648.169108
 21
163.986571
 31
0.0
  0
TEXT
  5
450
100
AcDbEntity
  8
LAY-6
  6
CONTINUOUS
 62
     2
100
AcDbText
 10
696.59961
 20
203.143124
 30
0.0
 40
5.0
  1
裏板３.２ｔ以上（別途）
 41
0.654222
  7
EXCADSTD
 72
     5
 11
742.59961
 21
203.143124
 31
0.0
100
AcDbText
  0
TEXT
  5
451
100
AcDbEntity
  8
LAY-6
  6
CONTINUOUS
 62
     2
100
AcDbText
 10
570.89961
 20
243.643124
 30
0.0
 40
5.0
  1
裏板３.２ｔ以上（別途）
 41
0.654222
  7
EXCADSTD
 72
     5
 11
616.89961
 21
243.643124
 31
0.0
100
AcDbText
  0
TEXT
  5
452
100
AcDbEntity
  8
LAY-6
  6
CONTINUOUS
 62
     2
100
AcDbText
 10
98.1
 20
524.5
 30
0.0
 40
5.0
  1
ドア吊り芯
 41
0.672
  7
EXCADSTD
 72
     5
 11
118.1
 21
524.5
 31
0.0
100
AcDbText
  0
POLYLINE
  5
453
100
AcDbEntity
  8
LAY-6
  6
CONTINUOUS
 62
     1
100
AcDb2dPolyline
 66
     1
 10
0.0
 20
0.0
 30
0.0
 70
   128
  0
VERTEX
  5
454
100
AcDbEntity
  8
LAY-6
  6
CONTINUOUS
 62
     1
100
AcDbVertex
100
AcDb2dVertex
 10
627.4
 20
229.6
 30
0.0
  0
VERTEX
  5
455
100
AcDbEntity
  8
LAY-6
  6
CONTINUOUS
 62
     1
100
AcDbVertex
100
AcDb2dVertex
 10
617.1
 20
243.3
 30
0.0
  0
VERTEX
  5
456
100
AcDbEntity
  8
LAY-6
  6
CONTINUOUS
 62
     1
100
AcDbVertex
100
AcDb2dVertex
 10
570.4
 20
243.3
 30
0.0
  0
SEQEND
  5
457
100
AcDbEntity
  8
LAY-6
  6
CONTINUOUS
 62
     1
  0
LINE
  5
458
100
AcDbEntity
  8
LAY-6
  6
CONTINUOUS
 62
     1
100
AcDbLine
 10
625.931701
 20
230.998288
 30
0.0
 11
627.4
 21
229.6
 31
0.0
  0
LINE
  5
459
100
AcDbEntity
  8
LAY-6
  6
CONTINUOUS
 62
     1
100
AcDbLine
 10
627.4
 20
229.6
 30
0.0
 11
626.464567
 21
231.39891
 31
0.0
  0
LINE
  5
45A
100
AcDbEntity
  8
LAY-9
  6
CONTINUOUS
 62
     1
100
AcDbLine
 10
369.7
 20
439.5
 30
0.0
 11
491.0
 21
439.5
 31
0.0
  0
LINE
  5
45B
100
AcDbEntity
  8
LAY-9
  6
CONTINUOUS
 62
     1
100
AcDbLine
 10
81.2
 20
266.4
 30
0.0
 11
492.986046
 21
266.4
 31
0.0
  0
LINE
  5
45C
100
AcDbEntity
  8
LAY-9
  6
CONTINUOUS
 62
     1
100
AcDbLine
 10
491.182961
 20
238.4
 30
0.0
 11
503.1
 21
238.4
 31
0.0
  0
POLYLINE
  5
45D
100
AcDbEntity
  8
LAY-9
  6
CONTINUOUS
 62
     1
100
AcDb2dPolyline
 66
     1
 10
0.0
 20
0.0
 30
0.0
 70
   128
  0
VERTEX
  5
45E
100
AcDbEntity
  8
LAY-9
  6
CONTINUOUS
 62
     1
100
AcDbVertex
100
AcDb2dVertex
 10
503.1
 20
238.4
 30
0.0
  0
VERTEX
  5
45F
100
AcDbEntity
  8
LAY-9
  6
CONTINUOUS
 62
     1
100
AcDbVertex
100
AcDb2dVertex
 10
503.074659
 20
238.344202
 30
0.0
  0
VERTEX
  5
460
100
AcDbEntity
  8
LAY-9
  6
CONTINUOUS
 62
     1
100
AcDbVertex
100
AcDb2dVertex
 10
503.003813
 20
238.184914
 30
0.0
  0
VERTEX
  5
461
100
AcDbEntity
  8
LAY-9
  6
CONTINUOUS
 62
     1
100
AcDbVertex
100
AcDb2dVertex
 10
502.895229
 20
237.93429
 30
0.0
  0
VERTEX
  5
462
100
AcDbEntity
  8
LAY-9
  6
CONTINUOUS
 62
     1
100
AcDbVertex
100
AcDb2dVertex
 10
502.756675
 20
237.604488
 30
0.0
  0
VERTEX
  5
463
100
AcDbEntity
  8
LAY-9
  6
CONTINUOUS
 62
     1
100
AcDbVertex
100
AcDb2dVertex
 10
502.595915
 20
237.207663
 30
0.0
  0
VERTEX
  5
464
100
AcDbEntity
  8
LAY-9
  6
CONTINUOUS
 62
     1
100
AcDbVertex
100
AcDb2dVertex
 10
502.420718
 20
236.755973
 30
0.0
  0
VERTEX
  5
465
100
AcDbEntity
  8
LAY-9
  6
CONTINUOUS
 62
     1
100
AcDbVertex
100
AcDb2dVertex
 10
502.23885
 20
236.261572
 30
0.0
  0
VERTEX
  5
466
100
AcDbEntity
  8
LAY-9
  6
CONTINUOUS
 62
     1
100
AcDbVertex
100
AcDb2dVertex
 10
502.058077
 20
235.736619
 30
0.0
  0
VERTEX
  5
467
100
AcDbEntity
  8
LAY-9
  6
CONTINUOUS
 62
     1
100
AcDbVertex
100
AcDb2dVertex
 10
501.886167
 20
235.193268
 30
0.0
  0
VERTEX
  5
468
100
AcDbEntity
  8
LAY-9
  6
CONTINUOUS
 62
     1
100
AcDbVertex
100
AcDb2dVertex
 10
501.730886
 20
234.643676
 30
0.0
  0
VERTEX
  5
469
100
AcDbEntity
  8
LAY-9
  6
CONTINUOUS
 62
     1
100
AcDbVertex
100
AcDb2dVertex
 10
501.6
 20
234.1
 30
0.0
  0
VERTEX
  5
46A
100
AcDbEntity
  8
LAY-9
  6
CONTINUOUS
 62
     1
100
AcDbVertex
100
AcDb2dVertex
 10
501.44723
 20
233.217526
 30
0.0
  0
VERTEX
  5
46B
100
AcDbEntity
  8
LAY-9
  6
CONTINUOUS
 62
     1
100
AcDbVertex
100
AcDb2dVertex
 10
501.372012
 20
232.382948
 30
0.0
  0
VERTEX
  5
46C
100
AcDbEntity
  8
LAY-9
  6
CONTINUOUS
 62
     1
100
AcDbVertex
100
AcDb2dVertex
 10
501.359892
 20
231.592466
 30
0.0
  0
VERTEX
  5
46D
100
AcDbEntity
  8
LAY-9
  6
CONTINUOUS
 62
     1
100
AcDbVertex
100
AcDb2dVertex
 10
501.396416
 20
230.842279
 30
0.0
  0
VERTEX
  5
46E
100
AcDbEntity
  8
LAY-9
  6
CONTINUOUS
 62
     1
100
AcDbVertex
100
AcDb2dVertex
 10
501.46713
 20
230.128587
 30
0.0
  0
VERTEX
  5
46F
100
AcDbEntity
  8
LAY-9
  6
CONTINUOUS
 62
     1
100
AcDbVertex
100
AcDb2dVertex
 10
501.557581
 20
229.447589
 30
0.0
  0
VERTEX
  5
470
100
AcDbEntity
  8
LAY-9
  6
CONTINUOUS
 62
     1
100
AcDbVertex
100
AcDb2dVertex
 10
501.653315
 20
228.795486
 30
0.0
  0
VERTEX
  5
471
100
AcDbEntity
  8
LAY-9
  6
CONTINUOUS
 62
     1
100
AcDbVertex
100
AcDb2dVertex
 10
501.739877
 20
228.168476
 30
0.0
  0
VERTEX
  5
472
100
AcDbEntity
  8
LAY-9
  6
CONTINUOUS
 62
     1
100
AcDbVertex
100
AcDb2dVertex
 10
501.802815
 20
227.562758
 30
0.0
  0
VERTEX
  5
473
100
AcDbEntity
  8
LAY-9
  6
CONTINUOUS
 62
     1
100
AcDbVertex
100
AcDb2dVertex
 10
501.827674
 20
226.974533
 30
0.0
  0
VERTEX
  5
474
100
AcDbEntity
  8
LAY-9
  6
CONTINUOUS
 62
     1
100
AcDbVertex
100
AcDb2dVertex
 10
501.8
 20
226.4
 30
0.0
  0
VERTEX
  5
475
100
AcDbEntity
  8
LAY-9
  6
CONTINUOUS
 62
     1
100
AcDbVertex
100
AcDb2dVertex
 10
501.724181
 20
225.905206
 30
0.0
  0
VERTEX
  5
476
100
AcDbEntity
  8
LAY-9
  6
CONTINUOUS
 62
     1
100
AcDbVertex
100
AcDb2dVertex
 10
501.604189
 20
225.411733
 30
0.0
  0
VERTEX
  5
477
100
AcDbEntity
  8
LAY-9
  6
CONTINUOUS
 62
     1
100
AcDbVertex
100
AcDb2dVertex
 10
501.447075
 20
224.91334
 30
0.0
  0
VERTEX
  5
478
100
AcDbEntity
  8
LAY-9
  6
CONTINUOUS
 62
     1
100
AcDbVertex
100
AcDb2dVertex
 10
501.259892
 20
224.403785
 30
0.0
  0
VERTEX
  5
479
100
AcDbEntity
  8
LAY-9
  6
CONTINUOUS
 62
     1
100
AcDbVertex
100
AcDb2dVertex
 10
501.04969
 20
223.876825
 30
0.0
  0
VERTEX
  5
47A
100
AcDbEntity
  8
LAY-9
  6
CONTINUOUS
 62
     1
100
AcDbVertex
100
AcDb2dVertex
 10
500.823523
 20
223.326217
 30
0.0
  0
VERTEX
  5
47B
100
AcDbEntity
  8
LAY-9
  6
CONTINUOUS
 62
     1
100
AcDbVertex
100
AcDb2dVertex
 10
500.58844
 20
222.745721
 30
0.0
  0
VERTEX
  5
47C
100
AcDbEntity
  8
LAY-9
  6
CONTINUOUS
 62
     1
100
AcDbVertex
100
AcDb2dVertex
 10
500.351495
 20
222.129093
 30
0.0
  0
VERTEX
  5
47D
100
AcDbEntity
  8
LAY-9
  6
CONTINUOUS
 62
     1
100
AcDbVertex
100
AcDb2dVertex
 10
500.119739
 20
221.470092
 30
0.0
  0
VERTEX
  5
47E
100
AcDbEntity
  8
LAY-9
  6
CONTINUOUS
 62
     1
100
AcDbVertex
100
AcDb2dVertex
 10
499.900223
 20
220.762475
 30
0.0
  0
VERTEX
  5
47F
100
AcDbEntity
  8
LAY-9
  6
CONTINUOUS
 62
     1
100
AcDbVertex
100
AcDb2dVertex
 10
499.7
 20
220.0
 30
0.0
  0
VERTEX
  5
480
100
AcDbEntity
  8
LAY-9
  6
CONTINUOUS
 62
     1
100
AcDbVertex
100
AcDb2dVertex
 10
499.576238
 20
219.440719
 30
0.0
  0
VERTEX
  5
481
100
AcDbEntity
  8
LAY-9
  6
CONTINUOUS
 62
     1
100
AcDbVertex
100
AcDb2dVertex
 10
499.46491
 20
218.866627
 30
0.0
  0
VERTEX
  5
482
100
AcDbEntity
  8
LAY-9
  6
CONTINUOUS
 62
     1
100
AcDbVertex
100
AcDb2dVertex
 10
499.365881
 20
218.292066
 30
0.0
  0
VERTEX
  5
483
100
AcDbEntity
  8
LAY-9
  6
CONTINUOUS
 62
     1
100
AcDbVertex
100
AcDb2dVertex
 10
499.279013
 20
217.73138
 30
0.0
  0
VERTEX
  5
484
100
AcDbEntity
  8
LAY-9
  6
CONTINUOUS
 62
     1
100
AcDbVertex
100
AcDb2dVertex
 10
499.204171
 20
217.198915
 30
0.0
  0
VERTEX
  5
485
100
AcDbEntity
  8
LAY-9
  6
CONTINUOUS
 62
     1
100
AcDbVertex
100
AcDb2dVertex
 10
499.141216
 20
216.709013
 30
0.0
  0
VERTEX
  5
486
100
AcDbEntity
  8
LAY-9
  6
CONTINUOUS
 62
     1
100
AcDbVertex
100
AcDb2dVertex
 10
499.090015
 20
216.276019
 30
0.0
  0
VERTEX
  5
487
100
AcDbEntity
  8
LAY-9
  6
CONTINUOUS
 62
     1
100
AcDbVertex
100
AcDb2dVertex
 10
499.050429
 20
215.914277
 30
0.0
  0
VERTEX
  5
488
100
AcDbEntity
  8
LAY-9
  6
CONTINUOUS
 62
     1
100
AcDbVertex
100
AcDb2dVertex
 10
499.022322
 20
215.63813
 30
0.0
  0
VERTEX
  5
489
100
AcDbEntity
  8
LAY-9
  6
CONTINUOUS
 62
     1
100
AcDbVertex
100
AcDb2dVertex
 10
499.005558
 20
215.461923
 30
0.0
  0
VERTEX
  5
48A
100
AcDbEntity
  8
LAY-9
  6
CONTINUOUS
 62
     1
100
AcDbVertex
100
AcDb2dVertex
 10
499.0
 20
215.4
 30
0.0
  0
SEQEND
  5
48B
100
AcDbEntity
  8
LAY-9
  6
CONTINUOUS
 62
     1
  0
LINE
  5
48C
100
AcDbEntity
  8
LAY-9
  6
CONTINUOUS
 62
     1
100
AcDbLine
 10
242.7
 20
226.4
 30
0.0
 11
491.0
 21
226.4
 31
0.0
  0
POLYLINE
  5
48D
100
AcDbEntity
  8
LAY-9
  6
CONTINUOUS
 62
     1
100
AcDb2dPolyline
 66
     1
 10
0.0
 20
0.0
 30
0.0
 70
   128
  0
VERTEX
  5
48E
100
AcDbEntity
  8
LAY-9
  6
CONTINUOUS
 62
     1
100
AcDbVertex
100
AcDb2dVertex
 10
492.986046
 20
266.4
 30
0.0
  0
VERTEX
  5
48F
100
AcDbEntity
  8
LAY-9
  6
CONTINUOUS
 62
     1
100
AcDbVertex
100
AcDb2dVertex
 10
490.939115
 20
263.308031
 30
0.0
  0
VERTEX
  5
490
100
AcDbEntity
  8
LAY-9
  6
CONTINUOUS
 62
     1
100
AcDbVertex
100
AcDb2dVertex
 10
490.769574
 20
263.0461
 30
0.0
  0
VERTEX
  5
491
100
AcDbEntity
  8
LAY-9
  6
CONTINUOUS
 62
     1
100
AcDbVertex
100
AcDb2dVertex
 10
490.511048
 20
262.635175
 30
0.0
  0
VERTEX
  5
492
100
AcDbEntity
  8
LAY-9
  6
CONTINUOUS
 62
     1
100
AcDbVertex
100
AcDb2dVertex
 10
490.18321
 20
262.096223
 30
0.0
  0
VERTEX
  5
493
100
AcDbEntity
  8
LAY-9
  6
CONTINUOUS
 62
     1
100
AcDbVertex
100
AcDb2dVertex
 10
489.80573
 20
261.45021
 30
0.0
  0
VERTEX
  5
494
100
AcDbEntity
  8
LAY-9
  6
CONTINUOUS
 62
     1
100
AcDbVertex
100
AcDb2dVertex
 10
489.398281
 20
260.718103
 30
0.0
  0
VERTEX
  5
495
100
AcDbEntity
  8
LAY-9
  6
CONTINUOUS
 62
     1
100
AcDbVertex
100
AcDb2dVertex
 10
488.980534
 20
259.920869
 30
0.0
  0
VERTEX
  5
496
100
AcDbEntity
  8
LAY-9
  6
CONTINUOUS
 62
     1
100
AcDbVertex
100
AcDb2dVertex
 10
488.572161
 20
259.079475
 30
0.0
  0
VERTEX
  5
497
100
AcDbEntity
  8
LAY-9
  6
CONTINUOUS
 62
     1
100
AcDbVertex
100
AcDb2dVertex
 10
488.192833
 20
258.214888
 30
0.0
  0
VERTEX
  5
498
100
AcDbEntity
  8
LAY-9
  6
CONTINUOUS
 62
     1
100
AcDbVertex
100
AcDb2dVertex
 10
487.862222
 20
257.348074
 30
0.0
  0
VERTEX
  5
499
100
AcDbEntity
  8
LAY-9
  6
CONTINUOUS
 62
     1
100
AcDbVertex
100
AcDb2dVertex
 10
487.6
 20
256.5
 30
0.0
  0
VERTEX
  5
49A
100
AcDbEntity
  8
LAY-9
  6
CONTINUOUS
 62
     1
100
AcDbVertex
100
AcDb2dVertex
 10
487.396717
 20
255.538517
 30
0.0
  0
VERTEX
  5
49B
100
AcDbEntity
  8
LAY-9
  6
CONTINUOUS
 62
     1
100
AcDbVertex
100
AcDb2dVertex
 10
487.304139
 20
254.626255
 30
0.0
  0
VERTEX
  5
49C
100
AcDbEntity
  8
LAY-9
  6
CONTINUOUS
 62
     1
100
AcDbVertex
100
AcDb2dVertex
 10
487.308615
 20
253.756361
 30
0.0
  0
VERTEX
  5
49D
100
AcDbEntity
  8
LAY-9
  6
CONTINUOUS
 62
     1
100
AcDbVertex
100
AcDb2dVertex
 10
487.396491
 20
252.92198
 30
0.0
  0
VERTEX
  5
49E
100
AcDbEntity
  8
LAY-9
  6
CONTINUOUS
 62
     1
100
AcDbVertex
100
AcDb2dVertex
 10
487.554115
 20
252.116259
 30
0.0
  0
VERTEX
  5
49F
100
AcDbEntity
  8
LAY-9
  6
CONTINUOUS
 62
     1
100
AcDbVertex
100
AcDb2dVertex
 10
487.767833
 20
251.332345
 30
0.0
  0
VERTEX
  5
4A0
100
AcDbEntity
  8
LAY-9
  6
CONTINUOUS
 62
     1
100
AcDbVertex
100
AcDb2dVertex
 10
488.023994
 20
250.563384
 30
0.0
  0
VERTEX
  5
4A1
100
AcDbEntity
  8
LAY-9
  6
CONTINUOUS
 62
     1
100
AcDbVertex
100
AcDb2dVertex
 10
488.308943
 20
249.802522
 30
0.0
  0
VERTEX
  5
4A2
100
AcDbEntity
  8
LAY-9
  6
CONTINUOUS
 62
     1
100
AcDbVertex
100
AcDb2dVertex
 10
488.609029
 20
249.042907
 30
0.0
  0
VERTEX
  5
4A3
100
AcDbEntity
  8
LAY-9
  6
CONTINUOUS
 62
     1
100
AcDbVertex
100
AcDb2dVertex
 10
488.910599
 20
248.277684
 30
0.0
  0
VERTEX
  5
4A4
100
AcDbEntity
  8
LAY-9
  6
CONTINUOUS
 62
     1
100
AcDbVertex
100
AcDb2dVertex
 10
489.2
 20
247.5
 30
0.0
  0
VERTEX
  5
4A5
100
AcDbEntity
  8
LAY-9
  6
CONTINUOUS
 62
     1
100
AcDbVertex
100
AcDb2dVertex
 10
489.469816
 20
246.692889
 30
0.0
  0
VERTEX
  5
4A6
100
AcDbEntity
  8
LAY-9
  6
CONTINUOUS
 62
     1
100
AcDbVertex
100
AcDb2dVertex
 10
489.714379
 20
245.869852
 30
0.0
  0
VERTEX
  5
4A7
100
AcDbEntity
  8
LAY-9
  6
CONTINUOUS
 62
     1
100
AcDbVertex
100
AcDb2dVertex
 10
489.935028
 20
245.034854
 30
0.0
  0
VERTEX
  5
4A8
100
AcDbEntity
  8
LAY-9
  6
CONTINUOUS
 62
     1
100
AcDbVertex
100
AcDb2dVertex
 10
490.133103
 20
244.19186
 30
0.0
  0
VERTEX
  5
4A9
100
AcDbEntity
  8
LAY-9
  6
CONTINUOUS
 62
     1
100
AcDbVertex
100
AcDb2dVertex
 10
490.309942
 20
243.344833
 30
0.0
  0
VERTEX
  5
4AA
100
AcDbEntity
  8
LAY-9
  6
CONTINUOUS
 62
     1
100
AcDbVertex
100
AcDb2dVertex
 10
490.466884
 20
242.497738
 30
0.0
  0
VERTEX
  5
4AB
100
AcDbEntity
  8
LAY-9
  6
CONTINUOUS
 62
     1
100
AcDbVertex
100
AcDb2dVertex
 10
490.605267
 20
241.654539
 30
0.0
  0
VERTEX
  5
4AC
100
AcDbEntity
  8
LAY-9
  6
CONTINUOUS
 62
     1
100
AcDbVertex
100
AcDb2dVertex
 10
490.726432
 20
240.819202
 30
0.0
  0
VERTEX
  5
4AD
100
AcDbEntity
  8
LAY-9
  6
CONTINUOUS
 62
     1
100
AcDbVertex
100
AcDb2dVertex
 10
490.831717
 20
239.99569
 30
0.0
  0
VERTEX
  5
4AE
100
AcDbEntity
  8
LAY-9
  6
CONTINUOUS
 62
     1
100
AcDbVertex
100
AcDb2dVertex
 10
490.92246
 20
239.187968
 30
0.0
  0
VERTEX
  5
4AF
100
AcDbEntity
  8
LAY-9
  6
CONTINUOUS
 62
     1
100
AcDbVertex
100
AcDb2dVertex
 10
491.0
 20
238.4
 30
0.0
  0
VERTEX
  5
4B0
100
AcDbEntity
  8
LAY-9
  6
CONTINUOUS
 62
     1
100
AcDbVertex
100
AcDb2dVertex
 10
491.039561
 20
237.950852
 30
0.0
  0
VERTEX
  5
4B1
100
AcDbEntity
  8
LAY-9
  6
CONTINUOUS
 62
     1
100
AcDbVertex
100
AcDb2dVertex
 10
491.075033
 20
237.505652
 30
0.0
  0
VERTEX
  5
4B2
100
AcDbEntity
  8
LAY-9
  6
CONTINUOUS
 62
     1
100
AcDbVertex
100
AcDb2dVertex
 10
491.106355
 20
237.060301
 30
0.0
  0
VERTEX
  5
4B3
100
AcDbEntity
  8
LAY-9
  6
CONTINUOUS
 62
     1
100
AcDbVertex
100
AcDb2dVertex
 10
491.133463
 20
236.610698
 30
0.0
  0
VERTEX
  5
4B4
100
AcDbEntity
  8
LAY-9
  6
CONTINUOUS
 62
     1
100
AcDbVertex
100
AcDb2dVertex
 10
491.156296
 20
236.152742
 30
0.0
  0
VERTEX
  5
4B5
100
AcDbEntity
  8
LAY-9
  6
CONTINUOUS
 62
     1
100
AcDbVertex
100
AcDb2dVertex
 10
491.17479
 20
235.682334
 30
0.0
  0
VERTEX
  5
4B6
100
AcDbEntity
  8
LAY-9
  6
CONTINUOUS
 62
     1
100
AcDbVertex
100
AcDb2dVertex
 10
491.188884
 20
235.195373
 30
0.0
  0
VERTEX
  5
4B7
100
AcDbEntity
  8
LAY-9
  6
CONTINUOUS
 62
     1
100
AcDbVertex
100
AcDb2dVertex
 10
491.198514
 20
234.68776
 30
0.0
  0
VERTEX
  5
4B8
100
AcDbEntity
  8
LAY-9
  6
CONTINUOUS
 62
     1
100
AcDbVertex
100
AcDb2dVertex
 10
491.203618
 20
234.155393
 30
0.0
  0
VERTEX
  5
4B9
100
AcDbEntity
  8
LAY-9
  6
CONTINUOUS
 62
     1
100
AcDbVertex
100
AcDb2dVertex
 10
491.204135
 20
233.594173
 30
0.0
  0
VERTEX
  5
4BA
100
AcDbEntity
  8
LAY-9
  6
CONTINUOUS
 62
     1
100
AcDbVertex
100
AcDb2dVertex
 10
491.2
 20
233.0
 30
0.0
  0
VERTEX
  5
4BB
100
AcDbEntity
  8
LAY-9
  6
CONTINUOUS
 62
     1
100
AcDbVertex
100
AcDb2dVertex
 10
491.188797
 20
232.228222
 30
0.0
  0
VERTEX
  5
4BC
100
AcDbEntity
  8
LAY-9
  6
CONTINUOUS
 62
     1
100
AcDbVertex
100
AcDb2dVertex
 10
491.171967
 20
231.423538
 30
0.0
  0
VERTEX
  5
4BD
100
AcDbEntity
  8
LAY-9
  6
CONTINUOUS
 62
     1
100
AcDbVertex
100
AcDb2dVertex
 10
491.15092
 20
230.608368
 30
0.0
  0
VERTEX
  5
4BE
100
AcDbEntity
  8
LAY-9
  6
CONTINUOUS
 62
     1
100
AcDbVertex
100
AcDb2dVertex
 10
491.127067
 20
229.805133
 30
0.0
  0
VERTEX
  5
4BF
100
AcDbEntity
  8
LAY-9
  6
CONTINUOUS
 62
     1
100
AcDbVertex
100
AcDb2dVertex
 10
491.101818
 20
229.036254
 30
0.0
  0
VERTEX
  5
4C0
100
AcDbEntity
  8
LAY-9
  6
CONTINUOUS
 62
     1
100
AcDbVertex
100
AcDb2dVertex
 10
491.076584
 20
228.324151
 30
0.0
  0
VERTEX
  5
4C1
100
AcDbEntity
  8
LAY-9
  6
CONTINUOUS
 62
     1
100
AcDbVertex
100
AcDb2dVertex
 10
491.052775
 20
227.691245
 30
0.0
  0
VERTEX
  5
4C2
100
AcDbEntity
  8
LAY-9
  6
CONTINUOUS
 62
     1
100
AcDbVertex
100
AcDb2dVertex
 10
491.031802
 20
227.159956
 30
0.0
  0
VERTEX
  5
4C3
100
AcDbEntity
  8
LAY-9
  6
CONTINUOUS
 62
     1
100
AcDbVertex
100
AcDb2dVertex
 10
491.015074
 20
226.752705
 30
0.0
  0
VERTEX
  5
4C4
100
AcDbEntity
  8
LAY-9
  6
CONTINUOUS
 62
     1
100
AcDbVertex
100
AcDb2dVertex
 10
491.004004
 20
226.491913
 30
0.0
  0
VERTEX
  5
4C5
100
AcDbEntity
  8
LAY-9
  6
CONTINUOUS
 62
     1
100
AcDbVertex
100
AcDb2dVertex
 10
491.0
 20
226.4
 30
0.0
  0
SEQEND
  5
4C6
100
AcDbEntity
  8
LAY-9
  6
CONTINUOUS
 62
     1
  0
LINE
  5
4C7
100
AcDbEntity
  8
LAY-9
  6
CONTINUOUS
 62
     1
100
AcDbLine
 10
651.6
 20
182.9
 30
0.0
 11
651.6
 21
236.9
 31
0.0
  0
ARC
  5
4C8
100
AcDbEntity
  8
LAY-9
  6
CONTINUOUS
 62
     1
100
AcDbCircle
 10
653.1
 20
236.9
 30
0.0
 40
1.5
100
AcDbArc
 50
90.0
 51
180.0
  0
ARC
  5
4C9
100
AcDbEntity
  8
LAY-9
  6
CONTINUOUS
 62
     1
100
AcDbCircle
 10
690.1
 20
236.9
 30
0.0
 40
1.5
100
AcDbArc
 50
0.0
 51
90.0
  0
LINE
  5
4CA
100
AcDbEntity
  8
LAY-9
  6
CONTINUOUS
 62
     1
100
AcDbLine
 10
694.6
 20
242.9
 30
0.0
 11
694.6
 21
264.9
 31
0.0
  0
LINE
  5
4CB
100
AcDbEntity
  8
LAY-9
  6
CONTINUOUS
 62
     1
100
AcDbLine
 10
693.1
 20
266.4
 30
0.0
 11
674.6
 21
266.4
 31
0.0
  0
ARC
  5
4CC
100
AcDbEntity
  8
LAY-9
  6
CONTINUOUS
 62
     1
100
AcDbCircle
 10
693.1
 20
264.9
 30
0.0
 40
1.5
100
AcDbArc
 50
0.0
 51
90.0
  0
ARC
  5
4CD
100
AcDbEntity
  8
LAY-9
  6
CONTINUOUS
 62
     1
100
AcDbCircle
 10
693.1
 20
242.9
 30
0.0
 40
1.5
100
AcDbArc
 50
270.0
 51
0.0
  0
LINE
  5
4CE
100
AcDbEntity
  8
LAY-9
  6
CONTINUOUS
 62
     1
100
AcDbLine
 10
624.6
 20
227.9
 30
0.0
 11
624.6
 21
264.9
 31
0.0
  0
LINE
  5
4CF
100
AcDbEntity
  8
LAY-9
  6
CONTINUOUS
 62
     1
100
AcDbLine
 10
626.1
 20
266.4
 30
0.0
 11
644.6
 21
266.4
 31
0.0
  0
ARC
  5
4D0
100
AcDbEntity
  8
LAY-9
  6
CONTINUOUS
 62
     1
100
AcDbCircle
 10
626.1
 20
264.9
 30
0.0
 40
1.5
100
AcDbArc
 50
90.0
 51
180.0
  0
ARC
  5
4D1
100
AcDbEntity
  8
LAY-9
  6
CONTINUOUS
 62
     1
100
AcDbCircle
 10
626.1
 20
227.9
 30
0.0
 40
1.5
100
AcDbArc
 50
180.0
 51
270.0
  0
LINE
  5
4D2
100
AcDbEntity
  8
LAY-9
  6
CONTINUOUS
 62
     1
100
AcDbLine
 10
651.6
 20
139.9
 30
0.0
 11
651.6
 21
98.0
 31
0.0
  0
LINE
  5
4D3
100
AcDbEntity
  8
LAY-9
  6
CONTINUOUS
 62
     1
100
AcDbLine
 10
649.6
 20
241.4
 30
0.0
 11
649.6
 21
227.9
 31
0.0
  0
ARC
  5
4D4
100
AcDbEntity
  8
LAY-9
  6
CONTINUOUS
 62
     1
100
AcDbCircle
 10
648.1
 20
227.9
 30
0.0
 40
1.5
100
AcDbArc
 50
270.0
 51
0.0
  0
LINE
  5
4D5
100
AcDbEntity
  8
LAY-9
  6
CONTINUOUS
 62
     1
100
AcDbLine
 10
691.6
 20
98.0
 30
0.0
 11
691.6
 21
136.7
 31
0.0
  0
LINE
  5
4D6
100
AcDbEntity
  8
LAY-9
  6
CONTINUOUS
 62
     1
100
AcDbLine
 10
691.6
 20
142.8
 30
0.0
 11
691.6
 21
236.9
 31
0.0
  0
LINE
  5
4D7
100
AcDbEntity
  8
LAY-9
  6
CONTINUOUS
 62
     1
100
AcDbLine
 10
707.35
 20
241.4
 30
0.0
 11
707.35
 21
238.4
 31
0.0
  0
LINE
  5
4D8
100
AcDbEntity
  8
LAY-9
  6
CONTINUOUS
 62
     1
100
AcDbLine
 10
719.85
 20
241.4
 30
0.0
 11
719.85
 21
238.4
 31
0.0
  0
LINE
  5
4D9
100
AcDbEntity
  8
LAY-9
  6
CONTINUOUS
 62
     1
100
AcDbLine
 10
731.600012
 20
255.4
 30
0.0
 11
731.600012
 21
242.4
 31
0.0
  0
LINE
  5
4DA
100
AcDbEntity
  8
LAY-9
  6
CONTINUOUS
 62
     1
100
AcDbLine
 10
731.600012
 20
238.4
 30
0.0
 11
731.600012
 21
225.4
 31
0.0
  0
ARC
  5
4DB
100
AcDbEntity
  8
LAY-9
  6
CONTINUOUS
 62
     1
100
AcDbCircle
 10
730.600012
 20
242.4
 30
0.0
 40
1.0
100
AcDbArc
 50
270.0
 51
0.0
  0
ARC
  5
4DC
100
AcDbEntity
  8
LAY-9
  6
CONTINUOUS
 62
     1
100
AcDbCircle
 10
730.600012
 20
225.4
 30
0.0
 40
1.0
100
AcDbArc
 50
270.0
 51
0.0
  0
LINE
  5
4DD
100
AcDbEntity
  8
LAY-9
  6
CONTINUOUS
 62
     1
100
AcDbLine
 10
694.6
 20
255.4
 30
0.0
 11
731.600012
 21
255.4
 31
0.0
  0
LINE
  5
4DE
100
AcDbEntity
  8
LAY-9
  6
CONTINUOUS
 62
     1
100
AcDbLine
 10
691.6
 20
224.4
 30
0.0
 11
730.600012
 21
224.4
 31
0.0
  0
LINE
  5
4DF
100
AcDbEntity
  8
LAY-9
  6
CONTINUOUS
 62
     1
100
AcDbLine
 10
691.6
 20
238.4
 30
0.0
 11
691.6
 21
224.4
 31
0.0
  0
LINE
  5
4E0
100
AcDbEntity
  8
LAY-9
  6
CONTINUOUS
 62
     1
100
AcDbLine
 10
731.600012
 20
238.4
 30
0.0
 11
691.6
 21
238.4
 31
0.0
  0
LINE
  5
4E1
100
AcDbEntity
  8
LAY-9
  6
CONTINUOUS
 62
     1
100
AcDbLine
 10
730.600012
 20
241.4
 30
0.0
 11
694.6
 21
241.4
 31
0.0
  0
LINE
  5
4E2
100
AcDbEntity
  8
LAY-9
  6
CONTINUOUS
 62
     1
100
AcDbLine
 10
694.6
 20
255.4
 30
0.0
 11
694.6
 21
241.4
 31
0.0
  0
LINE
  5
4E3
100
AcDbEntity
  8
LAY-9
  6
CONTINUOUS
 62
     1
100
AcDbLine
 10
649.6
 20
241.4
 30
0.0
 11
694.6
 21
241.4
 31
0.0
  0
LINE
  5
4E4
100
AcDbEntity
  8
LAY-9
  6
CONTINUOUS
 62
     1
100
AcDbLine
 10
653.1
 20
238.4
 30
0.0
 11
691.6
 21
238.4
 31
0.0
  0
LINE
  5
4E5
100
AcDbEntity
  8
LAY-9
  6
DASHED2
 62
     1
100
AcDbLine
 10
104.7
 20
224.4
 30
0.0
 11
104.7
 21
74.71826
 31
0.0
  0
LINE
  5
4E6
100
AcDbEntity
  8
LAY-9
  6
CONTINUOUS
 62
     1
100
AcDbLine
 10
79.7
 20
266.4
 30
0.0
 11
79.7
 21
75.4
 31
0.0
  0
LINE
  5
4E7
100
AcDbEntity
  8
LAY-9
  6
DASHED2
 62
     1
100
AcDbLine
 10
90.7
 20
224.4
 30
0.0
 11
164.7
 21
224.4
 31
0.0
  0
LINE
  5
4E8
100
AcDbEntity
  8
LAY-9
  6
DASHED2
 62
     1
100
AcDbLine
 10
89.7
 20
255.4
 30
0.0
 11
165.7
 21
255.4
 31
0.0
  0
LINE
  5
4E9
100
AcDbEntity
  8
LAY-9
  6
DASHED2
 62
     1
100
AcDbLine
 10
101.45
 20
241.4
 30
0.0
 11
101.45
 21
238.4
 31
0.0
  0
LINE
  5
4EA
100
AcDbEntity
  8
LAY-9
  6
DASHED2
 62
     1
100
AcDbLine
 10
113.95
 20
241.4
 30
0.0
 11
113.95
 21
238.4
 31
0.0
  0
LINE
  5
4EB
100
AcDbEntity
  8
LAY-9
  6
DASHED2
 62
     1
100
AcDbLine
 10
89.7
 20
255.4
 30
0.0
 11
89.7
 21
242.4
 31
0.0
  0
LINE
  5
4EC
100
AcDbEntity
  8
LAY-9
  6
DASHED2
 62
     1
100
AcDbLine
 10
89.7
 20
238.4
 30
0.0
 11
89.7
 21
225.4
 31
0.0
  0
LINE
  5
4ED
100
AcDbEntity
  8
LAY-9
  6
DASHED2
 62
     1
100
AcDbLine
 10
165.7
 20
255.4
 30
0.0
 11
165.7
 21
242.4
 31
0.0
  0
LINE
  5
4EE
100
AcDbEntity
  8
LAY-9
  6
DASHED2
 62
     1
100
AcDbLine
 10
165.7
 20
238.4
 30
0.0
 11
165.7
 21
225.4
 31
0.0
  0
ARC
  5
4EF
100
AcDbEntity
  8
LAY-9
  6
DASHED2
 62
     1
100
AcDbCircle
 10
90.7
 20
242.4
 30
0.0
 40
1.0
100
AcDbArc
 50
180.00002
 51
270.0
  0
ARC
  5
4F0
100
AcDbEntity
  8
LAY-9
  6
DASHED2
 62
     1
100
AcDbCircle
 10
90.7
 20
225.4
 30
0.0
 40
1.0
100
AcDbArc
 50
180.00002
 51
270.0
  0
ARC
  5
4F1
100
AcDbEntity
  8
LAY-9
  6
DASHED2
 62
     1
100
AcDbCircle
 10
164.7
 20
242.4
 30
0.0
 40
1.0
100
AcDbArc
 50
270.0
 51
0.0
  0
ARC
  5
4F2
100
AcDbEntity
  8
LAY-9
  6
DASHED2
 62
     1
100
AcDbCircle
 10
164.7
 20
225.4
 30
0.0
 40
1.0
100
AcDbArc
 50
270.0
 51
0.0
  0
LINE
  5
4F3
100
AcDbEntity
  8
LAY-9
  6
DASHED2
 62
     1
100
AcDbLine
 10
107.7
 20
217.9
 30
0.0
 11
107.7
 21
78.500006
 31
0.0
  0
LINE
  5
4F4
100
AcDbEntity
  8
LAY-9
  6
CONTINUOUS
 62
     1
100
AcDbLine
 10
79.7
 20
75.4
 30
0.0
 11
80.054122
 21
75.267179
 31
0.0
  0
LINE
  5
4F5
100
AcDbEntity
  8
LAY-9
  6
CONTINUOUS
 62
     1
100
AcDbLine
 10
80.054122
 20
75.267179
 30
0.0
 11
80.433383
 21
75.142584
 31
0.0
  0
LINE
  5
4F6
100
AcDbEntity
  8
LAY-9
  6
CONTINUOUS
 62
     1
100
AcDbLine
 10
80.433383
 20
75.142584
 30
0.0
 11
80.833072
 21
75.026258
 31
0.0
  0
LINE
  5
4F7
100
AcDbEntity
  8
LAY-9
  6
CONTINUOUS
 62
     1
100
AcDbLine
 10
80.833072
 20
75.026258
 30
0.0
 11
81.248466
 21
74.918257
 31
0.0
  0
LINE
  5
4F8
100
AcDbEntity
  8
LAY-9
  6
CONTINUOUS
 62
     1
100
AcDbLine
 10
81.248466
 20
74.918257
 30
0.0
 11
81.674857
 21
74.81864
 31
0.0
  0
LINE
  5
4F9
100
AcDbEntity
  8
LAY-9
  6
CONTINUOUS
 62
     1
100
AcDbLine
 10
81.674857
 20
74.81864
 30
0.0
 11
82.107524
 21
74.727468
 31
0.0
  0
LINE
  5
4FA
100
AcDbEntity
  8
LAY-9
  6
CONTINUOUS
 62
     1
100
AcDbLine
 10
82.107524
 20
74.727468
 30
0.0
 11
82.541755
 21
74.644773
 31
0.0
  0
LINE
  5
4FB
100
AcDbEntity
  8
LAY-9
  6
CONTINUOUS
 62
     1
100
AcDbLine
 10
82.541755
 20
74.644773
 30
0.0
 11
82.972835
 21
74.570631
 31
0.0
  0
LINE
  5
4FC
100
AcDbEntity
  8
LAY-9
  6
CONTINUOUS
 62
     1
100
AcDbLine
 10
82.972835
 20
74.570631
 30
0.0
 11
83.396045
 21
74.505087
 31
0.0
  0
LINE
  5
4FD
100
AcDbEntity
  8
LAY-9
  6
CONTINUOUS
 62
     1
100
AcDbLine
 10
83.396045
 20
74.505087
 30
0.0
 11
83.80667
 21
74.448187
 31
0.0
  0
LINE
  5
4FE
100
AcDbEntity
  8
LAY-9
  6
CONTINUOUS
 62
     1
100
AcDbLine
 10
83.80667
 20
74.448187
 30
0.0
 11
84.2
 21
74.4
 31
0.0
  0
LINE
  5
4FF
100
AcDbEntity
  8
LAY-9
  6
CONTINUOUS
 62
     1
100
AcDbLine
 10
84.2
 20
74.4
 30
0.0
 11
84.499774
 21
74.370245
 31
0.0
  0
LINE
  5
500
100
AcDbEntity
  8
LAY-9
  6
CONTINUOUS
 62
     1
100
AcDbLine
 10
84.499774
 20
74.370245
 30
0.0
 11
84.813026
 21
74.348509
 31
0.0
  0
LINE
  5
501
100
AcDbEntity
  8
LAY-9
  6
CONTINUOUS
 62
     1
100
AcDbLine
 10
84.813026
 20
74.348509
 30
0.0
 11
85.136493
 21
74.335928
 31
0.0
  0
LINE
  5
502
100
AcDbEntity
  8
LAY-9
  6
CONTINUOUS
 62
     1
100
AcDbLine
 10
85.136493
 20
74.335928
 30
0.0
 11
85.466911
 21
74.333616
 31
0.0
  0
LINE
  5
503
100
AcDbEntity
  8
LAY-9
  6
CONTINUOUS
 62
     1
100
AcDbLine
 10
85.466911
 20
74.333616
 30
0.0
 11
85.801009
 21
74.34271
 31
0.0
  0
LINE
  5
504
100
AcDbEntity
  8
LAY-9
  6
CONTINUOUS
 62
     1
100
AcDbLine
 10
85.801009
 20
74.34271
 30
0.0
 11
86.135524
 21
74.364347
 31
0.0
  0
LINE
  5
505
100
AcDbEntity
  8
LAY-9
  6
CONTINUOUS
 62
     1
100
AcDbLine
 10
86.135524
 20
74.364347
 30
0.0
 11
86.467185
 21
74.399641
 31
0.0
  0
LINE
  5
506
100
AcDbEntity
  8
LAY-9
  6
CONTINUOUS
 62
     1
100
AcDbLine
 10
86.467185
 20
74.399641
 30
0.0
 11
86.792731
 21
74.44972
 31
0.0
  0
LINE
  5
507
100
AcDbEntity
  8
LAY-9
  6
CONTINUOUS
 62
     1
100
AcDbLine
 10
86.792731
 20
74.44972
 30
0.0
 11
87.108894
 21
74.51573
 31
0.0
  0
LINE
  5
508
100
AcDbEntity
  8
LAY-9
  6
CONTINUOUS
 62
     1
100
AcDbLine
 10
87.108894
 20
74.51573
 30
0.0
 11
87.412406
 21
74.598776
 31
0.0
  0
LINE
  5
509
100
AcDbEntity
  8
LAY-9
  6
CONTINUOUS
 62
     1
100
AcDbLine
 10
87.412406
 20
74.598776
 30
0.0
 11
87.7
 21
74.700003
 31
0.0
  0
LINE
  5
50A
100
AcDbEntity
  8
LAY-9
  6
CONTINUOUS
 62
     1
100
AcDbLine
 10
87.7
 20
74.700003
 30
0.0
 11
87.973449
 21
74.811628
 31
0.0
  0
LINE
  5
50B
100
AcDbEntity
  8
LAY-9
  6
CONTINUOUS
 62
     1
100
AcDbLine
 10
87.973449
 20
74.811628
 30
0.0
 11
88.255935
 21
74.931028
 31
0.0
  0
LINE
  5
50C
100
AcDbEntity
  8
LAY-9
  6
CONTINUOUS
 62
     1
100
AcDbLine
 10
88.255935
 20
74.931028
 30
0.0
 11
88.545612
 21
75.054823
 31
0.0
  0
LINE
  5
50D
100
AcDbEntity
  8
LAY-9
  6
CONTINUOUS
 62
     1
100
AcDbLine
 10
88.545612
 20
75.054823
 30
0.0
 11
88.840625
 21
75.179663
 31
0.0
  0
LINE
  5
50E
100
AcDbEntity
  8
LAY-9
  6
CONTINUOUS
 62
     1
100
AcDbLine
 10
88.840625
 20
75.179663
 30
0.0
 11
89.139133
 21
75.302175
 31
0.0
  0
LINE
  5
50F
100
AcDbEntity
  8
LAY-9
  6
CONTINUOUS
 62
     1
100
AcDbLine
 10
89.139133
 20
75.302175
 30
0.0
 11
89.439285
 21
75.418997
 31
0.0
  0
LINE
  5
510
100
AcDbEntity
  8
LAY-9
  6
CONTINUOUS
 62
     1
100
AcDbLine
 10
89.439285
 20
75.418997
 30
0.0
 11
89.73923
 21
75.526762
 31
0.0
  0
LINE
  5
511
100
AcDbEntity
  8
LAY-9
  6
CONTINUOUS
 62
     1
100
AcDbLine
 10
89.73923
 20
75.526762
 30
0.0
 11
90.03712
 21
75.622114
 31
0.0
  0
LINE
  5
512
100
AcDbEntity
  8
LAY-9
  6
CONTINUOUS
 62
     1
100
AcDbLine
 10
90.03712
 20
75.622114
 30
0.0
 11
90.331115
 21
75.701681
 31
0.0
  0
LINE
  5
513
100
AcDbEntity
  8
LAY-9
  6
CONTINUOUS
 62
     1
100
AcDbLine
 10
90.331115
 20
75.701681
 30
0.0
 11
90.619357
 21
75.762098
 31
0.0
  0
LINE
  5
514
100
AcDbEntity
  8
LAY-9
  6
CONTINUOUS
 62
     1
100
AcDbLine
 10
90.619357
 20
75.762098
 30
0.0
 11
90.900001
 21
75.800001
 31
0.0
  0
LINE
  5
515
100
AcDbEntity
  8
LAY-9
  6
CONTINUOUS
 62
     1
100
AcDbLine
 10
90.900001
 20
75.800001
 30
0.0
 11
91.060531
 21
75.809469
 31
0.0
  0
LINE
  5
516
100
AcDbEntity
  8
LAY-9
  6
CONTINUOUS
 62
     1
100
AcDbLine
 10
91.060531
 20
75.809469
 30
0.0
 11
91.227237
 21
75.809355
 31
0.0
  0
LINE
  5
517
100
AcDbEntity
  8
LAY-9
  6
CONTINUOUS
 62
     1
100
AcDbLine
 10
91.227237
 20
75.809355
 30
0.0
 11
91.398875
 21
75.80039
 31
0.0
  0
LINE
  5
518
100
AcDbEntity
  8
LAY-9
  6
CONTINUOUS
 62
     1
100
AcDbLine
 10
91.398875
 20
75.80039
 30
0.0
 11
91.574203
 21
75.783338
 31
0.0
  0
LINE
  5
519
100
AcDbEntity
  8
LAY-9
  6
CONTINUOUS
 62
     1
100
AcDbLine
 10
91.574203
 20
75.783338
 30
0.0
 11
91.751968
 21
75.758932
 31
0.0
  0
LINE
  5
51A
100
AcDbEntity
  8
LAY-9
  6
CONTINUOUS
 62
     1
100
AcDbLine
 10
91.751968
 20
75.758932
 30
0.0
 11
91.930927
 21
75.727934
 31
0.0
  0
LINE
  5
51B
100
AcDbEntity
  8
LAY-9
  6
CONTINUOUS
 62
     1
100
AcDbLine
 10
91.930927
 20
75.727934
 30
0.0
 11
92.109832
 21
75.691069
 31
0.0
  0
LINE
  5
51C
100
AcDbEntity
  8
LAY-9
  6
CONTINUOUS
 62
     1
100
AcDbLine
 10
92.109832
 20
75.691069
 30
0.0
 11
92.287437
 21
75.649099
 31
0.0
  0
LINE
  5
51D
100
AcDbEntity
  8
LAY-9
  6
CONTINUOUS
 62
     1
100
AcDbLine
 10
92.287437
 20
75.649099
 30
0.0
 11
92.462497
 21
75.602766
 31
0.0
  0
LINE
  5
51E
100
AcDbEntity
  8
LAY-9
  6
CONTINUOUS
 62
     1
100
AcDbLine
 10
92.462497
 20
75.602766
 30
0.0
 11
92.633769
 21
75.552824
 31
0.0
  0
LINE
  5
51F
100
AcDbEntity
  8
LAY-9
  6
CONTINUOUS
 62
     1
100
AcDbLine
 10
92.633769
 20
75.552824
 30
0.0
 11
92.799998
 21
75.500006
 31
0.0
  0
LINE
  5
520
100
AcDbEntity
  8
LAY-9
  6
CONTINUOUS
 62
     1
100
AcDbLine
 10
92.799998
 20
75.500006
 30
0.0
 11
93.024608
 21
75.42433
 31
0.0
  0
LINE
  5
521
100
AcDbEntity
  8
LAY-9
  6
CONTINUOUS
 62
     1
100
AcDbLine
 10
93.024608
 20
75.42433
 30
0.0
 11
93.252216
 21
75.345526
 31
0.0
  0
LINE
  5
522
100
AcDbEntity
  8
LAY-9
  6
CONTINUOUS
 62
     1
100
AcDbLine
 10
93.252216
 20
75.345526
 30
0.0
 11
93.481998
 21
75.26483
 31
0.0
  0
LINE
  5
523
100
AcDbEntity
  8
LAY-9
  6
CONTINUOUS
 62
     1
100
AcDbLine
 10
93.481998
 20
75.26483
 30
0.0
 11
93.713134
 21
75.183485
 31
0.0
  0
LINE
  5
524
100
AcDbEntity
  8
LAY-9
  6
CONTINUOUS
 62
     1
100
AcDbLine
 10
93.713134
 20
75.183485
 30
0.0
 11
93.944804
 21
75.102728
 31
0.0
  0
LINE
  5
525
100
AcDbEntity
  8
LAY-9
  6
CONTINUOUS
 62
     1
100
AcDbLine
 10
93.944804
 20
75.102728
 30
0.0
 11
94.176185
 21
75.023802
 31
0.0
  0
LINE
  5
526
100
AcDbEntity
  8
LAY-9
  6
CONTINUOUS
 62
     1
100
AcDbLine
 10
94.176185
 20
75.023802
 30
0.0
 11
94.406451
 21
74.94795
 31
0.0
  0
LINE
  5
527
100
AcDbEntity
  8
LAY-9
  6
CONTINUOUS
 62
     1
100
AcDbLine
 10
94.406451
 20
74.94795
 30
0.0
 11
94.634792
 21
74.876402
 31
0.0
  0
LINE
  5
528
100
AcDbEntity
  8
LAY-9
  6
CONTINUOUS
 62
     1
100
AcDbLine
 10
94.634792
 20
74.876402
 30
0.0
 11
94.860378
 21
74.8104
 31
0.0
  0
LINE
  5
529
100
AcDbEntity
  8
LAY-9
  6
CONTINUOUS
 62
     1
100
AcDbLine
 10
94.860378
 20
74.8104
 30
0.0
 11
95.082385
 21
74.751188
 31
0.0
  0
LINE
  5
52A
100
AcDbEntity
  8
LAY-9
  6
CONTINUOUS
 62
     1
100
AcDbLine
 10
95.082385
 20
74.751188
 30
0.0
 11
95.299998
 21
74.700003
 31
0.0
  0
LINE
  5
52B
100
AcDbEntity
  8
LAY-9
  6
CONTINUOUS
 62
     1
100
AcDbLine
 10
95.299998
 20
74.700003
 30
0.0
 11
95.753871
 21
74.619741
 31
0.0
  0
LINE
  5
52C
100
AcDbEntity
  8
LAY-9
  6
CONTINUOUS
 62
     1
100
AcDbLine
 10
95.753871
 20
74.619741
 30
0.0
 11
96.227035
 21
74.569227
 31
0.0
  0
LINE
  5
52D
100
AcDbEntity
  8
LAY-9
  6
CONTINUOUS
 62
     1
100
AcDbLine
 10
96.227035
 20
74.569227
 30
0.0
 11
96.715533
 21
74.545111
 31
0.0
  0
LINE
  5
52E
100
AcDbEntity
  8
LAY-9
  6
CONTINUOUS
 62
     1
100
AcDbLine
 10
96.715533
 20
74.545111
 30
0.0
 11
97.2154
 21
74.544043
 31
0.0
  0
LINE
  5
52F
100
AcDbEntity
  8
LAY-9
  6
CONTINUOUS
 62
     1
100
AcDbLine
 10
97.2154
 20
74.544043
 30
0.0
 11
97.722678
 21
74.562658
 31
0.0
  0
LINE
  5
530
100
AcDbEntity
  8
LAY-9
  6
CONTINUOUS
 62
     1
100
AcDbLine
 10
97.722678
 20
74.562658
 30
0.0
 11
98.233398
 21
74.597609
 31
0.0
  0
LINE
  5
531
100
AcDbEntity
  8
LAY-9
  6
CONTINUOUS
 62
     1
100
AcDbLine
 10
98.233398
 20
74.597609
 30
0.0
 11
98.743602
 21
74.645536
 31
0.0
  0
LINE
  5
532
100
AcDbEntity
  8
LAY-9
  6
CONTINUOUS
 62
     1
100
AcDbLine
 10
98.743602
 20
74.645536
 30
0.0
 11
99.249328
 21
74.7031
 31
0.0
  0
LINE
  5
533
100
AcDbEntity
  8
LAY-9
  6
CONTINUOUS
 62
     1
100
AcDbLine
 10
99.249328
 20
74.7031
 30
0.0
 11
99.746612
 21
74.766928
 31
0.0
  0
LINE
  5
534
100
AcDbEntity
  8
LAY-9
  6
CONTINUOUS
 62
     1
100
AcDbLine
 10
99.746612
 20
74.766928
 30
0.0
 11
100.23149
 21
74.833685
 31
0.0
  0
LINE
  5
535
100
AcDbEntity
  8
LAY-9
  6
CONTINUOUS
 62
     1
100
AcDbLine
 10
100.23149
 20
74.833685
 30
0.0
 11
100.7
 21
74.9
 31
0.0
  0
LINE
  5
536
100
AcDbEntity
  8
LAY-9
  6
CONTINUOUS
 62
     1
100
AcDbLine
 10
100.7
 20
74.9
 30
0.0
 11
100.98577
 21
74.937811
 31
0.0
  0
LINE
  5
537
100
AcDbEntity
  8
LAY-9
  6
CONTINUOUS
 62
     1
100
AcDbLine
 10
100.98577
 20
74.937811
 30
0.0
 11
101.28099
 21
74.971189
 31
0.0
  0
LINE
  5
538
100
AcDbEntity
  8
LAY-9
  6
CONTINUOUS
 62
     1
100
AcDbLine
 10
101.28099
 20
74.971189
 30
0.0
 11
101.583457
 21
74.999083
 31
0.0
  0
LINE
  5
539
100
AcDbEntity
  8
LAY-9
  6
CONTINUOUS
 62
     1
100
AcDbLine
 10
101.583457
 20
74.999083
 30
0.0
 11
101.890971
 21
75.020452
 31
0.0
  0
LINE
  5
53A
100
AcDbEntity
  8
LAY-9
  6
CONTINUOUS
 62
     1
100
AcDbLine
 10
101.890971
 20
75.020452
 30
0.0
 11
102.201331
 21
75.034262
 31
0.0
  0
LINE
  5
53B
100
AcDbEntity
  8
LAY-9
  6
CONTINUOUS
 62
     1
100
AcDbLine
 10
102.201331
 20
75.034262
 30
0.0
 11
102.512336
 21
75.039465
 31
0.0
  0
LINE
  5
53C
100
AcDbEntity
  8
LAY-9
  6
CONTINUOUS
 62
     1
100
AcDbLine
 10
102.512336
 20
75.039465
 30
0.0
 11
102.821784
 21
75.035025
 31
0.0
  0
LINE
  5
53D
100
AcDbEntity
  8
LAY-9
  6
CONTINUOUS
 62
     1
100
AcDbLine
 10
102.821784
 20
75.035025
 30
0.0
 11
103.127475
 21
75.019903
 31
0.0
  0
LINE
  5
53E
100
AcDbEntity
  8
LAY-9
  6
CONTINUOUS
 62
     1
100
AcDbLine
 10
103.127475
 20
75.019903
 30
0.0
 11
103.427211
 21
74.993048
 31
0.0
  0
LINE
  5
53F
100
AcDbEntity
  8
LAY-9
  6
CONTINUOUS
 62
     1
100
AcDbLine
 10
103.427211
 20
74.993048
 30
0.0
 11
103.718784
 21
74.953428
 31
0.0
  0
LINE
  5
540
100
AcDbEntity
  8
LAY-9
  6
CONTINUOUS
 62
     1
100
AcDbLine
 10
103.718784
 20
74.953428
 30
0.0
 11
104.000003
 21
74.9
 31
0.0
  0
LINE
  5
541
100
AcDbEntity
  8
LAY-9
  6
CONTINUOUS
 62
     1
100
AcDbLine
 10
104.000003
 20
74.9
 30
0.0
 11
104.307529
 21
74.826406
 31
0.0
  0
LINE
  5
542
100
AcDbEntity
  8
LAY-9
  6
CONTINUOUS
 62
     1
100
AcDbLine
 10
104.307529
 20
74.826406
 30
0.0
 11
104.621761
 21
74.741278
 31
0.0
  0
LINE
  5
543
100
AcDbEntity
  8
LAY-9
  6
CONTINUOUS
 62
     1
100
AcDbLine
 10
104.621761
 20
74.741278
 30
0.0
 11
104.941165
 21
74.647306
 31
0.0
  0
LINE
  5
544
100
AcDbEntity
  8
LAY-9
  6
CONTINUOUS
 62
     1
100
AcDbLine
 10
104.941165
 20
74.647306
 30
0.0
 11
105.264224
 21
74.547186
 31
0.0
  0
LINE
  5
545
100
AcDbEntity
  8
LAY-9
  6
CONTINUOUS
 62
     1
100
AcDbLine
 10
105.264224
 20
74.547186
 30
0.0
 11
105.589412
 21
74.443594
 31
0.0
  0
LINE
  5
546
100
AcDbEntity
  8
LAY-9
  6
CONTINUOUS
 62
     1
100
AcDbLine
 10
105.589412
 20
74.443594
 30
0.0
 11
105.91521
 21
74.339239
 31
0.0
  0
LINE
  5
547
100
AcDbEntity
  8
LAY-9
  6
CONTINUOUS
 62
     1
100
AcDbLine
 10
105.91521
 20
74.339239
 30
0.0
 11
106.2401
 21
74.236799
 31
0.0
  0
LINE
  5
548
100
AcDbEntity
  8
LAY-9
  6
CONTINUOUS
 62
     1
100
AcDbLine
 10
106.2401
 20
74.236799
 30
0.0
 11
106.562541
 21
74.13896
 31
0.0
  0
LINE
  5
549
100
AcDbEntity
  8
LAY-9
  6
CONTINUOUS
 62
     1
100
AcDbLine
 10
106.562541
 20
74.13896
 30
0.0
 11
106.881023
 21
74.048422
 31
0.0
  0
LINE
  5
54A
100
AcDbEntity
  8
LAY-9
  6
CONTINUOUS
 62
     1
100
AcDbLine
 10
106.881023
 20
74.048422
 30
0.0
 11
107.194019
 21
73.967878
 31
0.0
  0
LINE
  5
54B
100
AcDbEntity
  8
LAY-9
  6
CONTINUOUS
 62
     1
100
AcDbLine
 10
107.194019
 20
73.967878
 30
0.0
 11
107.500003
 21
73.9
 31
0.0
  0
LINE
  5
54C
100
AcDbEntity
  8
LAY-9
  6
CONTINUOUS
 62
     1
100
AcDbLine
 10
107.500003
 20
73.9
 30
0.0
 11
107.935916
 21
73.827696
 31
0.0
  0
LINE
  5
54D
100
AcDbEntity
  8
LAY-9
  6
CONTINUOUS
 62
     1
100
AcDbLine
 10
107.935916
 20
73.827696
 30
0.0
 11
108.389049
 21
73.781675
 31
0.0
  0
LINE
  5
54E
100
AcDbEntity
  8
LAY-9
  6
CONTINUOUS
 62
     1
100
AcDbLine
 10
108.389049
 20
73.781675
 30
0.0
 11
108.855518
 21
73.761633
 31
0.0
  0
LINE
  5
54F
100
AcDbEntity
  8
LAY-9
  6
CONTINUOUS
 62
     1
100
AcDbLine
 10
108.855518
 20
73.761633
 30
0.0
 11
109.331424
 21
73.767263
 31
0.0
  0
LINE
  5
550
100
AcDbEntity
  8
LAY-9
  6
CONTINUOUS
 62
     1
100
AcDbLine
 10
109.331424
 20
73.767263
 30
0.0
 11
109.812869
 21
73.798262
 31
0.0
  0
LINE
  5
551
100
AcDbEntity
  8
LAY-9
  6
CONTINUOUS
 62
     1
100
AcDbLine
 10
109.812869
 20
73.798262
 30
0.0
 11
110.29597
 21
73.85433
 31
0.0
  0
LINE
  5
552
100
AcDbEntity
  8
LAY-9
  6
CONTINUOUS
 62
     1
100
AcDbLine
 10
110.29597
 20
73.85433
 30
0.0
 11
110.776828
 21
73.935156
 31
0.0
  0
LINE
  5
553
100
AcDbEntity
  8
LAY-9
  6
CONTINUOUS
 62
     1
100
AcDbLine
 10
110.776828
 20
73.935156
 30
0.0
 11
111.251559
 21
74.040441
 31
0.0
  0
LINE
  5
554
100
AcDbEntity
  8
LAY-9
  6
CONTINUOUS
 62
     1
100
AcDbLine
 10
111.251559
 20
74.040441
 30
0.0
 11
111.716258
 21
74.169882
 31
0.0
  0
LINE
  5
555
100
AcDbEntity
  8
LAY-9
  6
CONTINUOUS
 62
     1
100
AcDbLine
 10
111.716258
 20
74.169882
 30
0.0
 11
112.167033
 21
74.323164
 31
0.0
  0
LINE
  5
556
100
AcDbEntity
  8
LAY-9
  6
CONTINUOUS
 62
     1
100
AcDbLine
 10
112.167033
 20
74.323164
 30
0.0
 11
112.600002
 21
74.500006
 31
0.0
  0
LINE
  5
557
100
AcDbEntity
  8
LAY-9
  6
CONTINUOUS
 62
     1
100
AcDbLine
 10
112.600002
 20
74.500006
 30
0.0
 11
112.988704
 21
74.673017
 31
0.0
  0
LINE
  5
558
100
AcDbEntity
  8
LAY-9
  6
CONTINUOUS
 62
     1
100
AcDbLine
 10
112.988704
 20
74.673017
 30
0.0
 11
113.38679
 21
74.847082
 31
0.0
  0
LINE
  5
559
100
AcDbEntity
  8
LAY-9
  6
CONTINUOUS
 62
     1
100
AcDbLine
 10
113.38679
 20
74.847082
 30
0.0
 11
113.792499
 21
75.017569
 31
0.0
  0
LINE
  5
55A
100
AcDbEntity
  8
LAY-9
  6
CONTINUOUS
 62
     1
100
AcDbLine
 10
113.792499
 20
75.017569
 30
0.0
 11
114.204051
 21
75.179884
 31
0.0
  0
LINE
  5
55B
100
AcDbEntity
  8
LAY-9
  6
CONTINUOUS
 62
     1
100
AcDbLine
 10
114.204051
 20
75.179884
 30
0.0
 11
114.619685
 21
75.329412
 31
0.0
  0
LINE
  5
55C
100
AcDbEntity
  8
LAY-9
  6
CONTINUOUS
 62
     1
100
AcDbLine
 10
114.619685
 20
75.329412
 30
0.0
 11
115.037631
 21
75.461546
 31
0.0
  0
LINE
  5
55D
100
AcDbEntity
  8
LAY-9
  6
CONTINUOUS
 62
     1
100
AcDbLine
 10
115.037631
 20
75.461546
 30
0.0
 11
115.456111
 21
75.571676
 31
0.0
  0
LINE
  5
55E
100
AcDbEntity
  8
LAY-9
  6
CONTINUOUS
 62
     1
100
AcDbLine
 10
115.456111
 20
75.571676
 30
0.0
 11
115.873355
 21
75.655195
 31
0.0
  0
LINE
  5
55F
100
AcDbEntity
  8
LAY-9
  6
CONTINUOUS
 62
     1
100
AcDbLine
 10
115.873355
 20
75.655195
 30
0.0
 11
116.287601
 21
75.707495
 31
0.0
  0
LINE
  5
560
100
AcDbEntity
  8
LAY-9
  6
CONTINUOUS
 62
     1
100
AcDbLine
 10
116.287601
 20
75.707495
 30
0.0
 11
116.69707
 21
75.723967
 31
0.0
  0
LINE
  5
561
100
AcDbEntity
  8
LAY-9
  6
CONTINUOUS
 62
     1
100
AcDbLine
 10
116.69707
 20
75.723967
 30
0.0
 11
117.100002
 21
75.700003
 31
0.0
  0
LINE
  5
562
100
AcDbEntity
  8
LAY-9
  6
CONTINUOUS
 62
     1
100
AcDbLine
 10
117.100002
 20
75.700003
 30
0.0
 11
117.33839
 21
75.664251
 31
0.0
  0
LINE
  5
563
100
AcDbEntity
  8
LAY-9
  6
CONTINUOUS
 62
     1
100
AcDbLine
 10
117.33839
 20
75.664251
 30
0.0
 11
117.576198
 21
75.612738
 31
0.0
  0
LINE
  5
564
100
AcDbEntity
  8
LAY-9
  6
CONTINUOUS
 62
     1
100
AcDbLine
 10
117.576198
 20
75.612738
 30
0.0
 11
117.813487
 21
75.547049
 31
0.0
  0
LINE
  5
565
100
AcDbEntity
  8
LAY-9
  6
CONTINUOUS
 62
     1
100
AcDbLine
 10
117.813487
 20
75.547049
 30
0.0
 11
118.050311
 21
75.46874
 31
0.0
  0
LINE
  5
566
100
AcDbEntity
  8
LAY-9
  6
CONTINUOUS
 62
     1
100
AcDbLine
 10
118.050311
 20
75.46874
 30
0.0
 11
118.286739
 21
75.379408
 31
0.0
  0
LINE
  5
567
100
AcDbEntity
  8
LAY-9
  6
CONTINUOUS
 62
     1
100
AcDbLine
 10
118.286739
 20
75.379408
 30
0.0
 11
118.522807
 21
75.280622
 31
0.0
  0
LINE
  5
568
100
AcDbEntity
  8
LAY-9
  6
CONTINUOUS
 62
     1
100
AcDbLine
 10
118.522807
 20
75.280622
 30
0.0
 11
118.758594
 21
75.173956
 31
0.0
  0
LINE
  5
569
100
AcDbEntity
  8
LAY-9
  6
CONTINUOUS
 62
     1
100
AcDbLine
 10
118.758594
 20
75.173956
 30
0.0
 11
118.994151
 21
75.06098
 31
0.0
  0
LINE
  5
56A
100
AcDbEntity
  8
LAY-9
  6
CONTINUOUS
 62
     1
100
AcDbLine
 10
118.994151
 20
75.06098
 30
0.0
 11
119.229526
 21
74.943281
 31
0.0
  0
LINE
  5
56B
100
AcDbEntity
  8
LAY-9
  6
CONTINUOUS
 62
     1
100
AcDbLine
 10
119.229526
 20
74.943281
 30
0.0
 11
119.464793
 21
74.822432
 31
0.0
  0
LINE
  5
56C
100
AcDbEntity
  8
LAY-9
  6
CONTINUOUS
 62
     1
100
AcDbLine
 10
119.464793
 20
74.822432
 30
0.0
 11
119.7
 21
74.700003
 31
0.0
  0
LINE
  5
56D
100
AcDbEntity
  8
LAY-9
  6
DASHED2
 62
     1
100
AcDbLine
 10
107.7
 20
78.500006
 30
0.0
 11
107.90005
 21
78.329382
 31
0.0
  0
LINE
  5
56E
100
AcDbEntity
  8
LAY-9
  6
DASHED2
 62
     1
100
AcDbLine
 10
107.90005
 20
78.329382
 30
0.0
 11
108.112819
 21
78.165693
 31
0.0
  0
LINE
  5
56F
100
AcDbEntity
  8
LAY-9
  6
DASHED2
 62
     1
100
AcDbLine
 10
108.112819
 20
78.165693
 30
0.0
 11
108.335277
 21
78.012548
 31
0.0
  0
LINE
  5
570
100
AcDbEntity
  8
LAY-9
  6
DASHED2
 62
     1
100
AcDbLine
 10
108.335277
 20
78.012548
 30
0.0
 11
108.564388
 21
77.873556
 31
0.0
  0
LINE
  5
571
100
AcDbEntity
  8
LAY-9
  6
DASHED2
 62
     1
100
AcDbLine
 10
108.564388
 20
77.873556
 30
0.0
 11
108.797122
 21
77.752325
 31
0.0
  0
LINE
  5
572
100
AcDbEntity
  8
LAY-9
  6
DASHED2
 62
     1
100
AcDbLine
 10
108.797122
 20
77.752325
 30
0.0
 11
109.03046
 21
77.652464
 31
0.0
  0
LINE
  5
573
100
AcDbEntity
  8
LAY-9
  6
DASHED2
 62
     1
100
AcDbLine
 10
109.03046
 20
77.652464
 30
0.0
 11
109.261356
 21
77.577574
 31
0.0
  0
LINE
  5
574
100
AcDbEntity
  8
LAY-9
  6
DASHED2
 62
     1
100
AcDbLine
 10
109.261356
 20
77.577574
 30
0.0
 11
109.486789
 21
77.531279
 31
0.0
  0
LINE
  5
575
100
AcDbEntity
  8
LAY-9
  6
DASHED2
 62
     1
100
AcDbLine
 10
109.486789
 20
77.531279
 30
0.0
 11
109.703731
 21
77.517179
 31
0.0
  0
LINE
  5
576
100
AcDbEntity
  8
LAY-9
  6
DASHED2
 62
     1
100
AcDbLine
 10
109.703731
 20
77.517179
 30
0.0
 11
109.909145
 21
77.538885
 31
0.0
  0
LINE
  5
577
100
AcDbEntity
  8
LAY-9
  6
DASHED2
 62
     1
100
AcDbLine
 10
109.909145
 20
77.538885
 30
0.0
 11
110.100002
 21
77.600004
 31
0.0
  0
LINE
  5
578
100
AcDbEntity
  8
LAY-9
  6
DASHED2
 62
     1
100
AcDbLine
 10
110.100002
 20
77.600004
 30
0.0
 11
110.220248
 21
77.661894
 31
0.0
  0
LINE
  5
579
100
AcDbEntity
  8
LAY-9
  6
DASHED2
 62
     1
100
AcDbLine
 10
110.220248
 20
77.661894
 30
0.0
 11
110.343539
 21
77.738623
 31
0.0
  0
LINE
  5
57A
100
AcDbEntity
  8
LAY-9
  6
DASHED2
 62
     1
100
AcDbLine
 10
110.343539
 20
77.738623
 30
0.0
 11
110.469318
 21
77.826574
 31
0.0
  0
LINE
  5
57B
100
AcDbEntity
  8
LAY-9
  6
DASHED2
 62
     1
100
AcDbLine
 10
110.469318
 20
77.826574
 30
0.0
 11
110.597049
 21
77.922132
 31
0.0
  0
LINE
  5
57C
100
AcDbEntity
  8
LAY-9
  6
DASHED2
 62
     1
100
AcDbLine
 10
110.597049
 20
77.922132
 30
0.0
 11
110.726192
 21
78.021681
 31
0.0
  0
LINE
  5
57D
100
AcDbEntity
  8
LAY-9
  6
DASHED2
 62
     1
100
AcDbLine
 10
110.726192
 20
78.021681
 30
0.0
 11
110.856189
 21
78.121588
 31
0.0
  0
LINE
  5
57E
100
AcDbEntity
  8
LAY-9
  6
DASHED2
 62
     1
100
AcDbLine
 10
110.856189
 20
78.121588
 30
0.0
 11
110.986499
 21
78.218252
 31
0.0
  0
LINE
  5
57F
100
AcDbEntity
  8
LAY-9
  6
DASHED2
 62
     1
100
AcDbLine
 10
110.986499
 20
78.218252
 30
0.0
 11
111.11658
 21
78.308035
 31
0.0
  0
LINE
  5
580
100
AcDbEntity
  8
LAY-9
  6
DASHED2
 62
     1
100
AcDbLine
 10
111.11658
 20
78.308035
 30
0.0
 11
111.245891
 21
78.387342
 31
0.0
  0
LINE
  5
581
100
AcDbEntity
  8
LAY-9
  6
DASHED2
 62
     1
100
AcDbLine
 10
111.245891
 20
78.387342
 30
0.0
 11
111.373874
 21
78.452536
 31
0.0
  0
LINE
  5
582
100
AcDbEntity
  8
LAY-9
  6
DASHED2
 62
     1
100
AcDbLine
 10
111.373874
 20
78.452536
 30
0.0
 11
111.500003
 21
78.500006
 31
0.0
  0
LINE
  5
583
100
AcDbEntity
  8
LAY-9
  6
DASHED2
 62
     1
100
AcDbLine
 10
111.500003
 20
78.500006
 30
0.0
 11
111.692119
 21
78.535726
 31
0.0
  0
LINE
  5
584
100
AcDbEntity
  8
LAY-9
  6
DASHED2
 62
     1
100
AcDbLine
 10
111.692119
 20
78.535726
 30
0.0
 11
111.895503
 21
78.535673
 31
0.0
  0
LINE
  5
585
100
AcDbEntity
  8
LAY-9
  6
DASHED2
 62
     1
100
AcDbLine
 10
111.895503
 20
78.535673
 30
0.0
 11
112.108134
 21
78.505735
 31
0.0
  0
LINE
  5
586
100
AcDbEntity
  8
LAY-9
  6
DASHED2
 62
     1
100
AcDbLine
 10
112.108134
 20
78.505735
 30
0.0
 11
112.327991
 21
78.451834
 31
0.0
  0
LINE
  5
587
100
AcDbEntity
  8
LAY-9
  6
DASHED2
 62
     1
100
AcDbLine
 10
112.327991
 20
78.451834
 30
0.0
 11
112.553066
 21
78.379881
 31
0.0
  0
LINE
  5
588
100
AcDbEntity
  8
LAY-9
  6
DASHED2
 62
     1
100
AcDbLine
 10
112.553066
 20
78.379881
 30
0.0
 11
112.781337
 21
78.295782
 31
0.0
  0
LINE
  5
589
100
AcDbEntity
  8
LAY-9
  6
DASHED2
 62
     1
100
AcDbLine
 10
112.781337
 20
78.295782
 30
0.0
 11
113.010783
 21
78.20545
 31
0.0
  0
LINE
  5
58A
100
AcDbEntity
  8
LAY-9
  6
DASHED2
 62
     1
100
AcDbLine
 10
113.010783
 20
78.20545
 30
0.0
 11
113.239391
 21
78.114798
 31
0.0
  0
LINE
  5
58B
100
AcDbEntity
  8
LAY-9
  6
DASHED2
 62
     1
100
AcDbLine
 10
113.239391
 20
78.114798
 30
0.0
 11
113.465137
 21
78.02973
 31
0.0
  0
LINE
  5
58C
100
AcDbEntity
  8
LAY-9
  6
DASHED2
 62
     1
100
AcDbLine
 10
113.465137
 20
78.02973
 30
0.0
 11
113.686015
 21
77.95616
 31
0.0
  0
LINE
  5
58D
100
AcDbEntity
  8
LAY-9
  6
DASHED2
 62
     1
100
AcDbLine
 10
113.686015
 20
77.95616
 30
0.0
 11
113.899997
 21
77.9
 31
0.0
  0
LINE
  5
58E
100
AcDbEntity
  8
LAY-9
  6
DASHED2
 62
     1
100
AcDbLine
 10
113.899997
 20
77.9
 30
0.0
 11
114.113933
 21
77.86717
 31
0.0
  0
LINE
  5
58F
100
AcDbEntity
  8
LAY-9
  6
DASHED2
 62
     1
100
AcDbLine
 10
114.113933
 20
77.86717
 30
0.0
 11
114.334674
 21
77.858213
 31
0.0
  0
LINE
  5
590
100
AcDbEntity
  8
LAY-9
  6
DASHED2
 62
     1
100
AcDbLine
 10
114.334674
 20
77.858213
 30
0.0
 11
114.560245
 21
77.871008
 31
0.0
  0
LINE
  5
591
100
AcDbEntity
  8
LAY-9
  6
DASHED2
 62
     1
100
AcDbLine
 10
114.560245
 20
77.871008
 30
0.0
 11
114.788646
 21
77.90341
 31
0.0
  0
LINE
  5
592
100
AcDbEntity
  8
LAY-9
  6
DASHED2
 62
     1
100
AcDbLine
 10
114.788646
 20
77.90341
 30
0.0
 11
115.017894
 21
77.953291
 31
0.0
  0
LINE
  5
593
100
AcDbEntity
  8
LAY-9
  6
DASHED2
 62
     1
100
AcDbLine
 10
115.017894
 20
77.953291
 30
0.0
 11
115.246005
 21
78.018515
 31
0.0
  0
LINE
  5
594
100
AcDbEntity
  8
LAY-9
  6
DASHED2
 62
     1
100
AcDbLine
 10
115.246005
 20
78.018515
 30
0.0
 11
115.470996
 21
78.096937
 31
0.0
  0
LINE
  5
595
100
AcDbEntity
  8
LAY-9
  6
DASHED2
 62
     1
100
AcDbLine
 10
115.470996
 20
78.096937
 30
0.0
 11
115.690883
 21
78.18643
 31
0.0
  0
LINE
  5
596
100
AcDbEntity
  8
LAY-9
  6
DASHED2
 62
     1
100
AcDbLine
 10
115.690883
 20
78.18643
 30
0.0
 11
115.903667
 21
78.284864
 31
0.0
  0
LINE
  5
597
100
AcDbEntity
  8
LAY-9
  6
DASHED2
 62
     1
100
AcDbLine
 10
115.903667
 20
78.284864
 30
0.0
 11
116.107364
 21
78.390104
 31
0.0
  0
LINE
  5
598
100
AcDbEntity
  8
LAY-9
  6
DASHED2
 62
     1
100
AcDbLine
 10
116.107364
 20
78.390104
 30
0.0
 11
116.299998
 21
78.500006
 31
0.0
  0
LINE
  5
599
100
AcDbEntity
  8
LAY-9
  6
DASHED2
 62
     1
100
AcDbLine
 10
116.299998
 20
78.500006
 30
0.0
 11
116.474658
 21
78.603521
 31
0.0
  0
LINE
  5
59A
100
AcDbEntity
  8
LAY-9
  6
DASHED2
 62
     1
100
AcDbLine
 10
116.474658
 20
78.603521
 30
0.0
 11
116.653964
 21
78.707098
 31
0.0
  0
LINE
  5
59B
100
AcDbEntity
  8
LAY-9
  6
DASHED2
 62
     1
100
AcDbLine
 10
116.653964
 20
78.707098
 30
0.0
 11
116.837451
 21
78.809278
 31
0.0
  0
LINE
  5
59C
100
AcDbEntity
  8
LAY-9
  6
DASHED2
 62
     1
100
AcDbLine
 10
116.837451
 20
78.809278
 30
0.0
 11
117.024654
 21
78.908583
 31
0.0
  0
LINE
  5
59D
100
AcDbEntity
  8
LAY-9
  6
DASHED2
 62
     1
100
AcDbLine
 10
117.024654
 20
78.908583
 30
0.0
 11
117.215106
 21
79.003546
 31
0.0
  0
LINE
  5
59E
100
AcDbEntity
  8
LAY-9
  6
DASHED2
 62
     1
100
AcDbLine
 10
117.215106
 20
79.003546
 30
0.0
 11
117.408344
 21
79.092703
 31
0.0
  0
LINE
  5
59F
100
AcDbEntity
  8
LAY-9
  6
DASHED2
 62
     1
100
AcDbLine
 10
117.408344
 20
79.092703
 30
0.0
 11
117.6039
 21
79.174589
 31
0.0
  0
LINE
  5
5A0
100
AcDbEntity
  8
LAY-9
  6
DASHED2
 62
     1
100
AcDbLine
 10
117.6039
 20
79.174589
 30
0.0
 11
117.801311
 21
79.247724
 31
0.0
  0
LINE
  5
5A1
100
AcDbEntity
  8
LAY-9
  6
DASHED2
 62
     1
100
AcDbLine
 10
117.801311
 20
79.247724
 30
0.0
 11
118.000102
 21
79.310652
 31
0.0
  0
LINE
  5
5A2
100
AcDbEntity
  8
LAY-9
  6
DASHED2
 62
     1
100
AcDbLine
 10
118.000102
 20
79.310652
 30
0.0
 11
118.199825
 21
79.361898
 31
0.0
  0
LINE
  5
5A3
100
AcDbEntity
  8
LAY-9
  6
DASHED2
 62
     1
100
AcDbLine
 10
118.199825
 20
79.361898
 30
0.0
 11
118.399997
 21
79.4
 31
0.0
  0
LINE
  5
5A4
100
AcDbEntity
  8
LAY-9
  6
DASHED2
 62
     1
100
AcDbLine
 10
118.399997
 20
79.4
 30
0.0
 11
118.514499
 21
79.415327
 31
0.0
  0
LINE
  5
5A5
100
AcDbEntity
  8
LAY-9
  6
DASHED2
 62
     1
100
AcDbLine
 10
118.514499
 20
79.415327
 30
0.0
 11
118.630054
 21
79.426275
 31
0.0
  0
LINE
  5
5A6
100
AcDbEntity
  8
LAY-9
  6
DASHED2
 62
     1
100
AcDbLine
 10
118.630054
 20
79.426275
 30
0.0
 11
118.746555
 21
79.433279
 31
0.0
  0
LINE
  5
5A7
100
AcDbEntity
  8
LAY-9
  6
DASHED2
 62
     1
100
AcDbLine
 10
118.746555
 20
79.433279
 30
0.0
 11
118.863895
 21
79.436781
 31
0.0
  0
LINE
  5
5A8
100
AcDbEntity
  8
LAY-9
  6
DASHED2
 62
     1
100
AcDbLine
 10
118.863895
 20
79.436781
 30
0.0
 11
118.981975
 21
79.437223
 31
0.0
  0
LINE
  5
5A9
100
AcDbEntity
  8
LAY-9
  6
DASHED2
 62
     1
100
AcDbLine
 10
118.981975
 20
79.437223
 30
0.0
 11
119.100681
 21
79.435034
 31
0.0
  0
LINE
  5
5AA
100
AcDbEntity
  8
LAY-9
  6
DASHED2
 62
     1
100
AcDbLine
 10
119.100681
 20
79.435034
 30
0.0
 11
119.219913
 21
79.430654
 31
0.0
  0
LINE
  5
5AB
100
AcDbEntity
  8
LAY-9
  6
DASHED2
 62
     1
100
AcDbLine
 10
119.219913
 20
79.430654
 30
0.0
 11
119.339565
 21
79.42452
 31
0.0
  0
LINE
  5
5AC
100
AcDbEntity
  8
LAY-9
  6
DASHED2
 62
     1
100
AcDbLine
 10
119.339565
 20
79.42452
 30
0.0
 11
119.459537
 21
79.417082
 31
0.0
  0
LINE
  5
5AD
100
AcDbEntity
  8
LAY-9
  6
DASHED2
 62
     1
100
AcDbLine
 10
119.459537
 20
79.417082
 30
0.0
 11
119.579715
 21
79.408758
 31
0.0
  0
LINE
  5
5AE
100
AcDbEntity
  8
LAY-9
  6
DASHED2
 62
     1
100
AcDbLine
 10
119.579715
 20
79.408758
 30
0.0
 11
119.7
 21
79.4
 31
0.0
  0
LINE
  5
5AF
100
AcDbEntity
  8
LAY-9
  6
CONTINUOUS
 62
     1
100
AcDbLine
 10
119.7
 20
79.4
 30
0.0
 11
119.893909
 21
79.334814
 31
0.0
  0
LINE
  5
5B0
100
AcDbEntity
  8
LAY-9
  6
CONTINUOUS
 62
     1
100
AcDbLine
 10
119.893909
 20
79.334814
 30
0.0
 11
120.098857
 21
79.27107
 31
0.0
  0
LINE
  5
5B1
100
AcDbEntity
  8
LAY-9
  6
CONTINUOUS
 62
     1
100
AcDbLine
 10
120.098857
 20
79.27107
 30
0.0
 11
120.312785
 21
79.208403
 31
0.0
  0
LINE
  5
5B2
100
AcDbEntity
  8
LAY-9
  6
CONTINUOUS
 62
     1
100
AcDbLine
 10
120.312785
 20
79.208403
 30
0.0
 11
120.533626
 21
79.146429
 31
0.0
  0
LINE
  5
5B3
100
AcDbEntity
  8
LAY-9
  6
CONTINUOUS
 62
     1
100
AcDbLine
 10
120.533626
 20
79.146429
 30
0.0
 11
120.759319
 21
79.084761
 31
0.0
  0
LINE
  5
5B4
100
AcDbEntity
  8
LAY-9
  6
CONTINUOUS
 62
     1
100
AcDbLine
 10
120.759319
 20
79.084761
 30
0.0
 11
120.987804
 21
79.023024
 31
0.0
  0
LINE
  5
5B5
100
AcDbEntity
  8
LAY-9
  6
CONTINUOUS
 62
     1
100
AcDbLine
 10
120.987804
 20
79.023024
 30
0.0
 11
121.217029
 21
78.960836
 31
0.0
  0
LINE
  5
5B6
100
AcDbEntity
  8
LAY-9
  6
CONTINUOUS
 62
     1
100
AcDbLine
 10
121.217029
 20
78.960836
 30
0.0
 11
121.444919
 21
78.897825
 31
0.0
  0
LINE
  5
5B7
100
AcDbEntity
  8
LAY-9
  6
CONTINUOUS
 62
     1
100
AcDbLine
 10
121.444919
 20
78.897825
 30
0.0
 11
121.669414
 21
78.833601
 31
0.0
  0
LINE
  5
5B8
100
AcDbEntity
  8
LAY-9
  6
CONTINUOUS
 62
     1
100
AcDbLine
 10
121.669414
 20
78.833601
 30
0.0
 11
121.888469
 21
78.76779
 31
0.0
  0
LINE
  5
5B9
100
AcDbEntity
  8
LAY-9
  6
CONTINUOUS
 62
     1
100
AcDbLine
 10
121.888469
 20
78.76779
 30
0.0
 11
122.100002
 21
78.700003
 31
0.0
  0
LINE
  5
5BA
100
AcDbEntity
  8
LAY-9
  6
CONTINUOUS
 62
     1
100
AcDbLine
 10
122.100002
 20
78.700003
 30
0.0
 11
122.365955
 21
78.612699
 31
0.0
  0
LINE
  5
5BB
100
AcDbEntity
  8
LAY-9
  6
CONTINUOUS
 62
     1
100
AcDbLine
 10
122.365955
 20
78.612699
 30
0.0
 11
122.642032
 21
78.525671
 31
0.0
  0
LINE
  5
5BC
100
AcDbEntity
  8
LAY-9
  6
CONTINUOUS
 62
     1
100
AcDbLine
 10
122.642032
 20
78.525671
 30
0.0
 11
122.925929
 21
78.441618
 31
0.0
  0
LINE
  5
5BD
100
AcDbEntity
  8
LAY-9
  6
CONTINUOUS
 62
     1
100
AcDbLine
 10
122.925929
 20
78.441618
 30
0.0
 11
123.21532
 21
78.363234
 31
0.0
  0
LINE
  5
5BE
100
AcDbEntity
  8
LAY-9
  6
CONTINUOUS
 62
     1
100
AcDbLine
 10
123.21532
 20
78.363234
 30
0.0
 11
123.507877
 21
78.293211
 31
0.0
  0
LINE
  5
5BF
100
AcDbEntity
  8
LAY-9
  6
CONTINUOUS
 62
     1
100
AcDbLine
 10
123.507877
 20
78.293211
 30
0.0
 11
123.801295
 21
78.234266
 31
0.0
  0
LINE
  5
5C0
100
AcDbEntity
  8
LAY-9
  6
CONTINUOUS
 62
     1
100
AcDbLine
 10
123.801295
 20
78.234266
 30
0.0
 11
124.093242
 21
78.189077
 31
0.0
  0
LINE
  5
5C1
100
AcDbEntity
  8
LAY-9
  6
CONTINUOUS
 62
     1
100
AcDbLine
 10
124.093242
 20
78.189077
 30
0.0
 11
124.381412
 21
78.160368
 31
0.0
  0
LINE
  5
5C2
100
AcDbEntity
  8
LAY-9
  6
CONTINUOUS
 62
     1
100
AcDbLine
 10
124.381412
 20
78.160368
 30
0.0
 11
124.66347
 21
78.150816
 31
0.0
  0
LINE
  5
5C3
100
AcDbEntity
  8
LAY-9
  6
CONTINUOUS
 62
     1
100
AcDbLine
 10
124.66347
 20
78.150816
 30
0.0
 11
124.937106
 21
78.16313
 31
0.0
  0
LINE
  5
5C4
100
AcDbEntity
  8
LAY-9
  6
CONTINUOUS
 62
     1
100
AcDbLine
 10
124.937106
 20
78.16313
 30
0.0
 11
125.2
 21
78.200003
 31
0.0
  0
LINE
  5
5C5
100
AcDbEntity
  8
LAY-9
  6
CONTINUOUS
 62
     1
100
AcDbLine
 10
125.2
 20
78.200003
 30
0.0
 11
125.460696
 21
78.261915
 31
0.0
  0
LINE
  5
5C6
100
AcDbEntity
  8
LAY-9
  6
CONTINUOUS
 62
     1
100
AcDbLine
 10
125.460696
 20
78.261915
 30
0.0
 11
125.72935
 21
78.344168
 31
0.0
  0
LINE
  5
5C7
100
AcDbEntity
  8
LAY-9
  6
CONTINUOUS
 62
     1
100
AcDbLine
 10
125.72935
 20
78.344168
 30
0.0
 11
126.004115
 21
78.441297
 31
0.0
  0
LINE
  5
5C8
100
AcDbEntity
  8
LAY-9
  6
CONTINUOUS
 62
     1
100
AcDbLine
 10
126.004115
 20
78.441297
 30
0.0
 11
126.283138
 21
78.547865
 31
0.0
  0
LINE
  5
5C9
100
AcDbEntity
  8
LAY-9
  6
CONTINUOUS
 62
     1
100
AcDbLine
 10
126.283138
 20
78.547865
 30
0.0
 11
126.564571
 21
78.658415
 31
0.0
  0
LINE
  5
5CA
100
AcDbEntity
  8
LAY-9
  6
CONTINUOUS
 62
     1
100
AcDbLine
 10
126.564571
 20
78.658415
 30
0.0
 11
126.846561
 21
78.767492
 31
0.0
  0
LINE
  5
5CB
100
AcDbEntity
  8
LAY-9
  6
CONTINUOUS
 62
     1
100
AcDbLine
 10
126.846561
 20
78.767492
 30
0.0
 11
127.127246
 21
78.869642
 31
0.0
  0
LINE
  5
5CC
100
AcDbEntity
  8
LAY-9
  6
CONTINUOUS
 62
     1
100
AcDbLine
 10
127.127246
 20
78.869642
 30
0.0
 11
127.404788
 21
78.959425
 31
0.0
  0
LINE
  5
5CD
100
AcDbEntity
  8
LAY-9
  6
CONTINUOUS
 62
     1
100
AcDbLine
 10
127.404788
 20
78.959425
 30
0.0
 11
127.677325
 21
79.031378
 31
0.0
  0
LINE
  5
5CE
100
AcDbEntity
  8
LAY-9
  6
CONTINUOUS
 62
     1
100
AcDbLine
 10
127.677325
 20
79.031378
 30
0.0
 11
127.943019
 21
79.080053
 31
0.0
  0
LINE
  5
5CF
100
AcDbEntity
  8
LAY-9
  6
CONTINUOUS
 62
     1
100
AcDbLine
 10
127.943019
 20
79.080053
 30
0.0
 11
128.2
 21
79.100004
 31
0.0
  0
LINE
  5
5D0
100
AcDbEntity
  8
LAY-9
  6
CONTINUOUS
 62
     1
100
AcDbLine
 10
128.2
 20
79.100004
 30
0.0
 11
128.427791
 21
79.091207
 31
0.0
  0
LINE
  5
5D1
100
AcDbEntity
  8
LAY-9
  6
CONTINUOUS
 62
     1
100
AcDbLine
 10
128.427791
 20
79.091207
 30
0.0
 11
128.664806
 21
79.060903
 31
0.0
  0
LINE
  5
5D2
100
AcDbEntity
  8
LAY-9
  6
CONTINUOUS
 62
     1
100
AcDbLine
 10
128.664806
 20
79.060903
 30
0.0
 11
128.909152
 21
79.01322
 31
0.0
  0
LINE
  5
5D3
100
AcDbEntity
  8
LAY-9
  6
CONTINUOUS
 62
     1
100
AcDbLine
 10
128.909152
 20
79.01322
 30
0.0
 11
129.158923
 21
78.952261
 31
0.0
  0
LINE
  5
5D4
100
AcDbEntity
  8
LAY-9
  6
CONTINUOUS
 62
     1
100
AcDbLine
 10
129.158923
 20
78.952261
 30
0.0
 11
129.412227
 21
78.882162
 31
0.0
  0
LINE
  5
5D5
100
AcDbEntity
  8
LAY-9
  6
CONTINUOUS
 62
     1
100
AcDbLine
 10
129.412227
 20
78.882162
 30
0.0
 11
129.667163
 21
78.80702
 31
0.0
  0
LINE
  5
5D6
100
AcDbEntity
  8
LAY-9
  6
CONTINUOUS
 62
     1
100
AcDbLine
 10
129.667163
 20
78.80702
 30
0.0
 11
129.921848
 21
78.730978
 31
0.0
  0
LINE
  5
5D7
100
AcDbEntity
  8
LAY-9
  6
CONTINUOUS
 62
     1
100
AcDbLine
 10
129.921848
 20
78.730978
 30
0.0
 11
130.174365
 21
78.658133
 31
0.0
  0
LINE
  5
5D8
100
AcDbEntity
  8
LAY-9
  6
CONTINUOUS
 62
     1
100
AcDbLine
 10
130.174365
 20
78.658133
 30
0.0
 11
130.422832
 21
78.592611
 31
0.0
  0
LINE
  5
5D9
100
AcDbEntity
  8
LAY-9
  6
CONTINUOUS
 62
     1
100
AcDbLine
 10
130.422832
 20
78.592611
 30
0.0
 11
130.66534
 21
78.538526
 31
0.0
  0
LINE
  5
5DA
100
AcDbEntity
  8
LAY-9
  6
CONTINUOUS
 62
     1
100
AcDbLine
 10
130.66534
 20
78.538526
 30
0.0
 11
130.899997
 21
78.500006
 31
0.0
  0
LINE
  5
5DB
100
AcDbEntity
  8
LAY-9
  6
CONTINUOUS
 62
     1
100
AcDbLine
 10
130.899997
 20
78.500006
 30
0.0
 11
131.138835
 21
78.479353
 31
0.0
  0
LINE
  5
5DC
100
AcDbEntity
  8
LAY-9
  6
CONTINUOUS
 62
     1
100
AcDbLine
 10
131.138835
 20
78.479353
 30
0.0
 11
131.385707
 21
78.475584
 31
0.0
  0
LINE
  5
5DD
100
AcDbEntity
  8
LAY-9
  6
CONTINUOUS
 62
     1
100
AcDbLine
 10
131.385707
 20
78.475584
 30
0.0
 11
131.63898
 21
78.486265
 31
0.0
  0
LINE
  5
5DE
100
AcDbEntity
  8
LAY-9
  6
CONTINUOUS
 62
     1
100
AcDbLine
 10
131.63898
 20
78.486265
 30
0.0
 11
131.897021
 21
78.508963
 31
0.0
  0
LINE
  5
5DF
100
AcDbEntity
  8
LAY-9
  6
CONTINUOUS
 62
     1
100
AcDbLine
 10
131.897021
 20
78.508963
 30
0.0
 11
132.158206
 21
78.54125
 31
0.0
  0
LINE
  5
5E0
100
AcDbEntity
  8
LAY-9
  6
CONTINUOUS
 62
     1
100
AcDbLine
 10
132.158206
 20
78.54125
 30
0.0
 11
132.420909
 21
78.580687
 31
0.0
  0
LINE
  5
5E1
100
AcDbEntity
  8
LAY-9
  6
CONTINUOUS
 62
     1
100
AcDbLine
 10
132.420909
 20
78.580687
 30
0.0
 11
132.683482
 21
78.624845
 31
0.0
  0
LINE
  5
5E2
100
AcDbEntity
  8
LAY-9
  6
CONTINUOUS
 62
     1
100
AcDbLine
 10
132.683482
 20
78.624845
 30
0.0
 11
132.944316
 21
78.671286
 31
0.0
  0
LINE
  5
5E3
100
AcDbEntity
  8
LAY-9
  6
CONTINUOUS
 62
     1
100
AcDbLine
 10
132.944316
 20
78.671286
 30
0.0
 11
133.201762
 21
78.717581
 31
0.0
  0
LINE
  5
5E4
100
AcDbEntity
  8
LAY-9
  6
CONTINUOUS
 62
     1
100
AcDbLine
 10
133.201762
 20
78.717581
 30
0.0
 11
133.454204
 21
78.761297
 31
0.0
  0
LINE
  5
5E5
100
AcDbEntity
  8
LAY-9
  6
CONTINUOUS
 62
     1
100
AcDbLine
 10
133.454204
 20
78.761297
 30
0.0
 11
133.7
 21
78.800001
 31
0.0
  0
LINE
  5
5E6
100
AcDbEntity
  8
LAY-9
  6
CONTINUOUS
 62
     1
100
AcDbLine
 10
133.7
 20
78.800001
 30
0.0
 11
133.934352
 21
78.829756
 31
0.0
  0
LINE
  5
5E7
100
AcDbEntity
  8
LAY-9
  6
CONTINUOUS
 62
     1
100
AcDbLine
 10
133.934352
 20
78.829756
 30
0.0
 11
134.173022
 21
78.851599
 31
0.0
  0
LINE
  5
5E8
100
AcDbEntity
  8
LAY-9
  6
CONTINUOUS
 62
     1
100
AcDbLine
 10
134.173022
 20
78.851599
 30
0.0
 11
134.415302
 21
78.866186
 31
0.0
  0
LINE
  5
5E9
100
AcDbEntity
  8
LAY-9
  6
CONTINUOUS
 62
     1
100
AcDbLine
 10
134.415302
 20
78.866186
 30
0.0
 11
134.660503
 21
78.874166
 31
0.0
  0
LINE
  5
5EA
100
AcDbEntity
  8
LAY-9
  6
CONTINUOUS
 62
     1
100
AcDbLine
 10
134.660503
 20
78.874166
 30
0.0
 11
134.907916
 21
78.876188
 31
0.0
  0
LINE
  5
5EB
100
AcDbEntity
  8
LAY-9
  6
CONTINUOUS
 62
     1
100
AcDbLine
 10
134.907916
 20
78.876188
 30
0.0
 11
135.156863
 21
78.872923
 31
0.0
  0
LINE
  5
5EC
100
AcDbEntity
  8
LAY-9
  6
CONTINUOUS
 62
     1
100
AcDbLine
 10
135.156863
 20
78.872923
 30
0.0
 11
135.406627
 21
78.865011
 31
0.0
  0
LINE
  5
5ED
100
AcDbEntity
  8
LAY-9
  6
CONTINUOUS
 62
     1
100
AcDbLine
 10
135.406627
 20
78.865011
 30
0.0
 11
135.65652
 21
78.853109
 31
0.0
  0
LINE
  5
5EE
100
AcDbEntity
  8
LAY-9
  6
CONTINUOUS
 62
     1
100
AcDbLine
 10
135.65652
 20
78.853109
 30
0.0
 11
135.905849
 21
78.837866
 31
0.0
  0
LINE
  5
5EF
100
AcDbEntity
  8
LAY-9
  6
CONTINUOUS
 62
     1
100
AcDbLine
 10
135.905849
 20
78.837866
 30
0.0
 11
136.153903
 21
78.819952
 31
0.0
  0
LINE
  5
5F0
100
AcDbEntity
  8
LAY-9
  6
CONTINUOUS
 62
     1
100
AcDbLine
 10
136.153903
 20
78.819952
 30
0.0
 11
136.399997
 21
78.800001
 31
0.0
  0
LINE
  5
5F1
100
AcDbEntity
  8
LAY-9
  6
CONTINUOUS
 62
     1
100
AcDbLine
 10
136.399997
 20
78.800001
 30
0.0
 11
136.820399
 21
78.761862
 31
0.0
  0
LINE
  5
5F2
100
AcDbEntity
  8
LAY-9
  6
CONTINUOUS
 62
     1
100
AcDbLine
 10
136.820399
 20
78.761862
 30
0.0
 11
137.240161
 21
78.71903
 31
0.0
  0
LINE
  5
5F3
100
AcDbEntity
  8
LAY-9
  6
CONTINUOUS
 62
     1
100
AcDbLine
 10
137.240161
 20
78.71903
 30
0.0
 11
137.659358
 21
78.671987
 31
0.0
  0
LINE
  5
5F4
100
AcDbEntity
  8
LAY-9
  6
CONTINUOUS
 62
     1
100
AcDbLine
 10
137.659358
 20
78.671987
 30
0.0
 11
138.078044
 21
78.621191
 31
0.0
  0
LINE
  5
5F5
100
AcDbEntity
  8
LAY-9
  6
CONTINUOUS
 62
     1
100
AcDbLine
 10
138.078044
 20
78.621191
 30
0.0
 11
138.496295
 21
78.567114
 31
0.0
  0
LINE
  5
5F6
100
AcDbEntity
  8
LAY-9
  6
CONTINUOUS
 62
     1
100
AcDbLine
 10
138.496295
 20
78.567114
 30
0.0
 11
138.914157
 21
78.510229
 31
0.0
  0
LINE
  5
5F7
100
AcDbEntity
  8
LAY-9
  6
CONTINUOUS
 62
     1
100
AcDbLine
 10
138.914157
 20
78.510229
 30
0.0
 11
139.331706
 21
78.450994
 31
0.0
  0
LINE
  5
5F8
100
AcDbEntity
  8
LAY-9
  6
CONTINUOUS
 62
     1
100
AcDbLine
 10
139.331706
 20
78.450994
 30
0.0
 11
139.749004
 21
78.389883
 31
0.0
  0
LINE
  5
5F9
100
AcDbEntity
  8
LAY-9
  6
CONTINUOUS
 62
     1
100
AcDbLine
 10
139.749004
 20
78.389883
 30
0.0
 11
140.166103
 21
78.327375
 31
0.0
  0
LINE
  5
5FA
100
AcDbEntity
  8
LAY-9
  6
CONTINUOUS
 62
     1
100
AcDbLine
 10
140.166103
 20
78.327375
 30
0.0
 11
140.583087
 21
78.263922
 31
0.0
  0
LINE
  5
5FB
100
AcDbEntity
  8
LAY-9
  6
CONTINUOUS
 62
     1
100
AcDbLine
 10
140.583087
 20
78.263922
 30
0.0
 11
141.000003
 21
78.200003
 31
0.0
  0
LINE
  5
5FC
100
AcDbEntity
  8
LAY-9
  6
CONTINUOUS
 62
     1
100
AcDbLine
 10
119.7
 20
226.4
 30
0.0
 11
119.7
 21
74.700003
 31
0.0
  0
LINE
  5
5FD
100
AcDbEntity
  8
LAY-9
  6
CONTINUOUS
 62
     1
100
AcDbLine
 10
79.7
 20
266.4
 30
0.0
 11
226.723363
 21
266.4
 31
0.0
  0
LINE
  5
5FE
100
AcDbEntity
  8
LAY-9
  6
DASHED2
 62
     1
100
AcDbLine
 10
90.7
 20
241.4
 30
0.0
 11
490.642188
 21
241.4
 31
0.0
  0
LINE
  5
5FF
100
AcDbEntity
  8
LAY-9
  6
DASHED2
 62
     1
100
AcDbLine
 10
89.7
 20
238.4
 30
0.0
 11
491.182961
 21
238.4
 31
0.0
  0
LINE
  5
600
100
AcDbEntity
  8
LAY-9
  6
CONTINUOUS
 62
     1
100
AcDbLine
 10
79.7
 20
432.5
 30
0.0
 11
79.7
 21
414.5
 31
0.0
  0
LINE
  5
601
100
AcDbEntity
  8
LAY-9
  6
CONTINUOUS
 62
     1
100
AcDbLine
 10
81.7
 20
412.5
 30
0.0
 11
117.7
 21
412.5
 31
0.0
  0
LINE
  5
602
100
AcDbEntity
  8
LAY-9
  6
CONTINUOUS
 62
     1
100
AcDbLine
 10
119.7
 20
414.5
 30
0.0
 11
119.7
 21
435.5
 31
0.0
  0
LINE
  5
603
100
AcDbEntity
  8
LAY-9
  6
CONTINUOUS
 62
     1
100
AcDbLine
 10
117.7
 20
437.5
 30
0.0
 11
104.7
 21
437.5
 31
0.0
  0
ARC
  5
604
100
AcDbEntity
  8
LAY-9
  6
CONTINUOUS
 62
     1
100
AcDbCircle
 10
107.7
 20
501.5
 30
0.0
 40
18.0
100
AcDbArc
 50
60.000026
 51
275.739147
  0
LINE
  5
605
100
AcDbEntity
  8
LAY-9
  6
CONTINUOUS
 62
     1
100
AcDbLine
 10
111.7
 20
479.5
 30
0.0
 11
111.7
 21
481.60025
 31
0.0
  0
LINE
  5
606
100
AcDbEntity
  8
LAY-9
  6
CONTINUOUS
 62
     1
100
AcDbLine
 10
165.7
 20
479.5
 30
0.0
 11
165.7
 21
487.643585
 31
0.0
  0
LINE
  5
607
100
AcDbEntity
  8
LAY-9
  6
CONTINUOUS
 62
     1
100
AcDbLine
 10
164.7
 20
489.375641
 30
0.0
 11
116.7
 21
517.08844
 31
0.0
  0
ARC
  5
608
100
AcDbEntity
  8
LAY-9
  6
CONTINUOUS
 62
     1
100
AcDbCircle
 10
109.7
 20
481.60025
 30
0.0
 40
2.0
100
AcDbArc
 50
0.0
 51
95.739185
  0
ARC
  5
609
100
AcDbEntity
  8
LAY-9
  6
CONTINUOUS
 62
     1
100
AcDbCircle
 10
163.7
 20
487.643585
 30
0.0
 40
2.0
100
AcDbArc
 50
0.0
 51
60.000026
  0
ARC
  5
60A
100
AcDbEntity
  8
LAY-9
  6
CONTINUOUS
 62
     1
100
AcDbCircle
 10
109.7
 20
477.5
 30
0.0
 40
2.0
100
AcDbArc
 50
89.999981
 51
180.00002
  0
ARC
  5
60B
100
AcDbEntity
  8
LAY-9
  6
CONTINUOUS
 62
     1
100
AcDbCircle
 10
109.7
 20
441.5
 30
0.0
 40
2.0
100
AcDbArc
 50
180.00002
 51
270.0
  0
ARC
  5
60C
100
AcDbEntity
  8
LAY-9
  6
CONTINUOUS
 62
     1
100
AcDbCircle
 10
81.7
 20
414.5
 30
0.0
 40
2.0
100
AcDbArc
 50
180.00002
 51
270.0
  0
ARC
  5
60D
100
AcDbEntity
  8
LAY-9
  6
CONTINUOUS
 62
     1
100
AcDbCircle
 10
117.7
 20
414.5
 30
0.0
 40
2.0
100
AcDbArc
 50
270.0
 51
0.0
  0
ARC
  5
60E
100
AcDbEntity
  8
LAY-9
  6
CONTINUOUS
 62
     1
100
AcDbCircle
 10
117.7
 20
435.5
 30
0.0
 40
2.0
100
AcDbArc
 50
0.0
 51
89.999981
  0
ARC
  5
60F
100
AcDbEntity
  8
LAY-9
  6
CONTINUOUS
 62
     1
100
AcDbCircle
 10
102.7
 20
480.5
 30
0.0
 40
2.0
100
AcDbArc
 50
0.0
 51
89.999981
  0
LINE
  5
610
100
AcDbEntity
  8
LAY-9
  6
CONTINUOUS
 62
     1
100
AcDbLine
 10
107.7
 20
477.7
 30
0.0
 11
107.7
 21
441.3
 31
0.0
  0
ARC
  5
611
100
AcDbEntity
  8
LAY-9
  6
CONTINUOUS
 62
     1
100
AcDbCircle
 10
81.7
 20
480.5
 30
0.0
 40
2.0
100
AcDbArc
 50
89.999981
 51
180.00002
  0
LINE
  5
612
100
AcDbEntity
  8
LAY-9
  6
CONTINUOUS
 62
     1
100
AcDbLine
 10
79.7
 20
480.5
 30
0.0
 11
79.7
 21
462.5
 31
0.0
  0
LINE
  5
613
100
AcDbEntity
  8
LAY-9
  6
CONTINUOUS
 62
     1
100
AcDbLine
 10
102.7
 20
482.5
 30
0.0
 11
81.7
 21
482.5
 31
0.0
  0
LINE
  5
614
100
AcDbEntity
  8
LAY-9
  6
CONTINUOUS
 62
     1
100
AcDbLine
 10
104.7
 20
437.5
 30
0.0
 11
104.7
 21
480.5
 31
0.0
  0
LINE
  5
615
100
AcDbEntity
  8
LAY-9
  6
CONTINUOUS
 62
     1
100
AcDbLine
 10
109.9
 20
479.5
 30
0.0
 11
491.0
 21
479.5
 31
0.0
  0
LINE
  5
616
100
AcDbEntity
  8
LAY-9
  6
CONTINUOUS
 62
     1
100
AcDbLine
 10
109.4
 20
439.5
 30
0.0
 11
181.7
 21
439.5
 31
0.0
  0
LINE
  5
617
100
AcDbEntity
  8
LAY-9
  6
DASHED2
 62
     1
100
AcDbLine
 10
654.8
 20
196.4
 30
0.0
 11
654.8
 21
136.4
 31
0.0
  0
LINE
  5
618
100
AcDbEntity
  8
LAY-9
  6
DASHED2
 62
     1
100
AcDbLine
 10
651.6
 20
196.4
 30
0.0
 11
654.8
 21
196.4
 31
0.0
  0
LINE
  5
619
100
AcDbEntity
  8
LAY-9
  6
DASHED2
 62
     1
100
AcDbLine
 10
651.6
 20
136.4
 30
0.0
 11
654.8
 21
136.4
 31
0.0
  0
LINE
  5
61A
100
AcDbEntity
  8
LAY-9
  6
DASHED2
 62
     1
100
AcDbLine
 10
624.6
 20
229.6
 30
0.0
 11
649.6
 21
229.6
 31
0.0
  0
LINE
  5
61B
100
AcDbEntity
  8
LAY-9
  6
CONTINUOUS
 62
     1
100
AcDbLine
 10
119.7
 20
226.4
 30
0.0
 11
147.0
 21
226.4
 31
0.0
  0
LINE
  5
61C
100
AcDbEntity
  8
LAY-9
  6
CONTINUOUS
 62
     1
100
AcDbLine
 10
121.2
 20
226.4
 30
0.0
 11
152.7
 21
226.4
 31
0.0
  0
LINE
  5
61D
100
AcDbEntity
  8
LAY-9
  6
DASHED2
 62
     1
100
AcDbLine
 10
245.7
 20
226.4
 30
0.0
 11
245.7
 21
229.6
 31
0.0
  0
LINE
  5
61E
100
AcDbEntity
  8
LAY-9
  6
DASHED2
 62
     1
100
AcDbLine
 10
149.7
 20
226.4
 30
0.0
 11
149.7
 21
229.6
 31
0.0
  0
LINE
  5
61F
100
AcDbEntity
  8
LAY-9
  6
DASHED2
 62
     1
100
AcDbLine
 10
149.7
 20
229.6
 30
0.0
 11
245.7
 21
229.6
 31
0.0
  0
LINE
  5
620
100
AcDbEntity
  8
LAY-9
  6
DASHED2
 62
     1
100
AcDbLine
 10
176.700031
 20
442.7
 30
0.0
 11
376.700031
 21
442.7
 31
0.0
  0
LINE
  5
621
100
AcDbEntity
  8
LAY-9
  6
DASHED2
 62
     1
100
AcDbLine
 10
376.700031
 20
439.5
 30
0.0
 11
376.700031
 21
442.7
 31
0.0
  0
LINE
  5
622
100
AcDbEntity
  8
LAY-9
  6
DASHED2
 62
     1
100
AcDbLine
 10
176.700031
 20
439.5
 30
0.0
 11
176.700031
 21
442.7
 31
0.0
  0
LINE
  5
623
100
AcDbEntity
  8
LAY-10
  6
CONTINUOUS
 62
     5
100
AcDbLine
 10
15.0
 20
15.0
 30
0.0
 11
826.0
 21
15.0
 31
0.0
  0
LINE
  5
624
100
AcDbEntity
  8
LAY-10
  6
CONTINUOUS
 62
     5
100
AcDbLine
 10
826.0
 20
15.0
 30
0.0
 11
826.0
 21
579.0
 31
0.0
  0
LINE
  5
625
100
AcDbEntity
  8
LAY-10
  6
CONTINUOUS
 62
     5
100
AcDbLine
 10
15.0
 20
15.0
 30
0.0
 11
15.0
 21
579.0
 31
0.0
  0
LINE
  5
626
100
AcDbEntity
  8
LAY-10
  6
CONTINUOUS
 62
     5
100
AcDbLine
 10
15.0
 20
579.0
 30
0.0
 11
826.0
 21
579.0
 31
0.0
  0
LINE
  5
627
100
AcDbEntity
  8
LAY-10
  6
CONTINUOUS
 62
     5
100
AcDbLine
 10
15.0
 20
40.0
 30
0.0
 11
826.0
 21
40.0
 31
0.0
  0
LINE
  5
628
100
AcDbEntity
  8
LAY-10
  6
CONTINUOUS
 62
     1
100
AcDbLine
 10
224.0
 20
40.0
 30
0.0
 11
224.0
 21
15.0
 31
0.0
  0
LINE
  5
629
100
AcDbEntity
  8
LAY-10
  6
CONTINUOUS
 62
     1
100
AcDbLine
 10
249.5
 20
40.0
 30
0.0
 11
249.5
 21
15.0
 31
0.0
  0
LINE
  5
62A
100
AcDbEntity
  8
LAY-10
  6
CONTINUOUS
 62
     1
100
AcDbLine
 10
275.0
 20
40.0
 30
0.0
 11
275.0
 21
15.0
 31
0.0
  0
LINE
  5
62B
100
AcDbEntity
  8
LAY-10
  6
CONTINUOUS
 62
     1
100
AcDbLine
 10
300.5
 20
40.0
 30
0.0
 11
300.5
 21
15.0
 31
0.0
  0
LINE
  5
62C
100
AcDbEntity
  8
LAY-10
  6
CONTINUOUS
 62
     1
100
AcDbLine
 10
326.0
 20
40.0
 30
0.0
 11
326.0
 21
15.0
 31
0.0
  0
LINE
  5
62D
100
AcDbEntity
  8
LAY-10
  6
CONTINUOUS
 62
     1
100
AcDbLine
 10
377.0
 20
40.0
 30
0.0
 11
377.0
 21
15.0
 31
0.0
  0
LINE
  5
62E
100
AcDbEntity
  8
LAY-10
  6
CONTINUOUS
 62
     1
100
AcDbLine
 10
738.0
 20
40.0
 30
0.0
 11
738.0
 21
15.0
 31
0.0
  0
LINE
  5
62F
100
AcDbEntity
  8
LAY-10
  6
CONTINUOUS
 62
     1
100
AcDbLine
 10
224.0
 20
32.0
 30
0.0
 11
377.0
 21
32.0
 31
0.0
  0
TEXT
  5
630
100
AcDbEntity
  8
LAY-10
  6
CONTINUOUS
 62
     4
100
AcDbText
 10
227.5
 20
33.0
 30
0.0
 40
6.0
  1
検　  図
 41
0.57856
  7
EXCADSTD
 72
     5
 11
246.700001
 21
33.0
 31
0.0
100
AcDbText
  0
TEXT
  5
631
100
AcDbEntity
  8
LAY-10
  6
CONTINUOUS
 62
     4
100
AcDbText
 10
253.2
 20
33.0
 30
0.0
 40
6.0
  1
担　　当
 41
0.672
  7
EXCADSTD
 72
     5
 11
272.400001
 21
33.0
 31
0.0
100
AcDbText
  0
TEXT
  5
632
100
AcDbEntity
  8
LAY-10
  6
CONTINUOUS
 62
     4
100
AcDbText
 10
278.4
 20
33.0
 30
0.0
 40
6.0
  1
製　　図
 41
0.672
  7
EXCADSTD
 72
     5
 11
297.600001
 21
33.0
 31
0.0
100
AcDbText
  0
TEXT
  5
633
100
AcDbEntity
  8
LAY-10
  6
CONTINUOUS
 62
     4
100
AcDbText
 10
303.9
 20
33.0
 30
0.0
 40
6.0
  1
尺　　度
 41
0.672
  7
EXCADSTD
 72
     5
 11
323.100001
 21
33.0
 31
0.0
100
AcDbText
  0
TEXT
  5
634
100
AcDbEntity
  8
LAY-10
  6
CONTINUOUS
 62
     4
100
AcDbText
 10
339.5
 20
33.0
 30
0.0
 40
6.0
  1
作成年月日
 41
0.672
  7
EXCADSTD
 72
     5
 11
363.500001
 21
33.0
 31
0.0
100
AcDbText
  0
TEXT
  5
635
100
AcDbEntity
  8
LAY-10
  6
CONTINUOUS
 62
   134
100
AcDbText
 10
42.98
 20
20.91
 30
0.0
 40
13.0
  1
日本ドアーチエック製造株式会社
 41
0.653908
  7
EXCADSTD
 72
     5
 11
194.779994
 21
20.91
 31
0.0
100
AcDbText
  0
LINE
  5
636
100
AcDbEntity
  8
LAY-10
  6
CONTINUOUS
 62
     1
100
AcDbLine
 10
841.0
 20
0.0
 30
0.0
 11
841.0
 21
2.0
 31
0.0
  0
LINE
  5
637
100
AcDbEntity
  8
LAY-10
  6
CONTINUOUS
 62
     1
100
AcDbLine
 10
841.0
 20
592.0
 30
0.0
 11
841.0
 21
594.0
 31
0.0
  0
LINE
  5
638
100
AcDbEntity
  8
LAY-10
  6
CONTINUOUS
 62
     1
100
AcDbLine
 10
841.0
 20
594.0
 30
0.0
 11
839.0
 21
594.0
 31
0.0
  0
LINE
  5
639
100
AcDbEntity
  8
LAY-10
  6
CONTINUOUS
 62
     1
100
AcDbLine
 10
2.0
 20
594.0
 30
0.0
 11
0.0
 21
594.0
 31
0.0
  0
LINE
  5
63A
100
AcDbEntity
  8
LAY-10
  6
CONTINUOUS
 62
     1
100
AcDbLine
 10
0.0
 20
594.0
 30
0.0
 11
0.0
 21
592.0
 31
0.0
  0
LINE
  5
63B
100
AcDbEntity
  8
LAY-10
  6
CONTINUOUS
 62
     1
100
AcDbLine
 10
0.0
 20
2.0
 30
0.0
 11
0.0
 21
0.0
 31
0.0
  0
LINE
  5
63C
100
AcDbEntity
  8
LAY-10
  6
CONTINUOUS
 62
     1
100
AcDbLine
 10
0.0
 20
0.0
 30
0.0
 11
2.0
 21
0.0
 31
0.0
  0
LINE
  5
63D
100
AcDbEntity
  8
LAY-10
  6
CONTINUOUS
 62
     1
100
AcDbLine
 10
839.0
 20
0.0
 30
0.0
 11
841.0
 21
0.0
 31
0.0
  0
TEXT
  5
63E
100
AcDbEntity
  8
LAY-10
  6
CONTINUOUS
 62
     4
100
AcDbText
 10
383.0
 20
33.0
 30
0.0
 40
6.0
  1
図 面 名
 41
0.57856
  7
EXCADSTD
 72
     5
 11
402.200001
 21
33.0
 31
0.0
100
AcDbText
  0
TEXT
  5
63F
100
AcDbEntity
  8
LAY-10
  6
CONTINUOUS
 62
     4
100
AcDbText
 10
744.0
 20
33.0
 30
0.0
 40
6.0
  1
図面番号
 41
0.672
  7
EXCADSTD
 72
     5
 11
763.200001
 21
33.0
 31
0.0
100
AcDbText
  0
TEXT
  5
640
100
AcDbEntity
  8
LAY-10
  6
CONTINUOUS
 62
     2
100
AcDbText
 10
306.5
 20
20.2
 30
0.0
 40
6.0
  1
１／１
 41
0.672
  7
EXCADSTD
 72
     5
 11
320.900001
 21
20.2
 31
0.0
100
AcDbText
  0
TEXT
  5
641
100
AcDbEntity
  8
LAY-10
  6
CONTINUOUS
 62
     2
100
AcDbText
 10
406.828367
 20
19.274519
 30
0.0
 40
10.0
  1
ドアクローザ　ＰＳ－５００２　納まり図
 41
0.672
  7
EXCADSTD
 72
     5
 11
558.828367
 21
19.274519
 31
0.0
100
AcDbText
  0
TEXT
  5
642
100
AcDbEntity
  8
LAY-10
  6
CONTINUOUS
 62
     2
100
AcDbText
 10
332.6
 20
20.2
 30
0.0
 40
6.0
  1
Ｈ１４.　６.　１
 41
0.622617
  7
EXCADSTD
 72
     5
 11
371.000002
 21
20.2
 31
0.0
100
AcDbText
  0
ENDSEC
  0
SECTION
  2
OBJECTS
  0
DICTIONARY
  5
19
100
AcDbDictionary
  3
ACAD_GROUP
350
1A
  3
ACAD_MLINESTYLE
350
1B
  0
DICTIONARY
  5
1A
102
{ACAD_REACTORS
330
19
102
}
100
AcDbDictionary
  0
DICTIONARY
  5
1B
102
{ACAD_REACTORS
330
19
102
}
100
AcDbDictionary
  3
STANDARD
350
1C
  0
MLINESTYLE
  5
1C
102
{ACAD_REACTORS
330
1B
102
}
100
AcDbMlineStyle
  2
Standard
 70
     0
  3

 62
     0
 51
90.0
 52
90.0
 71
     2
 49
0.5
 62
   256
  6
ByLayer
 49
-0.5
 62
   256
  6
ByLayer
  0
ENDSEC
  0
EOF
