  0
SECTION
  2
HEADER
  9
$ACADVER
  1
AC1014
  9
$ACADMAINTVER
 70
     0
  9
$DWGCODEPAGE
  3
ANSI_932
  9
$INSBASE
 10
0.0
 20
0.0
 30
0.0
  9
$EXTMIN
 10
0.0
 20
0.0
 30
0.0
  9
$EXTMAX
 10
841.0
 20
594.0
 30
0.0
  9
$LIMMIN
 10
0.0
 20
0.0
  9
$LIMMAX
 10
841.0
 20
594.0
  9
$ORTHOMODE
 70
     0
  9
$REGENMODE
 70
     1
  9
$FILLMODE
 70
     1
  9
$QTEXTMODE
 70
     0
  9
$MIRRTEXT
 70
     1
  9
$DRAGMODE
 70
     2
  9
$LTSCALE
 40
1.0
  9
$OSMODE
 70
     0
  9
$ATTMODE
 70
     1
  9
$TEXTSIZE
 40
0.2
  9
$TRACEWID
 40
0.05
  9
$TEXTSTYLE
  7
STANDARD
  9
$CLAYER
  8
LAY-1
  9
$CELTYPE
  6
CONTINUOUS
  9
$CECOLOR
 62
   256
  9
$CELTSCALE
 40
1.0
  9
$DELOBJ
 70
     1
  9
$DISPSILH
 70
     0
  9
$DIMSCALE
 40
1.0
  9
$DIMASZ
 40
0.18
  9
$DIMEXO
 40
0.0625
  9
$DIMDLI
 40
0.38
  9
$DIMRND
 40
0.0
  9
$DIMDLE
 40
0.0
  9
$DIMEXE
 40
0.18
  9
$DIMTP
 40
0.0
  9
$DIMTM
 40
0.0
  9
$DIMTXT
 40
0.18
  9
$DIMCEN
 40
0.09
  9
$DIMTSZ
 40
0.0
  9
$DIMTOL
 70
     0
  9
$DIMLIM
 70
     0
  9
$DIMTIH
 70
     1
  9
$DIMTOH
 70
     1
  9
$DIMSE1
 70
     0
  9
$DIMSE2
 70
     0
  9
$DIMTAD
 70
     0
  9
$DIMZIN
 70
     0
  9
$DIMBLK
  1

  9
$DIMASO
 70
     1
  9
$DIMSHO
 70
     1
  9
$DIMPOST
  1

  9
$DIMAPOST
  1

  9
$DIMALT
 70
     0
  9
$DIMALTD
 70
     2
  9
$DIMALTF
 40
25.4
  9
$DIMLFAC
 40
1.0
  9
$DIMTOFL
 70
     0
  9
$DIMTVP
 40
0.0
  9
$DIMTIX
 70
     0
  9
$DIMSOXD
 70
     0
  9
$DIMSAH
 70
     0
  9
$DIMBLK1
  1

  9
$DIMBLK2
  1

  9
$DIMSTYLE
  2
STANDARD
  9
$DIMCLRD
 70
     0
  9
$DIMCLRE
 70
     0
  9
$DIMCLRT
 70
     0
  9
$DIMTFAC
 40
1.0
  9
$DIMGAP
 40
0.09
  9
$DIMJUST
 70
     0
  9
$DIMSD1
 70
     0
  9
$DIMSD2
 70
     0
  9
$DIMTOLJ
 70
     1
  9
$DIMTZIN
 70
     0
  9
$DIMALTZ
 70
     0
  9
$DIMALTTZ
 70
     0
  9
$DIMFIT
 70
     3
  9
$DIMUPT
 70
     0
  9
$DIMUNIT
 70
     2
  9
$DIMDEC
 70
     4
  9
$DIMTDEC
 70
     4
  9
$DIMALTU
 70
     2
  9
$DIMALTTD
 70
     2
  9
$DIMTXSTY
  7
STANDARD
  9
$DIMAUNIT
 70
     0
  9
$LUNITS
 70
     2
  9
$LUPREC
 70
     4
  9
$SKETCHINC
 40
0.1
  9
$FILLETRAD
 40
0.0
  9
$AUNITS
 70
     0
  9
$AUPREC
 70
     0
  9
$MENU
  1
acad
  9
$ELEVATION
 40
0.0
  9
$PELEVATION
 40
0.0
  9
$THICKNESS
 40
0.0
  9
$LIMCHECK
 70
     0
  9
$BLIPMODE
 70
     1
  9
$CHAMFERA
 40
0.0
  9
$CHAMFERB
 40
0.0
  9
$CHAMFERC
 40
0.0
  9
$CHAMFERD
 40
0.0
  9
$SKPOLY
 70
     0
  9
$TDCREATE
 40
2454541.758336701
  9
$TDUPDATE
 40
2454541.758336701
  9
$TDINDWG
 40
0.0000000000
  9
$TDUSRTIMER
 40
0.0000000000
  9
$USRTIMER
 70
     1
  9
$ANGBASE
 50
0.0
  9
$ANGDIR
 70
     0
  9
$PDMODE
 70
     0
  9
$PDSIZE
 40
0.0
  9
$PLINEWID
 40
0.0
  9
$COORDS
 70
     1
  9
$SPLFRAME
 70
     0
  9
$SPLINETYPE
 70
     6
  9
$SPLINESEGS
 70
     8
  9
$ATTDIA
 70
     0
  9
$ATTREQ
 70
     1
  9
$HANDLING
 70
     1
  9
$HANDSEED
  5
674
  9
$SURFTAB1
 70
     6
  9
$SURFTAB2
 70
     6
  9
$SURFTYPE
 70
     6
  9
$SURFU
 70
     6
  9
$SURFV
 70
     6
  9
$UCSNAME
  2

  9
$UCSORG
 10
0.0
 20
0.0
 30
0.0
  9
$UCSXDIR
 10
1.0
 20
0.0
 30
0.0
  9
$UCSYDIR
 10
0.0
 20
1.0
 30
0.0
  9
$PUCSNAME
  2

  9
$PUCSORG
 10
0.0
 20
0.0
 30
0.0
  9
$PUCSXDIR
 10
1.0
 20
0.0
 30
0.0
  9
$PUCSYDIR
 10
0.0
 20
1.0
 30
0.0
  9
$USERI1
 70
     0
  9
$USERI2
 70
     0
  9
$USERI3
 70
     0
  9
$USERI4
 70
     0
  9
$USERI5
 70
     0
  9
$USERR1
 40
0.0
  9
$USERR2
 40
0.0
  9
$USERR3
 40
0.0
  9
$USERR4
 40
0.0
  9
$USERR5
 40
0.0
  9
$WORLDVIEW
 70
     1
  9
$SHADEDGE
 70
     3
  9
$SHADEDIF
 70
    70
  9
$TILEMODE
 70
     1
  9
$MAXACTVP
 70
    16
  9
$PINSBASE
 10
0.0
 20
0.0
 30
0.0
  9
$PLIMCHECK
 70
     0
  9
$PEXTMIN
 10
1.000000E+20
 20
1.000000E+20
 30
1.000000E+20
  9
$PEXTMAX
 10
-1.000000E+20
 20
-1.000000E+20
 30
-1.000000E+20
  9
$PLIMMIN
 10
0.0
 20
0.0
  9
$PLIMMAX
 10
12.0
 20
9.0
  9
$UNITMODE
 70
     0
  9
$VISRETAIN
 70
     0
  9
$PLINEGEN
 70
     1
  9
$PSLTSCALE
 70
     0
  9
$TREEDEPTH
 70
  3020
  9
$PICKSTYLE
 70
     1
  9
$CMLSTYLE
  2
Standard
  9
$CMLJUST
 70
     0
  9
$CMLSCALE
 40
1.0
  9
$PROXYGRAPHICS
 70
     0
  9
$MEASUREMENT
 70
     0
  0
ENDSEC
  0
SECTION
  2
CLASSES
  0
CLASS
  1
LWPOLYLINE
  2
AcDbPolyline
  3
"AutoCAD"
 90
        0
280
     0
281
     1
  0
CLASS
  1
IMAGE
  2
AcDbRasterImage
  3
ISM
 90
      127
280
     0
281
     1
  0
CLASS
  1
OLE2FRAME
  2
AcDbOle2Frame
  3
""
 90
        0
280
     0
281
     1
  0
CLASS
  1
HATCH
  2
AcDbHatch
  3
"ACAD_SEDONA"
 90
        0
280
     0
281
     1
  0
CLASS
  1
DICTIONARYVAR
  2
AcDbDictionaryVar
  3
"AutoCAD"
 90
        0
280
     0
281
     0
  0
CLASS
  1
RASTERVARIABLES
  2
AcDbRasterVariables
  3
ISM
 90
        0
280
     0
281
     0
  0
CLASS
  1
IMAGEDEF
  2
AcDbRasterImageDef
  3
ISM
 90
        0
280
     0
281
     0
  0
CLASS
  1
IMAGEDEF_REACTOR
  2
AcDbRasterImageDefReactor
  3
ISM
 90
        1
280
     0
281
     0
  0
CLASS
  1
IDBUFFER
  2
AcDbIdBuffer
  3
"Acad"
 90
        0
280
     0
281
     0
  0
CLASS
  1
SPATIAL_FILTER
  2
AcDbSpatialFilter
  3
"Acad"
 90
        0
280
     0
281
     0
  0
CLASS
  1
XRECORD
  2
AcDbXrecord
  3
"<Built In>"
 90
        0
280
     0
281
     0
  0
CLASS
  1
SORTENTSTABLE
  2
AcDbSortentsTable
  3
"AutoCAD"
 90
        0
280
     0
281
     0
  0
CLASS
  1
LAYER_INDEX
  2
AcDbLayerIndex
  3
"Acad"
 90
        0
280
     0
281
     0
  0
CLASS
  1
SPATIAL_INDEX
  2
AcDbSpatialIndex
  3
"Acad"
 90
        0
280
     0
281
     0
  0
CLASS
  1
OBJECT_PTR
  2
CAseDLPNTableRecord
  3
"ASE-LPNTableRecord"
 90
        1
280
     0
281
     0
  0
CLASS
  1
LAYOUT
  2
AcDbLayout
  3
"AutoCAD 2000"
 90
        0
280
     0
281
     0
  0
CLASS
  1
PLOTSETTINGS
  2
AcDbPlotSettings
  3
"AutoCAD 2000"
 90
        0
280
     0
281
     0
  0
CLASS
  1
ACDBDICTIONARYWDFLT
  2
AcDbDictionaryWithDefault
  3
"AutoCAD 2000"
 90
        0
280
     0
281
     0
  0
CLASS
  1
ACDBPLACEHOLDER
  2
AcDbPlaceHolder
  3
"AutoCAD 2000"
 90
        0
280
     0
281
     0
  0
CLASS
  1
VBA_PROJECT
  2
AcDbVbaProject
  3
"acadvba"
 90
        0
280
     0
281
     0
  0
CLASS
  1
WIPEOUT
  2
AcDbWipeout
  3
WipeOut|AutoCAD Express Tool|expresstools@autodesk.com
 90
      127
280
     0
281
     1
  0
CLASS
  1
WIPEOUTVARIABLES
  2
AcDbWipeoutVariables
  3
WipeOut|AutoCAD Express Tool|expresstools@autodesk.com
 90
        0
280
     0
281
     0
  0
CLASS
  1
RTEXT
  2
RText
  3
RText|AutoCAD Express Tool|expresstools@autodesk.com
 90
        0
280
     0
281
     1
  0
CLASS
  1
ARCALIGNEDTEXT
  2
AcDbArcAlignedText
  3
ATEXT|AutoCAD Express Tool|expresstools@autodesk.com
 90
        0
280
     0
281
     1
  0
ENDSEC
  0
SECTION
  2
TABLES
  0
TABLE
  2
VPORT
  5
7
100
AcDbSymbolTable
 70
     1
  0
VPORT
  5
15
100
AcDbSymbolTableRecord
100
AcDbViewportTableRecord
  2
*ACTIVE
 70
     0
 10
0.0
 20
0.0
 11
1.0
 21
1.0
 12
420.5
 22
297.0
 13
0.0
 23
0.0
 14
1.0
 24
1.0
 15
0.0
 25
0.0
 16
0.0
 26
0.0
 36
1.0
 17
0.0
 27
0.0
 37
0.0
 40
594.0
 41
1.722533
 42
50.0
 43
0.0
 44
0.0
 50
0.0
 51
0.0
 71
     0
 72
   100
 73
     1
 74
     1
 75
     0
 76
     0
 77
     0
 78
     0
  0
ENDTAB
  0
TABLE
  2
LTYPE
  5
4
100
AcDbSymbolTable
 70
     9
  0
LTYPE
  5
11
100
AcDbSymbolTableRecord
100
AcDbLinetypeTableRecord
  2
BYBLOCK
 70
    64
  3

 72
    65
 73
     0
 40
0.0
  0
LTYPE
  5
12
100
AcDbSymbolTableRecord
100
AcDbLinetypeTableRecord
  2
BYLAYER
 70
    64
  3

 72
    65
 73
     0
 40
0.0
  0
LTYPE
  5
13
100
AcDbSymbolTableRecord
100
AcDbLinetypeTableRecord
  2
CONTINUOUS
 70
    64
  3
実線
 72
    65
 73
     0
 40
0.0
  0
LTYPE
  5
1D
100
AcDbSymbolTableRecord
100
AcDbLinetypeTableRecord
  2
DASHED
 70
    64
  3
Dashed __ __ __ __ __ __ __ __ __ __ __ __ __ _
 72
    65
 73
     2
 40
19.05
 49
12.7
 74
     0
 49
-6.35
 74
     0
  0
LTYPE
  5
1E
100
AcDbSymbolTableRecord
100
AcDbLinetypeTableRecord
  2
DASHED2
 70
    64
  3
Dashed (.5x) _ _ _ _ _ _ _ _ _ _ _ _ _ _ _ _ _ 
 72
    65
 73
     2
 40
9.525
 49
6.35
 74
     0
 49
-3.175
 74
     0
  0
LTYPE
  5
1F
100
AcDbSymbolTableRecord
100
AcDbLinetypeTableRecord
  2
DASHDOT
 70
    64
  3
Dash dot __ . __ . __ . __ . __ . __ . __ . __
 72
    65
 73
     4
 40
25.4
 49
12.7
 74
     0
 49
-6.35
 74
     0
 49
0.0
 74
     0
 49
-6.35
 74
     0
  0
LTYPE
  5
20
100
AcDbSymbolTableRecord
100
AcDbLinetypeTableRecord
  2
DIVIDE
 70
    64
  3
Divide ____ . . ____ . . ____ . . ____ . . ____
 72
    65
 73
     6
 40
31.75
 49
12.7
 74
     0
 49
-6.35
 74
     0
 49
0.0
 74
     0
 49
-6.35
 74
     0
 49
0.0
 74
     0
 49
-6.35
 74
     0
  0
LTYPE
  5
21
100
AcDbSymbolTableRecord
100
AcDbLinetypeTableRecord
  2
ACAD_ISO06W100
 70
    64
  3
ISO long-dash triple-dot ____ ... ____ ... ____
 72
    65
 73
     8
 40
36.0
 49
24.0
 74
     0
 49
-3.0
 74
     0
 49
0.0
 74
     0
 49
-3.0
 74
     0
 49
0.0
 74
     0
 49
-3.0
 74
     0
 49
0.0
 74
     0
 49
-3.0
 74
     0
  0
LTYPE
  5
22
100
AcDbSymbolTableRecord
100
AcDbLinetypeTableRecord
  2
ACAD_ISO15W100
 70
    64
  3
ISO double-dash triple-dot __ __ . . . __ __ . .
 72
    65
 73
    10
 40
39.0
 49
12.0
 74
     0
 49
-3.0
 74
     0
 49
12.0
 74
     0
 49
-3.0
 74
     0
 49
0.0
 74
     0
 49
-3.0
 74
     0
 49
0.0
 74
     0
 49
-3.0
 74
     0
 49
0.0
 74
     0
 49
-3.0
 74
     0
  0
ENDTAB
  0
TABLE
  2
LAYER
  5
2
100
AcDbSymbolTable
 70
     9
  0
LAYER
  5
14
100
AcDbSymbolTableRecord
100
AcDbLayerTableRecord
  2
0
 70
     0
 62
     7
  6
CONTINUOUS
  0
LAYER
  5
25
100
AcDbSymbolTableRecord
100
AcDbLayerTableRecord
  2
LAY-1
 70
    64
 62
     3
  6
CONTINUOUS
  0
LAYER
  5
26
100
AcDbSymbolTableRecord
100
AcDbLayerTableRecord
  2
LAY-2
 70
    64
 62
     3
  6
CONTINUOUS
  0
LAYER
  5
27
100
AcDbSymbolTableRecord
100
AcDbLayerTableRecord
  2
LAY-3
 70
    64
 62
     3
  6
CONTINUOUS
  0
LAYER
  5
28
100
AcDbSymbolTableRecord
100
AcDbLayerTableRecord
  2
LAY-4
 70
    64
 62
     3
  6
CONTINUOUS
  0
LAYER
  5
29
100
AcDbSymbolTableRecord
100
AcDbLayerTableRecord
  2
LAY-5
 70
    64
 62
     1
  6
DASHDOT
  0
LAYER
  5
2A
100
AcDbSymbolTableRecord
100
AcDbLayerTableRecord
  2
LAY-6
 70
    64
 62
     2
  6
CONTINUOUS
  0
LAYER
  5
2B
100
AcDbSymbolTableRecord
100
AcDbLayerTableRecord
  2
LAY-9
 70
    64
 62
     1
  6
CONTINUOUS
  0
LAYER
  5
2C
100
AcDbSymbolTableRecord
100
AcDbLayerTableRecord
  2
LAY-10
 70
    64
 62
     5
  6
CONTINUOUS
  0
ENDTAB
  0
TABLE
  2
STYLE
  5
3
100
AcDbSymbolTable
 70
     3
  0
STYLE
  5
17
100
AcDbSymbolTableRecord
100
AcDbTextStyleTableRecord
  2
STANDARD
 70
     0
 40
0.0
 41
1.0
 50
0.0
 71
     0
 42
0.0
  3
monotxt
  4
extfont
  0
STYLE
  5
23
100
AcDbSymbolTableRecord
100
AcDbTextStyleTableRecord
  2
EXCADSTD
 70
    64
 40
0.0
 41
1.0
 50
0.0
 71
     0
 42
0.2
  3
monotxt
  4
extfont
  0
STYLE
  5
24
100
AcDbSymbolTableRecord
100
AcDbTextStyleTableRecord
  2
EXCADVERT
 70
    68
 40
0.0
 41
1.0
 50
0.0
 71
     0
 42
0.286885
  3
monotxt
  4
extfont
  0
ENDTAB
  0
TABLE
  2
VIEW
  5
5
100
AcDbSymbolTable
 70
     0
  0
ENDTAB
  0
TABLE
  2
UCS
  5
6
100
AcDbSymbolTable
 70
     0
  0
ENDTAB
  0
TABLE
  2
APPID
  5
8
100
AcDbSymbolTable
 70
     1
  0
APPID
  5
16
100
AcDbSymbolTableRecord
100
AcDbRegAppTableRecord
  2
ACAD
 70
     0
  0
ENDTAB
  0
TABLE
  2
DIMSTYLE
  5
9
100
AcDbSymbolTable
 70
     1
  0
DIMSTYLE
105
18
100
AcDbSymbolTableRecord
100
AcDbDimStyleTableRecord
  2
STANDARD
 70
     0
  3

  4

  5

  6

  7

 40
1.0
 41
0.18
 42
0.0625
 43
0.38
 44
0.18
 45
0.0
 46
0.0
 47
0.0
 48
0.0
 71
     0
 72
     0
 73
     1
 74
     1
 75
     0
 76
     0
 77
     0
 78
     0
140
0.18
141
0.09
142
0.0
143
25.4
144
1.0
145
0.0
146
1.0
147
0.09
170
     0
171
     2
172
     1
173
     0
174
     0
175
     0
176
     0
177
     0
178
     0
270
     2
271
     4
272
     4
273
     2
274
     2
275
     0
280
     0
281
     0
282
     0
283
     1
284
     0
285
     0
286
     0
287
     3
288
     0
340
17
  0
ENDTAB
  0
TABLE
  2
BLOCK_RECORD
  5
1
100
AcDbSymbolTable
 70
    14
  0
BLOCK_RECORD
  5
A
100
AcDbSymbolTableRecord
100
AcDbBlockTableRecord
  2
*MODEL_SPACE
  0
BLOCK_RECORD
  5
B
100
AcDbSymbolTableRecord
100
AcDbBlockTableRecord
  2
*PAPER_SPACE
  0
BLOCK_RECORD
  5
2D
100
AcDbSymbolTableRecord
100
AcDbBlockTableRecord
  2
_EX_NORM
  0
BLOCK_RECORD
  5
2E
100
AcDbSymbolTableRecord
100
AcDbBlockTableRecord
  2
_EX_BNORM
  0
BLOCK_RECORD
  5
2F
100
AcDbSymbolTableRecord
100
AcDbBlockTableRecord
  2
_EX_BCIR
  0
BLOCK_RECORD
  5
30
100
AcDbSymbolTableRecord
100
AcDbBlockTableRecord
  2
_EX_RCIVIL
  0
BLOCK_RECORD
  5
31
100
AcDbSymbolTableRecord
100
AcDbBlockTableRecord
  2
_EX_SLANT
  0
BLOCK_RECORD
  5
32
100
AcDbSymbolTableRecord
100
AcDbBlockTableRecord
  2
_EX_NONE
  0
BLOCK_RECORD
  5
33
100
AcDbSymbolTableRecord
100
AcDbBlockTableRecord
  2
_EX_CIVIL
  0
BLOCK_RECORD
  5
34
100
AcDbSymbolTableRecord
100
AcDbBlockTableRecord
  2
_EX_WCIR
  0
BLOCK_RECORD
  5
35
100
AcDbSymbolTableRecord
100
AcDbBlockTableRecord
  2
_EX_WCIR2
  0
BLOCK_RECORD
  5
36
100
AcDbSymbolTableRecord
100
AcDbBlockTableRecord
  2
_EX_WNORM
  0
BLOCK_RECORD
  5
37
100
AcDbSymbolTableRecord
100
AcDbBlockTableRecord
  2
_EX_NNORM
  0
BLOCK_RECORD
  5
38
100
AcDbSymbolTableRecord
100
AcDbBlockTableRecord
  2
_EX_BBOX
  0
BLOCK_RECORD
  5
39
100
AcDbSymbolTableRecord
100
AcDbBlockTableRecord
  2
_EX_WBOX
  0
BLOCK_RECORD
  5
3A
100
AcDbSymbolTableRecord
100
AcDbBlockTableRecord
  2
_EX_INTEGRAL
  0
ENDTAB
  0
ENDSEC
  0
SECTION
  2
BLOCKS
  0
BLOCK
  5
D
100
AcDbEntity
  8
0
100
AcDbBlockBegin
  2
*MODEL_SPACE
 70
     0
 10
0.0
 20
0.0
 30
0.0
  3
*MODEL_SPACE
  1

  0
ENDBLK
  5
E
100
AcDbEntity
  8
0
100
AcDbBlockEnd
  0
BLOCK
  5
F
100
AcDbEntity
 67
     1
  8
0
100
AcDbBlockBegin
  2
*PAPER_SPACE
 70
     0
 10
0.0
 20
0.0
 30
0.0
  3
*PAPER_SPACE
  1

  0
ENDBLK
  5
10
100
AcDbEntity
 67
     1
  8
0
100
AcDbBlockEnd
  0
BLOCK
  5
3B
100
AcDbEntity
  8
0
100
AcDbBlockBegin
  2
_EX_NORM
 70
     0
 10
0.0
 20
0.0
 30
0.0
  3
_EX_NORM
  1

  0
LINE
  5
3C
100
AcDbEntity
  8
0
  6
CONTINUOUS
 62
     0
100
AcDbLine
 10
0.0
 20
0.0
 30
0.0
 11
-1.0
 21
0.0
 31
0.0
  0
LINE
  5
3D
100
AcDbEntity
  8
0
  6
CONTINUOUS
 62
     0
100
AcDbLine
 10
0.0
 20
0.0
 30
0.0
 11
-1.0
 21
0.166667
 31
0.0
  0
LINE
  5
3E
100
AcDbEntity
  8
0
  6
CONTINUOUS
 62
     0
100
AcDbLine
 10
0.0
 20
0.0
 30
0.0
 11
-1.0
 21
-0.166667
 31
0.0
  0
ENDBLK
  5
3F
100
AcDbEntity
  8
0
100
AcDbBlockEnd
  0
BLOCK
  5
40
100
AcDbEntity
  8
0
100
AcDbBlockBegin
  2
_EX_BNORM
 70
     0
 10
0.0
 20
0.0
 30
0.0
  3
_EX_BNORM
  1

  0
LINE
  5
41
100
AcDbEntity
  8
0
  6
CONTINUOUS
 62
     0
100
AcDbLine
 10
0.0
 20
0.0
 30
0.0
 11
-1.0
 21
0.0
 31
0.0
  0
LINE
  5
42
100
AcDbEntity
  8
0
  6
CONTINUOUS
 62
     0
100
AcDbLine
 10
0.0
 20
0.0
 30
0.0
 11
-1.0
 21
0.166667
 31
0.0
  0
LINE
  5
43
100
AcDbEntity
  8
0
  6
CONTINUOUS
 62
     0
100
AcDbLine
 10
0.0
 20
0.0
 30
0.0
 11
-1.0
 21
-0.166667
 31
0.0
  0
LINE
  5
44
100
AcDbEntity
  8
0
  6
CONTINUOUS
 62
     0
100
AcDbLine
 10
0.0
 20
0.0
 30
0.0
 11
-1.0
 21
0.083333
 31
0.0
  0
LINE
  5
45
100
AcDbEntity
  8
0
  6
CONTINUOUS
 62
     0
100
AcDbLine
 10
0.0
 20
0.0
 30
0.0
 11
-1.0
 21
-0.083333
 31
0.0
  0
LINE
  5
46
100
AcDbEntity
  8
0
  6
CONTINUOUS
 62
     0
100
AcDbLine
 10
-1.0
 20
0.166667
 30
0.0
 11
-1.0
 21
-0.166667
 31
0.0
  0
ENDBLK
  5
47
100
AcDbEntity
  8
0
100
AcDbBlockEnd
  0
BLOCK
  5
48
100
AcDbEntity
  8
0
100
AcDbBlockBegin
  2
_EX_BCIR
 70
     0
 10
0.0
 20
0.0
 30
0.0
  3
_EX_BCIR
  1

  0
LINE
  5
49
100
AcDbEntity
  8
0
  6
CONTINUOUS
 62
     0
100
AcDbLine
 10
0.0
 20
0.0
 30
0.0
 11
-1.0
 21
0.0
 31
0.0
  0
CIRCLE
  5
4A
100
AcDbEntity
  8
0
  6
CONTINUOUS
 62
     0
100
AcDbCircle
 10
0.0
 20
0.0
 30
0.0
 40
0.5
  0
CIRCLE
  5
4B
100
AcDbEntity
  8
0
  6
CONTINUOUS
 62
     0
100
AcDbCircle
 10
0.0
 20
0.0
 30
0.0
 40
0.25
  0
ENDBLK
  5
4C
100
AcDbEntity
  8
0
100
AcDbBlockEnd
  0
BLOCK
  5
4D
100
AcDbEntity
  8
0
100
AcDbBlockBegin
  2
_EX_RCIVIL
 70
     0
 10
0.0
 20
0.0
 30
0.0
  3
_EX_RCIVIL
  1

  0
LINE
  5
4E
100
AcDbEntity
  8
0
  6
CONTINUOUS
 62
     0
100
AcDbLine
 10
0.0
 20
0.0
 30
0.0
 11
-1.0
 21
0.0
 31
0.0
  0
LINE
  5
4F
100
AcDbEntity
  8
0
  6
CONTINUOUS
 62
     0
100
AcDbLine
 10
-1.0
 20
-0.25
 30
0.0
 11
0.0
 21
-0.25
 31
0.0
  0
LINE
  5
50
100
AcDbEntity
  8
0
  6
CONTINUOUS
 62
     0
100
AcDbLine
 10
-1.0
 20
-0.125
 30
0.0
 11
0.0
 21
-0.125
 31
0.0
  0
ENDBLK
  5
51
100
AcDbEntity
  8
0
100
AcDbBlockEnd
  0
BLOCK
  5
52
100
AcDbEntity
  8
0
100
AcDbBlockBegin
  2
_EX_SLANT
 70
     0
 10
0.0
 20
0.0
 30
0.0
  3
_EX_SLANT
  1

  0
LINE
  5
53
100
AcDbEntity
  8
0
  6
CONTINUOUS
 62
     0
100
AcDbLine
 10
0.0
 20
0.0
 30
0.0
 11
-1.0
 21
0.0
 31
0.0
  0
LINE
  5
54
100
AcDbEntity
  8
0
  6
CONTINUOUS
 62
     0
100
AcDbLine
 10
0.707107
 20
0.707107
 30
0.0
 11
-0.707107
 21
-0.707107
 31
0.0
  0
ENDBLK
  5
55
100
AcDbEntity
  8
0
100
AcDbBlockEnd
  0
BLOCK
  5
56
100
AcDbEntity
  8
0
100
AcDbBlockBegin
  2
_EX_NONE
 70
     0
 10
0.0
 20
0.0
 30
0.0
  3
_EX_NONE
  1

  0
LINE
  5
57
100
AcDbEntity
  8
0
  6
CONTINUOUS
 62
     0
100
AcDbLine
 10
0.0
 20
0.0
 30
0.0
 11
-1.0
 21
0.0
 31
0.0
  0
ENDBLK
  5
58
100
AcDbEntity
  8
0
100
AcDbBlockEnd
  0
BLOCK
  5
59
100
AcDbEntity
  8
0
100
AcDbBlockBegin
  2
_EX_CIVIL
 70
     0
 10
0.0
 20
0.0
 30
0.0
  3
_EX_CIVIL
  1

  0
LINE
  5
5A
100
AcDbEntity
  8
0
  6
CONTINUOUS
 62
     0
100
AcDbLine
 10
0.0
 20
0.0
 30
0.0
 11
-1.0
 21
0.0
 31
0.0
  0
LINE
  5
5B
100
AcDbEntity
  8
0
  6
CONTINUOUS
 62
     0
100
AcDbLine
 10
-1.0
 20
0.25
 30
0.0
 11
0.0
 21
0.25
 31
0.0
  0
LINE
  5
5C
100
AcDbEntity
  8
0
  6
CONTINUOUS
 62
     0
100
AcDbLine
 10
-1.0
 20
0.125
 30
0.0
 11
0.0
 21
0.125
 31
0.0
  0
ENDBLK
  5
5D
100
AcDbEntity
  8
0
100
AcDbBlockEnd
  0
BLOCK
  5
5E
100
AcDbEntity
  8
0
100
AcDbBlockBegin
  2
_EX_WCIR
 70
     0
 10
0.0
 20
0.0
 30
0.0
  3
_EX_WCIR
  1

  0
LINE
  5
5F
100
AcDbEntity
  8
0
  6
CONTINUOUS
 62
     0
100
AcDbLine
 10
0.0
 20
0.0
 30
0.0
 11
-1.0
 21
0.0
 31
0.0
  0
CIRCLE
  5
60
100
AcDbEntity
  8
0
  6
CONTINUOUS
 62
     0
100
AcDbCircle
 10
0.0
 20
0.0
 30
0.0
 40
0.5
  0
ENDBLK
  5
61
100
AcDbEntity
  8
0
100
AcDbBlockEnd
  0
BLOCK
  5
62
100
AcDbEntity
  8
0
100
AcDbBlockBegin
  2
_EX_WCIR2
 70
     0
 10
0.0
 20
0.0
 30
0.0
  3
_EX_WCIR2
  1

  0
LINE
  5
63
100
AcDbEntity
  8
0
  6
CONTINUOUS
 62
     0
100
AcDbLine
 10
-0.5
 20
0.0
 30
0.0
 11
-1.0
 21
0.0
 31
0.0
  0
CIRCLE
  5
64
100
AcDbEntity
  8
0
  6
CONTINUOUS
 62
     0
100
AcDbCircle
 10
0.0
 20
0.0
 30
0.0
 40
0.5
  0
ENDBLK
  5
65
100
AcDbEntity
  8
0
100
AcDbBlockEnd
  0
BLOCK
  5
66
100
AcDbEntity
  8
0
100
AcDbBlockBegin
  2
_EX_WNORM
 70
     0
 10
0.0
 20
0.0
 30
0.0
  3
_EX_WNORM
  1

  0
LINE
  5
67
100
AcDbEntity
  8
0
  6
CONTINUOUS
 62
     0
100
AcDbLine
 10
-1.0
 20
0.0
 30
0.0
 11
-1.0
 21
0.0
 31
0.0
  0
LINE
  5
68
100
AcDbEntity
  8
0
  6
CONTINUOUS
 62
     0
100
AcDbLine
 10
0.0
 20
0.0
 30
0.0
 11
-1.0
 21
0.166667
 31
0.0
  0
LINE
  5
69
100
AcDbEntity
  8
0
  6
CONTINUOUS
 62
     0
100
AcDbLine
 10
0.0
 20
0.0
 30
0.0
 11
-1.0
 21
-0.166667
 31
0.0
  0
LINE
  5
6A
100
AcDbEntity
  8
0
  6
CONTINUOUS
 62
     0
100
AcDbLine
 10
-1.0
 20
0.166667
 30
0.0
 11
-1.0
 21
-0.166667
 31
0.0
  0
ENDBLK
  5
6B
100
AcDbEntity
  8
0
100
AcDbBlockEnd
  0
BLOCK
  5
6C
100
AcDbEntity
  8
0
100
AcDbBlockBegin
  2
_EX_NNORM
 70
     0
 10
0.0
 20
0.0
 30
0.0
  3
_EX_NNORM
  1

  0
LINE
  5
6D
100
AcDbEntity
  8
0
  6
CONTINUOUS
 62
     0
100
AcDbLine
 10
0.0
 20
0.0
 30
0.0
 11
-1.0
 21
0.0
 31
0.0
  0
LINE
  5
6E
100
AcDbEntity
  8
0
  6
CONTINUOUS
 62
     0
100
AcDbLine
 10
0.0
 20
0.0
 30
0.0
 11
-1.0
 21
0.166667
 31
0.0
  0
LINE
  5
6F
100
AcDbEntity
  8
0
  6
CONTINUOUS
 62
     0
100
AcDbLine
 10
0.0
 20
0.0
 30
0.0
 11
-1.0
 21
-0.166667
 31
0.0
  0
LINE
  5
70
100
AcDbEntity
  8
0
  6
CONTINUOUS
 62
     0
100
AcDbLine
 10
-1.0
 20
0.166667
 30
0.0
 11
-1.0
 21
-0.166667
 31
0.0
  0
ENDBLK
  5
71
100
AcDbEntity
  8
0
100
AcDbBlockEnd
  0
BLOCK
  5
72
100
AcDbEntity
  8
0
100
AcDbBlockBegin
  2
_EX_BBOX
 70
     0
 10
0.0
 20
0.0
 30
0.0
  3
_EX_BBOX
  1

  0
LINE
  5
73
100
AcDbEntity
  8
0
  6
CONTINUOUS
 62
     0
100
AcDbLine
 10
0.0
 20
0.0
 30
0.0
 11
-1.0
 21
0.0
 31
0.0
  0
LINE
  5
74
100
AcDbEntity
  8
0
  6
CONTINUOUS
 62
     0
100
AcDbLine
 10
-0.5
 20
0.5
 30
0.0
 11
0.5
 21
0.5
 31
0.0
  0
LINE
  5
75
100
AcDbEntity
  8
0
  6
CONTINUOUS
 62
     0
100
AcDbLine
 10
0.5
 20
0.5
 30
0.0
 11
0.5
 21
-0.5
 31
0.0
  0
LINE
  5
76
100
AcDbEntity
  8
0
  6
CONTINUOUS
 62
     0
100
AcDbLine
 10
0.5
 20
-0.5
 30
0.0
 11
-0.5
 21
-0.5
 31
0.0
  0
LINE
  5
77
100
AcDbEntity
  8
0
  6
CONTINUOUS
 62
     0
100
AcDbLine
 10
-0.5
 20
-0.5
 30
0.0
 11
-0.5
 21
0.5
 31
0.0
  0
LINE
  5
78
100
AcDbEntity
  8
0
  6
CONTINUOUS
 62
     0
100
AcDbLine
 10
-0.25
 20
0.25
 30
0.0
 11
0.25
 21
0.25
 31
0.0
  0
LINE
  5
79
100
AcDbEntity
  8
0
  6
CONTINUOUS
 62
     0
100
AcDbLine
 10
0.25
 20
0.25
 30
0.0
 11
0.25
 21
-0.25
 31
0.0
  0
LINE
  5
7A
100
AcDbEntity
  8
0
  6
CONTINUOUS
 62
     0
100
AcDbLine
 10
0.25
 20
-0.25
 30
0.0
 11
-0.25
 21
-0.25
 31
0.0
  0
LINE
  5
7B
100
AcDbEntity
  8
0
  6
CONTINUOUS
 62
     0
100
AcDbLine
 10
-0.25
 20
-0.25
 30
0.0
 11
-0.25
 21
0.25
 31
0.0
  0
ENDBLK
  5
7C
100
AcDbEntity
  8
0
100
AcDbBlockEnd
  0
BLOCK
  5
7D
100
AcDbEntity
  8
0
100
AcDbBlockBegin
  2
_EX_WBOX
 70
     0
 10
0.0
 20
0.0
 30
0.0
  3
_EX_WBOX
  1

  0
LINE
  5
7E
100
AcDbEntity
  8
0
  6
CONTINUOUS
 62
     0
100
AcDbLine
 10
-0.5
 20
0.0
 30
0.0
 11
-1.0
 21
0.0
 31
0.0
  0
LINE
  5
7F
100
AcDbEntity
  8
0
  6
CONTINUOUS
 62
     0
100
AcDbLine
 10
-0.5
 20
0.5
 30
0.0
 11
0.5
 21
0.5
 31
0.0
  0
LINE
  5
80
100
AcDbEntity
  8
0
  6
CONTINUOUS
 62
     0
100
AcDbLine
 10
0.5
 20
0.5
 30
0.0
 11
0.5
 21
-0.5
 31
0.0
  0
LINE
  5
81
100
AcDbEntity
  8
0
  6
CONTINUOUS
 62
     0
100
AcDbLine
 10
0.5
 20
-0.5
 30
0.0
 11
-0.5
 21
-0.5
 31
0.0
  0
LINE
  5
82
100
AcDbEntity
  8
0
  6
CONTINUOUS
 62
     0
100
AcDbLine
 10
-0.5
 20
-0.5
 30
0.0
 11
-0.5
 21
0.5
 31
0.0
  0
ENDBLK
  5
83
100
AcDbEntity
  8
0
100
AcDbBlockEnd
  0
BLOCK
  5
84
100
AcDbEntity
  8
0
100
AcDbBlockBegin
  2
_EX_INTEGRAL
 70
     0
 10
0.0
 20
0.0
 30
0.0
  3
_EX_INTEGRAL
  1

  0
LINE
  5
85
100
AcDbEntity
  8
0
  6
CONTINUOUS
 62
     0
100
AcDbLine
 10
0.0
 20
0.0
 30
0.0
 11
-1.0
 21
0.0
 31
0.0
  0
ARC
  5
86
100
AcDbEntity
  8
0
  6
CONTINUOUS
 62
     0
100
AcDbCircle
 10
0.542115
 20
0.164992
 30
0.0
 40
0.56667
100
AcDbArc
 50
73.07249
 51
196.927513
  0
ARC
  5
87
100
AcDbEntity
  8
0
  6
CONTINUOUS
 62
     0
100
AcDbCircle
 10
-0.542115
 20
-0.164992
 30
0.0
 40
0.56667
100
AcDbArc
 50
253.072487
 51
16.927513
  0
ENDBLK
  5
88
100
AcDbEntity
  8
0
100
AcDbBlockEnd
  0
ENDSEC
  0
SECTION
  2
ENTITIES
  0
LINE
  5
89
100
AcDbEntity
  8
LAY-1
  6
CONTINUOUS
 62
     3
100
AcDbLine
 10
209.0
 20
451.5
 30
0.0
 11
331.6
 21
451.5
 31
0.0
  0
ARC
  5
8A
100
AcDbEntity
  8
LAY-1
  6
CONTINUOUS
 62
     3
100
AcDbCircle
 10
275.0
 20
433.099992
 30
0.0
 40
16.0
100
AcDbArc
 50
25.668959
 51
164.037956
  0
LINE
  5
8B
100
AcDbEntity
  8
LAY-1
  6
CONTINUOUS
 62
     3
100
AcDbLine
 10
209.0
 20
451.5
 30
0.0
 11
397.0
 21
451.5
 31
0.0
  0
LINE
  5
8C
100
AcDbEntity
  8
LAY-1
  6
CONTINUOUS
 62
     3
100
AcDbLine
 10
209.0
 20
437.5
 30
0.0
 11
209.0
 21
451.5
 31
0.0
  0
LINE
  5
8D
100
AcDbEntity
  8
LAY-1
  6
CONTINUOUS
 62
     3
100
AcDbLine
 10
397.0
 20
417.0114
 30
0.0
 11
397.0
 21
451.50003
 31
0.0
  0
CIRCLE
  5
8E
100
AcDbEntity
  8
LAY-1
  6
CONTINUOUS
 62
     3
100
AcDbCircle
 10
274.99996
 20
433.1
 30
0.0
 40
6.0
  0
LINE
  5
8F
100
AcDbEntity
  8
LAY-1
  6
CONTINUOUS
 62
     3
100
AcDbLine
 10
272.449146
 20
433.775681
 30
0.0
 11
272.431274
 21
432.495806
 31
0.0
  0
LINE
  5
90
100
AcDbEntity
  8
LAY-1
  6
CONTINUOUS
 62
     3
100
AcDbLine
 10
277.568647
 20
433.704195
 30
0.0
 11
277.550775
 21
432.424319
 31
0.0
  0
LINE
  5
91
100
AcDbEntity
  8
LAY-1
  6
CONTINUOUS
 62
     3
100
AcDbLine
 10
274.395766
 20
435.668687
 30
0.0
 11
275.675641
 21
435.650815
 31
0.0
  0
LINE
  5
92
100
AcDbEntity
  8
LAY-1
  6
CONTINUOUS
 62
     3
100
AcDbLine
 10
274.324279
 20
430.549186
 30
0.0
 11
275.604155
 21
430.531314
 31
0.0
  0
LINE
  5
93
100
AcDbEntity
  8
LAY-1
  6
CONTINUOUS
 62
     3
100
AcDbLine
 10
272.449146
 20
433.775681
 30
0.0
 11
273.409052
 21
433.762277
 31
0.0
  0
LINE
  5
94
100
AcDbEntity
  8
LAY-1
  6
CONTINUOUS
 62
     3
100
AcDbLine
 10
276.60874
 20
433.717598
 30
0.0
 11
277.568647
 21
433.704195
 31
0.0
  0
LINE
  5
95
100
AcDbEntity
  8
LAY-1
  6
CONTINUOUS
 62
     3
100
AcDbLine
 10
275.675641
 20
435.650815
 30
0.0
 11
275.662237
 21
434.690909
 31
0.0
  0
LINE
  5
96
100
AcDbEntity
  8
LAY-1
  6
CONTINUOUS
 62
     3
100
AcDbLine
 10
275.617558
 20
431.49122
 30
0.0
 11
275.604155
 21
430.531314
 31
0.0
  0
LINE
  5
97
100
AcDbEntity
  8
LAY-1
  6
CONTINUOUS
 62
     3
100
AcDbLine
 10
272.431274
 20
432.495806
 30
0.0
 11
273.39118
 21
432.482402
 31
0.0
  0
LINE
  5
98
100
AcDbEntity
  8
LAY-1
  6
CONTINUOUS
 62
     3
100
AcDbLine
 10
276.590869
 20
432.437723
 30
0.0
 11
277.550775
 21
432.424319
 31
0.0
  0
LINE
  5
99
100
AcDbEntity
  8
LAY-1
  6
CONTINUOUS
 62
     3
100
AcDbLine
 10
274.395766
 20
435.668687
 30
0.0
 11
274.382362
 21
434.70878
 31
0.0
  0
LINE
  5
9A
100
AcDbEntity
  8
LAY-1
  6
CONTINUOUS
 62
     3
100
AcDbLine
 10
274.337683
 20
431.509092
 30
0.0
 11
274.324279
 21
430.549186
 31
0.0
  0
ARC
  5
9B
100
AcDbEntity
  8
LAY-1
  6
CONTINUOUS
 62
     3
100
AcDbCircle
 10
273.422456
 20
434.722184
 30
0.0
 40
0.96
100
AcDbArc
 50
269.2
 51
359.2
  0
ARC
  5
9C
100
AcDbEntity
  8
LAY-1
  6
CONTINUOUS
 62
     3
100
AcDbCircle
 10
276.622144
 20
434.677505
 30
0.0
 40
0.96
100
AcDbArc
 50
179.2
 51
269.2
  0
ARC
  5
9D
100
AcDbEntity
  8
LAY-1
  6
CONTINUOUS
 62
     3
100
AcDbCircle
 10
276.577465
 20
431.477817
 30
0.0
 40
0.96
100
AcDbArc
 50
89.2
 51
179.2
  0
ARC
  5
9E
100
AcDbEntity
  8
LAY-1
  6
CONTINUOUS
 62
     3
100
AcDbCircle
 10
273.377777
 20
431.522496
 30
0.0
 40
0.96
100
AcDbArc
 50
359.2
 51
89.2
  0
ARC
  5
9F
100
AcDbEntity
  8
LAY-1
  6
CONTINUOUS
 62
     3
100
AcDbCircle
 10
274.99996
 20
433.1
 30
0.0
 40
9.0
100
AcDbArc
 50
218.142441
 51
160.747997
  0
ARC
  5
A0
100
AcDbEntity
  8
LAY-1
  6
CONTINUOUS
 62
     3
100
AcDbCircle
 10
275.0
 20
433.099992
 30
0.0
 40
16.0
100
AcDbArc
 50
233.764184
 51
310.930008
  0
LINE
  5
A1
100
AcDbEntity
  8
LAY-1
  6
CONTINUOUS
 62
     3
100
AcDbLine
 10
314.554667
 20
414.599992
 30
0.0
 11
252.4582
 21
414.599992
 31
0.0
  0
POLYLINE
  5
A2
100
AcDbEntity
  8
LAY-1
  6
CONTINUOUS
 62
     3
100
AcDb2dPolyline
 66
     1
 10
0.0
 20
0.0
 30
0.0
 70
   128
  0
VERTEX
  5
A3
100
AcDbEntity
  8
LAY-1
  6
CONTINUOUS
 62
     3
100
AcDbVertex
100
AcDb2dVertex
 10
275.0
 20
438.873495
 30
0.0
  0
VERTEX
  5
A4
100
AcDbEntity
  8
LAY-1
  6
CONTINUOUS
 62
     3
100
AcDbVertex
100
AcDb2dVertex
 10
270.0
 20
435.986743
 30
0.0
  0
VERTEX
  5
A5
100
AcDbEntity
  8
LAY-1
  6
CONTINUOUS
 62
     3
100
AcDbVertex
100
AcDb2dVertex
 10
270.0
 20
430.213241
 30
0.0
  0
VERTEX
  5
A6
100
AcDbEntity
  8
LAY-1
  6
CONTINUOUS
 62
     3
100
AcDbVertex
100
AcDb2dVertex
 10
275.0
 20
427.326489
 30
0.0
  0
VERTEX
  5
A7
100
AcDbEntity
  8
LAY-1
  6
CONTINUOUS
 62
     3
100
AcDbVertex
100
AcDb2dVertex
 10
280.0
 20
430.213241
 30
0.0
  0
VERTEX
  5
A8
100
AcDbEntity
  8
LAY-1
  6
CONTINUOUS
 62
     3
100
AcDbVertex
100
AcDb2dVertex
 10
280.0
 20
435.986743
 30
0.0
  0
VERTEX
  5
A9
100
AcDbEntity
  8
LAY-1
  6
CONTINUOUS
 62
     3
100
AcDbVertex
100
AcDb2dVertex
 10
275.0
 20
438.873495
 30
0.0
  0
SEQEND
  5
AA
100
AcDbEntity
  8
LAY-1
  6
CONTINUOUS
 62
     3
  0
LINE
  5
AB
100
AcDbEntity
  8
LAY-1
  6
CONTINUOUS
 62
     3
100
AcDbLine
 10
209.0
 20
198.500062
 30
0.0
 11
209.0
 21
147.500062
 31
0.0
  0
LINE
  5
AC
100
AcDbEntity
  8
LAY-1
  6
CONTINUOUS
 62
     3
100
AcDbLine
 10
209.0
 20
198.500062
 30
0.0
 11
397.0
 21
198.500062
 31
0.0
  0
LINE
  5
AD
100
AcDbEntity
  8
LAY-1
  6
CONTINUOUS
 62
     3
100
AcDbLine
 10
397.0
 20
198.500062
 30
0.0
 11
397.0
 21
147.500062
 31
0.0
  0
LINE
  5
AE
100
AcDbEntity
  8
LAY-1
  6
CONTINUOUS
 62
     3
100
AcDbLine
 10
270.0
 20
140.500062
 30
0.0
 11
280.0
 21
140.500062
 31
0.0
  0
LINE
  5
AF
100
AcDbEntity
  8
LAY-1
  6
CONTINUOUS
 62
     3
100
AcDbLine
 10
209.0
 20
185.500062
 30
0.0
 11
216.0
 21
183.500062
 31
0.0
  0
LINE
  5
B0
100
AcDbEntity
  8
LAY-1
  6
CONTINUOUS
 62
     3
100
AcDbLine
 10
216.0
 20
183.500062
 30
0.0
 11
209.0
 21
181.500062
 31
0.0
  0
LINE
  5
B1
100
AcDbEntity
  8
LAY-1
  6
CONTINUOUS
 62
     1
100
AcDbLine
 10
215.175049
 20
183.264344
 30
0.0
 11
214.515075
 21
183.924318
 31
0.0
  0
LINE
  5
B2
100
AcDbEntity
  8
LAY-1
  6
CONTINUOUS
 62
     1
100
AcDbLine
 10
214.350097
 20
183.028627
 30
0.0
 11
213.030151
 21
184.348573
 31
0.0
  0
LINE
  5
B3
100
AcDbEntity
  8
LAY-1
  6
CONTINUOUS
 62
     1
100
AcDbLine
 10
213.525146
 20
182.792909
 30
0.0
 11
211.545227
 21
184.772859
 31
0.0
  0
LINE
  5
B4
100
AcDbEntity
  8
LAY-1
  6
CONTINUOUS
 62
     1
100
AcDbLine
 10
212.700195
 20
182.557222
 30
0.0
 11
210.060303
 21
185.197114
 31
0.0
  0
LINE
  5
B5
100
AcDbEntity
  8
LAY-1
  6
CONTINUOUS
 62
     1
100
AcDbLine
 10
211.875244
 20
182.321504
 30
0.0
 11
209.00003
 21
185.196748
 31
0.0
  0
LINE
  5
B6
100
AcDbEntity
  8
LAY-1
  6
CONTINUOUS
 62
     1
100
AcDbLine
 10
211.050293
 20
182.085786
 30
0.0
 11
209.00003
 21
184.136079
 31
0.0
  0
LINE
  5
B7
100
AcDbEntity
  8
LAY-1
  6
CONTINUOUS
 62
     1
100
AcDbLine
 10
210.225342
 20
181.850068
 30
0.0
 11
209.00003
 21
183.07541
 31
0.0
  0
LINE
  5
B8
100
AcDbEntity
  8
LAY-1
  6
CONTINUOUS
 62
     1
100
AcDbLine
 10
209.40039
 20
181.614381
 30
0.0
 11
209.00003
 21
182.014741
 31
0.0
  0
ARC
  5
B9
100
AcDbEntity
  8
LAY-1
  6
CONTINUOUS
 62
     3
100
AcDbCircle
 10
240.5
 20
193.000062
 30
0.0
 40
1.0
100
AcDbArc
 50
180.0
 51
270.0
  0
ARC
  5
BA
100
AcDbEntity
  8
LAY-1
  6
CONTINUOUS
 62
     3
100
AcDbCircle
 10
237.5
 20
190.000062
 30
0.0
 40
1.0
100
AcDbArc
 50
0.0
 51
90.0
  0
ARC
  5
BB
100
AcDbEntity
  8
LAY-1
  6
CONTINUOUS
 62
     3
100
AcDbCircle
 10
237.5
 20
193.000062
 30
0.0
 40
1.0
100
AcDbArc
 50
270.0
 51
0.0
  0
ARC
  5
BC
100
AcDbEntity
  8
LAY-1
  6
CONTINUOUS
 62
     3
100
AcDbCircle
 10
240.5
 20
190.000062
 30
0.0
 40
1.0
100
AcDbArc
 50
90.0
 51
180.0
  0
ARC
  5
BD
100
AcDbEntity
  8
LAY-1
  6
CONTINUOUS
 62
     3
100
AcDbCircle
 10
240.5
 20
193.000062
 30
0.0
 40
1.0
100
AcDbArc
 50
180.0
 51
270.0
  0
ARC
  5
BE
100
AcDbEntity
  8
LAY-1
  6
CONTINUOUS
 62
     3
100
AcDbCircle
 10
240.5
 20
190.000062
 30
0.0
 40
1.0
100
AcDbArc
 50
90.0
 51
180.0
  0
CIRCLE
  5
BF
100
AcDbEntity
  8
LAY-1
  6
CONTINUOUS
 62
     3
100
AcDbCircle
 10
239.0
 20
191.500062
 30
0.0
 40
5.0
  0
LINE
  5
C0
100
AcDbEntity
  8
LAY-1
  6
CONTINUOUS
 62
     3
100
AcDbLine
 10
239.5
 20
193.000062
 30
0.0
 11
239.5
 21
194.050062
 31
0.0
  0
LINE
  5
C1
100
AcDbEntity
  8
LAY-1
  6
CONTINUOUS
 62
     3
100
AcDbLine
 10
238.5
 20
194.050062
 30
0.0
 11
239.5
 21
194.050062
 31
0.0
  0
LINE
  5
C2
100
AcDbEntity
  8
LAY-1
  6
CONTINUOUS
 62
     3
100
AcDbLine
 10
238.5
 20
193.000062
 30
0.0
 11
238.5
 21
194.050062
 31
0.0
  0
LINE
  5
C3
100
AcDbEntity
  8
LAY-1
  6
CONTINUOUS
 62
     3
100
AcDbLine
 10
238.5
 20
193.000062
 30
0.0
 11
238.5
 21
194.050062
 31
0.0
  0
LINE
  5
C4
100
AcDbEntity
  8
LAY-1
  6
CONTINUOUS
 62
     3
100
AcDbLine
 10
239.5
 20
194.050062
 30
0.0
 11
238.5
 21
194.050062
 31
0.0
  0
LINE
  5
C5
100
AcDbEntity
  8
LAY-1
  6
CONTINUOUS
 62
     3
100
AcDbLine
 10
239.5
 20
193.000062
 30
0.0
 11
239.5
 21
194.050062
 31
0.0
  0
LINE
  5
C6
100
AcDbEntity
  8
LAY-1
  6
CONTINUOUS
 62
     3
100
AcDbLine
 10
236.45
 20
191.000062
 30
0.0
 11
236.45
 21
192.000062
 31
0.0
  0
LINE
  5
C7
100
AcDbEntity
  8
LAY-1
  6
CONTINUOUS
 62
     3
100
AcDbLine
 10
237.5
 20
191.000062
 30
0.0
 11
236.45
 21
191.000062
 31
0.0
  0
LINE
  5
C8
100
AcDbEntity
  8
LAY-1
  6
CONTINUOUS
 62
     3
100
AcDbLine
 10
237.5
 20
192.000062
 30
0.0
 11
236.45
 21
192.000062
 31
0.0
  0
LINE
  5
C9
100
AcDbEntity
  8
LAY-1
  6
CONTINUOUS
 62
     3
100
AcDbLine
 10
239.5
 20
188.950062
 30
0.0
 11
238.5
 21
188.950062
 31
0.0
  0
LINE
  5
CA
100
AcDbEntity
  8
LAY-1
  6
CONTINUOUS
 62
     3
100
AcDbLine
 10
239.5
 20
190.000062
 30
0.0
 11
239.5
 21
188.950062
 31
0.0
  0
LINE
  5
CB
100
AcDbEntity
  8
LAY-1
  6
CONTINUOUS
 62
     3
100
AcDbLine
 10
238.5
 20
190.000062
 30
0.0
 11
238.5
 21
188.950062
 31
0.0
  0
LINE
  5
CC
100
AcDbEntity
  8
LAY-1
  6
CONTINUOUS
 62
     3
100
AcDbLine
 10
238.5
 20
190.000062
 30
0.0
 11
238.5
 21
188.950062
 31
0.0
  0
LINE
  5
CD
100
AcDbEntity
  8
LAY-1
  6
CONTINUOUS
 62
     3
100
AcDbLine
 10
239.5
 20
190.000062
 30
0.0
 11
239.5
 21
188.950062
 31
0.0
  0
LINE
  5
CE
100
AcDbEntity
  8
LAY-1
  6
CONTINUOUS
 62
     3
100
AcDbLine
 10
241.55
 20
192.000062
 30
0.0
 11
241.55
 21
191.000062
 31
0.0
  0
LINE
  5
CF
100
AcDbEntity
  8
LAY-1
  6
CONTINUOUS
 62
     3
100
AcDbLine
 10
240.5
 20
191.000062
 30
0.0
 11
241.55
 21
191.000062
 31
0.0
  0
LINE
  5
D0
100
AcDbEntity
  8
LAY-1
  6
CONTINUOUS
 62
     3
100
AcDbLine
 10
240.5
 20
192.000062
 30
0.0
 11
241.55
 21
192.000062
 31
0.0
  0
LINE
  5
D1
100
AcDbEntity
  8
LAY-1
  6
CONTINUOUS
 62
     3
100
AcDbLine
 10
240.5
 20
192.000062
 30
0.0
 11
241.55
 21
192.000062
 31
0.0
  0
ARC
  5
D2
100
AcDbEntity
  8
LAY-1
  6
CONTINUOUS
 62
     3
100
AcDbCircle
 10
376.5
 20
193.000062
 30
0.0
 40
1.0
100
AcDbArc
 50
180.0
 51
270.0
  0
ARC
  5
D3
100
AcDbEntity
  8
LAY-1
  6
CONTINUOUS
 62
     3
100
AcDbCircle
 10
373.5
 20
190.000062
 30
0.0
 40
1.0
100
AcDbArc
 50
0.0
 51
90.0
  0
ARC
  5
D4
100
AcDbEntity
  8
LAY-1
  6
CONTINUOUS
 62
     3
100
AcDbCircle
 10
373.5
 20
193.000062
 30
0.0
 40
1.0
100
AcDbArc
 50
270.0
 51
0.0
  0
ARC
  5
D5
100
AcDbEntity
  8
LAY-1
  6
CONTINUOUS
 62
     3
100
AcDbCircle
 10
376.5
 20
190.000062
 30
0.0
 40
1.0
100
AcDbArc
 50
90.0
 51
180.0
  0
ARC
  5
D6
100
AcDbEntity
  8
LAY-1
  6
CONTINUOUS
 62
     3
100
AcDbCircle
 10
376.5
 20
193.000062
 30
0.0
 40
1.0
100
AcDbArc
 50
180.0
 51
270.0
  0
ARC
  5
D7
100
AcDbEntity
  8
LAY-1
  6
CONTINUOUS
 62
     3
100
AcDbCircle
 10
376.5
 20
190.000062
 30
0.0
 40
1.0
100
AcDbArc
 50
90.0
 51
180.0
  0
CIRCLE
  5
D8
100
AcDbEntity
  8
LAY-1
  6
CONTINUOUS
 62
     3
100
AcDbCircle
 10
375.0
 20
191.500062
 30
0.0
 40
5.0
  0
LINE
  5
D9
100
AcDbEntity
  8
LAY-1
  6
CONTINUOUS
 62
     3
100
AcDbLine
 10
375.5
 20
193.000062
 30
0.0
 11
375.5
 21
194.050062
 31
0.0
  0
LINE
  5
DA
100
AcDbEntity
  8
LAY-1
  6
CONTINUOUS
 62
     3
100
AcDbLine
 10
374.5
 20
194.050062
 30
0.0
 11
375.5
 21
194.050062
 31
0.0
  0
LINE
  5
DB
100
AcDbEntity
  8
LAY-1
  6
CONTINUOUS
 62
     3
100
AcDbLine
 10
374.5
 20
193.000062
 30
0.0
 11
374.5
 21
194.050062
 31
0.0
  0
LINE
  5
DC
100
AcDbEntity
  8
LAY-1
  6
CONTINUOUS
 62
     3
100
AcDbLine
 10
374.5
 20
193.000062
 30
0.0
 11
374.5
 21
194.050062
 31
0.0
  0
LINE
  5
DD
100
AcDbEntity
  8
LAY-1
  6
CONTINUOUS
 62
     3
100
AcDbLine
 10
375.5
 20
194.050062
 30
0.0
 11
374.5
 21
194.050062
 31
0.0
  0
LINE
  5
DE
100
AcDbEntity
  8
LAY-1
  6
CONTINUOUS
 62
     3
100
AcDbLine
 10
375.5
 20
193.000062
 30
0.0
 11
375.5
 21
194.050062
 31
0.0
  0
LINE
  5
DF
100
AcDbEntity
  8
LAY-1
  6
CONTINUOUS
 62
     3
100
AcDbLine
 10
372.45
 20
191.000062
 30
0.0
 11
372.45
 21
192.000062
 31
0.0
  0
LINE
  5
E0
100
AcDbEntity
  8
LAY-1
  6
CONTINUOUS
 62
     3
100
AcDbLine
 10
373.5
 20
191.000062
 30
0.0
 11
372.45
 21
191.000062
 31
0.0
  0
LINE
  5
E1
100
AcDbEntity
  8
LAY-1
  6
CONTINUOUS
 62
     3
100
AcDbLine
 10
373.5
 20
192.000062
 30
0.0
 11
372.45
 21
192.000062
 31
0.0
  0
LINE
  5
E2
100
AcDbEntity
  8
LAY-1
  6
CONTINUOUS
 62
     3
100
AcDbLine
 10
375.5
 20
188.950062
 30
0.0
 11
374.5
 21
188.950062
 31
0.0
  0
LINE
  5
E3
100
AcDbEntity
  8
LAY-1
  6
CONTINUOUS
 62
     3
100
AcDbLine
 10
375.5
 20
190.000062
 30
0.0
 11
375.5
 21
188.950062
 31
0.0
  0
LINE
  5
E4
100
AcDbEntity
  8
LAY-1
  6
CONTINUOUS
 62
     3
100
AcDbLine
 10
374.5
 20
190.000062
 30
0.0
 11
374.5
 21
188.950062
 31
0.0
  0
LINE
  5
E5
100
AcDbEntity
  8
LAY-1
  6
CONTINUOUS
 62
     3
100
AcDbLine
 10
374.5
 20
190.000062
 30
0.0
 11
374.5
 21
188.950062
 31
0.0
  0
LINE
  5
E6
100
AcDbEntity
  8
LAY-1
  6
CONTINUOUS
 62
     3
100
AcDbLine
 10
375.5
 20
190.000062
 30
0.0
 11
375.5
 21
188.950062
 31
0.0
  0
LINE
  5
E7
100
AcDbEntity
  8
LAY-1
  6
CONTINUOUS
 62
     3
100
AcDbLine
 10
377.55
 20
192.000062
 30
0.0
 11
377.55
 21
191.000062
 31
0.0
  0
LINE
  5
E8
100
AcDbEntity
  8
LAY-1
  6
CONTINUOUS
 62
     3
100
AcDbLine
 10
376.5
 20
191.000062
 30
0.0
 11
377.55
 21
191.000062
 31
0.0
  0
LINE
  5
E9
100
AcDbEntity
  8
LAY-1
  6
CONTINUOUS
 62
     3
100
AcDbLine
 10
376.5
 20
192.000062
 30
0.0
 11
377.55
 21
192.000062
 31
0.0
  0
LINE
  5
EA
100
AcDbEntity
  8
LAY-1
  6
CONTINUOUS
 62
     3
100
AcDbLine
 10
376.5
 20
192.000062
 30
0.0
 11
377.55
 21
192.000062
 31
0.0
  0
LINE
  5
EB
100
AcDbEntity
  8
LAY-1
  6
CONTINUOUS
 62
     3
100
AcDbLine
 10
270.0
 20
210.601303
 30
0.0
 11
270.0
 21
210.600062
 31
0.0
  0
LINE
  5
EC
100
AcDbEntity
  8
LAY-1
  6
CONTINUOUS
 62
     3
100
AcDbLine
 10
269.0
 20
201.000062
 30
0.0
 11
269.0
 21
198.500062
 31
0.0
  0
LINE
  5
ED
100
AcDbEntity
  8
LAY-1
  6
CONTINUOUS
 62
     3
100
AcDbLine
 10
281.0
 20
201.000062
 30
0.0
 11
281.0
 21
198.500062
 31
0.0
  0
LINE
  5
EE
100
AcDbEntity
  8
LAY-1
  6
CONTINUOUS
 62
     3
100
AcDbLine
 10
209.0
 20
147.500062
 30
0.0
 11
263.0
 21
147.500062
 31
0.0
  0
LINE
  5
EF
100
AcDbEntity
  8
LAY-1
  6
CONTINUOUS
 62
     3
100
AcDbLine
 10
287.0
 20
147.500062
 30
0.0
 11
397.0
 21
147.500062
 31
0.0
  0
ARC
  5
F0
100
AcDbEntity
  8
LAY-1
  6
CONTINUOUS
 62
     3
100
AcDbCircle
 10
270.0
 20
145.500062
 30
0.0
 40
5.0
100
AcDbArc
 50
180.0
 51
270.0
  0
ARC
  5
F1
100
AcDbEntity
  8
LAY-1
  6
CONTINUOUS
 62
     3
100
AcDbCircle
 10
280.0
 20
145.500062
 30
0.0
 40
5.0
100
AcDbArc
 50
270.0
 51
0.0
  0
ARC
  5
F2
100
AcDbEntity
  8
LAY-1
  6
CONTINUOUS
 62
     3
100
AcDbCircle
 10
263.0
 20
145.500062
 30
0.0
 40
2.0
100
AcDbArc
 50
0.0
 51
90.0
  0
ARC
  5
F3
100
AcDbEntity
  8
LAY-1
  6
CONTINUOUS
 62
     3
100
AcDbCircle
 10
287.0
 20
145.500062
 30
0.0
 40
2.0
100
AcDbArc
 50
90.0
 51
180.0
  0
LINE
  5
F4
100
AcDbEntity
  8
LAY-1
  6
CONTINUOUS
 62
     3
100
AcDbLine
 10
286.0
 20
173.000062
 30
0.0
 11
286.0
 21
179.500062
 31
0.0
  0
LINE
  5
F5
100
AcDbEntity
  8
LAY-1
  6
CONTINUOUS
 62
     3
100
AcDbLine
 10
386.0
 20
179.500062
 30
0.0
 11
386.0
 21
173.000062
 31
0.0
  0
LINE
  5
F6
100
AcDbEntity
  8
LAY-1
  6
CONTINUOUS
 62
     3
100
AcDbLine
 10
286.0
 20
179.500062
 30
0.0
 11
386.0
 21
179.500062
 31
0.0
  0
LINE
  5
F7
100
AcDbEntity
  8
LAY-1
  6
CONTINUOUS
 62
     3
100
AcDbLine
 10
286.0
 20
173.000062
 30
0.0
 11
386.0
 21
173.000062
 31
0.0
  0
LINE
  5
F8
100
AcDbEntity
  8
LAY-1
  6
CONTINUOUS
 62
     3
100
AcDbLine
 10
336.0
 20
186.000062
 30
0.0
 11
361.0
 21
186.000062
 31
0.0
  0
LINE
  5
F9
100
AcDbEntity
  8
LAY-1
  6
CONTINUOUS
 62
     3
100
AcDbLine
 10
336.0
 20
194.000062
 30
0.0
 11
361.0
 21
194.000062
 31
0.0
  0
ARC
  5
FA
100
AcDbEntity
  8
LAY-1
  6
CONTINUOUS
 62
     3
100
AcDbCircle
 10
358.0
 20
190.000062
 30
0.0
 40
5.0
100
AcDbArc
 50
306.869898
 51
53.130102
  0
ARC
  5
FB
100
AcDbEntity
  8
LAY-1
  6
CONTINUOUS
 62
     3
100
AcDbCircle
 10
339.0
 20
190.000062
 30
0.0
 40
5.0
100
AcDbArc
 50
126.869898
 51
233.130102
  0
ARC
  5
FC
100
AcDbEntity
  8
LAY-1
  6
CONTINUOUS
 62
     3
100
AcDbCircle
 10
275.0
 20
131.500062
 30
0.0
 40
20.0
100
AcDbArc
 50
56.071929
 51
123.880576
  0
LINE
  5
FD
100
AcDbEntity
  8
LAY-1
  6
CONTINUOUS
 62
     3
100
AcDbLine
 10
266.0
 20
208.600059
 30
0.0
 11
266.0
 21
207.000068
 31
0.0
  0
LINE
  5
FE
100
AcDbEntity
  8
LAY-1
  6
CONTINUOUS
 62
     3
100
AcDbLine
 10
284.0
 20
208.600059
 30
0.0
 11
284.0
 21
207.000068
 31
0.0
  0
LINE
  5
FF
100
AcDbEntity
  8
LAY-1
  6
CONTINUOUS
 62
     3
100
AcDbLine
 10
270.0
 20
209.600059
 30
0.0
 11
280.0
 21
209.600059
 31
0.0
  0
LINE
  5
100
100
AcDbEntity
  8
LAY-1
  6
CONTINUOUS
 62
     3
100
AcDbLine
 10
266.0
 20
208.600059
 30
0.0
 11
284.0
 21
208.600059
 31
0.0
  0
ARC
  5
101
100
AcDbEntity
  8
LAY-1
  6
CONTINUOUS
 62
     3
100
AcDbCircle
 10
272.5
 20
213.225059
 30
0.0
 40
3.625
100
AcDbArc
 50
226.397168
 51
313.602834
  0
ARC
  5
102
100
AcDbEntity
  8
LAY-1
  6
CONTINUOUS
 62
     3
100
AcDbCircle
 10
277.5
 20
213.225059
 30
0.0
 40
3.625
100
AcDbArc
 50
226.397168
 51
313.602834
  0
LINE
  5
103
100
AcDbEntity
  8
LAY-1
  6
CONTINUOUS
 62
     3
100
AcDbLine
 10
275.0
 20
211.453865
 30
0.0
 11
275.0
 21
210.600059
 31
0.0
  0
ARC
  5
104
100
AcDbEntity
  8
LAY-1
  6
CONTINUOUS
 62
     3
100
AcDbCircle
 10
277.5
 20
209.975059
 30
0.0
 40
3.625
100
AcDbArc
 50
46.397166
 51
133.602832
  0
ARC
  5
105
100
AcDbEntity
  8
LAY-1
  6
CONTINUOUS
 62
     3
100
AcDbCircle
 10
272.5
 20
209.975059
 30
0.0
 40
3.625
100
AcDbArc
 50
46.397166
 51
133.602832
  0
LINE
  5
106
100
AcDbEntity
  8
LAY-1
  6
CONTINUOUS
 62
     3
100
AcDbLine
 10
280.0
 20
213.59
 30
0.0
 11
280.0
 21
208.600059
 31
0.0
  0
LINE
  5
107
100
AcDbEntity
  8
LAY-1
  6
CONTINUOUS
 62
     3
100
AcDbLine
 10
270.0
 20
213.59
 30
0.0
 11
270.0
 21
208.600059
 31
0.0
  0
LINE
  5
108
100
AcDbEntity
  8
LAY-1
  6
CONTINUOUS
 62
     3
100
AcDbLine
 10
270.0
 20
213.600059
 30
0.0
 11
280.0
 21
213.600059
 31
0.0
  0
LINE
  5
109
100
AcDbEntity
  8
LAY-1
  6
CONTINUOUS
 62
     3
100
AcDbLine
 10
275.0
 20
212.61
 30
0.0
 11
275.0
 21
211.53
 31
0.0
  0
LINE
  5
10A
100
AcDbEntity
  8
LAY-1
  6
CONTINUOUS
 62
     3
100
AcDbLine
 10
675.5
 20
140.500062
 30
0.0
 11
689.5
 21
140.500062
 31
0.0
  0
ARC
  5
10B
100
AcDbEntity
  8
LAY-1
  6
CONTINUOUS
 62
     3
100
AcDbCircle
 10
689.5
 20
143.500062
 30
0.0
 40
3.0
100
AcDbArc
 50
270.0
 51
0.0
  0
ARC
  5
10C
100
AcDbEntity
  8
LAY-1
  6
CONTINUOUS
 62
     3
100
AcDbCircle
 10
675.5
 20
143.500062
 30
0.0
 40
3.0
100
AcDbArc
 50
180.0
 51
270.0
  0
ARC
  5
10D
100
AcDbEntity
  8
LAY-1
  6
CONTINUOUS
 62
     3
100
AcDbCircle
 10
682.5
 20
166.500062
 30
0.0
 40
19.0
100
AcDbArc
 50
193.173551
 51
346.826449
  0
LINE
  5
10E
100
AcDbEntity
  8
LAY-1
  6
CONTINUOUS
 62
     3
100
AcDbLine
 10
692.5
 20
143.500062
 30
0.0
 11
692.5
 21
150.344568
 31
0.0
  0
LINE
  5
10F
100
AcDbEntity
  8
LAY-1
  6
CONTINUOUS
 62
     3
100
AcDbLine
 10
672.5
 20
143.500062
 30
0.0
 11
672.5
 21
150.344568
 31
0.0
  0
CIRCLE
  5
110
100
AcDbEntity
  8
LAY-1
  6
CONTINUOUS
 62
     3
100
AcDbCircle
 10
682.5
 20
166.500062
 30
0.0
 40
16.200001
  0
LINE
  5
111
100
AcDbEntity
  8
LAY-1
  6
CONTINUOUS
 62
     3
100
AcDbLine
 10
671.999992
 20
160.437882
 30
0.0
 11
682.5
 21
154.375703
 31
0.0
  0
LINE
  5
112
100
AcDbEntity
  8
LAY-1
  6
CONTINUOUS
 62
     3
100
AcDbLine
 10
672.000008
 20
172.562226
 30
0.0
 11
682.5
 21
178.624452
 31
0.0
  0
LINE
  5
113
100
AcDbEntity
  8
LAY-1
  6
CONTINUOUS
 62
     3
100
AcDbLine
 10
682.5
 20
178.624452
 30
0.0
 11
693.000008
 21
172.562226
 31
0.0
  0
LINE
  5
114
100
AcDbEntity
  8
LAY-1
  6
CONTINUOUS
 62
     3
100
AcDbLine
 10
693.000008
 20
172.562226
 30
0.0
 11
693.0
 21
160.437898
 31
0.0
  0
LINE
  5
115
100
AcDbEntity
  8
LAY-1
  6
CONTINUOUS
 62
     3
100
AcDbLine
 10
693.0
 20
160.437898
 30
0.0
 11
682.500008
 21
154.375688
 31
0.0
  0
LINE
  5
116
100
AcDbEntity
  8
LAY-1
  6
CONTINUOUS
 62
     3
100
AcDbLine
 10
693.000008
 20
160.437898
 30
0.0
 11
693.000015
 21
172.562226
 31
0.0
  0
LINE
  5
117
100
AcDbEntity
  8
LAY-1
  6
CONTINUOUS
 62
     3
100
AcDbLine
 10
671.832344
 20
172.465425
 30
0.0
 11
671.923889
 21
160.481828
 31
0.0
  0
LINE
  5
118
100
AcDbEntity
  8
LAY-1
  6
CONTINUOUS
 62
     3
100
AcDbLine
 10
701.0
 20
198.000062
 30
0.0
 11
682.5
 21
198.500062
 31
0.0
  0
LINE
  5
119
100
AcDbEntity
  8
LAY-1
  6
CONTINUOUS
 62
     3
100
AcDbLine
 10
682.5
 20
198.500062
 30
0.0
 11
664.0
 21
198.000062
 31
0.0
  0
LINE
  5
11A
100
AcDbEntity
  8
LAY-1
  6
CONTINUOUS
 62
     3
100
AcDbLine
 10
664.0
 20
198.000062
 30
0.0
 11
664.0
 21
162.169935
 31
0.0
  0
LINE
  5
11B
100
AcDbEntity
  8
LAY-1
  6
CONTINUOUS
 62
     3
100
AcDbLine
 10
701.0
 20
162.169935
 30
0.0
 11
701.0
 21
198.000062
 31
0.0
  0
LINE
  5
11C
100
AcDbEntity
  8
LAY-1
  6
CONTINUOUS
 62
     3
100
AcDbLine
 10
701.0
 20
162.169935
 30
0.0
 11
701.0
 21
198.000062
 31
0.0
  0
LINE
  5
11D
100
AcDbEntity
  8
LAY-1
  6
CONTINUOUS
 62
     3
100
AcDbLine
 10
701.0
 20
198.000062
 30
0.0
 11
701.0
 21
162.100062
 31
0.0
  0
LINE
  5
11E
100
AcDbEntity
  8
LAY-1
  6
CONTINUOUS
 62
     3
100
AcDbLine
 10
676.5
 20
201.000062
 30
0.0
 11
688.5
 21
201.000062
 31
0.0
  0
LINE
  5
11F
100
AcDbEntity
  8
LAY-1
  6
CONTINUOUS
 62
     3
100
AcDbLine
 10
688.85
 20
200.500062
 30
0.0
 11
676.15
 21
200.500062
 31
0.0
  0
LINE
  5
120
100
AcDbEntity
  8
LAY-1
  6
CONTINUOUS
 62
     3
100
AcDbLine
 10
688.5
 20
201.000062
 30
0.0
 11
688.85
 21
200.500062
 31
0.0
  0
LINE
  5
121
100
AcDbEntity
  8
LAY-1
  6
CONTINUOUS
 62
     3
100
AcDbLine
 10
676.5
 20
201.000062
 30
0.0
 11
676.15
 21
200.500062
 31
0.0
  0
LINE
  5
122
100
AcDbEntity
  8
LAY-1
  6
CONTINUOUS
 62
     3
100
AcDbLine
 10
691.5
 20
208.600062
 30
0.0
 11
691.5
 21
207.000062
 31
0.0
  0
LINE
  5
123
100
AcDbEntity
  8
LAY-1
  6
CONTINUOUS
 62
     3
100
AcDbLine
 10
673.5
 20
208.600062
 30
0.0
 11
673.5
 21
207.000062
 31
0.0
  0
ARC
  5
124
100
AcDbEntity
  8
LAY-1
  6
CONTINUOUS
 62
     3
100
AcDbCircle
 10
682.5
 20
208.600062
 30
0.0
 40
5.0
100
AcDbArc
 50
53.130102
 51
126.869898
  0
ARC
  5
125
100
AcDbEntity
  8
LAY-1
  6
CONTINUOUS
 62
     3
100
AcDbCircle
 10
687.0
 20
211.975062
 30
0.0
 40
1.625
100
AcDbArc
 50
22.619865
 51
157.380135
  0
ARC
  5
126
100
AcDbEntity
  8
LAY-1
  6
CONTINUOUS
 62
     3
100
AcDbCircle
 10
678.0
 20
211.975062
 30
0.0
 40
1.625
100
AcDbArc
 50
22.619865
 51
157.380135
  0
LINE
  5
127
100
AcDbEntity
  8
LAY-1
  6
CONTINUOUS
 62
     3
100
AcDbLine
 10
688.125579
 20
213.14711
 30
0.0
 11
687.59
 21
213.600062
 31
0.0
  0
LINE
  5
128
100
AcDbEntity
  8
LAY-1
  6
CONTINUOUS
 62
     3
100
AcDbLine
 10
691.5
 20
208.600062
 30
0.0
 11
673.5
 21
208.600062
 31
0.0
  0
ARC
  5
129
100
AcDbEntity
  8
LAY-1
  6
CONTINUOUS
 62
     3
100
AcDbCircle
 10
682.5
 20
214.600062
 30
0.0
 40
5.0
100
AcDbArc
 50
233.130102
 51
306.869898
  0
ARC
  5
12A
100
AcDbEntity
  8
LAY-1
  6
CONTINUOUS
 62
     3
100
AcDbCircle
 10
687.0
 20
211.225062
 30
0.0
 40
1.625
100
AcDbArc
 50
202.619865
 51
337.380135
  0
ARC
  5
12B
100
AcDbEntity
  8
LAY-1
  6
CONTINUOUS
 62
     3
100
AcDbCircle
 10
678.0
 20
211.225062
 30
0.0
 40
1.625
100
AcDbArc
 50
202.619865
 51
337.380135
  0
LINE
  5
12C
100
AcDbEntity
  8
LAY-1
  6
CONTINUOUS
 62
     3
100
AcDbLine
 10
685.5
 20
212.600062
 30
0.0
 11
685.5
 21
210.600062
 31
0.0
  0
LINE
  5
12D
100
AcDbEntity
  8
LAY-1
  6
CONTINUOUS
 62
     3
100
AcDbLine
 10
679.5
 20
212.600062
 30
0.0
 11
679.5
 21
210.600062
 31
0.0
  0
LINE
  5
12E
100
AcDbEntity
  8
LAY-1
  6
CONTINUOUS
 62
     3
100
AcDbLine
 10
688.5
 20
209.600062
 30
0.0
 11
676.5
 21
209.600062
 31
0.0
  0
LINE
  5
12F
100
AcDbEntity
  8
LAY-1
  6
CONTINUOUS
 62
     3
100
AcDbLine
 10
688.125579
 20
210.053014
 30
0.0
 11
687.59
 21
209.600062
 31
0.0
  0
LINE
  5
130
100
AcDbEntity
  8
LAY-1
  6
CONTINUOUS
 62
     3
100
AcDbLine
 10
676.874421
 20
213.14711
 30
0.0
 11
677.41
 21
213.600062
 31
0.0
  0
LINE
  5
131
100
AcDbEntity
  8
LAY-1
  6
CONTINUOUS
 62
     3
100
AcDbLine
 10
676.874421
 20
210.053014
 30
0.0
 11
677.41
 21
209.600062
 31
0.0
  0
LINE
  5
132
100
AcDbEntity
  8
LAY-1
  6
CONTINUOUS
 62
     3
100
AcDbLine
 10
688.5
 20
212.600062
 30
0.0
 11
688.5
 21
210.600062
 31
0.0
  0
LINE
  5
133
100
AcDbEntity
  8
LAY-1
  6
CONTINUOUS
 62
     3
100
AcDbLine
 10
688.5
 20
209.600062
 30
0.0
 11
688.5
 21
208.600062
 31
0.0
  0
LINE
  5
134
100
AcDbEntity
  8
LAY-1
  6
CONTINUOUS
 62
     3
100
AcDbLine
 10
676.5
 20
209.600062
 30
0.0
 11
676.5
 21
208.600062
 31
0.0
  0
LINE
  5
135
100
AcDbEntity
  8
LAY-1
  6
CONTINUOUS
 62
     3
100
AcDbLine
 10
676.5
 20
212.600062
 30
0.0
 11
676.5
 21
210.600062
 31
0.0
  0
LINE
  5
136
100
AcDbEntity
  8
LAY-1
  6
CONTINUOUS
 62
     3
100
AcDbLine
 10
687.59
 20
213.600062
 30
0.0
 11
677.41
 21
213.600062
 31
0.0
  0
LINE
  5
137
100
AcDbEntity
  8
LAY-1
  6
CONTINUOUS
 62
     3
100
AcDbLine
 10
688.85
 20
200.500062
 30
0.0
 11
688.85
 21
198.32844
 31
0.0
  0
LINE
  5
138
100
AcDbEntity
  8
LAY-1
  6
CONTINUOUS
 62
     3
100
AcDbLine
 10
676.15
 20
200.500062
 30
0.0
 11
676.15
 21
198.32844
 31
0.0
  0
CIRCLE
  5
139
100
AcDbEntity
  8
LAY-1
  6
DASHED2
 62
     3
100
AcDbCircle
 10
670.500008
 20
183.500062
 30
0.0
 40
3.5
  0
LINE
  5
13A
100
AcDbEntity
  8
LAY-1
  6
DASHED2
 62
     3
100
AcDbLine
 10
673.447716
 20
185.387116
 30
0.0
 11
671.560661
 21
183.500062
 31
0.0
  0
LINE
  5
13B
100
AcDbEntity
  8
LAY-1
  6
DASHED2
 62
     3
100
AcDbLine
 10
671.560661
 20
183.500062
 30
0.0
 11
673.447716
 21
181.613008
 31
0.0
  0
LINE
  5
13C
100
AcDbEntity
  8
LAY-1
  6
DASHED2
 62
     3
100
AcDbLine
 10
672.387062
 20
180.552339
 30
0.0
 11
670.500008
 21
182.439393
 31
0.0
  0
LINE
  5
13D
100
AcDbEntity
  8
LAY-1
  6
DASHED2
 62
     3
100
AcDbLine
 10
670.500008
 20
182.439393
 30
0.0
 11
668.612953
 21
180.552339
 31
0.0
  0
LINE
  5
13E
100
AcDbEntity
  8
LAY-1
  6
DASHED2
 62
     3
100
AcDbLine
 10
667.552284
 20
181.613008
 30
0.0
 11
669.439339
 21
183.500062
 31
0.0
  0
LINE
  5
13F
100
AcDbEntity
  8
LAY-1
  6
DASHED2
 62
     3
100
AcDbLine
 10
669.439339
 20
183.500062
 30
0.0
 11
667.552284
 21
185.387116
 31
0.0
  0
LINE
  5
140
100
AcDbEntity
  8
LAY-1
  6
DASHED2
 62
     3
100
AcDbLine
 10
668.612953
 20
186.447785
 30
0.0
 11
670.500008
 21
184.560731
 31
0.0
  0
LINE
  5
141
100
AcDbEntity
  8
LAY-1
  6
DASHED2
 62
     3
100
AcDbLine
 10
670.500008
 20
184.560731
 30
0.0
 11
672.387062
 21
186.447785
 31
0.0
  0
CIRCLE
  5
142
100
AcDbEntity
  8
LAY-1
  6
DASHED2
 62
     3
100
AcDbCircle
 10
694.5
 20
183.500062
 30
0.0
 40
3.5
  0
LINE
  5
143
100
AcDbEntity
  8
LAY-1
  6
DASHED2
 62
     3
100
AcDbLine
 10
697.447708
 20
185.387116
 30
0.0
 11
695.560654
 21
183.500062
 31
0.0
  0
LINE
  5
144
100
AcDbEntity
  8
LAY-1
  6
DASHED2
 62
     3
100
AcDbLine
 10
695.560654
 20
183.500062
 30
0.0
 11
697.447708
 21
181.613008
 31
0.0
  0
LINE
  5
145
100
AcDbEntity
  8
LAY-1
  6
DASHED2
 62
     3
100
AcDbLine
 10
696.387055
 20
180.552339
 30
0.0
 11
694.5
 21
182.439393
 31
0.0
  0
LINE
  5
146
100
AcDbEntity
  8
LAY-1
  6
DASHED2
 62
     3
100
AcDbLine
 10
694.5
 20
182.439393
 30
0.0
 11
692.612946
 21
180.552339
 31
0.0
  0
LINE
  5
147
100
AcDbEntity
  8
LAY-1
  6
DASHED2
 62
     3
100
AcDbLine
 10
691.552277
 20
181.613008
 30
0.0
 11
693.439331
 21
183.500062
 31
0.0
  0
LINE
  5
148
100
AcDbEntity
  8
LAY-1
  6
DASHED2
 62
     3
100
AcDbLine
 10
693.439331
 20
183.500062
 30
0.0
 11
691.552277
 21
185.387116
 31
0.0
  0
LINE
  5
149
100
AcDbEntity
  8
LAY-1
  6
DASHED2
 62
     3
100
AcDbLine
 10
692.612946
 20
186.447785
 30
0.0
 11
694.5
 21
184.560731
 31
0.0
  0
LINE
  5
14A
100
AcDbEntity
  8
LAY-1
  6
DASHED2
 62
     3
100
AcDbLine
 10
694.5
 20
184.560731
 30
0.0
 11
696.387055
 21
186.447785
 31
0.0
  0
LINE
  5
14B
100
AcDbEntity
  8
LAY-1
  6
DASHED2
 62
     3
100
AcDbLine
 10
664.5
 20
196.000062
 30
0.0
 11
666.5
 21
194.000048
 31
0.0
  0
LINE
  5
14C
100
AcDbEntity
  8
LAY-1
  6
DASHED2
 62
     3
100
AcDbLine
 10
664.5
 20
196.000062
 30
0.0
 11
664.0
 21
196.000062
 31
0.0
  0
LINE
  5
14D
100
AcDbEntity
  8
LAY-1
  6
DASHED2
 62
     3
100
AcDbLine
 10
666.5
 20
189.000048
 30
0.0
 11
664.5
 21
187.000048
 31
0.0
  0
LINE
  5
14E
100
AcDbEntity
  8
LAY-1
  6
DASHED2
 62
     3
100
AcDbLine
 10
664.5
 20
187.000048
 30
0.0
 11
664.0
 21
187.000048
 31
0.0
  0
LINE
  5
14F
100
AcDbEntity
  8
LAY-1
  6
DASHED2
 62
     3
100
AcDbLine
 10
664.5
 20
187.000048
 30
0.0
 11
664.5
 21
196.000062
 31
0.0
  0
LINE
  5
150
100
AcDbEntity
  8
LAY-1
  6
DASHED2
 62
     3
100
AcDbLine
 10
666.5
 20
189.000048
 30
0.0
 11
666.5
 21
194.000062
 31
0.0
  0
LINE
  5
151
100
AcDbEntity
  8
LAY-1
  6
CONTINUOUS
 62
     1
100
AcDbLine
 10
712.5
 20
191.500062
 30
0.0
 11
710.387822
 21
191.500062
 31
0.0
  0
LINE
  5
152
100
AcDbEntity
  8
LAY-1
  6
DASHED2
 62
     3
100
AcDbLine
 10
666.5
 20
194.000062
 30
0.0
 11
714.0
 21
194.000062
 31
0.0
  0
LINE
  5
153
100
AcDbEntity
  8
LAY-1
  6
DASHED2
 62
     1
100
AcDbLine
 10
666.5
 20
193.500062
 30
0.0
 11
714.0
 21
193.500062
 31
0.0
  0
LINE
  5
154
100
AcDbEntity
  8
LAY-1
  6
DASHED2
 62
     1
100
AcDbLine
 10
666.5
 20
189.500062
 30
0.0
 11
714.0
 21
189.500062
 31
0.0
  0
LINE
  5
155
100
AcDbEntity
  8
LAY-1
  6
DASHED2
 62
     3
100
AcDbLine
 10
666.5
 20
189.000062
 30
0.0
 11
714.0
 21
189.000062
 31
0.0
  0
LINE
  5
156
100
AcDbEntity
  8
LAY-1
  6
DASHED2
 62
     3
100
AcDbLine
 10
714.0
 20
189.000062
 30
0.0
 11
714.0
 21
194.000062
 31
0.0
  0
LINE
  5
157
100
AcDbEntity
  8
LAY-1
  6
DASHED2
 62
     3
100
AcDbLine
 10
377.5
 20
464.5
 30
0.0
 11
372.5
 21
464.5
 31
0.0
  0
LINE
  5
158
100
AcDbEntity
  8
LAY-1
  6
DASHED2
 62
     1
100
AcDbLine
 10
377.0
 20
421.183932
 30
0.0
 11
377.0
 21
464.5
 31
0.0
  0
LINE
  5
159
100
AcDbEntity
  8
LAY-1
  6
DASHED2
 62
     3
100
AcDbLine
 10
377.5
 20
421.183932
 30
0.0
 11
377.5
 21
464.5
 31
0.0
  0
LINE
  5
15A
100
AcDbEntity
  8
LAY-1
  6
DASHED2
 62
     1
100
AcDbLine
 10
373.0
 20
422.146824
 30
0.0
 11
373.0
 21
464.5
 31
0.0
  0
LINE
  5
15B
100
AcDbEntity
  8
LAY-1
  6
DASHED2
 62
     3
100
AcDbLine
 10
372.5
 20
422.253812
 30
0.0
 11
372.5
 21
464.5
 31
0.0
  0
LINE
  5
15C
100
AcDbEntity
  8
LAY-1
  6
DASHED2
 62
     3
100
AcDbLine
 10
241.500031
 20
464.5
 30
0.0
 11
236.500031
 21
464.5
 31
0.0
  0
LINE
  5
15D
100
AcDbEntity
  8
LAY-1
  6
DASHED2
 62
     3
100
AcDbLine
 10
236.500031
 20
437.5
 30
0.0
 11
236.500031
 21
464.5
 31
0.0
  0
LINE
  5
15E
100
AcDbEntity
  8
LAY-1
  6
DASHED2
 62
     1
100
AcDbLine
 10
237.000031
 20
437.5
 30
0.0
 11
237.000031
 21
464.5
 31
0.0
  0
LINE
  5
15F
100
AcDbEntity
  8
LAY-1
  6
DASHED2
 62
     1
100
AcDbLine
 10
241.000031
 20
437.5
 30
0.0
 11
241.000031
 21
464.5
 31
0.0
  0
LINE
  5
160
100
AcDbEntity
  8
LAY-1
  6
DASHED2
 62
     3
100
AcDbLine
 10
241.500031
 20
437.5
 30
0.0
 11
241.500031
 21
464.5
 31
0.0
  0
CIRCLE
  5
161
100
AcDbEntity
  8
LAY-2
  6
CONTINUOUS
 62
     3
100
AcDbCircle
 10
274.99996
 20
433.1
 30
0.0
 40
6.0
  0
LINE
  5
162
100
AcDbEntity
  8
LAY-2
  6
CONTINUOUS
 62
     3
100
AcDbLine
 10
272.449146
 20
433.775681
 30
0.0
 11
272.431274
 21
432.495806
 31
0.0
  0
LINE
  5
163
100
AcDbEntity
  8
LAY-2
  6
CONTINUOUS
 62
     3
100
AcDbLine
 10
277.568647
 20
433.704195
 30
0.0
 11
277.550775
 21
432.424319
 31
0.0
  0
LINE
  5
164
100
AcDbEntity
  8
LAY-2
  6
CONTINUOUS
 62
     3
100
AcDbLine
 10
274.395766
 20
435.668687
 30
0.0
 11
275.675641
 21
435.650815
 31
0.0
  0
LINE
  5
165
100
AcDbEntity
  8
LAY-2
  6
CONTINUOUS
 62
     3
100
AcDbLine
 10
274.324279
 20
430.549186
 30
0.0
 11
275.604155
 21
430.531314
 31
0.0
  0
LINE
  5
166
100
AcDbEntity
  8
LAY-2
  6
CONTINUOUS
 62
     3
100
AcDbLine
 10
272.449146
 20
433.775681
 30
0.0
 11
273.409052
 21
433.762277
 31
0.0
  0
LINE
  5
167
100
AcDbEntity
  8
LAY-2
  6
CONTINUOUS
 62
     3
100
AcDbLine
 10
276.60874
 20
433.717598
 30
0.0
 11
277.568647
 21
433.704195
 31
0.0
  0
LINE
  5
168
100
AcDbEntity
  8
LAY-2
  6
CONTINUOUS
 62
     3
100
AcDbLine
 10
275.675641
 20
435.650815
 30
0.0
 11
275.662237
 21
434.690909
 31
0.0
  0
LINE
  5
169
100
AcDbEntity
  8
LAY-2
  6
CONTINUOUS
 62
     3
100
AcDbLine
 10
275.617558
 20
431.49122
 30
0.0
 11
275.604155
 21
430.531314
 31
0.0
  0
LINE
  5
16A
100
AcDbEntity
  8
LAY-2
  6
CONTINUOUS
 62
     3
100
AcDbLine
 10
272.431274
 20
432.495806
 30
0.0
 11
273.39118
 21
432.482402
 31
0.0
  0
LINE
  5
16B
100
AcDbEntity
  8
LAY-2
  6
CONTINUOUS
 62
     3
100
AcDbLine
 10
276.590869
 20
432.437723
 30
0.0
 11
277.550775
 21
432.424319
 31
0.0
  0
LINE
  5
16C
100
AcDbEntity
  8
LAY-2
  6
CONTINUOUS
 62
     3
100
AcDbLine
 10
274.395766
 20
435.668687
 30
0.0
 11
274.382362
 21
434.70878
 31
0.0
  0
LINE
  5
16D
100
AcDbEntity
  8
LAY-2
  6
CONTINUOUS
 62
     3
100
AcDbLine
 10
274.337683
 20
431.509092
 30
0.0
 11
274.324279
 21
430.549186
 31
0.0
  0
ARC
  5
16E
100
AcDbEntity
  8
LAY-2
  6
CONTINUOUS
 62
     3
100
AcDbCircle
 10
273.422456
 20
434.722184
 30
0.0
 40
0.96
100
AcDbArc
 50
269.2
 51
359.2
  0
ARC
  5
16F
100
AcDbEntity
  8
LAY-2
  6
CONTINUOUS
 62
     3
100
AcDbCircle
 10
276.622144
 20
434.677505
 30
0.0
 40
0.96
100
AcDbArc
 50
179.2
 51
269.2
  0
ARC
  5
170
100
AcDbEntity
  8
LAY-2
  6
CONTINUOUS
 62
     3
100
AcDbCircle
 10
276.577465
 20
431.477817
 30
0.0
 40
0.96
100
AcDbArc
 50
89.2
 51
179.2
  0
ARC
  5
171
100
AcDbEntity
  8
LAY-2
  6
CONTINUOUS
 62
     3
100
AcDbCircle
 10
273.377777
 20
431.522496
 30
0.0
 40
0.96
100
AcDbArc
 50
359.2
 51
89.2
  0
ARC
  5
172
100
AcDbEntity
  8
LAY-2
  6
CONTINUOUS
 62
     3
100
AcDbCircle
 10
274.99996
 20
433.1
 30
0.0
 40
9.0
100
AcDbArc
 50
218.142441
 51
160.747997
  0
CIRCLE
  5
173
100
AcDbEntity
  8
LAY-2
  6
CONTINUOUS
 62
     3
100
AcDbCircle
 10
431.608284
 20
399.699736
 30
0.0
 40
5.9
  0
CIRCLE
  5
174
100
AcDbEntity
  8
LAY-2
  6
CONTINUOUS
 62
     3
100
AcDbCircle
 10
431.608284
 20
399.699736
 30
0.0
 40
7.5
  0
LINE
  5
175
100
AcDbEntity
  8
LAY-2
  6
CONTINUOUS
 62
     3
100
AcDbLine
 10
432.094808
 20
401.215841
 30
0.0
 11
432.083237
 21
402.515789
 31
0.0
  0
LINE
  5
176
100
AcDbEntity
  8
LAY-2
  6
CONTINUOUS
 62
     3
100
AcDbLine
 10
432.083237
 20
402.515789
 30
0.0
 11
431.083276
 21
402.506888
 31
0.0
  0
LINE
  5
177
100
AcDbEntity
  8
LAY-2
  6
CONTINUOUS
 62
     3
100
AcDbLine
 10
431.083276
 20
402.506888
 30
0.0
 11
432.083237
 21
402.515789
 31
0.0
  0
LINE
  5
178
100
AcDbEntity
  8
LAY-2
  6
CONTINUOUS
 62
     3
100
AcDbLine
 10
432.094808
 20
401.215841
 30
0.0
 11
432.083237
 21
402.515789
 31
0.0
  0
LINE
  5
179
100
AcDbEntity
  8
LAY-2
  6
CONTINUOUS
 62
     3
100
AcDbLine
 10
434.403618
 20
400.236353
 30
0.0
 11
434.412519
 21
399.236393
 31
0.0
  0
LINE
  5
17A
100
AcDbEntity
  8
LAY-2
  6
CONTINUOUS
 62
     3
100
AcDbLine
 10
433.103669
 20
400.224782
 30
0.0
 11
434.403618
 21
400.236353
 31
0.0
  0
LINE
  5
17B
100
AcDbEntity
  8
LAY-2
  6
CONTINUOUS
 62
     3
100
AcDbLine
 10
433.103669
 20
400.224782
 30
0.0
 11
434.403618
 21
400.236353
 31
0.0
  0
ARC
  5
17C
100
AcDbEntity
  8
LAY-2
  6
CONTINUOUS
 62
     3
100
AcDbCircle
 10
433.094768
 20
401.224742
 30
0.0
 40
1.0
100
AcDbArc
 50
180.51
 51
270.51
  0
ARC
  5
17D
100
AcDbEntity
  8
LAY-2
  6
CONTINUOUS
 62
     3
100
AcDbCircle
 10
433.094768
 20
401.224742
 30
0.0
 40
1.0
100
AcDbArc
 50
180.51
 51
270.51
  0
LINE
  5
17E
100
AcDbEntity
  8
LAY-2
  6
CONTINUOUS
 62
     3
100
AcDbLine
 10
433.112571
 20
399.224821
 30
0.0
 11
434.412519
 21
399.236393
 31
0.0
  0
LINE
  5
17F
100
AcDbEntity
  8
LAY-2
  6
CONTINUOUS
 62
     3
100
AcDbLine
 10
432.121511
 20
398.21596
 30
0.0
 11
432.133083
 21
396.916011
 31
0.0
  0
LINE
  5
180
100
AcDbEntity
  8
LAY-2
  6
CONTINUOUS
 62
     3
100
AcDbLine
 10
432.133083
 20
396.916011
 30
0.0
 11
431.133122
 21
396.90711
 31
0.0
  0
LINE
  5
181
100
AcDbEntity
  8
LAY-2
  6
CONTINUOUS
 62
     3
100
AcDbLine
 10
431.133122
 20
396.90711
 30
0.0
 11
432.133083
 21
396.916011
 31
0.0
  0
LINE
  5
182
100
AcDbEntity
  8
LAY-2
  6
CONTINUOUS
 62
     3
100
AcDbLine
 10
432.121511
 20
398.21596
 30
0.0
 11
432.133083
 21
396.916011
 31
0.0
  0
ARC
  5
183
100
AcDbEntity
  8
LAY-2
  6
CONTINUOUS
 62
     3
100
AcDbCircle
 10
433.121472
 20
398.224861
 30
0.0
 40
1.0
100
AcDbArc
 50
90.51
 51
180.51
  0
ARC
  5
184
100
AcDbEntity
  8
LAY-2
  6
CONTINUOUS
 62
     3
100
AcDbCircle
 10
433.121472
 20
398.224861
 30
0.0
 40
1.0
100
AcDbArc
 50
90.51
 51
180.51
  0
LINE
  5
185
100
AcDbEntity
  8
LAY-2
  6
CONTINUOUS
 62
     3
100
AcDbLine
 10
430.112689
 20
399.198118
 30
0.0
 11
428.812741
 21
399.186547
 31
0.0
  0
LINE
  5
186
100
AcDbEntity
  8
LAY-2
  6
CONTINUOUS
 62
     3
100
AcDbLine
 10
428.80384
 20
400.186507
 30
0.0
 11
428.812741
 21
399.186547
 31
0.0
  0
LINE
  5
187
100
AcDbEntity
  8
LAY-2
  6
CONTINUOUS
 62
     3
100
AcDbLine
 10
431.121551
 20
398.207059
 30
0.0
 11
431.133122
 21
396.90711
 31
0.0
  0
LINE
  5
188
100
AcDbEntity
  8
LAY-2
  6
CONTINUOUS
 62
     3
100
AcDbLine
 10
431.121551
 20
398.207059
 30
0.0
 11
431.133122
 21
396.90711
 31
0.0
  0
ARC
  5
189
100
AcDbEntity
  8
LAY-2
  6
CONTINUOUS
 62
     3
100
AcDbCircle
 10
430.12159
 20
398.198158
 30
0.0
 40
1.0
100
AcDbArc
 50
0.51
 51
90.51
  0
LINE
  5
18A
100
AcDbEntity
  8
LAY-2
  6
CONTINUOUS
 62
     3
100
AcDbLine
 10
431.094848
 20
401.20694
 30
0.0
 11
431.083276
 21
402.506888
 31
0.0
  0
LINE
  5
18B
100
AcDbEntity
  8
LAY-2
  6
CONTINUOUS
 62
     3
100
AcDbLine
 10
431.094848
 20
401.20694
 30
0.0
 11
431.083276
 21
402.506888
 31
0.0
  0
ARC
  5
18C
100
AcDbEntity
  8
LAY-2
  6
CONTINUOUS
 62
     3
100
AcDbCircle
 10
430.094887
 20
401.198039
 30
0.0
 40
1.0
100
AcDbArc
 50
270.51
 51
0.51
  0
LINE
  5
18D
100
AcDbEntity
  8
LAY-2
  6
CONTINUOUS
 62
     3
100
AcDbLine
 10
430.103788
 20
400.198078
 30
0.0
 11
428.80384
 21
400.186507
 31
0.0
  0
ARC
  5
18E
100
AcDbEntity
  8
LAY-2
  6
CONTINUOUS
 62
     3
100
AcDbCircle
 10
440.674207
 20
467.03148
 30
0.0
 40
75.0
100
AcDbArc
 50
251.386084
 51
251.386084
  0
ARC
  5
18F
100
AcDbEntity
  8
LAY-2
  6
CONTINUOUS
 62
     3
100
AcDbCircle
 10
440.674207
 20
467.03148
 30
0.0
 40
75.0
100
AcDbArc
 50
256.468331
 51
256.468332
  0
ARC
  5
190
100
AcDbEntity
  8
LAY-2
  6
CONTINUOUS
 62
     3
100
AcDbCircle
 10
440.936316
 20
465.559079
 30
0.0
 40
75.0
100
AcDbArc
 50
250.541927
 51
250.541927
  0
ARC
  5
191
100
AcDbEntity
  8
LAY-2
  6
CONTINUOUS
 62
     3
100
AcDbCircle
 10
440.936316
 20
465.559079
 30
0.0
 40
75.0
100
AcDbArc
 50
255.725208
 51
255.725209
  0
LINE
  5
192
100
AcDbEntity
  8
LAY-2
  6
CONTINUOUS
 62
     3
100
AcDbLine
 10
419.03296
 20
394.637602
 30
0.0
 11
419.035434
 21
394.637624
 31
0.0
  0
LINE
  5
193
100
AcDbEntity
  8
LAY-2
  6
CONTINUOUS
 62
     3
100
AcDbLine
 10
418.944839
 20
404.53721
 30
0.0
 11
418.947313
 21
404.537232
 31
0.0
  0
LINE
  5
194
100
AcDbEntity
  8
LAY-2
  6
CONTINUOUS
 62
     3
100
AcDbLine
 10
419.03542
 20
394.639218
 30
0.0
 11
419.035434
 21
394.637624
 31
0.0
  0
LINE
  5
195
100
AcDbEntity
  8
LAY-2
  6
CONTINUOUS
 62
     3
100
AcDbLine
 10
418.947313
 20
404.537232
 30
0.0
 11
418.947327
 21
404.535638
 31
0.0
  0
ARC
  5
196
100
AcDbEntity
  8
LAY-2
  6
CONTINUOUS
 62
     3
100
AcDbCircle
 10
441.058031
 20
466.899015
 30
0.0
 40
75.0
100
AcDbArc
 50
251.286084
 51
251.286084
  0
ARC
  5
197
100
AcDbEntity
  8
LAY-2
  6
CONTINUOUS
 62
     3
100
AcDbCircle
 10
441.058031
 20
466.899015
 30
0.0
 40
75.0
100
AcDbArc
 50
256.368331
 51
256.368332
  0
ARC
  5
198
100
AcDbEntity
  8
LAY-2
  6
CONTINUOUS
 62
     3
100
AcDbCircle
 10
441.31757
 20
465.426159
 30
0.0
 40
75.0
100
AcDbArc
 50
255.625208
 51
255.625209
  0
ARC
  5
199
100
AcDbEntity
  8
LAY-2
  6
CONTINUOUS
 62
     3
100
AcDbCircle
 10
434.824656
 20
394.081146
 30
0.0
 40
3.0
100
AcDbArc
 50
287.930265
 51
314.033341
  0
ARC
  5
19A
100
AcDbEntity
  8
LAY-2
  6
CONTINUOUS
 62
     3
100
AcDbCircle
 10
436.807935
 20
403.417347
 30
0.0
 40
3.0
100
AcDbArc
 50
26.671518
 51
42.854078
  0
ARC
  5
19B
100
AcDbEntity
  8
LAY-2
  6
CONTINUOUS
 62
     3
100
AcDbCircle
 10
441.57716
 20
466.880006
 30
0.0
 40
75.0
100
AcDbArc
 50
250.483084
 51
250.483084
  0
ARC
  5
19C
100
AcDbEntity
  8
LAY-2
  6
CONTINUOUS
 62
     3
100
AcDbCircle
 10
441.57716
 20
466.880006
 30
0.0
 40
75.0
100
AcDbArc
 50
255.565331
 51
255.565332
  0
ARC
  5
19D
100
AcDbEntity
  8
LAY-2
  6
CONTINUOUS
 62
     3
100
AcDbCircle
 10
441.816032
 20
465.403657
 30
0.0
 40
75.0
100
AcDbArc
 50
249.638927
 51
249.638927
  0
ARC
  5
19E
100
AcDbEntity
  8
LAY-2
  6
CONTINUOUS
 62
     3
100
AcDbCircle
 10
441.816032
 20
465.403657
 30
0.0
 40
75.0
100
AcDbArc
 50
254.822208
 51
254.822209
  0
LINE
  5
19F
100
AcDbEntity
  8
LAY-2
  6
CONTINUOUS
 62
     3
100
AcDbLine
 10
418.797696
 20
394.836178
 30
0.0
 11
418.80017
 21
394.836161
 31
0.0
  0
LINE
  5
1A0
100
AcDbEntity
  8
LAY-2
  6
CONTINUOUS
 62
     3
100
AcDbLine
 10
418.865601
 20
404.735945
 30
0.0
 11
418.868075
 21
404.735928
 31
0.0
  0
LINE
  5
1A1
100
AcDbEntity
  8
LAY-2
  6
CONTINUOUS
 62
     3
100
AcDbLine
 10
418.800181
 20
394.837755
 30
0.0
 11
418.80017
 21
394.836161
 31
0.0
  0
LINE
  5
1A2
100
AcDbEntity
  8
LAY-2
  6
CONTINUOUS
 62
     3
100
AcDbLine
 10
418.868075
 20
404.735928
 30
0.0
 11
418.868064
 21
404.734334
 31
0.0
  0
ARC
  5
1A3
100
AcDbEntity
  8
LAY-2
  6
CONTINUOUS
 62
     3
100
AcDbCircle
 10
280.888424
 20
439.761401
 30
0.0
 40
4.0
100
AcDbArc
 50
11.582388
 51
77.907
  0
LINE
  5
1A4
100
AcDbEntity
  8
LAY-2
  6
CONTINUOUS
 62
     3
100
AcDbLine
 10
277.447901
 20
444.589324
 30
0.0
 11
281.72642
 21
443.672636
 31
0.0
  0
LINE
  5
1A5
100
AcDbEntity
  8
LAY-2
  6
CONTINUOUS
 62
     3
100
AcDbLine
 10
272.524673
 20
421.610817
 30
0.0
 11
276.803191
 21
420.694128
 31
0.0
  0
ARC
  5
1A6
100
AcDbEntity
  8
LAY-2
  6
CONTINUOUS
 62
     3
100
AcDbCircle
 10
261.981429
 20
435.886408
 30
0.0
 40
23.3
100
AcDbArc
 50
324.231612
 51
11.582388
  0
ARC
  5
1A7
100
AcDbEntity
  8
LAY-2
  6
CONTINUOUS
 62
     3
100
AcDbCircle
 10
277.641188
 20
424.605364
 30
0.0
 40
4.0
100
AcDbArc
 50
257.907
 51
324.231612
  0
LINE
  5
1A8
100
AcDbEntity
  8
LAY-2
  6
CONTINUOUS
 62
     3
100
AcDbLine
 10
277.447901
 20
444.589324
 30
0.0
 11
269.064321
 21
444.409098
 31
0.0
  0
ARC
  5
1A9
100
AcDbEntity
  8
LAY-2
  6
CONTINUOUS
 62
     3
100
AcDbCircle
 10
269.128799
 20
441.40979
 30
0.0
 40
3.0
100
AcDbArc
 50
91.231531
 51
142.870143
  0
LINE
  5
1AA
100
AcDbEntity
  8
LAY-2
  6
CONTINUOUS
 62
     3
100
AcDbLine
 10
414.114783
 20
413.349247
 30
0.0
 11
286.057749
 21
440.750378
 31
0.0
  0
ARC
  5
1AB
100
AcDbEntity
  8
LAY-2
  6
CONTINUOUS
 62
     3
100
AcDbCircle
 10
286.686246
 20
443.683805
 30
0.0
 40
3.0
100
AcDbArc
 50
214.079552
 51
257.907
  0
ARC
  5
1AC
100
AcDbEntity
  8
LAY-2
  6
CONTINUOUS
 62
     3
100
AcDbCircle
 10
281.323069
 20
418.651898
 30
0.0
 40
3.0
100
AcDbArc
 50
77.907
 51
121.734448
  0
LINE
  5
1AD
100
AcDbEntity
  8
LAY-2
  6
CONTINUOUS
 62
     3
100
AcDbLine
 10
349.947718
 20
407.016902
 30
0.0
 11
281.951567
 21
421.585325
 31
0.0
  0
LINE
  5
1AE
100
AcDbEntity
  8
LAY-2
  6
CONTINUOUS
 62
     3
100
AcDbLine
 10
414.114783
 20
413.349247
 30
0.0
 11
427.974228
 21
409.167764
 31
0.0
  0
LINE
  5
1AF
100
AcDbEntity
  8
LAY-2
  6
CONTINUOUS
 62
     3
100
AcDbLine
 10
272.524673
 20
421.610817
 30
0.0
 11
267.948668
 21
423.785379
 31
0.0
  0
LINE
  5
1B0
100
AcDbEntity
  8
LAY-2
  6
CONTINUOUS
 62
     3
100
AcDbLine
 10
376.157936
 20
404.109648
 30
0.0
 11
379.709306
 21
420.685191
 31
0.0
  0
LINE
  5
1B1
100
AcDbEntity
  8
LAY-2
  6
CONTINUOUS
 62
     3
100
AcDbLine
 10
351.418279
 20
407.972884
 30
0.0
 11
355.264085
 21
425.922669
 31
0.0
  0
ARC
  5
1B2
100
AcDbEntity
  8
LAY-2
  6
CONTINUOUS
 62
     3
100
AcDbCircle
 10
435.079297
 20
393.954544
 30
0.0
 40
3.0
100
AcDbArc
 50
287.830265
 51
313.933341
  0
ARC
  5
1B3
100
AcDbEntity
  8
LAY-2
  6
CONTINUOUS
 62
     3
100
AcDbCircle
 10
437.078868
 20
403.28727
 30
0.0
 40
3.0
100
AcDbArc
 50
26.571518
 51
42.754078
  0
LINE
  5
1B4
100
AcDbEntity
  8
LAY-2
  6
CONTINUOUS
 62
     3
100
AcDbLine
 10
410.0086
 20
394.184194
 30
0.0
 11
408.740072
 21
394.455981
 31
0.0
  0
ARC
  5
1B5
100
AcDbEntity
  8
LAY-2
  6
CONTINUOUS
 62
     3
100
AcDbCircle
 10
441.958849
 20
466.741508
 30
0.0
 40
75.0
100
AcDbArc
 50
250.383084
 51
250.383084
  0
ARC
  5
1B6
100
AcDbEntity
  8
LAY-2
  6
CONTINUOUS
 62
     3
100
AcDbCircle
 10
441.958849
 20
466.741508
 30
0.0
 40
75.0
100
AcDbArc
 50
255.465331
 51
255.465332
  0
ARC
  5
1B7
100
AcDbEntity
  8
LAY-2
  6
CONTINUOUS
 62
     3
100
AcDbCircle
 10
442.195143
 20
465.264745
 30
0.0
 40
75.0
100
AcDbArc
 50
254.722208
 51
254.722209
  0
ARC
  5
1B8
100
AcDbEntity
  8
LAY-2
  6
CONTINUOUS
 62
     3
100
AcDbCircle
 10
282.124292
 20
431.570727
 30
0.0
 40
19.3
100
AcDbArc
 50
142.870143
 51
162.774534
  0
LINE
  5
1B9
100
AcDbEntity
  8
LAY-2
  6
CONTINUOUS
 62
     3
100
AcDbLine
 10
410.0086
 20
394.184194
 30
0.0
 11
423.041331
 21
392.492208
 31
0.0
  0
POLYLINE
  5
1BA
100
AcDbEntity
  8
LAY-2
  6
CONTINUOUS
 62
     3
100
AcDb2dPolyline
 66
     1
 10
0.0
 20
0.0
 30
0.0
 70
   128
  0
VERTEX
  5
1BB
100
AcDbEntity
  8
LAY-2
  6
CONTINUOUS
 62
     3
100
AcDbVertex
100
AcDb2dVertex
 10
275.0
 20
438.873495
 30
0.0
  0
VERTEX
  5
1BC
100
AcDbEntity
  8
LAY-2
  6
CONTINUOUS
 62
     3
100
AcDbVertex
100
AcDb2dVertex
 10
270.0
 20
435.986743
 30
0.0
  0
VERTEX
  5
1BD
100
AcDbEntity
  8
LAY-2
  6
CONTINUOUS
 62
     3
100
AcDbVertex
100
AcDb2dVertex
 10
270.0
 20
430.213241
 30
0.0
  0
VERTEX
  5
1BE
100
AcDbEntity
  8
LAY-2
  6
CONTINUOUS
 62
     3
100
AcDbVertex
100
AcDb2dVertex
 10
275.0
 20
427.326489
 30
0.0
  0
VERTEX
  5
1BF
100
AcDbEntity
  8
LAY-2
  6
CONTINUOUS
 62
     3
100
AcDbVertex
100
AcDb2dVertex
 10
280.0
 20
430.213241
 30
0.0
  0
VERTEX
  5
1C0
100
AcDbEntity
  8
LAY-2
  6
CONTINUOUS
 62
     3
100
AcDbVertex
100
AcDb2dVertex
 10
280.0
 20
435.986743
 30
0.0
  0
VERTEX
  5
1C1
100
AcDbEntity
  8
LAY-2
  6
CONTINUOUS
 62
     3
100
AcDbVertex
100
AcDb2dVertex
 10
275.0
 20
438.873495
 30
0.0
  0
SEQEND
  5
1C2
100
AcDbEntity
  8
LAY-2
  6
CONTINUOUS
 62
     3
  0
LINE
  5
1C3
100
AcDbEntity
  8
LAY-2
  6
CONTINUOUS
 62
     3
100
AcDbLine
 10
438.0
 20
213.536066
 30
0.0
 11
438.0
 21
219.036066
 31
0.0
  0
LINE
  5
1C4
100
AcDbEntity
  8
LAY-2
  6
CONTINUOUS
 62
     3
100
AcDbLine
 10
424.0
 20
213.532991
 30
0.0
 11
424.0
 21
219.032991
 31
0.0
  0
LINE
  5
1C5
100
AcDbEntity
  8
LAY-2
  6
CONTINUOUS
 62
     3
100
AcDbLine
 10
439.5
 20
210.036176
 30
0.0
 11
439.5
 21
212.536176
 31
0.0
  0
ARC
  5
1C6
100
AcDbEntity
  8
LAY-2
  6
CONTINUOUS
 62
     3
100
AcDbCircle
 10
438.5
 20
212.536176
 30
0.0
 40
1.0
100
AcDbArc
 50
0.0
 51
90.012586
  0
ARC
  5
1C7
100
AcDbEntity
  8
LAY-2
  6
CONTINUOUS
 62
     3
100
AcDbCircle
 10
438.5
 20
210.036176
 30
0.0
 40
1.0
100
AcDbArc
 50
270.012586
 51
0.0
  0
LINE
  5
1C8
100
AcDbEntity
  8
LAY-2
  6
CONTINUOUS
 62
     3
100
AcDbLine
 10
423.5
 20
224.532881
 30
0.0
 11
423.5
 21
226.132881
 31
0.0
  0
LINE
  5
1C9
100
AcDbEntity
  8
LAY-2
  6
CONTINUOUS
 62
     3
100
AcDbLine
 10
438.5
 20
224.536176
 30
0.0
 11
423.5
 21
224.532881
 31
0.0
  0
LINE
  5
1CA
100
AcDbEntity
  8
LAY-2
  6
CONTINUOUS
 62
     3
100
AcDbLine
 10
438.5
 20
226.136176
 30
0.0
 11
423.5
 21
226.132881
 31
0.0
  0
LINE
  5
1CB
100
AcDbEntity
  8
LAY-2
  6
CONTINUOUS
 62
     3
100
AcDbLine
 10
438.5
 20
224.536176
 30
0.0
 11
438.5
 21
226.136176
 31
0.0
  0
ARC
  5
1CC
100
AcDbEntity
  8
LAY-2
  6
CONTINUOUS
 62
     3
100
AcDbCircle
 10
431.000824
 20
223.384529
 30
0.0
 40
6.25
100
AcDbArc
 50
36.882484
 51
143.142688
  0
LINE
  5
1CD
100
AcDbEntity
  8
LAY-2
  6
CONTINUOUS
 62
     3
100
AcDbLine
 10
436.0
 20
227.135627
 30
0.0
 11
426.0
 21
227.13343
 31
0.0
  0
LINE
  5
1CE
100
AcDbEntity
  8
LAY-2
  6
CONTINUOUS
 62
     3
100
AcDbLine
 10
426.0
 20
227.13343
 30
0.0
 11
426.0
 21
226.13343
 31
0.0
  0
LINE
  5
1CF
100
AcDbEntity
  8
LAY-2
  6
CONTINUOUS
 62
     3
100
AcDbLine
 10
426.330001
 20
227.133503
 30
0.0
 11
436.0
 21
227.133503
 31
0.0
  0
LINE
  5
1D0
100
AcDbEntity
  8
LAY-2
  6
CONTINUOUS
 62
     3
100
AcDbLine
 10
436.0
 20
227.135627
 30
0.0
 11
436.0
 21
226.135627
 31
0.0
  0
LINE
  5
1D1
100
AcDbEntity
  8
LAY-2
  6
CONTINUOUS
 62
     3
100
AcDbLine
 10
263.0
 20
200.997426
 30
0.0
 11
263.0
 21
206.997426
 31
0.0
  0
LINE
  5
1D2
100
AcDbEntity
  8
LAY-2
  6
CONTINUOUS
 62
     3
100
AcDbLine
 10
287.0
 20
201.002698
 30
0.0
 11
263.0
 21
200.997426
 31
0.0
  0
LINE
  5
1D3
100
AcDbEntity
  8
LAY-2
  6
CONTINUOUS
 62
     3
100
AcDbLine
 10
287.0
 20
201.002698
 30
0.0
 11
287.0
 21
202.502698
 31
0.0
  0
LINE
  5
1D4
100
AcDbEntity
  8
LAY-2
  6
CONTINUOUS
 62
     3
100
AcDbLine
 10
356.1
 20
202.517877
 30
0.0
 11
376.8
 21
209.022424
 31
0.0
  0
LINE
  5
1D5
100
AcDbEntity
  8
LAY-2
  6
CONTINUOUS
 62
     3
100
AcDbLine
 10
356.1
 20
202.517877
 30
0.0
 11
287.0
 21
202.502698
 31
0.0
  0
LINE
  5
1D6
100
AcDbEntity
  8
LAY-2
  6
CONTINUOUS
 62
     3
100
AcDbLine
 10
371.306829
 20
213.461841
 30
0.0
 11
350.795923
 21
207.016712
 31
0.0
  0
LINE
  5
1D7
100
AcDbEntity
  8
LAY-2
  6
CONTINUOUS
 62
     3
100
AcDbLine
 10
350.795923
 20
207.016712
 30
0.0
 11
263.0
 21
206.997426
 31
0.0
  0
LINE
  5
1D8
100
AcDbEntity
  8
LAY-2
  6
CONTINUOUS
 62
     3
100
AcDbLine
 10
351.61412
 20
202.556878
 30
0.0
 11
372.186781
 21
209.021411
 31
0.0
  0
LINE
  5
1D9
100
AcDbEntity
  8
LAY-2
  6
CONTINUOUS
 62
     3
100
AcDbLine
 10
435.00022
 20
208.035407
 30
0.0
 11
427.00022
 21
208.03365
 31
0.0
  0
ARC
  5
1DA
100
AcDbEntity
  8
LAY-2
  6
CONTINUOUS
 62
     3
100
AcDbCircle
 10
427.0
 20
209.03365
 30
0.0
 40
1.0
100
AcDbArc
 50
180.0
 51
270.012586
  0
ARC
  5
1DB
100
AcDbEntity
  8
LAY-2
  6
CONTINUOUS
 62
     3
100
AcDbCircle
 10
435.0
 20
209.035407
 30
0.0
 40
1.0
100
AcDbArc
 50
270.012586
 51
0.0
  0
LINE
  5
1DC
100
AcDbEntity
  8
LAY-2
  6
CONTINUOUS
 62
     3
100
AcDbLine
 10
436.0
 20
209.035407
 30
0.0
 11
436.0
 21
209.035627
 31
0.0
  0
LINE
  5
1DD
100
AcDbEntity
  8
LAY-2
  6
CONTINUOUS
 62
     3
100
AcDbLine
 10
438.49978
 20
213.536176
 30
0.0
 11
435.0
 21
213.535407
 31
0.0
  0
LINE
  5
1DE
100
AcDbEntity
  8
LAY-2
  6
CONTINUOUS
 62
     3
100
AcDbLine
 10
435.0
 20
209.035407
 30
0.0
 11
372.186781
 21
209.021411
 31
0.0
  0
LINE
  5
1DF
100
AcDbEntity
  8
LAY-2
  6
CONTINUOUS
 62
     3
100
AcDbLine
 10
438.50022
 20
209.036176
 30
0.0
 11
435.0
 21
209.035407
 31
0.0
  0
LINE
  5
1E0
100
AcDbEntity
  8
LAY-2
  6
CONTINUOUS
 62
     3
100
AcDbLine
 10
435.0
 20
213.535435
 30
0.0
 11
371.306816
 21
213.521218
 31
0.0
  0
LINE
  5
1E1
100
AcDbEntity
  8
LAY-2
  6
CONTINUOUS
 62
     3
100
AcDbLine
 10
438.0
 20
218.536066
 30
0.0
 11
424.0
 21
218.532991
 31
0.0
  0
LINE
  5
1E2
100
AcDbEntity
  8
LAY-2
  6
CONTINUOUS
 62
     3
100
AcDbLine
 10
438.0
 20
219.036066
 30
0.0
 11
424.0
 21
219.032991
 31
0.0
  0
LINE
  5
1E3
100
AcDbEntity
  8
LAY-2
  6
CONTINUOUS
 62
     3
100
AcDbLine
 10
435.75
 20
223.910692
 30
0.0
 11
435.75
 21
224.535572
 31
0.0
  0
LINE
  5
1E4
100
AcDbEntity
  8
LAY-2
  6
CONTINUOUS
 62
     3
100
AcDbLine
 10
435.25
 20
223.911018
 30
0.0
 11
435.25
 21
224.535462
 31
0.0
  0
LINE
  5
1E5
100
AcDbEntity
  8
LAY-2
  6
CONTINUOUS
 62
     3
100
AcDbLine
 10
435.75
 20
219.035572
 30
0.0
 11
435.75
 21
219.410691
 31
0.0
  0
LINE
  5
1E6
100
AcDbEntity
  8
LAY-2
  6
CONTINUOUS
 62
     3
100
AcDbLine
 10
435.25
 20
219.035462
 30
0.0
 11
435.25
 21
219.411017
 31
0.0
  0
LINE
  5
1E7
100
AcDbEntity
  8
LAY-2
  6
CONTINUOUS
 62
     3
100
AcDbLine
 10
426.25
 20
219.033485
 30
0.0
 11
426.25
 21
219.416894
 31
0.0
  0
LINE
  5
1E8
100
AcDbEntity
  8
LAY-2
  6
CONTINUOUS
 62
     3
100
AcDbLine
 10
426.75
 20
219.033595
 30
0.0
 11
426.75
 21
219.416568
 31
0.0
  0
LINE
  5
1E9
100
AcDbEntity
  8
LAY-2
  6
CONTINUOUS
 62
     3
100
AcDbLine
 10
426.25
 20
223.916895
 30
0.0
 11
426.25
 21
224.533485
 31
0.0
  0
LINE
  5
1EA
100
AcDbEntity
  8
LAY-2
  6
CONTINUOUS
 62
     3
100
AcDbLine
 10
426.75
 20
223.916569
 30
0.0
 11
426.75
 21
224.533595
 31
0.0
  0
LINE
  5
1EB
100
AcDbEntity
  8
LAY-2
  6
CONTINUOUS
 62
     3
100
AcDbLine
 10
693.5
 20
207.000062
 30
0.0
 11
671.31
 21
207.000062
 31
0.0
  0
LINE
  5
1EC
100
AcDbEntity
  8
LAY-2
  6
CONTINUOUS
 62
     3
100
AcDbLine
 10
694.5
 20
202.000062
 30
0.0
 11
694.5
 21
206.000062
 31
0.0
  0
LINE
  5
1ED
100
AcDbEntity
  8
LAY-2
  6
CONTINUOUS
 62
     3
100
AcDbLine
 10
693.5
 20
201.000062
 30
0.0
 11
671.5
 21
201.000062
 31
0.0
  0
LINE
  5
1EE
100
AcDbEntity
  8
LAY-2
  6
CONTINUOUS
 62
     3
100
AcDbLine
 10
670.5
 20
202.000062
 30
0.0
 11
670.5
 21
202.500062
 31
0.0
  0
ARC
  5
1EF
100
AcDbEntity
  8
LAY-2
  6
CONTINUOUS
 62
     3
100
AcDbCircle
 10
693.5
 20
206.000062
 30
0.0
 40
1.0
100
AcDbArc
 50
0.0
 51
90.0
  0
ARC
  5
1F0
100
AcDbEntity
  8
LAY-2
  6
CONTINUOUS
 62
     3
100
AcDbCircle
 10
693.5
 20
202.000062
 30
0.0
 40
1.0
100
AcDbArc
 50
270.0
 51
0.0
  0
ARC
  5
1F1
100
AcDbEntity
  8
LAY-2
  6
CONTINUOUS
 62
     3
100
AcDbCircle
 10
671.5
 20
202.000062
 30
0.0
 40
1.0
100
AcDbArc
 50
180.0
 51
270.0
  0
ARC
  5
1F2
100
AcDbEntity
  8
LAY-2
  6
CONTINUOUS
 62
     3
100
AcDbCircle
 10
641.0
 20
204.500062
 30
0.0
 40
2.0
100
AcDbArc
 50
180.0
 51
270.0
  0
LINE
  5
1F3
100
AcDbEntity
  8
LAY-2
  6
CONTINUOUS
 62
     3
100
AcDbLine
 10
640.8
 20
202.500062
 30
0.0
 11
670.5
 21
202.500062
 31
0.0
  0
LINE
  5
1F4
100
AcDbEntity
  8
LAY-2
  6
CONTINUOUS
 62
     3
100
AcDbLine
 10
654.0
 20
213.536066
 30
0.0
 11
654.0
 21
219.036066
 31
0.0
  0
LINE
  5
1F5
100
AcDbEntity
  8
LAY-2
  6
CONTINUOUS
 62
     3
100
AcDbLine
 10
640.0
 20
213.532991
 30
0.0
 11
640.0
 21
219.032991
 31
0.0
  0
LINE
  5
1F6
100
AcDbEntity
  8
LAY-2
  6
CONTINUOUS
 62
     3
100
AcDbLine
 10
639.5
 20
224.532881
 30
0.0
 11
639.5
 21
226.132881
 31
0.0
  0
LINE
  5
1F7
100
AcDbEntity
  8
LAY-2
  6
CONTINUOUS
 62
     3
100
AcDbLine
 10
654.5
 20
224.536176
 30
0.0
 11
639.5
 21
224.532881
 31
0.0
  0
LINE
  5
1F8
100
AcDbEntity
  8
LAY-2
  6
CONTINUOUS
 62
     3
100
AcDbLine
 10
654.5
 20
226.136176
 30
0.0
 11
639.5
 21
226.132881
 31
0.0
  0
LINE
  5
1F9
100
AcDbEntity
  8
LAY-2
  6
CONTINUOUS
 62
     3
100
AcDbLine
 10
654.5
 20
224.536176
 30
0.0
 11
654.5
 21
226.136176
 31
0.0
  0
ARC
  5
1FA
100
AcDbEntity
  8
LAY-2
  6
CONTINUOUS
 62
     3
100
AcDbCircle
 10
647.000824
 20
223.384529
 30
0.0
 40
6.25
100
AcDbArc
 50
36.882484
 51
143.142688
  0
LINE
  5
1FB
100
AcDbEntity
  8
LAY-2
  6
CONTINUOUS
 62
     3
100
AcDbLine
 10
652.0
 20
227.135627
 30
0.0
 11
642.0
 21
227.13343
 31
0.0
  0
LINE
  5
1FC
100
AcDbEntity
  8
LAY-2
  6
CONTINUOUS
 62
     3
100
AcDbLine
 10
642.0
 20
227.13343
 30
0.0
 11
642.0
 21
226.13343
 31
0.0
  0
LINE
  5
1FD
100
AcDbEntity
  8
LAY-2
  6
CONTINUOUS
 62
     3
100
AcDbLine
 10
642.330001
 20
227.133503
 30
0.0
 11
652.0
 21
227.133503
 31
0.0
  0
LINE
  5
1FE
100
AcDbEntity
  8
LAY-2
  6
CONTINUOUS
 62
     3
100
AcDbLine
 10
652.0
 20
227.135627
 30
0.0
 11
652.0
 21
226.135627
 31
0.0
  0
LINE
  5
1FF
100
AcDbEntity
  8
LAY-2
  6
CONTINUOUS
 62
     3
100
AcDbLine
 10
651.00022
 20
208.035407
 30
0.0
 11
643.00022
 21
208.03365
 31
0.0
  0
ARC
  5
200
100
AcDbEntity
  8
LAY-2
  6
CONTINUOUS
 62
     3
100
AcDbCircle
 10
643.0
 20
209.03365
 30
0.0
 40
1.0
100
AcDbArc
 50
180.0
 51
270.012586
  0
ARC
  5
201
100
AcDbEntity
  8
LAY-2
  6
CONTINUOUS
 62
     3
100
AcDbCircle
 10
651.0
 20
209.035407
 30
0.0
 40
1.0
100
AcDbArc
 50
270.012586
 51
0.0
  0
LINE
  5
202
100
AcDbEntity
  8
LAY-2
  6
CONTINUOUS
 62
     3
100
AcDbLine
 10
652.0
 20
209.035407
 30
0.0
 11
652.0
 21
209.035627
 31
0.0
  0
LINE
  5
203
100
AcDbEntity
  8
LAY-2
  6
CONTINUOUS
 62
     3
100
AcDbLine
 10
654.0
 20
219.036066
 30
0.0
 11
640.0
 21
219.032991
 31
0.0
  0
LINE
  5
204
100
AcDbEntity
  8
LAY-2
  6
CONTINUOUS
 62
     3
100
AcDbLine
 10
651.75
 20
223.910692
 30
0.0
 11
651.75
 21
224.535572
 31
0.0
  0
LINE
  5
205
100
AcDbEntity
  8
LAY-2
  6
CONTINUOUS
 62
     3
100
AcDbLine
 10
651.25
 20
223.911018
 30
0.0
 11
651.25
 21
224.535462
 31
0.0
  0
LINE
  5
206
100
AcDbEntity
  8
LAY-2
  6
CONTINUOUS
 62
     3
100
AcDbLine
 10
651.75
 20
219.035572
 30
0.0
 11
651.75
 21
219.410691
 31
0.0
  0
LINE
  5
207
100
AcDbEntity
  8
LAY-2
  6
CONTINUOUS
 62
     3
100
AcDbLine
 10
651.25
 20
219.035462
 30
0.0
 11
651.25
 21
219.411017
 31
0.0
  0
LINE
  5
208
100
AcDbEntity
  8
LAY-2
  6
CONTINUOUS
 62
     3
100
AcDbLine
 10
642.25
 20
219.033485
 30
0.0
 11
642.25
 21
219.416894
 31
0.0
  0
LINE
  5
209
100
AcDbEntity
  8
LAY-2
  6
CONTINUOUS
 62
     3
100
AcDbLine
 10
642.75
 20
219.033595
 30
0.0
 11
642.75
 21
219.416568
 31
0.0
  0
LINE
  5
20A
100
AcDbEntity
  8
LAY-2
  6
CONTINUOUS
 62
     3
100
AcDbLine
 10
642.25
 20
223.916895
 30
0.0
 11
642.25
 21
224.533485
 31
0.0
  0
LINE
  5
20B
100
AcDbEntity
  8
LAY-2
  6
CONTINUOUS
 62
     3
100
AcDbLine
 10
642.75
 20
223.916569
 30
0.0
 11
642.75
 21
224.533595
 31
0.0
  0
LINE
  5
20C
100
AcDbEntity
  8
LAY-2
  6
CONTINUOUS
 62
     3
100
AcDbLine
 10
638.5
 20
210.036176
 30
0.0
 11
638.5
 21
212.536176
 31
0.0
  0
ARC
  5
20D
100
AcDbEntity
  8
LAY-2
  6
CONTINUOUS
 62
     3
100
AcDbCircle
 10
639.5
 20
212.536176
 30
0.0
 40
1.0
100
AcDbArc
 50
89.987414
 51
180.0
  0
ARC
  5
20E
100
AcDbEntity
  8
LAY-2
  6
CONTINUOUS
 62
     3
100
AcDbCircle
 10
639.5
 20
210.036176
 30
0.0
 40
1.0
100
AcDbArc
 50
180.0
 51
269.987414
  0
LINE
  5
20F
100
AcDbEntity
  8
LAY-2
  6
CONTINUOUS
 62
     3
100
AcDbLine
 10
639.0
 20
204.000062
 30
0.0
 11
639.0
 21
209.17015
 31
0.0
  0
LINE
  5
210
100
AcDbEntity
  8
LAY-2
  6
CONTINUOUS
 62
     3
100
AcDbLine
 10
663.461917
 20
213.538145
 30
0.0
 11
670.0
 21
207.000062
 31
0.0
  0
LINE
  5
211
100
AcDbEntity
  8
LAY-2
  6
CONTINUOUS
 62
     3
100
AcDbLine
 10
663.461917
 20
213.538145
 30
0.0
 11
639.418669
 21
213.532863
 31
0.0
  0
LINE
  5
212
100
AcDbEntity
  8
LAY-2
  6
CONTINUOUS
 62
     3
100
AcDbLine
 10
657.535345
 20
207.000062
 30
0.0
 11
671.36
 21
207.000062
 31
0.0
  0
LINE
  5
213
100
AcDbEntity
  8
LAY-2
  6
CONTINUOUS
 62
     3
100
AcDbLine
 10
655.5
 20
210.036176
 30
0.0
 11
655.5
 21
212.536176
 31
0.0
  0
ARC
  5
214
100
AcDbEntity
  8
LAY-2
  6
CONTINUOUS
 62
     3
100
AcDbCircle
 10
654.5
 20
212.536176
 30
0.0
 40
1.0
100
AcDbArc
 50
0.0
 51
90.012586
  0
ARC
  5
215
100
AcDbEntity
  8
LAY-2
  6
CONTINUOUS
 62
     3
100
AcDbCircle
 10
654.5
 20
210.036176
 30
0.0
 40
1.0
100
AcDbArc
 50
270.012586
 51
0.0
  0
LINE
  5
216
100
AcDbEntity
  8
LAY-2
  6
CONTINUOUS
 62
     3
100
AcDbLine
 10
657.535345
 20
207.000062
 30
0.0
 11
655.206722
 21
209.328685
 31
0.0
  0
LINE
  5
217
100
AcDbEntity
  8
LAY-2
  6
CONTINUOUS
 62
     3
100
AcDbLine
 10
654.50022
 20
209.036176
 30
0.0
 11
639.499781
 21
209.032881
 31
0.0
  0
LINE
  5
218
100
AcDbEntity
  8
LAY-2
  6
CONTINUOUS
 62
     3
100
AcDbLine
 10
435.25
 20
223.911018
 30
0.0
 11
435.751915
 21
223.910691
 31
0.0
  0
LINE
  5
219
100
AcDbEntity
  8
LAY-3
  6
CONTINUOUS
 62
     3
100
AcDbLine
 10
431.523724
 20
409.19936
 30
0.0
 11
427.523882
 21
409.163756
 31
0.0
  0
LINE
  5
21A
100
AcDbEntity
  8
LAY-3
  6
CONTINUOUS
 62
     3
100
AcDbLine
 10
431.692844
 20
390.200113
 30
0.0
 11
427.693002
 21
390.164508
 31
0.0
  0
ARC
  5
21B
100
AcDbEntity
  8
LAY-3
  6
CONTINUOUS
 62
     3
100
AcDbCircle
 10
431.608284
 20
399.699736
 30
0.0
 40
9.5
100
AcDbArc
 50
270.51
 51
90.51
  0
ARC
  5
21C
100
AcDbEntity
  8
LAY-3
  6
CONTINUOUS
 62
     3
100
AcDbCircle
 10
440.674207
 20
467.03148
 30
0.0
 40
75.0
100
AcDbArc
 50
251.386084
 51
251.386084
  0
ARC
  5
21D
100
AcDbEntity
  8
LAY-3
  6
CONTINUOUS
 62
     3
100
AcDbCircle
 10
440.674207
 20
467.03148
 30
0.0
 40
75.0
100
AcDbArc
 50
256.468331
 51
256.468332
  0
ARC
  5
21E
100
AcDbEntity
  8
LAY-3
  6
CONTINUOUS
 62
     3
100
AcDbCircle
 10
440.936316
 20
465.559079
 30
0.0
 40
75.0
100
AcDbArc
 50
250.541927
 51
250.541927
  0
ARC
  5
21F
100
AcDbEntity
  8
LAY-3
  6
CONTINUOUS
 62
     3
100
AcDbCircle
 10
440.936316
 20
465.559079
 30
0.0
 40
75.0
100
AcDbArc
 50
255.725208
 51
255.725209
  0
LINE
  5
220
100
AcDbEntity
  8
LAY-3
  6
CONTINUOUS
 62
     3
100
AcDbLine
 10
261.033426
 20
389.883191
 30
0.0
 11
236.067522
 21
385.262355
 31
0.0
  0
ARC
  5
221
100
AcDbEntity
  8
LAY-3
  6
CONTINUOUS
 62
     3
100
AcDbCircle
 10
250.700453
 20
397.10152
 30
0.0
 40
5.555
100
AcDbArc
 50
89.640847
 51
89.640852
  0
ARC
  5
222
100
AcDbEntity
  8
LAY-3
  6
CONTINUOUS
 62
     3
100
AcDbCircle
 10
250.700453
 20
397.10152
 30
0.0
 40
5.555
100
AcDbArc
 50
271.179148
 51
271.179153
  0
LINE
  5
223
100
AcDbEntity
  8
LAY-3
  6
CONTINUOUS
 62
     3
100
AcDbLine
 10
350.150006
 20
404.63462
 30
0.0
 11
349.940909
 21
404.673336
 31
0.0
  0
ARC
  5
224
100
AcDbEntity
  8
LAY-3
  6
CONTINUOUS
 62
     3
100
AcDbCircle
 10
345.826372
 20
398.798426
 30
0.0
 40
11.166667
100
AcDbArc
 50
336.077302
 51
24.942698
  0
ARC
  5
225
100
AcDbEntity
  8
LAY-3
  6
CONTINUOUS
 62
     3
100
AcDbCircle
 10
361.159097
 20
398.934909
 30
0.0
 40
11.166667
100
AcDbArc
 50
156.077302
 51
204.942698
  0
ARC
  5
226
100
AcDbEntity
  8
LAY-3
  6
CONTINUOUS
 62
     3
100
AcDbCircle
 10
353.764431
 20
405.797565
 30
0.0
 40
3.166636
100
AcDbArc
 50
313.682968
 51
31.560271
  0
LINE
  5
227
100
AcDbEntity
  8
LAY-3
  6
CONTINUOUS
 62
     3
100
AcDbLine
 10
356.921388
 20
406.897505
 30
0.0
 11
355.910412
 21
408.126159
 31
0.0
  0
ARC
  5
228
100
AcDbEntity
  8
LAY-3
  6
CONTINUOUS
 62
     3
100
AcDbCircle
 10
353.097702
 20
405.79163
 30
0.0
 40
3.166636
100
AcDbArc
 50
149.459729
 51
227.337032
  0
LINE
  5
229
100
AcDbEntity
  8
LAY-3
  6
CONTINUOUS
 62
     3
100
AcDbLine
 10
349.921665
 20
406.835197
 30
0.0
 11
350.91061
 21
408.081654
 31
0.0
  0
LINE
  5
22A
100
AcDbEntity
  8
LAY-3
  6
CONTINUOUS
 62
     3
100
AcDbLine
 10
355.910412
 20
408.126159
 30
0.0
 11
350.91061
 21
408.081654
 31
0.0
  0
LINE
  5
22B
100
AcDbEntity
  8
LAY-3
  6
CONTINUOUS
 62
     3
100
AcDbLine
 10
350.951722
 20
403.463035
 30
0.0
 11
355.951524
 21
403.50754
 31
0.0
  0
LINE
  5
22C
100
AcDbEntity
  8
LAY-3
  6
CONTINUOUS
 62
     3
100
AcDbLine
 10
351.033946
 20
394.225796
 30
0.0
 11
356.033748
 21
394.270301
 31
0.0
  0
LINE
  5
22D
100
AcDbEntity
  8
LAY-3
  6
CONTINUOUS
 62
     3
100
AcDbLine
 10
357.063805
 20
390.898138
 30
0.0
 11
356.074861
 21
389.651682
 31
0.0
  0
LINE
  5
22E
100
AcDbEntity
  8
LAY-3
  6
CONTINUOUS
 62
     3
100
AcDbLine
 10
350.064082
 20
390.835831
 30
0.0
 11
351.075059
 21
389.607177
 31
0.0
  0
LINE
  5
22F
100
AcDbEntity
  8
LAY-3
  6
CONTINUOUS
 62
     3
100
AcDbLine
 10
351.075059
 20
389.607177
 30
0.0
 11
356.074861
 21
389.651682
 31
0.0
  0
ARC
  5
230
100
AcDbEntity
  8
LAY-3
  6
CONTINUOUS
 62
     3
100
AcDbCircle
 10
353.887767
 20
391.941707
 30
0.0
 40
3.166636
100
AcDbArc
 50
329.459729
 51
47.337032
  0
ARC
  5
231
100
AcDbEntity
  8
LAY-3
  6
CONTINUOUS
 62
     3
100
AcDbCircle
 10
353.221039
 20
391.935772
 30
0.0
 40
3.166636
100
AcDbArc
 50
133.682968
 51
211.560271
  0
LINE
  5
232
100
AcDbEntity
  8
LAY-3
  6
CONTINUOUS
 62
     3
100
AcDbLine
 10
250.820944
 20
390.684595
 30
0.0
 11
250.764484
 21
398.574439
 31
0.0
  0
ARC
  5
233
100
AcDbEntity
  8
LAY-3
  6
CONTINUOUS
 62
     3
100
AcDbCircle
 10
250.770853
 20
397.684416
 30
0.0
 40
5.5
100
AcDbArc
 50
90.41
 51
270.41
  0
LINE
  5
234
100
AcDbEntity
  8
LAY-3
  6
CONTINUOUS
 62
     3
100
AcDbLine
 10
250.698478
 20
404.774006
 30
0.0
 11
250.847526
 21
390.7748
 31
0.0
  0
ARC
  5
235
100
AcDbEntity
  8
LAY-3
  6
CONTINUOUS
 62
     3
100
AcDbCircle
 10
251.820918
 20
390.691751
 30
0.0
 40
1.0
100
AcDbArc
 50
180.41
 51
194.089715
  0
ARC
  5
236
100
AcDbEntity
  8
LAY-3
  6
CONTINUOUS
 62
     3
100
AcDbCircle
 10
251.698421
 20
404.784652
 30
0.0
 40
1.0
100
AcDbArc
 50
90.61
 51
180.61
  0
ARC
  5
237
100
AcDbEntity
  8
LAY-3
  6
CONTINUOUS
 62
     3
100
AcDbCircle
 10
251.84747
 20
390.785446
 30
0.0
 40
1.0
100
AcDbArc
 50
180.61
 51
270.61
  0
LINE
  5
238
100
AcDbEntity
  8
LAY-3
  6
CONTINUOUS
 62
     3
100
AcDbLine
 10
251.687775
 20
405.784596
 30
0.0
 11
349.935669
 21
406.830632
 31
0.0
  0
LINE
  5
239
100
AcDbEntity
  8
LAY-3
  6
CONTINUOUS
 62
     3
100
AcDbLine
 10
251.858116
 20
389.785503
 30
0.0
 11
350.054009
 21
390.830985
 31
0.0
  0
LINE
  5
23A
100
AcDbEntity
  8
LAY-3
  6
CONTINUOUS
 62
     3
100
AcDbLine
 10
350.078086
 20
390.831242
 30
0.0
 11
349.907745
 21
406.830335
 31
0.0
  0
LINE
  5
23B
100
AcDbEntity
  8
LAY-3
  6
CONTINUOUS
 62
     3
100
AcDbLine
 10
356.907437
 20
406.897356
 30
0.0
 11
357.077777
 21
390.898287
 31
0.0
  0
LINE
  5
23C
100
AcDbEntity
  8
LAY-3
  6
CONTINUOUS
 62
     3
100
AcDbLine
 10
419.03296
 20
394.637602
 30
0.0
 11
419.035434
 21
394.637624
 31
0.0
  0
LINE
  5
23D
100
AcDbEntity
  8
LAY-3
  6
CONTINUOUS
 62
     3
100
AcDbLine
 10
418.944839
 20
404.53721
 30
0.0
 11
418.947313
 21
404.537232
 31
0.0
  0
LINE
  5
23E
100
AcDbEntity
  8
LAY-3
  6
CONTINUOUS
 62
     3
100
AcDbLine
 10
419.03542
 20
394.639218
 30
0.0
 11
419.035434
 21
394.637624
 31
0.0
  0
LINE
  5
23F
100
AcDbEntity
  8
LAY-3
  6
CONTINUOUS
 62
     3
100
AcDbLine
 10
418.947313
 20
404.537232
 30
0.0
 11
418.947327
 21
404.535638
 31
0.0
  0
LINE
  5
240
100
AcDbEntity
  8
LAY-3
  6
CONTINUOUS
 62
     3
100
AcDbLine
 10
418.918542
 20
394.56435
 30
0.0
 11
366.665205
 21
394.008013
 31
0.0
  0
LINE
  5
241
100
AcDbEntity
  8
LAY-3
  6
CONTINUOUS
 62
     3
100
AcDbLine
 10
366.558742
 20
404.007447
 30
0.0
 11
418.900829
 21
404.564728
 31
0.0
  0
ARC
  5
242
100
AcDbEntity
  8
LAY-3
  6
CONTINUOUS
 62
     3
100
AcDbCircle
 10
415.801526
 20
399.559034
 30
0.0
 40
5.8875
100
AcDbArc
 50
301.966917
 51
58.236052
  0
LINE
  5
243
100
AcDbEntity
  8
LAY-3
  6
CONTINUOUS
 62
     3
100
AcDbLine
 10
418.812079
 20
404.563783
 30
0.0
 11
418.918542
 21
394.56435
 31
0.0
  0
LINE
  5
244
100
AcDbEntity
  8
LAY-3
  6
CONTINUOUS
 62
     3
100
AcDbLine
 10
427.523882
 20
409.163756
 30
0.0
 11
418.812079
 21
404.563783
 31
0.0
  0
LINE
  5
245
100
AcDbEntity
  8
LAY-3
  6
CONTINUOUS
 62
     3
100
AcDbLine
 10
427.693002
 20
390.164508
 30
0.0
 11
418.918542
 21
394.56435
 31
0.0
  0
LINE
  5
246
100
AcDbEntity
  8
LAY-3
  6
CONTINUOUS
 62
     3
100
AcDbLine
 10
366.675852
 20
393.00807
 30
0.0
 11
366.548096
 21
405.00739
 31
0.0
  0
LINE
  5
247
100
AcDbEntity
  8
LAY-3
  6
CONTINUOUS
 62
     3
100
AcDbLine
 10
356.928649
 20
404.904973
 30
0.0
 11
366.548096
 21
405.00739
 31
0.0
  0
LINE
  5
248
100
AcDbEntity
  8
LAY-3
  6
CONTINUOUS
 62
     3
100
AcDbLine
 10
356.936102
 20
404.205012
 30
0.0
 11
366.555548
 21
404.30743
 31
0.0
  0
LINE
  5
249
100
AcDbEntity
  8
LAY-3
  6
CONTINUOUS
 62
     3
100
AcDbLine
 10
357.048953
 20
393.605613
 30
0.0
 11
366.668399
 21
393.70803
 31
0.0
  0
LINE
  5
24A
100
AcDbEntity
  8
LAY-3
  6
CONTINUOUS
 62
     3
100
AcDbLine
 10
357.056405
 20
392.905653
 30
0.0
 11
366.675852
 21
393.00807
 31
0.0
  0
ARC
  5
24B
100
AcDbEntity
  8
LAY-3
  6
CONTINUOUS
 62
     3
100
AcDbCircle
 10
441.058031
 20
466.899015
 30
0.0
 40
75.0
100
AcDbArc
 50
251.286084
 51
251.286084
  0
ARC
  5
24C
100
AcDbEntity
  8
LAY-3
  6
CONTINUOUS
 62
     3
100
AcDbCircle
 10
441.058031
 20
466.899015
 30
0.0
 40
75.0
100
AcDbArc
 50
256.368331
 51
256.368332
  0
ARC
  5
24D
100
AcDbEntity
  8
LAY-3
  6
CONTINUOUS
 62
     3
100
AcDbCircle
 10
441.31757
 20
465.426159
 30
0.0
 40
75.0
100
AcDbArc
 50
255.625208
 51
255.625209
  0
ARC
  5
24E
100
AcDbEntity
  8
LAY-3
  6
CONTINUOUS
 62
     3
100
AcDbCircle
 10
441.57716
 20
466.880006
 30
0.0
 40
75.0
100
AcDbArc
 50
250.483084
 51
250.483084
  0
ARC
  5
24F
100
AcDbEntity
  8
LAY-3
  6
CONTINUOUS
 62
     3
100
AcDbCircle
 10
441.57716
 20
466.880006
 30
0.0
 40
75.0
100
AcDbArc
 50
255.565331
 51
255.565332
  0
ARC
  5
250
100
AcDbEntity
  8
LAY-3
  6
CONTINUOUS
 62
     3
100
AcDbCircle
 10
441.816032
 20
465.403657
 30
0.0
 40
75.0
100
AcDbArc
 50
249.638927
 51
249.638927
  0
ARC
  5
251
100
AcDbEntity
  8
LAY-3
  6
CONTINUOUS
 62
     3
100
AcDbCircle
 10
441.816032
 20
465.403657
 30
0.0
 40
75.0
100
AcDbArc
 50
254.822208
 51
254.822209
  0
LINE
  5
252
100
AcDbEntity
  8
LAY-3
  6
CONTINUOUS
 62
     3
100
AcDbLine
 10
418.797696
 20
394.836178
 30
0.0
 11
418.80017
 21
394.836161
 31
0.0
  0
LINE
  5
253
100
AcDbEntity
  8
LAY-3
  6
CONTINUOUS
 62
     3
100
AcDbLine
 10
418.865601
 20
404.735945
 30
0.0
 11
418.868075
 21
404.735928
 31
0.0
  0
LINE
  5
254
100
AcDbEntity
  8
LAY-3
  6
CONTINUOUS
 62
     3
100
AcDbLine
 10
418.800181
 20
394.837755
 30
0.0
 11
418.80017
 21
394.836161
 31
0.0
  0
LINE
  5
255
100
AcDbEntity
  8
LAY-3
  6
CONTINUOUS
 62
     3
100
AcDbLine
 10
418.868075
 20
404.735928
 30
0.0
 11
418.868064
 21
404.734334
 31
0.0
  0
ARC
  5
256
100
AcDbEntity
  8
LAY-3
  6
CONTINUOUS
 62
     3
100
AcDbCircle
 10
441.958849
 20
466.741508
 30
0.0
 40
75.0
100
AcDbArc
 50
250.383084
 51
250.383084
  0
ARC
  5
257
100
AcDbEntity
  8
LAY-3
  6
CONTINUOUS
 62
     3
100
AcDbCircle
 10
441.958849
 20
466.741508
 30
0.0
 40
75.0
100
AcDbArc
 50
255.465331
 51
255.465332
  0
ARC
  5
258
100
AcDbEntity
  8
LAY-3
  6
CONTINUOUS
 62
     3
100
AcDbCircle
 10
442.195143
 20
465.264745
 30
0.0
 40
75.0
100
AcDbArc
 50
254.722208
 51
254.722209
  0
LINE
  5
259
100
AcDbEntity
  8
LAY-3
  6
CONTINUOUS
 62
     3
100
AcDbLine
 10
259.532715
 20
405.86812
 30
0.0
 11
248.870691
 21
407.684098
 31
0.0
  0
LINE
  5
25A
100
AcDbEntity
  8
LAY-3
  6
CONTINUOUS
 62
     3
100
AcDbLine
 10
371.568095
 20
226.208931
 30
0.0
 11
371.568872
 21
226.208483
 31
0.0
  0
LINE
  5
25B
100
AcDbEntity
  8
LAY-3
  6
CONTINUOUS
 62
     3
100
AcDbLine
 10
248.578716
 20
218.800029
 30
0.0
 11
211.0
 21
218.800029
 31
0.0
  0
LINE
  5
25C
100
AcDbEntity
  8
LAY-3
  6
CONTINUOUS
 62
     3
100
AcDbLine
 10
212.5
 20
216.000029
 30
0.0
 11
212.5
 21
218.800029
 31
0.0
  0
LINE
  5
25D
100
AcDbEntity
  8
LAY-3
  6
CONTINUOUS
 62
     3
100
AcDbLine
 10
349.992978
 20
213.706483
 30
0.0
 11
350.00694
 21
229.706476
 31
0.0
  0
LINE
  5
25E
100
AcDbEntity
  8
LAY-3
  6
CONTINUOUS
 62
     3
100
AcDbLine
 10
259.989521
 20
209.785024
 30
0.0
 11
259.992139
 21
212.785023
 31
0.0
  0
LINE
  5
25F
100
AcDbEntity
  8
LAY-3
  6
CONTINUOUS
 62
     3
100
AcDbLine
 10
349.992978
 20
213.706483
 30
0.0
 11
260.993012
 21
213.78415
 31
0.0
  0
LINE
  5
260
100
AcDbEntity
  8
LAY-3
  6
CONTINUOUS
 62
     3
100
AcDbLine
 10
258.988649
 20
208.785897
 30
0.0
 11
210.988667
 21
208.827785
 31
0.0
  0
LINE
  5
261
100
AcDbEntity
  8
LAY-3
  6
CONTINUOUS
 62
     3
100
AcDbLine
 10
250.889699
 20
228.35317
 30
0.0
 11
250.4804
 21
218.379569
 31
0.0
  0
LINE
  5
262
100
AcDbEntity
  8
LAY-3
  6
CONTINUOUS
 62
     3
100
AcDbLine
 10
350.00694
 20
229.706476
 30
0.0
 11
252.389746
 21
229.791664
 31
0.0
  0
ARC
  5
263
100
AcDbEntity
  8
LAY-3
  6
CONTINUOUS
 62
     3
100
AcDbCircle
 10
252.388437
 20
228.291664
 30
0.0
 40
1.5
100
AcDbArc
 50
89.95
 51
177.65
  0
LINE
  5
264
100
AcDbEntity
  8
LAY-3
  6
CONTINUOUS
 62
     3
100
AcDbLine
 10
250.496681
 20
217.993311
 30
0.0
 11
250.497379
 21
218.793311
 31
0.0
  0
LINE
  5
265
100
AcDbEntity
  8
LAY-3
  6
CONTINUOUS
 62
     3
100
AcDbLine
 10
210.988667
 20
208.827785
 30
0.0
 11
210.994951
 21
216.027782
 31
0.0
  0
LINE
  5
266
100
AcDbEntity
  8
LAY-3
  6
CONTINUOUS
 62
     3
100
AcDbLine
 10
212.49495
 20
216.026473
 30
0.0
 11
212.497394
 21
218.826472
 31
0.0
  0
ARC
  5
267
100
AcDbEntity
  8
LAY-3
  6
CONTINUOUS
 62
     3
100
AcDbCircle
 10
258.989522
 20
209.785897
 30
0.0
 40
1.0
100
AcDbArc
 50
269.95
 51
359.95
  0
ARC
  5
268
100
AcDbEntity
  8
LAY-3
  6
CONTINUOUS
 62
     3
100
AcDbCircle
 10
260.992139
 20
212.78415
 30
0.0
 40
1.0
100
AcDbArc
 50
89.95
 51
179.95
  0
LINE
  5
269
100
AcDbEntity
  8
LAY-3
  6
CONTINUOUS
 62
     3
100
AcDbLine
 10
440.400061
 20
223.907655
 30
0.0
 11
440.397122
 21
219.407656
 31
0.0
  0
LINE
  5
26A
100
AcDbEntity
  8
LAY-3
  6
CONTINUOUS
 62
     3
100
AcDbLine
 10
421.055059
 20
223.920288
 30
0.0
 11
418.356823
 21
226.62205
 31
0.0
  0
LINE
  5
26B
100
AcDbEntity
  8
LAY-3
  6
CONTINUOUS
 62
     1
100
AcDbLine
 10
356.993215
 20
226.64913
 30
0.0
 11
369.841094
 21
226.64074
 31
0.0
  0
LINE
  5
26C
100
AcDbEntity
  8
LAY-3
  6
CONTINUOUS
 62
     3
100
AcDbLine
 10
369.841094
 20
226.64074
 30
0.0
 11
418.356823
 21
226.62205
 31
0.0
  0
LINE
  5
26D
100
AcDbEntity
  8
LAY-3
  6
CONTINUOUS
 62
     3
100
AcDbLine
 10
350.999957
 20
221.703042
 30
0.0
 11
355.999956
 21
221.699777
 31
0.0
  0
ARC
  5
26E
100
AcDbEntity
  8
LAY-3
  6
CONTINUOUS
 62
     3
100
AcDbCircle
 10
348.50257
 20
225.704674
 30
0.0
 40
8.5
100
AcDbArc
 50
331.890099
 51
28.035073
  0
ARC
  5
26F
100
AcDbEntity
  8
LAY-3
  6
CONTINUOUS
 62
     3
100
AcDbCircle
 10
348.497346
 20
217.704676
 30
0.0
 40
8.5
100
AcDbArc
 50
331.890099
 51
28.035073
  0
ARC
  5
270
100
AcDbEntity
  8
LAY-3
  6
CONTINUOUS
 62
     3
100
AcDbCircle
 10
358.497344
 20
217.698146
 30
0.0
 40
8.5
100
AcDbArc
 50
151.890099
 51
208.035073
  0
ARC
  5
271
100
AcDbEntity
  8
LAY-3
  6
CONTINUOUS
 62
     3
100
AcDbCircle
 10
358.502568
 20
225.698144
 30
0.0
 40
8.5
100
AcDbArc
 50
151.890099
 51
208.035073
  0
LINE
  5
272
100
AcDbEntity
  8
LAY-3
  6
CONTINUOUS
 62
     3
100
AcDbLine
 10
350.004528
 20
228.703694
 30
0.0
 11
349.995386
 21
214.703697
 31
0.0
  0
LINE
  5
273
100
AcDbEntity
  8
LAY-3
  6
CONTINUOUS
 62
     3
100
AcDbLine
 10
435.951186
 20
219.410559
 30
0.0
 11
440.397122
 21
219.407656
 31
0.0
  0
LINE
  5
274
100
AcDbEntity
  8
LAY-3
  6
CONTINUOUS
 62
     3
100
AcDbLine
 10
356.00518
 20
229.699776
 30
0.0
 11
351.005181
 21
229.703041
 31
0.0
  0
LINE
  5
275
100
AcDbEntity
  8
LAY-3
  6
CONTINUOUS
 62
     3
100
AcDbLine
 10
356.996071
 20
215.749126
 30
0.0
 11
357.003841
 21
227.649123
 31
0.0
  0
LINE
  5
276
100
AcDbEntity
  8
LAY-3
  6
CONTINUOUS
 62
     3
100
AcDbLine
 10
350.994733
 20
213.703044
 30
0.0
 11
355.994732
 21
213.699779
 31
0.0
  0
LINE
  5
277
100
AcDbEntity
  8
LAY-3
  6
CONTINUOUS
 62
     3
100
AcDbLine
 10
350.003843
 20
227.653694
 30
0.0
 11
349.996072
 21
215.753697
 31
0.0
  0
ARC
  5
278
100
AcDbEntity
  8
LAY-3
  6
CONTINUOUS
 62
     3
100
AcDbCircle
 10
250.620489
 20
221.793205
 30
0.0
 40
5.55625
100
AcDbArc
 50
87.65
 51
211.441631
  0
ARC
  5
279
100
AcDbEntity
  8
LAY-3
  6
CONTINUOUS
 62
     3
100
AcDbCircle
 10
248.577841
 20
220.794987
 30
0.0
 40
2.0
100
AcDbArc
 50
269.95
 51
357.65
  0
ARC
  5
27A
100
AcDbEntity
  8
LAY-3
  6
CONTINUOUS
 62
     3
100
AcDbCircle
 10
248.496682
 20
217.995056
 30
0.0
 40
2.0
100
AcDbArc
 50
269.95
 51
359.95
  0
LINE
  5
27B
100
AcDbEntity
  8
LAY-3
  6
CONTINUOUS
 62
     3
100
AcDbLine
 10
435.751915
 20
223.910691
 30
0.0
 11
440.400061
 21
223.907655
 31
0.0
  0
LINE
  5
27C
100
AcDbEntity
  8
LAY-3
  6
CONTINUOUS
 62
     3
100
AcDbLine
 10
216.994948
 20
216.022546
 30
0.0
 11
210.994951
 21
216.027782
 31
0.0
  0
LINE
  5
27D
100
AcDbEntity
  8
LAY-3
  6
CONTINUOUS
 62
     3
100
AcDbLine
 10
368.647153
 20
226.634637
 30
0.0
 11
366.92076
 21
227.632874
 31
0.0
  0
LINE
  5
27E
100
AcDbEntity
  8
LAY-3
  6
CONTINUOUS
 62
     3
100
AcDbLine
 10
368.674358
 20
216.767809
 30
0.0
 11
366.896069
 21
215.742661
 31
0.0
  0
LINE
  5
27F
100
AcDbEntity
  8
LAY-3
  6
CONTINUOUS
 62
     3
100
AcDbLine
 10
356.986098
 20
215.749132
 30
0.0
 11
366.896069
 21
215.742661
 31
0.0
  0
LINE
  5
280
100
AcDbEntity
  8
LAY-3
  6
CONTINUOUS
 62
     1
100
AcDbLine
 10
356.986751
 20
216.749132
 30
0.0
 11
368.628772
 21
216.74153
 31
0.0
  0
LINE
  5
281
100
AcDbEntity
  8
LAY-3
  6
CONTINUOUS
 62
     3
100
AcDbLine
 10
371.572368
 20
226.640058
 30
0.0
 11
371.573144
 21
226.639609
 31
0.0
  0
LINE
  5
282
100
AcDbEntity
  8
LAY-3
  6
CONTINUOUS
 62
     3
100
AcDbLine
 10
356.993868
 20
227.64913
 30
0.0
 11
366.903839
 21
227.642659
 31
0.0
  0
LINE
  5
283
100
AcDbEntity
  8
LAY-3
  6
CONTINUOUS
 62
     3
100
AcDbLine
 10
366.896069
 20
215.742661
 30
0.0
 11
366.903839
 21
227.642659
 31
0.0
  0
LINE
  5
284
100
AcDbEntity
  8
LAY-3
  6
CONTINUOUS
 62
     3
100
AcDbLine
 10
368.628772
 20
216.74153
 30
0.0
 11
418.326435
 21
216.69816
 31
0.0
  0
LINE
  5
285
100
AcDbEntity
  8
LAY-3
  6
CONTINUOUS
 62
     3
100
AcDbLine
 10
421.052121
 20
219.420288
 30
0.0
 11
418.326435
 21
216.69816
 31
0.0
  0
LINE
  5
286
100
AcDbEntity
  8
LAY-3
  6
CONTINUOUS
 62
     3
100
AcDbLine
 10
248.494936
 20
215.995057
 30
0.0
 11
217.094948
 21
216.022459
 31
0.0
  0
LINE
  5
287
100
AcDbEntity
  8
LAY-3
  6
CONTINUOUS
 62
     3
100
AcDbLine
 10
421.055059
 20
223.920288
 30
0.0
 11
435.751915
 21
223.910691
 31
0.0
  0
LINE
  5
288
100
AcDbEntity
  8
LAY-3
  6
CONTINUOUS
 62
     3
100
AcDbLine
 10
421.052121
 20
219.420288
 30
0.0
 11
436.369902
 21
219.410286
 31
0.0
  0
LINE
  5
289
100
AcDbEntity
  8
LAY-3
  6
CONTINUOUS
 62
     3
100
AcDbLine
 10
637.5
 20
223.915852
 30
0.0
 11
656.5
 21
223.920026
 31
0.0
  0
LINE
  5
28A
100
AcDbEntity
  8
LAY-3
  6
CONTINUOUS
 62
     3
100
AcDbLine
 10
656.5
 20
219.420025
 30
0.0
 11
656.5
 21
223.920026
 31
0.0
  0
LINE
  5
28B
100
AcDbEntity
  8
LAY-3
  6
CONTINUOUS
 62
     3
100
AcDbLine
 10
637.5
 20
219.415852
 30
0.0
 11
656.5
 21
219.420025
 31
0.0
  0
LINE
  5
28C
100
AcDbEntity
  8
LAY-3
  6
CONTINUOUS
 62
     3
100
AcDbLine
 10
637.5
 20
223.915852
 30
0.0
 11
637.5
 21
219.415852
 31
0.0
  0
LINE
  5
28D
100
AcDbEntity
  8
LAY-3
  6
CONTINUOUS
 62
     3
100
AcDbLine
 10
631.3
 20
217.0
 30
0.0
 11
631.3
 21
210.5
 31
0.0
  0
ARC
  5
28E
100
AcDbEntity
  8
LAY-3
  6
CONTINUOUS
 62
     3
100
AcDbCircle
 10
661.3
 20
217.0
 30
0.0
 40
1.0
100
AcDbArc
 50
359.99998
 51
90.000019
  0
ARC
  5
28F
100
AcDbEntity
  8
LAY-3
  6
CONTINUOUS
 62
     3
100
AcDbCircle
 10
632.3
 20
217.0
 30
0.0
 40
1.0
100
AcDbArc
 50
90.000019
 51
180.0
  0
ARC
  5
290
100
AcDbEntity
  8
LAY-3
  6
CONTINUOUS
 62
     3
100
AcDbCircle
 10
632.3
 20
210.5
 30
0.0
 40
1.0
100
AcDbArc
 50
180.000018
 51
270.0
  0
LINE
  5
291
100
AcDbEntity
  8
LAY-3
  6
CONTINUOUS
 62
     3
100
AcDbLine
 10
632.872327
 20
209.52
 30
0.0
 11
632.872327
 21
209.5
 31
0.0
  0
LINE
  5
292
100
AcDbEntity
  8
LAY-3
  6
CONTINUOUS
 62
     3
100
AcDbLine
 10
661.3
 20
218.0
 30
0.0
 11
654.0
 21
218.0
 31
0.0
  0
LINE
  5
293
100
AcDbEntity
  8
LAY-3
  6
CONTINUOUS
 62
     3
100
AcDbLine
 10
640.0
 20
218.0
 30
0.0
 11
632.3
 21
218.0
 31
0.0
  0
LINE
  5
294
100
AcDbEntity
  8
LAY-3
  6
CONTINUOUS
 62
     3
100
AcDbLine
 10
638.655894
 20
209.5
 30
0.0
 11
632.3
 21
209.5
 31
0.0
  0
LINE
  5
295
100
AcDbEntity
  8
LAY-3
  6
CONTINUOUS
 62
     3
100
AcDbLine
 10
662.3
 20
217.0
 30
0.0
 11
662.3
 21
213.537889
 31
0.0
  0
LINE
  5
296
100
AcDbEntity
  8
LAY-4
  6
CONTINUOUS
 62
     3
100
AcDbLine
 10
182.0
 20
424.5
 30
0.0
 11
182.0
 21
432.5
 31
0.0
  0
LINE
  5
297
100
AcDbEntity
  8
LAY-4
  6
CONTINUOUS
 62
     3
100
AcDbLine
 10
263.0
 20
437.5
 30
0.0
 11
187.0
 21
437.5
 31
0.0
  0
LINE
  5
298
100
AcDbEntity
  8
LAY-4
  6
CONTINUOUS
 62
     3
100
AcDbLine
 10
268.0
 20
424.5
 30
0.0
 11
268.0
 21
432.5
 31
0.0
  0
ARC
  5
299
100
AcDbEntity
  8
LAY-4
  6
CONTINUOUS
 62
     3
100
AcDbCircle
 10
263.0
 20
432.5
 30
0.0
 40
5.0
100
AcDbArc
 50
0.0
 51
90.0
  0
ARC
  5
29A
100
AcDbEntity
  8
LAY-4
  6
CONTINUOUS
 62
     3
100
AcDbCircle
 10
263.0
 20
424.5
 30
0.0
 40
5.0
100
AcDbArc
 50
270.0
 51
0.0
  0
ARC
  5
29B
100
AcDbEntity
  8
LAY-4
  6
CONTINUOUS
 62
     3
100
AcDbCircle
 10
187.0
 20
432.5
 30
0.0
 40
5.0
100
AcDbArc
 50
90.0
 51
180.0
  0
ARC
  5
29C
100
AcDbEntity
  8
LAY-4
  6
CONTINUOUS
 62
     3
100
AcDbCircle
 10
187.0
 20
424.5
 30
0.0
 40
5.0
100
AcDbArc
 50
180.0
 51
270.0
  0
CIRCLE
  5
29D
100
AcDbEntity
  8
LAY-4
  6
CONTINUOUS
 62
     3
100
AcDbCircle
 10
189.0
 20
431.5
 30
0.0
 40
2.7
  0
CIRCLE
  5
29E
100
AcDbEntity
  8
LAY-4
  6
DASHED2
 62
     3
100
AcDbCircle
 10
189.0
 20
431.5
 30
0.0
 40
5.1
  0
CIRCLE
  5
29F
100
AcDbEntity
  8
LAY-4
  6
CONTINUOUS
 62
     3
100
AcDbCircle
 10
207.0
 20
431.5
 30
0.0
 40
2.7
  0
CIRCLE
  5
2A0
100
AcDbEntity
  8
LAY-4
  6
DASHED2
 62
     3
100
AcDbCircle
 10
207.0
 20
431.5
 30
0.0
 40
5.1
  0
CIRCLE
  5
2A1
100
AcDbEntity
  8
LAY-4
  6
CONTINUOUS
 62
     3
100
AcDbCircle
 10
243.0
 20
431.5
 30
0.0
 40
2.7
  0
CIRCLE
  5
2A2
100
AcDbEntity
  8
LAY-4
  6
DASHED2
 62
     3
100
AcDbCircle
 10
243.0
 20
431.5
 30
0.0
 40
5.1
  0
CIRCLE
  5
2A3
100
AcDbEntity
  8
LAY-4
  6
CONTINUOUS
 62
     3
100
AcDbCircle
 10
261.0
 20
431.5
 30
0.0
 40
2.7
  0
CIRCLE
  5
2A4
100
AcDbEntity
  8
LAY-4
  6
DASHED2
 62
     3
100
AcDbCircle
 10
261.0
 20
431.5
 30
0.0
 40
5.1
  0
CIRCLE
  5
2A5
100
AcDbEntity
  8
LAY-4
  6
CONTINUOUS
 62
     3
100
AcDbCircle
 10
225.271513
 20
397.5
 30
0.0
 40
10.0
  0
CIRCLE
  5
2A6
100
AcDbEntity
  8
LAY-4
  6
CONTINUOUS
 62
     3
100
AcDbCircle
 10
225.271513
 20
397.5
 30
0.0
 40
4.5
  0
CIRCLE
  5
2A7
100
AcDbEntity
  8
LAY-4
  6
CONTINUOUS
 62
     1
100
AcDbCircle
 10
225.271513
 20
397.5
 30
0.0
 40
5.0
  0
CIRCLE
  5
2A8
100
AcDbEntity
  8
LAY-4
  6
CONTINUOUS
 62
     1
100
AcDbCircle
 10
225.271513
 20
397.5
 30
0.0
 40
8.0
  0
LINE
  5
2A9
100
AcDbEntity
  8
LAY-4
  6
CONTINUOUS
 62
     3
100
AcDbLine
 10
229.890315
 20
405.5
 30
0.0
 11
220.652711
 21
405.5
 31
0.0
  0
CIRCLE
  5
2AA
100
AcDbEntity
  8
LAY-4
  6
CONTINUOUS
 62
     3
100
AcDbCircle
 10
225.271513
 20
397.5
 30
0.0
 40
10.5
  0
LINE
  5
2AB
100
AcDbEntity
  8
LAY-4
  6
CONTINUOUS
 62
     3
100
AcDbLine
 10
234.509118
 20
397.5
 30
0.0
 11
229.890315
 21
405.5
 31
0.0
  0
LINE
  5
2AC
100
AcDbEntity
  8
LAY-4
  6
CONTINUOUS
 62
     3
100
AcDbLine
 10
220.652711
 20
405.5
 30
0.0
 11
216.033909
 21
397.5
 31
0.0
  0
LINE
  5
2AD
100
AcDbEntity
  8
LAY-4
  6
CONTINUOUS
 62
     3
100
AcDbLine
 10
229.890315
 20
389.5
 30
0.0
 11
234.509118
 21
397.5
 31
0.0
  0
LINE
  5
2AE
100
AcDbEntity
  8
LAY-4
  6
CONTINUOUS
 62
     3
100
AcDbLine
 10
220.652711
 20
389.5
 30
0.0
 11
229.890315
 21
389.5
 31
0.0
  0
LINE
  5
2AF
100
AcDbEntity
  8
LAY-4
  6
CONTINUOUS
 62
     3
100
AcDbLine
 10
216.033909
 20
397.5
 30
0.0
 11
220.652711
 21
389.5
 31
0.0
  0
ARC
  5
2B0
100
AcDbEntity
  8
LAY-4
  6
CONTINUOUS
 62
     3
100
AcDbCircle
 10
225.271513
 20
397.5
 30
0.0
 40
17.0
100
AcDbArc
 50
358.208964
 51
187.025044
  0
LINE
  5
2B1
100
AcDbEntity
  8
LAY-4
  6
CONTINUOUS
 62
     3
100
AcDbLine
 10
196.399368
 20
416.802339
 30
0.0
 11
210.353339
 21
389.902281
 31
0.0
  0
LINE
  5
2B2
100
AcDbEntity
  8
LAY-4
  6
CONTINUOUS
 62
     3
100
AcDbLine
 10
191.960986
 20
419.5
 30
0.0
 11
187.0
 21
419.5
 31
0.0
  0
ARC
  5
2B3
100
AcDbEntity
  8
LAY-4
  6
CONTINUOUS
 62
     3
100
AcDbCircle
 10
191.960986
 20
414.5
 30
0.0
 40
5.0
100
AcDbArc
 50
27.417299
 51
90.0
  0
LINE
  5
2B4
100
AcDbEntity
  8
LAY-4
  6
CONTINUOUS
 62
     3
100
AcDbLine
 10
253.600632
 20
416.802339
 30
0.0
 11
239.646661
 21
389.902281
 31
0.0
  0
LINE
  5
2B5
100
AcDbEntity
  8
LAY-4
  6
CONTINUOUS
 62
     3
100
AcDbLine
 10
258.039014
 20
419.5
 30
0.0
 11
263.0
 21
419.5
 31
0.0
  0
ARC
  5
2B6
100
AcDbEntity
  8
LAY-4
  6
CONTINUOUS
 62
     3
100
AcDbCircle
 10
258.039014
 20
414.5
 30
0.0
 40
5.0
100
AcDbArc
 50
90.0
 51
152.582701
  0
LINE
  5
2B7
100
AcDbEntity
  8
LAY-4
  6
CONTINUOUS
 62
     3
100
AcDbLine
 10
263.0
 20
419.5
 30
0.0
 11
258.039014
 21
419.5
 31
0.0
  0
ARC
  5
2B8
100
AcDbEntity
  8
LAY-4
  6
CONTINUOUS
 62
     3
100
AcDbCircle
 10
225.0
 20
397.5
 30
0.0
 40
30.0
100
AcDbArc
 50
90.0
 51
148.356988
  0
ARC
  5
2B9
100
AcDbEntity
  8
LAY-4
  6
CONTINUOUS
 62
     3
100
AcDbCircle
 10
225.0
 20
397.5
 30
0.0
 40
30.0
100
AcDbArc
 50
31.643012
 51
90.0
  0
LINE
  5
2BA
100
AcDbEntity
  8
LAY-4
  6
CONTINUOUS
 62
     3
100
AcDbLine
 10
263.0
 20
419.5
 30
0.0
 11
258.039014
 21
419.5
 31
0.0
  0
LINE
  5
2BB
100
AcDbEntity
  8
LAY-4
  6
CONTINUOUS
 62
     3
100
AcDbLine
 10
191.960986
 20
419.5
 30
0.0
 11
187.0
 21
419.5
 31
0.0
  0
ARC
  5
2BC
100
AcDbEntity
  8
LAY-4
  6
CONTINUOUS
 62
     3
100
AcDbCircle
 10
225.0
 20
397.5
 30
0.0
 40
16.5
100
AcDbArc
 50
207.417299
 51
332.582701
  0
LINE
  5
2BD
100
AcDbEntity
  8
LAY-4
  6
CONTINUOUS
 62
     3
100
AcDbLine
 10
211.0
 20
226.500029
 30
0.0
 11
211.0
 21
231.000029
 31
0.0
  0
LINE
  5
2BE
100
AcDbEntity
  8
LAY-4
  6
CONTINUOUS
 62
     3
100
AcDbLine
 10
239.0
 20
226.500029
 30
0.0
 11
239.0
 21
231.000029
 31
0.0
  0
LINE
  5
2BF
100
AcDbEntity
  8
LAY-4
  6
CONTINUOUS
 62
     3
100
AcDbLine
 10
211.0
 20
224.500029
 30
0.0
 11
211.0
 21
218.800029
 31
0.0
  0
LINE
  5
2C0
100
AcDbEntity
  8
LAY-4
  6
CONTINUOUS
 62
     3
100
AcDbLine
 10
212.0
 20
224.500029
 30
0.0
 11
212.0
 21
226.500029
 31
0.0
  0
LINE
  5
2C1
100
AcDbEntity
  8
LAY-4
  6
CONTINUOUS
 62
     3
100
AcDbLine
 10
238.0
 20
224.500029
 30
0.0
 11
238.0
 21
226.500029
 31
0.0
  0
LINE
  5
2C2
100
AcDbEntity
  8
LAY-4
  6
CONTINUOUS
 62
     3
100
AcDbLine
 10
239.0
 20
218.800029
 30
0.0
 11
239.0
 21
224.500029
 31
0.0
  0
LINE
  5
2C3
100
AcDbEntity
  8
LAY-4
  6
CONTINUOUS
 62
     3
100
AcDbLine
 10
220.5
 20
239.800029
 30
0.0
 11
229.5
 21
239.800029
 31
0.0
  0
LINE
  5
2C4
100
AcDbEntity
  8
LAY-4
  6
CONTINUOUS
 62
     3
100
AcDbLine
 10
215.000008
 20
233.000029
 30
0.0
 11
215.000008
 21
234.000029
 31
0.0
  0
LINE
  5
2C5
100
AcDbEntity
  8
LAY-4
  6
CONTINUOUS
 62
     3
100
AcDbLine
 10
215.000008
 20
234.000029
 30
0.0
 11
219.900008
 21
234.400029
 31
0.0
  0
LINE
  5
2C6
100
AcDbEntity
  8
LAY-4
  6
CONTINUOUS
 62
     3
100
AcDbLine
 10
214.500008
 20
233.000029
 30
0.0
 11
214.500008
 21
231.000029
 31
0.0
  0
LINE
  5
2C7
100
AcDbEntity
  8
LAY-4
  6
CONTINUOUS
 62
     3
100
AcDbLine
 10
234.999992
 20
233.000029
 30
0.0
 11
234.999992
 21
234.000029
 31
0.0
  0
LINE
  5
2C8
100
AcDbEntity
  8
LAY-4
  6
CONTINUOUS
 62
     3
100
AcDbLine
 10
235.499992
 20
233.000029
 30
0.0
 11
235.499992
 21
231.000029
 31
0.0
  0
LINE
  5
2C9
100
AcDbEntity
  8
LAY-4
  6
CONTINUOUS
 62
     3
100
AcDbLine
 10
234.999992
 20
234.000029
 30
0.0
 11
230.099992
 21
234.400029
 31
0.0
  0
LINE
  5
2CA
100
AcDbEntity
  8
LAY-4
  6
CONTINUOUS
 62
     3
100
AcDbLine
 10
230.0
 20
233.000029
 30
0.0
 11
235.499992
 21
233.000029
 31
0.0
  0
LINE
  5
2CB
100
AcDbEntity
  8
LAY-4
  6
CONTINUOUS
 62
     3
100
AcDbLine
 10
230.0
 20
231.000029
 30
0.0
 11
230.171589
 21
231.000029
 31
0.0
  0
LINE
  5
2CC
100
AcDbEntity
  8
LAY-4
  6
CONTINUOUS
 62
     3
100
AcDbLine
 10
229.5
 20
239.800029
 30
0.0
 11
229.9
 21
239.400029
 31
0.0
  0
LINE
  5
2CD
100
AcDbEntity
  8
LAY-4
  6
CONTINUOUS
 62
     1
100
AcDbLine
 10
229.5
 20
239.800029
 30
0.0
 11
229.5
 21
239.400029
 31
0.0
  0
LINE
  5
2CE
100
AcDbEntity
  8
LAY-4
  6
CONTINUOUS
 62
     3
100
AcDbLine
 10
220.5
 20
239.800029
 30
0.0
 11
220.1
 21
239.400029
 31
0.0
  0
LINE
  5
2CF
100
AcDbEntity
  8
LAY-4
  6
CONTINUOUS
 62
     3
100
AcDbLine
 10
230.0
 20
235.054762
 30
0.0
 11
230.0
 21
238.745296
 31
0.0
  0
ARC
  5
2D0
100
AcDbEntity
  8
LAY-4
  6
CONTINUOUS
 62
     3
100
AcDbCircle
 10
232.1
 20
235.704879
 30
0.0
 40
3.695151
100
AcDbArc
 50
55.36737
 51
124.63263
  0
LINE
  5
2D1
100
AcDbEntity
  8
LAY-4
  6
CONTINUOUS
 62
     3
100
AcDbLine
 10
225.000008
 20
239.400029
 30
0.0
 11
232.1
 21
239.400029
 31
0.0
  0
ARC
  5
2D2
100
AcDbEntity
  8
LAY-4
  6
CONTINUOUS
 62
     3
100
AcDbCircle
 10
231.928211
 20
237.566652
 30
0.0
 40
3.166636
100
AcDbArc
 50
269.829901
 51
270.170099
  0
ARC
  5
2D3
100
AcDbEntity
  8
LAY-4
  6
CONTINUOUS
 62
     3
100
AcDbCircle
 10
232.100009
 20
238.095208
 30
0.0
 40
3.695179
100
AcDbArc
 50
235.367508
 51
304.632157
  0
LINE
  5
2D4
100
AcDbEntity
  8
LAY-4
  6
CONTINUOUS
 62
     3
100
AcDbLine
 10
234.2
 20
235.05475
 30
0.0
 11
234.2
 21
238.745296
 31
0.0
  0
ARC
  5
2D5
100
AcDbEntity
  8
LAY-4
  6
CONTINUOUS
 62
     3
100
AcDbCircle
 10
218.071805
 20
237.566652
 30
0.0
 40
3.166636
100
AcDbArc
 50
269.829901
 51
270.170099
  0
ARC
  5
2D6
100
AcDbEntity
  8
LAY-4
  6
CONTINUOUS
 62
     3
100
AcDbCircle
 10
217.9
 20
238.095237
 30
0.0
 40
3.695208
100
AcDbArc
 50
235.367981
 51
304.632019
  0
ARC
  5
2D7
100
AcDbEntity
  8
LAY-4
  6
CONTINUOUS
 62
     3
100
AcDbCircle
 10
218.071805
 20
236.233407
 30
0.0
 40
3.166636
100
AcDbArc
 50
89.829901
 51
90.170099
  0
ARC
  5
2D8
100
AcDbEntity
  8
LAY-4
  6
CONTINUOUS
 62
     3
100
AcDbCircle
 10
217.9
 20
235.704822
 30
0.0
 40
3.695208
100
AcDbArc
 50
55.367981
 51
124.632019
  0
LINE
  5
2D9
100
AcDbEntity
  8
LAY-4
  6
CONTINUOUS
 62
     3
100
AcDbLine
 10
217.9
 20
239.400029
 30
0.0
 11
229.9
 21
239.400029
 31
0.0
  0
LINE
  5
2DA
100
AcDbEntity
  8
LAY-4
  6
CONTINUOUS
 62
     3
100
AcDbLine
 10
215.8
 20
235.05475
 30
0.0
 11
215.8
 21
238.745308
 31
0.0
  0
ARC
  5
2DB
100
AcDbEntity
  8
LAY-4
  6
CONTINUOUS
 62
     3
100
AcDbCircle
 10
224.999977
 20
219.98074
 30
0.0
 40
19.419289
100
AcDbArc
 50
75.079583
 51
90.0
  0
LINE
  5
2DC
100
AcDbEntity
  8
LAY-4
  6
CONTINUOUS
 62
     3
100
AcDbLine
 10
220.0
 20
239.400029
 30
0.0
 11
220.0
 21
235.05475
 31
0.0
  0
ARC
  5
2DD
100
AcDbEntity
  8
LAY-4
  6
CONTINUOUS
 62
     3
100
AcDbCircle
 10
225.000008
 20
253.819555
 30
0.0
 40
19.419526
100
AcDbArc
 50
269.999976
 51
284.920185
  0
LINE
  5
2DE
100
AcDbEntity
  8
LAY-4
  6
CONTINUOUS
 62
     3
100
AcDbLine
 10
225.0
 20
234.400029
 30
0.0
 11
226.19
 21
234.400029
 31
0.0
  0
LINE
  5
2DF
100
AcDbEntity
  8
LAY-4
  6
CONTINUOUS
 62
     3
100
AcDbLine
 10
217.9
 20
234.400029
 30
0.0
 11
220.0
 21
234.400029
 31
0.0
  0
LINE
  5
2E0
100
AcDbEntity
  8
LAY-4
  6
CONTINUOUS
 62
     3
100
AcDbLine
 10
215.000008
 20
234.000029
 30
0.0
 11
220.0
 21
234.000029
 31
0.0
  0
LINE
  5
2E1
100
AcDbEntity
  8
LAY-4
  6
CONTINUOUS
 62
     3
100
AcDbLine
 10
230.0
 20
234.000029
 30
0.0
 11
230.52
 21
234.000029
 31
0.0
  0
LINE
  5
2E2
100
AcDbEntity
  8
LAY-4
  6
CONTINUOUS
 62
     3
100
AcDbLine
 10
230.0
 20
233.000029
 30
0.0
 11
231.13
 21
233.000029
 31
0.0
  0
LINE
  5
2E3
100
AcDbEntity
  8
LAY-4
  6
CONTINUOUS
 62
     3
100
AcDbLine
 10
220.0
 20
231.000029
 30
0.0
 11
211.0
 21
231.000029
 31
0.0
  0
LINE
  5
2E4
100
AcDbEntity
  8
LAY-4
  6
CONTINUOUS
 62
     3
100
AcDbLine
 10
214.500008
 20
231.000029
 30
0.0
 11
220.0
 21
231.000029
 31
0.0
  0
LINE
  5
2E5
100
AcDbEntity
  8
LAY-4
  6
CONTINUOUS
 62
     3
100
AcDbLine
 10
239.0
 20
231.000029
 30
0.0
 11
230.0
 21
231.000029
 31
0.0
  0
LINE
  5
2E6
100
AcDbEntity
  8
LAY-4
  6
CONTINUOUS
 62
     3
100
AcDbLine
 10
215.0
 20
225.500029
 30
0.0
 11
212.0
 21
225.500029
 31
0.0
  0
LINE
  5
2E7
100
AcDbEntity
  8
LAY-4
  6
CONTINUOUS
 62
     3
100
AcDbLine
 10
212.0
 20
226.500029
 30
0.0
 11
211.0
 21
226.500029
 31
0.0
  0
LINE
  5
2E8
100
AcDbEntity
  8
LAY-4
  6
CONTINUOUS
 62
     3
100
AcDbLine
 10
239.0
 20
224.500029
 30
0.0
 11
238.0
 21
224.500029
 31
0.0
  0
LINE
  5
2E9
100
AcDbEntity
  8
LAY-4
  6
CONTINUOUS
 62
     3
100
AcDbLine
 10
182.0
 20
249.000029
 30
0.0
 11
182.0
 21
253.500029
 31
0.0
  0
LINE
  5
2EA
100
AcDbEntity
  8
LAY-4
  6
CONTINUOUS
 62
     3
100
AcDbLine
 10
268.0
 20
249.000029
 30
0.0
 11
268.0
 21
253.500029
 31
0.0
  0
LINE
  5
2EB
100
AcDbEntity
  8
LAY-4
  6
CONTINUOUS
 62
     3
100
AcDbLine
 10
182.0
 20
253.500029
 30
0.0
 11
195.0
 21
253.500029
 31
0.0
  0
LINE
  5
2EC
100
AcDbEntity
  8
LAY-4
  6
CONTINUOUS
 62
     3
100
AcDbLine
 10
195.0
 20
253.500029
 30
0.0
 11
268.0
 21
253.500029
 31
0.0
  0
ARC
  5
2ED
100
AcDbEntity
  8
LAY-4
  6
CONTINUOUS
 62
     3
100
AcDbCircle
 10
192.435882
 20
249.000029
 30
0.0
 40
4.5
100
AcDbArc
 50
30.650668
 51
90.0
  0
ARC
  5
2EE
100
AcDbEntity
  8
LAY-4
  6
CONTINUOUS
 62
     3
100
AcDbCircle
 10
257.564118
 20
249.000029
 30
0.0
 40
4.5
100
AcDbArc
 50
90.0
 51
149.349332
  0
ARC
  5
2EF
100
AcDbEntity
  8
LAY-4
  6
CONTINUOUS
 62
     3
100
AcDbCircle
 10
193.860392
 20
247.000029
 30
0.0
 40
2.0
100
AcDbArc
 50
30.650668
 51
90.0
  0
ARC
  5
2F0
100
AcDbEntity
  8
LAY-4
  6
CONTINUOUS
 62
     3
100
AcDbCircle
 10
256.139608
 20
247.000029
 30
0.0
 40
2.0
100
AcDbArc
 50
90.0
 51
149.349332
  0
LINE
  5
2F1
100
AcDbEntity
  8
LAY-4
  6
CONTINUOUS
 62
     3
100
AcDbLine
 10
193.860392
 20
249.000029
 30
0.0
 11
182.0
 21
249.000029
 31
0.0
  0
LINE
  5
2F2
100
AcDbEntity
  8
LAY-4
  6
CONTINUOUS
 62
     3
100
AcDbLine
 10
268.0
 20
249.000029
 30
0.0
 11
256.139608
 21
249.000029
 31
0.0
  0
LINE
  5
2F3
100
AcDbEntity
  8
LAY-4
  6
DASHED2
 62
     3
100
AcDbLine
 10
191.5
 20
251.500029
 30
0.0
 11
186.5
 21
251.500029
 31
0.0
  0
LINE
  5
2F4
100
AcDbEntity
  8
LAY-4
  6
DASHED2
 62
     3
100
AcDbLine
 10
186.5
 20
251.500029
 30
0.0
 11
186.5
 21
253.500029
 31
0.0
  0
LINE
  5
2F5
100
AcDbEntity
  8
LAY-4
  6
DASHED2
 62
     3
100
AcDbLine
 10
191.5
 20
251.500029
 30
0.0
 11
191.5
 21
253.500029
 31
0.0
  0
LINE
  5
2F6
100
AcDbEntity
  8
LAY-4
  6
DASHED2
 62
     3
100
AcDbLine
 10
184.0
 20
249.000029
 30
0.0
 11
186.5
 21
251.500029
 31
0.0
  0
LINE
  5
2F7
100
AcDbEntity
  8
LAY-4
  6
DASHED2
 62
     3
100
AcDbLine
 10
194.005253
 20
248.994776
 30
0.0
 11
191.5
 21
251.500029
 31
0.0
  0
LINE
  5
2F8
100
AcDbEntity
  8
LAY-4
  6
CONTINUOUS
 62
     3
100
AcDbLine
 10
211.0
 20
231.000029
 30
0.0
 11
196.307194
 21
251.29414
 31
0.0
  0
LINE
  5
2F9
100
AcDbEntity
  8
LAY-4
  6
CONTINUOUS
 62
     3
100
AcDbLine
 10
211.0
 20
226.500029
 30
0.0
 11
195.580975
 21
248.019634
 31
0.0
  0
LINE
  5
2FA
100
AcDbEntity
  8
LAY-4
  6
CONTINUOUS
 62
     3
100
AcDbLine
 10
239.0
 20
231.000029
 30
0.0
 11
253.692806
 21
251.29414
 31
0.0
  0
LINE
  5
2FB
100
AcDbEntity
  8
LAY-4
  6
CONTINUOUS
 62
     3
100
AcDbLine
 10
239.0
 20
226.500029
 30
0.0
 11
254.419025
 21
248.019634
 31
0.0
  0
ARC
  5
2FC
100
AcDbEntity
  8
LAY-4
  6
CONTINUOUS
 62
     3
100
AcDbCircle
 10
225.000023
 20
219.98074
 30
0.0
 40
19.419289
100
AcDbArc
 50
90.0
 51
104.920417
  0
ARC
  5
2FD
100
AcDbEntity
  8
LAY-4
  6
CONTINUOUS
 62
     3
100
AcDbCircle
 10
224.999992
 20
253.819555
 30
0.0
 40
19.419526
100
AcDbArc
 50
255.079815
 51
270.000024
  0
LINE
  5
2FE
100
AcDbEntity
  8
LAY-4
  6
CONTINUOUS
 62
     1
100
AcDbLine
 10
220.5
 20
239.400029
 30
0.0
 11
220.5
 21
239.800029
 31
0.0
  0
LINE
  5
2FF
100
AcDbEntity
  8
LAY-4
  6
CONTINUOUS
 62
     3
100
AcDbLine
 10
220.0
 20
234.400029
 30
0.0
 11
232.100009
 21
234.400029
 31
0.0
  0
LINE
  5
300
100
AcDbEntity
  8
LAY-4
  6
CONTINUOUS
 62
     3
100
AcDbLine
 10
220.0
 20
234.000029
 30
0.0
 11
234.999992
 21
234.000029
 31
0.0
  0
LINE
  5
301
100
AcDbEntity
  8
LAY-4
  6
CONTINUOUS
 62
     3
100
AcDbLine
 10
214.500008
 20
233.000029
 30
0.0
 11
230.0
 21
233.000029
 31
0.0
  0
LINE
  5
302
100
AcDbEntity
  8
LAY-4
  6
CONTINUOUS
 62
     3
100
AcDbLine
 10
220.0
 20
231.000029
 30
0.0
 11
235.6
 21
231.000029
 31
0.0
  0
LINE
  5
303
100
AcDbEntity
  8
LAY-4
  6
CONTINUOUS
 62
     3
100
AcDbLine
 10
220.0
 20
234.400029
 30
0.0
 11
220.0
 21
236.922187
 31
0.0
  0
LINE
  5
304
100
AcDbEntity
  8
LAY-4
  6
CONTINUOUS
 62
     3
100
AcDbLine
 10
230.0
 20
234.000029
 30
0.0
 11
230.0
 21
234.400029
 31
0.0
  0
LINE
  5
305
100
AcDbEntity
  8
LAY-4
  6
CONTINUOUS
 62
     3
100
AcDbLine
 10
239.0
 20
226.500029
 30
0.0
 11
235.0
 21
226.500029
 31
0.0
  0
LINE
  5
306
100
AcDbEntity
  8
LAY-4
  6
CONTINUOUS
 62
     3
100
AcDbLine
 10
235.0
 20
226.500029
 30
0.0
 11
220.0
 21
226.500029
 31
0.0
  0
LINE
  5
307
100
AcDbEntity
  8
LAY-4
  6
CONTINUOUS
 62
     3
100
AcDbLine
 10
220.0
 20
226.500029
 30
0.0
 11
212.0
 21
226.500029
 31
0.0
  0
LINE
  5
308
100
AcDbEntity
  8
LAY-4
  6
CONTINUOUS
 62
     3
100
AcDbLine
 10
238.0
 20
225.500029
 30
0.0
 11
215.0
 21
225.500029
 31
0.0
  0
LINE
  5
309
100
AcDbEntity
  8
LAY-4
  6
CONTINUOUS
 62
     3
100
AcDbLine
 10
215.0
 20
224.500029
 30
0.0
 11
211.0
 21
224.500029
 31
0.0
  0
LINE
  5
30A
100
AcDbEntity
  8
LAY-4
  6
CONTINUOUS
 62
     3
100
AcDbLine
 10
238.3
 20
224.500029
 30
0.0
 11
215.0
 21
224.500029
 31
0.0
  0
LINE
  5
30B
100
AcDbEntity
  8
LAY-4
  6
DASHED2
 62
     3
100
AcDbLine
 10
191.5
 20
251.500029
 30
0.0
 11
186.5
 21
251.500029
 31
0.0
  0
LINE
  5
30C
100
AcDbEntity
  8
LAY-4
  6
DASHED2
 62
     1
100
AcDbLine
 10
191.0
 20
251.459887
 30
0.0
 11
191.0
 21
257.750029
 31
0.0
  0
LINE
  5
30D
100
AcDbEntity
  8
LAY-4
  6
DASHED2
 62
     3
100
AcDbLine
 10
191.5
 20
251.500029
 30
0.0
 11
191.5
 21
257.750029
 31
0.0
  0
LINE
  5
30E
100
AcDbEntity
  8
LAY-4
  6
DASHED2
 62
     3
100
AcDbLine
 10
186.5
 20
251.500029
 30
0.0
 11
186.5
 21
257.750029
 31
0.0
  0
LINE
  5
30F
100
AcDbEntity
  8
LAY-4
  6
DASHED2
 62
     1
100
AcDbLine
 10
187.0
 20
251.500029
 30
0.0
 11
187.0
 21
257.750029
 31
0.0
  0
LINE
  5
310
100
AcDbEntity
  8
LAY-4
  6
DASHED2
 62
     3
100
AcDbLine
 10
186.5
 20
259.000029
 30
0.0
 11
191.5
 21
259.000029
 31
0.0
  0
LINE
  5
311
100
AcDbEntity
  8
LAY-4
  6
DASHED2
 62
     1
100
AcDbLine
 10
187.0
 20
257.750029
 30
0.0
 11
187.0
 21
259.000029
 31
0.0
  0
LINE
  5
312
100
AcDbEntity
  8
LAY-4
  6
DASHED2
 62
     3
100
AcDbLine
 10
186.5
 20
257.750029
 30
0.0
 11
186.5
 21
259.000029
 31
0.0
  0
LINE
  5
313
100
AcDbEntity
  8
LAY-4
  6
DASHED2
 62
     1
100
AcDbLine
 10
191.0
 20
257.750029
 30
0.0
 11
191.0
 21
259.000029
 31
0.0
  0
LINE
  5
314
100
AcDbEntity
  8
LAY-4
  6
DASHED2
 62
     3
100
AcDbLine
 10
191.5
 20
257.750029
 30
0.0
 11
191.5
 21
259.000029
 31
0.0
  0
LINE
  5
315
100
AcDbEntity
  8
LAY-4
  6
DASHED2
 62
     3
100
AcDbLine
 10
258.5
 20
251.500029
 30
0.0
 11
263.5
 21
251.500029
 31
0.0
  0
LINE
  5
316
100
AcDbEntity
  8
LAY-4
  6
DASHED2
 62
     3
100
AcDbLine
 10
263.5
 20
251.500029
 30
0.0
 11
263.5
 21
253.500029
 31
0.0
  0
LINE
  5
317
100
AcDbEntity
  8
LAY-4
  6
DASHED2
 62
     3
100
AcDbLine
 10
258.5
 20
251.500029
 30
0.0
 11
258.5
 21
253.500029
 31
0.0
  0
LINE
  5
318
100
AcDbEntity
  8
LAY-4
  6
DASHED2
 62
     3
100
AcDbLine
 10
266.0
 20
249.000029
 30
0.0
 11
263.5
 21
251.500029
 31
0.0
  0
LINE
  5
319
100
AcDbEntity
  8
LAY-4
  6
DASHED2
 62
     3
100
AcDbLine
 10
255.994747
 20
248.994776
 30
0.0
 11
258.5
 21
251.500029
 31
0.0
  0
LINE
  5
31A
100
AcDbEntity
  8
LAY-4
  6
DASHED2
 62
     3
100
AcDbLine
 10
258.5
 20
251.500029
 30
0.0
 11
263.5
 21
251.500029
 31
0.0
  0
LINE
  5
31B
100
AcDbEntity
  8
LAY-4
  6
DASHED2
 62
     1
100
AcDbLine
 10
259.0
 20
251.459887
 30
0.0
 11
259.0
 21
257.750029
 31
0.0
  0
LINE
  5
31C
100
AcDbEntity
  8
LAY-4
  6
DASHED2
 62
     3
100
AcDbLine
 10
258.5
 20
251.500029
 30
0.0
 11
258.5
 21
257.750029
 31
0.0
  0
LINE
  5
31D
100
AcDbEntity
  8
LAY-4
  6
DASHED2
 62
     3
100
AcDbLine
 10
263.5
 20
251.500029
 30
0.0
 11
263.5
 21
257.750029
 31
0.0
  0
LINE
  5
31E
100
AcDbEntity
  8
LAY-4
  6
DASHED2
 62
     1
100
AcDbLine
 10
263.0
 20
251.500029
 30
0.0
 11
263.0
 21
257.750029
 31
0.0
  0
LINE
  5
31F
100
AcDbEntity
  8
LAY-4
  6
DASHED2
 62
     3
100
AcDbLine
 10
263.5
 20
259.000029
 30
0.0
 11
258.5
 21
259.000029
 31
0.0
  0
LINE
  5
320
100
AcDbEntity
  8
LAY-4
  6
DASHED2
 62
     1
100
AcDbLine
 10
263.0
 20
257.750029
 30
0.0
 11
263.0
 21
259.000029
 31
0.0
  0
LINE
  5
321
100
AcDbEntity
  8
LAY-4
  6
DASHED2
 62
     3
100
AcDbLine
 10
263.5
 20
257.750029
 30
0.0
 11
263.5
 21
259.000029
 31
0.0
  0
LINE
  5
322
100
AcDbEntity
  8
LAY-4
  6
DASHED2
 62
     1
100
AcDbLine
 10
259.0
 20
257.750029
 30
0.0
 11
259.0
 21
259.000029
 31
0.0
  0
LINE
  5
323
100
AcDbEntity
  8
LAY-4
  6
DASHED2
 62
     3
100
AcDbLine
 10
258.5
 20
257.750029
 30
0.0
 11
258.5
 21
259.000029
 31
0.0
  0
LINE
  5
324
100
AcDbEntity
  8
LAY-4
  6
DASHED2
 62
     3
100
AcDbLine
 10
209.5
 20
251.500029
 30
0.0
 11
204.5
 21
251.500029
 31
0.0
  0
LINE
  5
325
100
AcDbEntity
  8
LAY-4
  6
DASHED2
 62
     3
100
AcDbLine
 10
204.5
 20
251.500029
 30
0.0
 11
204.5
 21
253.500029
 31
0.0
  0
LINE
  5
326
100
AcDbEntity
  8
LAY-4
  6
DASHED2
 62
     3
100
AcDbLine
 10
209.5
 20
251.500029
 30
0.0
 11
209.5
 21
253.500029
 31
0.0
  0
LINE
  5
327
100
AcDbEntity
  8
LAY-4
  6
DASHED2
 62
     3
100
AcDbLine
 10
202.0
 20
249.000029
 30
0.0
 11
204.5
 21
251.500029
 31
0.0
  0
LINE
  5
328
100
AcDbEntity
  8
LAY-4
  6
DASHED2
 62
     3
100
AcDbLine
 10
212.005253
 20
248.994776
 30
0.0
 11
209.5
 21
251.500029
 31
0.0
  0
LINE
  5
329
100
AcDbEntity
  8
LAY-4
  6
DASHED2
 62
     3
100
AcDbLine
 10
209.5
 20
251.500029
 30
0.0
 11
204.5
 21
251.500029
 31
0.0
  0
LINE
  5
32A
100
AcDbEntity
  8
LAY-4
  6
DASHED2
 62
     1
100
AcDbLine
 10
209.0
 20
251.459887
 30
0.0
 11
209.0
 21
257.750029
 31
0.0
  0
LINE
  5
32B
100
AcDbEntity
  8
LAY-4
  6
DASHED2
 62
     3
100
AcDbLine
 10
209.5
 20
251.500029
 30
0.0
 11
209.5
 21
257.750029
 31
0.0
  0
LINE
  5
32C
100
AcDbEntity
  8
LAY-4
  6
DASHED2
 62
     3
100
AcDbLine
 10
204.5
 20
251.500029
 30
0.0
 11
204.5
 21
257.750029
 31
0.0
  0
LINE
  5
32D
100
AcDbEntity
  8
LAY-4
  6
DASHED2
 62
     1
100
AcDbLine
 10
205.0
 20
251.500029
 30
0.0
 11
205.0
 21
257.750029
 31
0.0
  0
LINE
  5
32E
100
AcDbEntity
  8
LAY-4
  6
DASHED2
 62
     3
100
AcDbLine
 10
204.5
 20
259.000029
 30
0.0
 11
209.5
 21
259.000029
 31
0.0
  0
LINE
  5
32F
100
AcDbEntity
  8
LAY-4
  6
DASHED2
 62
     1
100
AcDbLine
 10
205.0
 20
257.750029
 30
0.0
 11
205.0
 21
259.000029
 31
0.0
  0
LINE
  5
330
100
AcDbEntity
  8
LAY-4
  6
DASHED2
 62
     3
100
AcDbLine
 10
204.5
 20
257.750029
 30
0.0
 11
204.5
 21
259.000029
 31
0.0
  0
LINE
  5
331
100
AcDbEntity
  8
LAY-4
  6
DASHED2
 62
     1
100
AcDbLine
 10
209.0
 20
257.750029
 30
0.0
 11
209.0
 21
259.000029
 31
0.0
  0
LINE
  5
332
100
AcDbEntity
  8
LAY-4
  6
DASHED2
 62
     3
100
AcDbLine
 10
209.5
 20
257.750029
 30
0.0
 11
209.5
 21
259.000029
 31
0.0
  0
LINE
  5
333
100
AcDbEntity
  8
LAY-4
  6
DASHED2
 62
     3
100
AcDbLine
 10
245.5
 20
251.500029
 30
0.0
 11
240.5
 21
251.500029
 31
0.0
  0
LINE
  5
334
100
AcDbEntity
  8
LAY-4
  6
DASHED2
 62
     3
100
AcDbLine
 10
240.5
 20
251.500029
 30
0.0
 11
240.5
 21
253.500029
 31
0.0
  0
LINE
  5
335
100
AcDbEntity
  8
LAY-4
  6
DASHED2
 62
     3
100
AcDbLine
 10
245.5
 20
251.500029
 30
0.0
 11
245.5
 21
253.500029
 31
0.0
  0
LINE
  5
336
100
AcDbEntity
  8
LAY-4
  6
DASHED2
 62
     3
100
AcDbLine
 10
238.0
 20
249.000029
 30
0.0
 11
240.5
 21
251.500029
 31
0.0
  0
LINE
  5
337
100
AcDbEntity
  8
LAY-4
  6
DASHED2
 62
     3
100
AcDbLine
 10
248.005253
 20
248.994776
 30
0.0
 11
245.5
 21
251.500029
 31
0.0
  0
LINE
  5
338
100
AcDbEntity
  8
LAY-4
  6
DASHED2
 62
     3
100
AcDbLine
 10
245.5
 20
251.500029
 30
0.0
 11
240.5
 21
251.500029
 31
0.0
  0
LINE
  5
339
100
AcDbEntity
  8
LAY-4
  6
DASHED2
 62
     1
100
AcDbLine
 10
245.0
 20
251.459887
 30
0.0
 11
245.0
 21
257.750029
 31
0.0
  0
LINE
  5
33A
100
AcDbEntity
  8
LAY-4
  6
DASHED2
 62
     3
100
AcDbLine
 10
245.5
 20
251.500029
 30
0.0
 11
245.5
 21
257.750029
 31
0.0
  0
LINE
  5
33B
100
AcDbEntity
  8
LAY-4
  6
DASHED2
 62
     3
100
AcDbLine
 10
240.5
 20
251.500029
 30
0.0
 11
240.5
 21
257.750029
 31
0.0
  0
LINE
  5
33C
100
AcDbEntity
  8
LAY-4
  6
DASHED2
 62
     1
100
AcDbLine
 10
241.0
 20
251.500029
 30
0.0
 11
241.0
 21
257.750029
 31
0.0
  0
LINE
  5
33D
100
AcDbEntity
  8
LAY-4
  6
DASHED2
 62
     3
100
AcDbLine
 10
240.5
 20
259.000029
 30
0.0
 11
245.5
 21
259.000029
 31
0.0
  0
LINE
  5
33E
100
AcDbEntity
  8
LAY-4
  6
DASHED2
 62
     1
100
AcDbLine
 10
241.0
 20
257.750029
 30
0.0
 11
241.0
 21
259.000029
 31
0.0
  0
LINE
  5
33F
100
AcDbEntity
  8
LAY-4
  6
DASHED2
 62
     3
100
AcDbLine
 10
240.5
 20
257.750029
 30
0.0
 11
240.5
 21
259.000029
 31
0.0
  0
LINE
  5
340
100
AcDbEntity
  8
LAY-4
  6
DASHED2
 62
     1
100
AcDbLine
 10
245.0
 20
257.750029
 30
0.0
 11
245.0
 21
259.000029
 31
0.0
  0
LINE
  5
341
100
AcDbEntity
  8
LAY-4
  6
DASHED2
 62
     3
100
AcDbLine
 10
245.5
 20
257.750029
 30
0.0
 11
245.5
 21
259.000029
 31
0.0
  0
LINE
  5
342
100
AcDbEntity
  8
LAY-4
  6
CONTINUOUS
 62
     3
100
AcDbLine
 10
687.0
 20
253.500062
 30
0.0
 11
687.0
 21
249.000062
 31
0.0
  0
LINE
  5
343
100
AcDbEntity
  8
LAY-4
  6
DASHED2
 62
     3
100
AcDbLine
 10
678.5
 20
251.500062
 30
0.0
 11
683.5
 21
251.500062
 31
0.0
  0
LINE
  5
344
100
AcDbEntity
  8
LAY-4
  6
DASHED2
 62
     3
100
AcDbLine
 10
676.0
 20
249.000062
 30
0.0
 11
678.5
 21
251.500062
 31
0.0
  0
ARC
  5
345
100
AcDbEntity
  8
LAY-4
  6
CONTINUOUS
 62
     3
100
AcDbCircle
 10
681.0
 20
261.000062
 30
0.0
 40
13.0
100
AcDbArc
 50
247.380135
 51
292.619865
  0
LINE
  5
346
100
AcDbEntity
  8
LAY-4
  6
DASHED2
 62
     3
100
AcDbLine
 10
686.0
 20
249.000062
 30
0.0
 11
683.585071
 21
251.414991
 31
0.0
  0
LINE
  5
347
100
AcDbEntity
  8
LAY-4
  6
CONTINUOUS
 62
     3
100
AcDbLine
 10
687.0
 20
253.500062
 30
0.0
 11
666.752777
 21
253.500062
 31
0.0
  0
LINE
  5
348
100
AcDbEntity
  8
LAY-4
  6
CONTINUOUS
 62
     3
100
AcDbLine
 10
669.0
 20
249.000062
 30
0.0
 11
669.0
 21
253.500062
 31
0.0
  0
LINE
  5
349
100
AcDbEntity
  8
LAY-4
  6
CONTINUOUS
 62
     3
100
AcDbLine
 10
667.977237
 20
249.000062
 30
0.0
 11
687.0
 21
249.000062
 31
0.0
  0
ARC
  5
34A
100
AcDbEntity
  8
LAY-4
  6
CONTINUOUS
 62
     3
100
AcDbCircle
 10
666.752777
 20
249.000062
 30
0.0
 40
4.5
100
AcDbArc
 50
90.0
 51
152.952429
  0
LINE
  5
34B
100
AcDbEntity
  8
LAY-4
  6
CONTINUOUS
 62
     3
100
AcDbLine
 10
687.0
 20
253.500062
 30
0.0
 11
666.752777
 21
253.500062
 31
0.0
  0
LINE
  5
34C
100
AcDbEntity
  8
LAY-4
  6
CONTINUOUS
 62
     3
100
AcDbLine
 10
687.0
 20
253.500062
 30
0.0
 11
666.752777
 21
253.500062
 31
0.0
  0
LINE
  5
34D
100
AcDbEntity
  8
LAY-4
  6
CONTINUOUS
 62
     3
100
AcDbLine
 10
687.0
 20
253.500062
 30
0.0
 11
666.752777
 21
253.500062
 31
0.0
  0
ARC
  5
34E
100
AcDbEntity
  8
LAY-4
  6
CONTINUOUS
 62
     3
100
AcDbCircle
 10
667.977237
 20
247.000062
 30
0.0
 40
2.0
100
AcDbArc
 50
90.0
 51
152.952429
  0
ARC
  5
34F
100
AcDbEntity
  8
LAY-4
  6
CONTINUOUS
 62
     3
100
AcDbCircle
 10
674.757037
 20
247.000062
 30
0.0
 40
2.0
100
AcDbArc
 50
90.0
 51
152.952429
  0
LINE
  5
350
100
AcDbEntity
  8
LAY-4
  6
CONTINUOUS
 62
     3
100
AcDbLine
 10
687.0
 20
249.000062
 30
0.0
 11
687.0
 21
253.500062
 31
0.0
  0
LINE
  5
351
100
AcDbEntity
  8
LAY-4
  6
DASHED2
 62
     1
100
AcDbLine
 10
679.0
 20
251.459919
 30
0.0
 11
679.0
 21
257.750062
 31
0.0
  0
LINE
  5
352
100
AcDbEntity
  8
LAY-4
  6
DASHED2
 62
     3
100
AcDbLine
 10
678.5
 20
251.500062
 30
0.0
 11
678.5
 21
257.750062
 31
0.0
  0
LINE
  5
353
100
AcDbEntity
  8
LAY-4
  6
DASHED2
 62
     3
100
AcDbLine
 10
683.5
 20
251.500062
 30
0.0
 11
683.5
 21
257.750062
 31
0.0
  0
LINE
  5
354
100
AcDbEntity
  8
LAY-4
  6
DASHED2
 62
     1
100
AcDbLine
 10
683.0
 20
251.500062
 30
0.0
 11
683.0
 21
257.750062
 31
0.0
  0
LINE
  5
355
100
AcDbEntity
  8
LAY-4
  6
DASHED2
 62
     3
100
AcDbLine
 10
683.5
 20
259.000062
 30
0.0
 11
678.5
 21
259.000062
 31
0.0
  0
LINE
  5
356
100
AcDbEntity
  8
LAY-4
  6
DASHED2
 62
     1
100
AcDbLine
 10
683.0
 20
257.750062
 30
0.0
 11
683.0
 21
259.000062
 31
0.0
  0
LINE
  5
357
100
AcDbEntity
  8
LAY-4
  6
DASHED2
 62
     3
100
AcDbLine
 10
683.5
 20
257.750062
 30
0.0
 11
683.5
 21
259.000062
 31
0.0
  0
LINE
  5
358
100
AcDbEntity
  8
LAY-4
  6
DASHED2
 62
     1
100
AcDbLine
 10
679.0
 20
257.750062
 30
0.0
 11
679.0
 21
259.000062
 31
0.0
  0
LINE
  5
359
100
AcDbEntity
  8
LAY-4
  6
DASHED2
 62
     3
100
AcDbLine
 10
678.5
 20
257.750062
 30
0.0
 11
678.5
 21
259.000062
 31
0.0
  0
LINE
  5
35A
100
AcDbEntity
  8
LAY-4
  6
CONTINUOUS
 62
     3
100
AcDbLine
 10
630.5
 20
226.500062
 30
0.0
 11
630.5
 21
231.000062
 31
0.0
  0
LINE
  5
35B
100
AcDbEntity
  8
LAY-4
  6
CONTINUOUS
 62
     3
100
AcDbLine
 10
631.3
 20
225.5
 30
0.0
 11
631.3
 21
218.5
 31
0.0
  0
LINE
  5
35C
100
AcDbEntity
  8
LAY-4
  6
CONTINUOUS
 62
     3
100
AcDbLine
 10
638.8
 20
218.0
 30
0.0
 11
638.8
 21
218.5
 31
0.0
  0
LINE
  5
35D
100
AcDbEntity
  8
LAY-4
  6
CONTINUOUS
 62
     3
100
AcDbLine
 10
654.8
 20
218.0
 30
0.0
 11
654.8
 21
218.5
 31
0.0
  0
LINE
  5
35E
100
AcDbEntity
  8
LAY-4
  6
CONTINUOUS
 62
     3
100
AcDbLine
 10
651.418774
 20
235.400033
 30
0.0
 11
651.418774
 21
238.400033
 31
0.0
  0
LINE
  5
35F
100
AcDbEntity
  8
LAY-4
  6
CONTINUOUS
 62
     3
100
AcDbLine
 10
642.181165
 20
235.400033
 30
0.0
 11
642.181165
 21
238.400033
 31
0.0
  0
LINE
  5
360
100
AcDbEntity
  8
LAY-4
  6
CONTINUOUS
 62
     3
100
AcDbLine
 10
637.56239
 20
235.400033
 30
0.0
 11
637.56239
 21
238.400033
 31
0.0
  0
ARC
  5
361
100
AcDbEntity
  8
LAY-4
  6
CONTINUOUS
 62
     3
100
AcDbCircle
 10
646.8
 20
228.233361
 30
0.0
 40
11.166667
100
AcDbArc
 50
65.567322
 51
114.432715
  0
ARC
  5
362
100
AcDbEntity
  8
LAY-4
  6
CONTINUOUS
 62
     3
100
AcDbCircle
 10
639.871777
 20
236.233407
 30
0.0
 40
3.166636
100
AcDbArc
 50
43.17298
 51
121.050263
  0
ARC
  5
363
100
AcDbEntity
  8
LAY-4
  6
CONTINUOUS
 62
     3
100
AcDbCircle
 10
639.871777
 20
237.566659
 30
0.0
 40
3.166636
100
AcDbArc
 50
238.949754
 51
316.827037
  0
ARC
  5
364
100
AcDbEntity
  8
LAY-4
  6
CONTINUOUS
 62
     3
100
AcDbCircle
 10
646.8
 20
245.566705
 30
0.0
 40
11.166667
100
AcDbArc
 50
245.567302
 51
294.432695
  0
LINE
  5
365
100
AcDbEntity
  8
LAY-4
  6
CONTINUOUS
 62
     3
100
AcDbLine
 10
642.8
 20
239.899987
 30
0.0
 11
650.8
 21
239.899987
 31
0.0
  0
LINE
  5
366
100
AcDbEntity
  8
LAY-4
  6
CONTINUOUS
 62
     1
100
AcDbLine
 10
650.8
 20
239.899987
 30
0.0
 11
650.8
 21
239.400033
 31
0.0
  0
LINE
  5
367
100
AcDbEntity
  8
LAY-4
  6
CONTINUOUS
 62
     1
100
AcDbLine
 10
642.8
 20
239.899987
 30
0.0
 11
642.8
 21
239.400033
 31
0.0
  0
LINE
  5
368
100
AcDbEntity
  8
LAY-4
  6
CONTINUOUS
 62
     3
100
AcDbLine
 10
650.8
 20
239.899987
 30
0.0
 11
651.299939
 21
239.400033
 31
0.0
  0
LINE
  5
369
100
AcDbEntity
  8
LAY-4
  6
CONTINUOUS
 62
     3
100
AcDbLine
 10
642.300061
 20
239.400033
 30
0.0
 11
642.8
 21
239.899987
 31
0.0
  0
LINE
  5
36A
100
AcDbEntity
  8
LAY-4
  6
CONTINUOUS
 62
     3
100
AcDbLine
 10
636.8
 20
233.000039
 30
0.0
 11
636.8
 21
234.000039
 31
0.0
  0
LINE
  5
36B
100
AcDbEntity
  8
LAY-4
  6
CONTINUOUS
 62
     3
100
AcDbLine
 10
641.700024
 20
234.400033
 30
0.0
 11
636.8
 21
234.000039
 31
0.0
  0
ARC
  5
36C
100
AcDbEntity
  8
LAY-4
  6
CONTINUOUS
 62
     3
100
AcDbCircle
 10
653.728223
 20
236.233407
 30
0.0
 40
3.166636
100
AcDbArc
 50
89.856008
 51
136.827057
  0
ARC
  5
36D
100
AcDbEntity
  8
LAY-4
  6
CONTINUOUS
 62
     3
100
AcDbCircle
 10
654.128223
 20
237.566659
 30
0.0
 40
3.166636
100
AcDbArc
 50
301.049265
 51
301.050246
  0
LINE
  5
36E
100
AcDbEntity
  8
LAY-4
  6
CONTINUOUS
 62
     3
100
AcDbLine
 10
636.3
 20
233.000039
 30
0.0
 11
636.3
 21
231.000039
 31
0.0
  0
LINE
  5
36F
100
AcDbEntity
  8
LAY-4
  6
CONTINUOUS
 62
     3
100
AcDbLine
 10
630.5
 20
226.500062
 30
0.0
 11
630.5
 21
231.000062
 31
0.0
  0
LINE
  5
370
100
AcDbEntity
  8
LAY-4
  6
CONTINUOUS
 62
     3
100
AcDbLine
 10
657.7
 20
231.000062
 30
0.0
 11
657.7
 21
231.000039
 31
0.0
  0
ARC
  5
371
100
AcDbEntity
  8
LAY-4
  6
CONTINUOUS
 62
     3
100
AcDbCircle
 10
654.128223
 20
237.566659
 30
0.0
 40
3.166636
100
AcDbArc
 50
269.856008
 51
270.143992
  0
ARC
  5
372
100
AcDbEntity
  8
LAY-4
  6
CONTINUOUS
 62
     3
100
AcDbCircle
 10
654.128223
 20
236.233407
 30
0.0
 40
3.166636
100
AcDbArc
 50
41.351196
 51
90.143992
  0
LINE
  5
373
100
AcDbEntity
  8
LAY-4
  6
CONTINUOUS
 62
     3
100
AcDbLine
 10
654.136181
 20
234.400033
 30
0.0
 11
654.120265
 21
234.400033
 31
0.0
  0
ARC
  5
374
100
AcDbEntity
  8
LAY-4
  6
CONTINUOUS
 62
     3
100
AcDbCircle
 10
653.728223
 20
237.566659
 30
0.0
 40
3.166636
100
AcDbArc
 50
223.17296
 51
269.856008
  0
LINE
  5
375
100
AcDbEntity
  8
LAY-4
  6
CONTINUOUS
 62
     3
100
AcDbLine
 10
630.5
 20
231.000062
 30
0.0
 11
649.143594
 21
231.000062
 31
0.0
  0
LINE
  5
376
100
AcDbEntity
  8
LAY-4
  6
CONTINUOUS
 62
     3
100
AcDbLine
 10
660.0
 20
225.5
 30
0.0
 11
660.0
 21
226.500062
 31
0.0
  0
LINE
  5
377
100
AcDbEntity
  8
LAY-4
  6
CONTINUOUS
 62
     3
100
AcDbLine
 10
634.0
 20
225.5
 30
0.0
 11
634.0
 21
226.500062
 31
0.0
  0
LINE
  5
378
100
AcDbEntity
  8
LAY-4
  6
CONTINUOUS
 62
     3
100
AcDbLine
 10
654.501094
 20
234.400033
 30
0.0
 11
639.8
 21
234.400033
 31
0.0
  0
LINE
  5
379
100
AcDbEntity
  8
LAY-4
  6
CONTINUOUS
 62
     3
100
AcDbLine
 10
654.296868
 20
234.000039
 30
0.0
 11
636.8
 21
234.000039
 31
0.0
  0
LINE
  5
37A
100
AcDbEntity
  8
LAY-4
  6
CONTINUOUS
 62
     3
100
AcDbLine
 10
653.786296
 20
233.000039
 30
0.0
 11
636.3
 21
233.000039
 31
0.0
  0
LINE
  5
37B
100
AcDbEntity
  8
LAY-4
  6
CONTINUOUS
 62
     3
100
AcDbLine
 10
630.5
 20
231.000062
 30
0.0
 11
651.540705
 21
231.000062
 31
0.0
  0
LINE
  5
37C
100
AcDbEntity
  8
LAY-4
  6
CONTINUOUS
 62
     3
100
AcDbLine
 10
652.299976
 20
234.400033
 30
0.0
 11
654.413025
 21
234.227543
 31
0.0
  0
ARC
  5
37D
100
AcDbEntity
  8
LAY-4
  6
CONTINUOUS
 62
     3
100
AcDbCircle
 10
659.544965
 20
231.000062
 30
0.0
 40
4.5
100
AcDbArc
 50
270.0
 51
332.952429
  0
ARC
  5
37E
100
AcDbEntity
  8
LAY-4
  6
CONTINUOUS
 62
     3
100
AcDbCircle
 10
651.540705
 20
233.000062
 30
0.0
 40
2.0
100
AcDbArc
 50
270.0
 51
332.952429
  0
ARC
  5
37F
100
AcDbEntity
  8
LAY-4
  6
CONTINUOUS
 62
     3
100
AcDbCircle
 10
652.765165
 20
231.000062
 30
0.0
 40
4.5
100
AcDbArc
 50
270.0
 51
332.952429
  0
LINE
  5
380
100
AcDbEntity
  8
LAY-4
  6
CONTINUOUS
 62
     3
100
AcDbLine
 10
638.238506
 20
238.94634
 30
0.0
 11
637.56239
 21
238.400033
 31
0.0
  0
LINE
  5
381
100
AcDbEntity
  8
LAY-4
  6
CONTINUOUS
 62
     3
100
AcDbLine
 10
654.136181
 20
239.400033
 30
0.0
 11
639.863819
 21
239.400033
 31
0.0
  0
LINE
  5
382
100
AcDbEntity
  8
LAY-4
  6
CONTINUOUS
 62
     3
100
AcDbLine
 10
652.261268
 20
234.400033
 30
0.0
 11
639.863819
 21
234.400033
 31
0.0
  0
LINE
  5
383
100
AcDbEntity
  8
LAY-4
  6
CONTINUOUS
 62
     3
100
AcDbLine
 10
638.238506
 20
234.853725
 30
0.0
 11
637.56239
 21
235.400033
 31
0.0
  0
LINE
  5
384
100
AcDbEntity
  8
LAY-4
  6
CONTINUOUS
 62
     3
100
AcDbLine
 10
662.7
 20
225.5
 30
0.0
 11
662.7
 21
218.5
 31
0.0
  0
LINE
  5
385
100
AcDbEntity
  8
LAY-4
  6
CONTINUOUS
 62
     3
100
AcDbLine
 10
663.552797
 20
228.953776
 30
0.0
 11
672.975779
 21
247.909522
 31
0.0
  0
LINE
  5
386
100
AcDbEntity
  8
LAY-4
  6
CONTINUOUS
 62
     3
100
AcDbLine
 10
656.772996
 20
228.953776
 30
0.0
 11
666.195978
 21
247.909522
 31
0.0
  0
LINE
  5
387
100
AcDbEntity
  8
LAY-4
  6
CONTINUOUS
 62
     3
100
AcDbLine
 10
653.321963
 20
232.090602
 30
0.0
 11
662.744945
 21
251.046348
 31
0.0
  0
LINE
  5
388
100
AcDbEntity
  8
LAY-4
  6
CONTINUOUS
 62
     3
100
AcDbLine
 10
652.0
 20
226.500062
 30
0.0
 11
659.544965
 21
226.500062
 31
0.0
  0
LINE
  5
389
100
AcDbEntity
  8
LAY-4
  6
CONTINUOUS
 62
     3
100
AcDbLine
 10
630.5
 20
226.500062
 30
0.0
 11
642.0
 21
226.500062
 31
0.0
  0
LINE
  5
38A
100
AcDbEntity
  8
LAY-4
  6
CONTINUOUS
 62
     3
100
AcDbLine
 10
662.7
 20
225.5
 30
0.0
 11
654.5
 21
225.5
 31
0.0
  0
LINE
  5
38B
100
AcDbEntity
  8
LAY-4
  6
CONTINUOUS
 62
     3
100
AcDbLine
 10
639.5
 20
225.5
 30
0.0
 11
631.3
 21
225.5
 31
0.0
  0
LINE
  5
38C
100
AcDbEntity
  8
LAY-4
  6
CONTINUOUS
 62
     3
100
AcDbLine
 10
662.7
 20
218.5
 30
0.0
 11
654.0
 21
218.5
 31
0.0
  0
LINE
  5
38D
100
AcDbEntity
  8
LAY-4
  6
CONTINUOUS
 62
     3
100
AcDbLine
 10
640.0
 20
218.5
 30
0.0
 11
631.3
 21
218.5
 31
0.0
  0
LINE
  5
38E
100
AcDbEntity
  8
LAY-5
  6
DASHDOT
 62
     1
100
AcDbLine
 10
375.0
 20
415.5
 30
0.0
 11
375.0
 21
468.399969
 31
0.0
  0
LINE
  5
38F
100
AcDbEntity
  8
LAY-5
  6
DASHDOT
 62
     1
100
AcDbLine
 10
295.8
 20
433.099992
 30
0.0
 11
263.0
 21
433.099992
 31
0.0
  0
LINE
  5
390
100
AcDbEntity
  8
LAY-5
  6
DASHDOT
 62
     1
100
AcDbLine
 10
239.000031
 20
468.399969
 30
0.0
 11
239.000031
 21
437.5
 31
0.0
  0
LINE
  5
391
100
AcDbEntity
  8
LAY-5
  6
DASHDOT
 62
     1
100
AcDbLine
 10
261.0
 20
424.3
 30
0.0
 11
261.0
 21
437.997148
 31
0.0
  0
LINE
  5
392
100
AcDbEntity
  8
LAY-5
  6
DASHDOT
 62
     1
100
AcDbLine
 10
189.0
 20
424.397148
 30
0.0
 11
189.0
 21
437.5
 31
0.0
  0
LINE
  5
393
100
AcDbEntity
  8
LAY-5
  6
DASHDOT
 62
     1
100
AcDbLine
 10
207.0
 20
424.397148
 30
0.0
 11
207.0
 21
437.5
 31
0.0
  0
LINE
  5
394
100
AcDbEntity
  8
LAY-5
  6
DASHDOT
 62
     1
100
AcDbLine
 10
214.4
 20
431.5
 30
0.0
 11
200.1
 21
431.5
 31
0.0
  0
LINE
  5
395
100
AcDbEntity
  8
LAY-5
  6
DASHDOT
 62
     1
100
AcDbLine
 10
195.7
 20
431.5
 30
0.0
 11
184.5
 21
431.5
 31
0.0
  0
LINE
  5
396
100
AcDbEntity
  8
LAY-5
  6
DASHDOT
 62
     1
100
AcDbLine
 10
253.2
 20
431.5
 30
0.0
 11
268.0
 21
431.5
 31
0.0
  0
LINE
  5
397
100
AcDbEntity
  8
LAY-5
  6
DASHDOT
 62
     1
100
AcDbLine
 10
250.0
 20
431.5
 30
0.0
 11
236.0
 21
431.5
 31
0.0
  0
LINE
  5
398
100
AcDbEntity
  8
LAY-5
  6
DASHDOT
 62
     1
100
AcDbLine
 10
243.0
 20
424.697148
 30
0.0
 11
243.0
 21
437.5
 31
0.0
  0
LINE
  5
399
100
AcDbEntity
  8
LAY-5
  6
DASHDOT
 62
     1
100
AcDbLine
 10
225.0
 20
377.3
 30
0.0
 11
225.0
 21
443.797148
 31
0.0
  0
LINE
  5
39A
100
AcDbEntity
  8
LAY-5
  6
DASHDOT
 62
     1
100
AcDbLine
 10
275.0
 20
410.799992
 30
0.0
 11
275.0
 21
454.599992
 31
0.0
  0
ARC
  5
39B
100
AcDbEntity
  8
LAY-5
  6
CONTINUOUS
 62
     3
100
AcDbCircle
 10
274.986326
 20
433.099992
 30
0.0
 40
16.0
100
AcDbArc
 50
348.695667
 51
348.734583
  0
ARC
  5
39C
100
AcDbEntity
  8
LAY-5
  6
CONTINUOUS
 62
     3
100
AcDbCircle
 10
274.986295
 20
433.000053
 30
0.0
 40
15.999999
100
AcDbArc
 50
348.999807
 51
349.03439
  0
ARC
  5
39D
100
AcDbEntity
  8
LAY-5
  6
CONTINUOUS
 62
     3
100
AcDbCircle
 10
275.16486
 20
433.064485
 30
0.0
 40
15.999999
100
AcDbArc
 50
348.699807
 51
348.73439
  0
ARC
  5
39E
100
AcDbEntity
  8
LAY-5
  6
CONTINUOUS
 62
     3
100
AcDbCircle
 10
274.986257
 20
433.100062
 30
0.0
 40
15.999999
100
AcDbArc
 50
348.199807
 51
348.23439
  0
LINE
  5
39F
100
AcDbEntity
  8
LAY-5
  6
DASHDOT
 62
     1
100
AcDbLine
 10
73.0
 20
448.299992
 30
0.0
 11
73.0
 21
521.599992
 31
0.0
  0
LINE
  5
3A0
100
AcDbEntity
  8
LAY-5
  6
DASHDOT
 62
     1
100
AcDbLine
 10
56.8
 20
500.0
 30
0.0
 11
89.8
 21
500.0
 31
0.0
  0
LINE
  5
3A1
100
AcDbEntity
  8
LAY-5
  6
DASHDOT
 62
     1
100
AcDbLine
 10
247.9
 20
397.5
 30
0.0
 11
193.8
 21
397.5
 31
0.0
  0
LINE
  5
3A2
100
AcDbEntity
  8
LAY-5
  6
DASHDOT
 62
     1
100
AcDbLine
 10
431.473082
 20
412.399012
 30
0.0
 11
431.760532
 21
385.400542
 31
0.0
  0
LINE
  5
3A3
100
AcDbEntity
  8
LAY-5
  6
DASHDOT
 62
     1
100
AcDbLine
 10
442.6
 20
399.816768
 30
0.0
 11
193.801768
 21
397.167835
 31
0.0
  0
LINE
  5
3A4
100
AcDbEntity
  8
LAY-5
  6
DASHDOT
 62
     1
100
AcDbLine
 10
442.7
 20
397.297733
 30
0.0
 11
258.95701
 21
436.525009
 31
0.0
  0
LINE
  5
3A5
100
AcDbEntity
  8
LAY-5
  6
DASHDOT
 62
     1
100
AcDbLine
 10
206.4
 20
183.500062
 30
0.0
 11
219.0
 21
183.500062
 31
0.0
  0
LINE
  5
3A6
100
AcDbEntity
  8
LAY-5
  6
DASHDOT
 62
     1
100
AcDbLine
 10
239.0
 20
197.700062
 30
0.0
 11
239.0
 21
184.900062
 31
0.0
  0
LINE
  5
3A7
100
AcDbEntity
  8
LAY-5
  6
DASHDOT
 62
     1
100
AcDbLine
 10
232.8
 20
191.500062
 30
0.0
 11
245.6
 21
191.500062
 31
0.0
  0
LINE
  5
3A8
100
AcDbEntity
  8
LAY-5
  6
DASHDOT
 62
     1
100
AcDbLine
 10
375.0
 20
197.700062
 30
0.0
 11
375.0
 21
184.900062
 31
0.0
  0
LINE
  5
3A9
100
AcDbEntity
  8
LAY-5
  6
DASHDOT
 62
     1
100
AcDbLine
 10
368.8
 20
191.500062
 30
0.0
 11
381.6
 21
191.500062
 31
0.0
  0
LINE
  5
3AA
100
AcDbEntity
  8
LAY-5
  6
DASHDOT
 62
     1
100
AcDbLine
 10
206.6
 20
166.500062
 30
0.0
 11
400.9
 21
166.500062
 31
0.0
  0
LINE
  5
3AB
100
AcDbEntity
  8
LAY-5
  6
DASHDOT
 62
     1
100
AcDbLine
 10
275.0
 20
216.900062
 30
0.0
 11
275.0
 21
137.500062
 31
0.0
  0
LINE
  5
3AC
100
AcDbEntity
  8
LAY-5
  6
DASHDOT
 62
     1
100
AcDbLine
 10
431.0
 20
206.056529
 30
0.0
 11
431.0
 21
232.656529
 31
0.0
  0
LINE
  5
3AD
100
AcDbEntity
  8
LAY-5
  6
DASHDOT
 62
     1
100
AcDbLine
 10
225.0
 20
206.800029
 30
0.0
 11
225.0
 21
256.300029
 31
0.0
  0
LINE
  5
3AE
100
AcDbEntity
  8
LAY-5
  6
DASHDOT
 62
     1
100
AcDbLine
 10
442.499924
 20
221.625758
 30
0.0
 11
242.8
 21
221.800029
 31
0.0
  0
LINE
  5
3AF
100
AcDbEntity
  8
LAY-5
  6
DASHDOT
 62
     1
100
AcDbLine
 10
189.0
 20
247.400029
 30
0.0
 11
189.0
 21
260.06
 31
0.0
  0
LINE
  5
3B0
100
AcDbEntity
  8
LAY-5
  6
DASHDOT
 62
     1
100
AcDbLine
 10
261.0
 20
247.400029
 30
0.0
 11
261.0
 21
260.06
 31
0.0
  0
LINE
  5
3B1
100
AcDbEntity
  8
LAY-5
  6
DASHDOT
 62
     1
100
AcDbLine
 10
207.0
 20
247.400029
 30
0.0
 11
207.0
 21
260.06
 31
0.0
  0
LINE
  5
3B2
100
AcDbEntity
  8
LAY-5
  6
DASHDOT
 62
     1
100
AcDbLine
 10
243.0
 20
247.400029
 30
0.0
 11
243.0
 21
260.06
 31
0.0
  0
LINE
  5
3B3
100
AcDbEntity
  8
LAY-5
  6
DASHDOT
 62
     1
100
AcDbLine
 10
694.5
 20
188.727632
 30
0.0
 11
694.5
 21
178.587281
 31
0.0
  0
LINE
  5
3B4
100
AcDbEntity
  8
LAY-5
  6
DASHDOT
 62
     1
100
AcDbLine
 10
670.5
 20
188.482026
 30
0.0
 11
670.5
 21
178.692567
 31
0.0
  0
LINE
  5
3B5
100
AcDbEntity
  8
LAY-5
  6
DASHDOT
 62
     1
100
AcDbLine
 10
675.366608
 20
183.500062
 30
0.0
 11
665.331528
 21
183.500062
 31
0.0
  0
LINE
  5
3B6
100
AcDbEntity
  8
LAY-5
  6
DASHDOT
 62
     1
100
AcDbLine
 10
699.226235
 20
183.500062
 30
0.0
 11
689.54203
 21
183.500062
 31
0.0
  0
LINE
  5
3B7
100
AcDbEntity
  8
LAY-5
  6
DASHDOT
 62
     1
100
AcDbLine
 10
661.8
 20
191.500062
 30
0.0
 11
716.3
 21
191.500062
 31
0.0
  0
LINE
  5
3B8
100
AcDbEntity
  8
LAY-5
  6
DASHDOT
 62
     1
100
AcDbLine
 10
661.3
 20
166.500062
 30
0.0
 11
703.599994
 21
166.500062
 31
0.0
  0
LINE
  5
3B9
100
AcDbEntity
  8
LAY-5
  6
DASHDOT
 62
     1
100
AcDbLine
 10
681.0
 20
247.529919
 30
0.0
 11
681.0
 21
259.91
 31
0.0
  0
LINE
  5
3BA
100
AcDbEntity
  8
LAY-5
  6
DASHDOT
 62
     1
100
AcDbLine
 10
647.0
 20
204.0
 30
0.0
 11
647.0
 21
243.100062
 31
0.0
  0
LINE
  5
3BB
100
AcDbEntity
  8
LAY-5
  6
DASHDOT
 62
     1
100
AcDbLine
 10
682.5
 20
137.0
 30
0.0
 11
682.5
 21
215.7
 31
0.0
  0
LINE
  5
3BC
100
AcDbEntity
  8
LAY-6
  6
CONTINUOUS
 62
     1
100
AcDbLine
 10
275.0
 20
451.5
 30
0.0
 11
275.0
 21
522.8
 31
0.0
  0
LINE
  5
3BD
100
AcDbEntity
  8
LAY-6
  6
CONTINUOUS
 62
     1
100
AcDbLine
 10
375.0
 20
464.499992
 30
0.0
 11
375.0
 21
513.52
 31
0.0
  0
LINE
  5
3BE
100
AcDbEntity
  8
LAY-6
  6
CONTINUOUS
 62
     1
100
AcDbLine
 10
239.000031
 20
512.02
 30
0.0
 11
375.0
 21
512.02
 31
0.0
  0
LINE
  5
3BF
100
AcDbEntity
  8
LAY-6
  6
CONTINUOUS
 62
     1
100
AcDbLine
 10
242.000031
 20
512.52
 30
0.0
 11
239.000031
 21
512.02
 31
0.0
  0
LINE
  5
3C0
100
AcDbEntity
  8
LAY-6
  6
CONTINUOUS
 62
     1
100
AcDbLine
 10
239.000031
 20
512.02
 30
0.0
 11
242.000031
 21
511.52
 31
0.0
  0
LINE
  5
3C1
100
AcDbEntity
  8
LAY-6
  6
CONTINUOUS
 62
     1
100
AcDbLine
 10
372.0
 20
511.52
 30
0.0
 11
375.0
 21
512.02
 31
0.0
  0
LINE
  5
3C2
100
AcDbEntity
  8
LAY-6
  6
CONTINUOUS
 62
     1
100
AcDbLine
 10
375.0
 20
512.02
 30
0.0
 11
372.0
 21
512.52
 31
0.0
  0
LINE
  5
3C3
100
AcDbEntity
  8
LAY-6
  6
CONTINUOUS
 62
     1
100
AcDbLine
 10
225.0
 20
384.0
 30
0.0
 11
225.0
 21
374.6
 31
0.0
  0
LINE
  5
3C4
100
AcDbEntity
  8
LAY-6
  6
CONTINUOUS
 62
     1
100
AcDbLine
 10
187.0
 20
419.5
 30
0.0
 11
168.6
 21
419.5
 31
0.0
  0
TEXT
  5
3C5
100
AcDbEntity
  8
LAY-6
  6
CONTINUOUS
 62
     2
100
AcDbText
 10
169.6
 20
424.5
 30
0.0
 40
5.0
  1
１８
 50
90.0
 41
0.672
  7
EXCADSTD
 72
     5
 11
169.6
 21
431.8328
 31
0.0
100
AcDbText
  0
LINE
  5
3C6
100
AcDbEntity
  8
LAY-6
  6
CONTINUOUS
 62
     1
100
AcDbLine
 10
170.1
 20
437.5
 30
0.0
 11
170.1
 21
419.5
 31
0.0
  0
LINE
  5
3C7
100
AcDbEntity
  8
LAY-6
  6
CONTINUOUS
 62
     1
100
AcDbLine
 10
170.6
 20
434.5
 30
0.0
 11
170.1
 21
437.5
 31
0.0
  0
LINE
  5
3C8
100
AcDbEntity
  8
LAY-6
  6
CONTINUOUS
 62
     1
100
AcDbLine
 10
170.1
 20
437.5
 30
0.0
 11
169.6
 21
434.5
 31
0.0
  0
LINE
  5
3C9
100
AcDbEntity
  8
LAY-6
  6
CONTINUOUS
 62
     1
100
AcDbLine
 10
169.6
 20
422.5
 30
0.0
 11
170.1
 21
419.5
 31
0.0
  0
LINE
  5
3CA
100
AcDbEntity
  8
LAY-6
  6
CONTINUOUS
 62
     1
100
AcDbLine
 10
170.1
 20
419.5
 30
0.0
 11
170.6
 21
422.5
 31
0.0
  0
LINE
  5
3CB
100
AcDbEntity
  8
LAY-6
  6
CONTINUOUS
 62
     1
100
AcDbLine
 10
207.554346
 20
397.5
 30
0.0
 11
160.5
 21
397.5
 31
0.0
  0
TEXT
  5
3CC
100
AcDbEntity
  8
LAY-6
  6
CONTINUOUS
 62
     2
100
AcDbText
 10
161.5
 20
412.0
 30
0.0
 40
5.0
  1
４０
 50
90.0
 41
0.672
  7
EXCADSTD
 72
     5
 11
161.5
 21
419.3328
 31
0.0
100
AcDbText
  0
LINE
  5
3CD
100
AcDbEntity
  8
LAY-6
  6
CONTINUOUS
 62
     1
100
AcDbLine
 10
162.0
 20
397.5
 30
0.0
 11
162.0
 21
437.5
 31
0.0
  0
LINE
  5
3CE
100
AcDbEntity
  8
LAY-6
  6
CONTINUOUS
 62
     1
100
AcDbLine
 10
161.5
 20
400.5
 30
0.0
 11
162.0
 21
397.5
 31
0.0
  0
LINE
  5
3CF
100
AcDbEntity
  8
LAY-6
  6
CONTINUOUS
 62
     1
100
AcDbLine
 10
162.0
 20
397.5
 30
0.0
 11
162.5
 21
400.5
 31
0.0
  0
LINE
  5
3D0
100
AcDbEntity
  8
LAY-6
  6
CONTINUOUS
 62
     1
100
AcDbLine
 10
162.5
 20
434.5
 30
0.0
 11
162.0
 21
437.5
 31
0.0
  0
LINE
  5
3D1
100
AcDbEntity
  8
LAY-6
  6
CONTINUOUS
 62
     1
100
AcDbLine
 10
162.0
 20
437.5
 30
0.0
 11
161.5
 21
434.5
 31
0.0
  0
LINE
  5
3D2
100
AcDbEntity
  8
LAY-6
  6
CONTINUOUS
 62
     1
100
AcDbLine
 10
664.0
 20
162.169935
 30
0.0
 11
664.0
 21
127.3
 31
0.0
  0
TEXT
  5
3D3
100
AcDbEntity
  8
LAY-6
  6
CONTINUOUS
 62
     2
100
AcDbText
 10
678.5
 20
129.3
 30
0.0
 40
5.0
  1
３７
 41
0.672
  7
EXCADSTD
 72
     5
 11
685.8328
 21
129.3
 31
0.0
100
AcDbText
  0
LINE
  5
3D4
100
AcDbEntity
  8
LAY-6
  6
CONTINUOUS
 62
     1
100
AcDbLine
 10
701.0
 20
128.8
 30
0.0
 11
664.0
 21
128.8
 31
0.0
  0
LINE
  5
3D5
100
AcDbEntity
  8
LAY-6
  6
CONTINUOUS
 62
     1
100
AcDbLine
 10
698.0
 20
128.3
 30
0.0
 11
701.0
 21
128.8
 31
0.0
  0
LINE
  5
3D6
100
AcDbEntity
  8
LAY-6
  6
CONTINUOUS
 62
     1
100
AcDbLine
 10
701.0
 20
128.8
 30
0.0
 11
698.0
 21
129.3
 31
0.0
  0
LINE
  5
3D7
100
AcDbEntity
  8
LAY-6
  6
CONTINUOUS
 62
     1
100
AcDbLine
 10
667.0
 20
129.3
 30
0.0
 11
664.0
 21
128.8
 31
0.0
  0
LINE
  5
3D8
100
AcDbEntity
  8
LAY-6
  6
CONTINUOUS
 62
     1
100
AcDbLine
 10
664.0
 20
128.8
 30
0.0
 11
667.0
 21
128.3
 31
0.0
  0
LINE
  5
3D9
100
AcDbEntity
  8
LAY-6
  6
CONTINUOUS
 62
     1
100
AcDbLine
 10
647.0
 20
231.000062
 30
0.0
 11
647.0
 21
227.453776
 31
0.0
  0
TEXT
  5
3DA
100
AcDbEntity
  8
LAY-6
  6
CONTINUOUS
 62
     2
100
AcDbText
 10
667.0
 20
229.853776
 30
0.0
 40
5.0
  1
４０
 41
0.672
  7
EXCADSTD
 72
     5
 11
674.3328
 21
229.853776
 31
0.0
100
AcDbText
  0
LINE
  5
3DB
100
AcDbEntity
  8
LAY-6
  6
CONTINUOUS
 62
     1
100
AcDbLine
 10
687.0
 20
229.453776
 30
0.0
 11
647.0
 21
229.453776
 31
0.0
  0
LINE
  5
3DC
100
AcDbEntity
  8
LAY-6
  6
CONTINUOUS
 62
     1
100
AcDbLine
 10
684.0
 20
228.953776
 30
0.0
 11
687.0
 21
229.453776
 31
0.0
  0
LINE
  5
3DD
100
AcDbEntity
  8
LAY-6
  6
CONTINUOUS
 62
     1
100
AcDbLine
 10
687.0
 20
229.453776
 30
0.0
 11
684.0
 21
229.953776
 31
0.0
  0
LINE
  5
3DE
100
AcDbEntity
  8
LAY-6
  6
CONTINUOUS
 62
     1
100
AcDbLine
 10
650.0
 20
229.953776
 30
0.0
 11
647.0
 21
229.453776
 31
0.0
  0
LINE
  5
3DF
100
AcDbEntity
  8
LAY-6
  6
CONTINUOUS
 62
     1
100
AcDbLine
 10
647.0
 20
229.453776
 30
0.0
 11
650.0
 21
228.953776
 31
0.0
  0
TEXT
  5
3E0
100
AcDbEntity
  8
LAY-6
  6
CONTINUOUS
 62
     2
100
AcDbText
 10
625.0
 20
302.2
 30
0.0
 40
5.0
  1
４－Ｍ５ｘ１０丸皿小ネジ
 41
0.672
  7
EXCADSTD
 72
     5
 11
673.0
 21
302.2
 31
0.0
100
AcDbText
  0
TEXT
  5
3E1
100
AcDbEntity
  8
LAY-6
  6
CONTINUOUS
 62
     2
100
AcDbText
 10
610.6
 20
180.2
 30
0.0
 40
5.0
  1
２－Ｍ５ｘ５０皿小ネジ
 41
0.672
  7
EXCADSTD
 72
     5
 11
654.6
 21
180.2
 31
0.0
100
AcDbText
  0
POLYLINE
  5
3E2
100
AcDbEntity
  8
LAY-6
  6
CONTINUOUS
 62
     1
100
AcDb2dPolyline
 66
     1
 10
0.0
 20
0.0
 30
0.0
 70
   128
  0
VERTEX
  5
3E3
100
AcDbEntity
  8
LAY-6
  6
CONTINUOUS
 62
     1
100
AcDbVertex
100
AcDb2dVertex
 10
664.0
 20
191.500062
 30
0.0
  0
VERTEX
  5
3E4
100
AcDbEntity
  8
LAY-6
  6
CONTINUOUS
 62
     1
100
AcDbVertex
100
AcDb2dVertex
 10
654.6
 20
180.2
 30
0.0
  0
VERTEX
  5
3E5
100
AcDbEntity
  8
LAY-6
  6
CONTINUOUS
 62
     1
100
AcDbVertex
100
AcDb2dVertex
 10
608.9
 20
180.2
 30
0.0
  0
SEQEND
  5
3E6
100
AcDbEntity
  8
LAY-6
  6
CONTINUOUS
 62
     1
  0
LINE
  5
3E7
100
AcDbEntity
  8
LAY-6
  6
CONTINUOUS
 62
     1
100
AcDbLine
 10
662.465851
 20
188.873964
 30
0.0
 11
664.0
 21
191.500062
 31
0.0
  0
LINE
  5
3E8
100
AcDbEntity
  8
LAY-6
  6
CONTINUOUS
 62
     1
100
AcDbLine
 10
664.0
 20
191.500062
 30
0.0
 11
661.697071
 21
189.513477
 31
0.0
  0
LINE
  5
3E9
100
AcDbEntity
  8
LAY-6
  6
CONTINUOUS
 62
     1
100
AcDbLine
 10
54.5
 20
336.0
 30
0.0
 11
80.0
 21
336.0
 31
0.0
  0
TEXT
  5
3EA
100
AcDbEntity
  8
LAY-6
  6
CONTINUOUS
 62
     2
100
AcDbText
 10
78.5
 20
352.0
 30
0.0
 40
5.0
  1
４０
 50
90.0
 41
0.672
  7
EXCADSTD
 72
     5
 11
78.5
 21
359.3328
 31
0.0
100
AcDbText
  0
LINE
  5
3EB
100
AcDbEntity
  8
LAY-6
  6
CONTINUOUS
 62
     1
100
AcDbLine
 10
69.5
 20
421.0
 30
0.0
 11
80.0
 21
421.0
 31
0.0
  0
TEXT
  5
3EC
100
AcDbEntity
  8
LAY-6
  6
CONTINUOUS
 62
     2
100
AcDbText
 10
78.5
 20
392.0
 30
0.0
 40
5.0
  1
４５
 50
90.0
 41
0.672
  7
EXCADSTD
 72
     5
 11
78.5
 21
399.3328
 31
0.0
100
AcDbText
  0
LINE
  5
3ED
100
AcDbEntity
  8
LAY-6
  6
CONTINUOUS
 62
     1
100
AcDbLine
 10
69.5
 20
421.0
 30
0.0
 11
88.7
 21
421.0
 31
0.0
  0
LINE
  5
3EE
100
AcDbEntity
  8
LAY-6
  6
CONTINUOUS
 62
     1
100
AcDbLine
 10
79.5
 20
336.0
 30
0.0
 11
88.7
 21
336.0
 31
0.0
  0
LINE
  5
3EF
100
AcDbEntity
  8
LAY-6
  6
CONTINUOUS
 62
     1
100
AcDbLine
 10
88.2
 20
421.0
 30
0.0
 11
95.5
 21
421.0
 31
0.0
  0
LINE
  5
3F0
100
AcDbEntity
  8
LAY-6
  6
CONTINUOUS
 62
     1
100
AcDbLine
 10
90.7
 20
448.0
 30
0.0
 11
95.5
 21
448.0
 31
0.0
  0
TEXT
  5
3F1
100
AcDbEntity
  8
LAY-6
  6
CONTINUOUS
 62
     2
100
AcDbText
 10
94.0
 20
430.5
 30
0.0
 40
5.0
  1
２７
 50
90.0
 41
0.672
  7
EXCADSTD
 72
     5
 11
94.0
 21
437.8328
 31
0.0
100
AcDbText
  0
LINE
  5
3F2
100
AcDbEntity
  8
LAY-6
  6
CONTINUOUS
 62
     1
100
AcDbLine
 10
94.5
 20
421.0
 30
0.0
 11
94.5
 21
448.0
 31
0.0
  0
LINE
  5
3F3
100
AcDbEntity
  8
LAY-6
  6
CONTINUOUS
 62
     1
100
AcDbLine
 10
94.166667
 20
423.0
 30
0.0
 11
94.5
 21
421.0
 31
0.0
  0
LINE
  5
3F4
100
AcDbEntity
  8
LAY-6
  6
CONTINUOUS
 62
     1
100
AcDbLine
 10
94.5
 20
421.0
 30
0.0
 11
94.833333
 21
423.0
 31
0.0
  0
LINE
  5
3F5
100
AcDbEntity
  8
LAY-6
  6
CONTINUOUS
 62
     1
100
AcDbLine
 10
94.833333
 20
446.0
 30
0.0
 11
94.5
 21
448.0
 31
0.0
  0
LINE
  5
3F6
100
AcDbEntity
  8
LAY-6
  6
CONTINUOUS
 62
     1
100
AcDbLine
 10
94.5
 20
448.0
 30
0.0
 11
94.166667
 21
446.0
 31
0.0
  0
LINE
  5
3F7
100
AcDbEntity
  8
LAY-6
  6
CONTINUOUS
 62
     1
100
AcDbLine
 10
80.5
 20
421.0
 30
0.0
 11
95.5
 21
421.0
 31
0.0
  0
LINE
  5
3F8
100
AcDbEntity
  8
LAY-6
  6
CONTINUOUS
 62
     1
100
AcDbLine
 10
80.5
 20
336.0
 30
0.0
 11
95.5
 21
336.0
 31
0.0
  0
TEXT
  5
3F9
100
AcDbEntity
  8
LAY-6
  6
CONTINUOUS
 62
     2
100
AcDbText
 10
94.0
 20
377.0
 30
0.0
 40
5.0
  1
８５
 50
90.0
 41
0.672
  7
EXCADSTD
 72
     5
 11
94.0
 21
384.3328
 31
0.0
100
AcDbText
  0
LINE
  5
3FA
100
AcDbEntity
  8
LAY-6
  6
CONTINUOUS
 62
     1
100
AcDbLine
 10
732.550049
 20
249.500062
 30
0.0
 11
722.5
 21
249.500062
 31
0.0
  0
LINE
  5
3FB
100
AcDbEntity
  8
LAY-6
  6
CONTINUOUS
 62
     1
100
AcDbLine
 10
714.5
 20
191.500062
 30
0.0
 11
724.5
 21
191.500062
 31
0.0
  0
TEXT
  5
3FC
100
AcDbEntity
  8
LAY-6
  6
CONTINUOUS
 62
     2
100
AcDbText
 10
723.0
 20
216.500062
 30
0.0
 40
5.0
  1
５８
 50
90.0
 41
0.672
  7
EXCADSTD
 72
     5
 11
723.0
 21
223.832862
 31
0.0
100
AcDbText
  0
LINE
  5
3FD
100
AcDbEntity
  8
LAY-6
  6
CONTINUOUS
 62
     1
100
AcDbLine
 10
723.5
 20
249.500062
 30
0.0
 11
723.5
 21
191.500062
 31
0.0
  0
LINE
  5
3FE
100
AcDbEntity
  8
LAY-6
  6
CONTINUOUS
 62
     1
100
AcDbLine
 10
723.833333
 20
247.500062
 30
0.0
 11
723.5
 21
249.500062
 31
0.0
  0
LINE
  5
3FF
100
AcDbEntity
  8
LAY-6
  6
CONTINUOUS
 62
     1
100
AcDbLine
 10
723.5
 20
249.500062
 30
0.0
 11
723.166667
 21
247.500062
 31
0.0
  0
LINE
  5
400
100
AcDbEntity
  8
LAY-6
  6
CONTINUOUS
 62
     1
100
AcDbLine
 10
723.166667
 20
193.500062
 30
0.0
 11
723.5
 21
191.500062
 31
0.0
  0
LINE
  5
401
100
AcDbEntity
  8
LAY-6
  6
CONTINUOUS
 62
     1
100
AcDbLine
 10
723.5
 20
191.500062
 30
0.0
 11
723.833333
 21
193.500062
 31
0.0
  0
LINE
  5
402
100
AcDbEntity
  8
LAY-6
  6
CONTINUOUS
 62
     1
100
AcDbLine
 10
681.0
 20
247.500062
 30
0.0
 11
681.0
 21
238.2
 31
0.0
  0
LINE
  5
403
100
AcDbEntity
  8
LAY-6
  6
CONTINUOUS
 62
     1
100
AcDbLine
 10
687.0
 20
248.500062
 30
0.0
 11
687.0
 21
238.2
 31
0.0
  0
TEXT
  5
404
100
AcDbEntity
  8
LAY-6
  6
CONTINUOUS
 62
     2
100
AcDbText
 10
682.0
 20
239.7
 30
0.0
 40
5.0
  1
６
 41
0.672
  7
EXCADSTD
 72
     5
 11
685.2
 21
239.7
 31
0.0
100
AcDbText
  0
LINE
  5
405
100
AcDbEntity
  8
LAY-6
  6
CONTINUOUS
 62
     1
100
AcDbLine
 10
681.0
 20
239.2
 30
0.0
 11
687.0
 21
239.2
 31
0.0
  0
LINE
  5
406
100
AcDbEntity
  8
LAY-6
  6
CONTINUOUS
 62
     1
100
AcDbLine
 10
683.0
 20
239.533333
 30
0.0
 11
681.0
 21
239.2
 31
0.0
  0
LINE
  5
407
100
AcDbEntity
  8
LAY-6
  6
CONTINUOUS
 62
     1
100
AcDbLine
 10
681.0
 20
239.2
 30
0.0
 11
683.0
 21
238.866667
 31
0.0
  0
LINE
  5
408
100
AcDbEntity
  8
LAY-6
  6
CONTINUOUS
 62
     1
100
AcDbLine
 10
685.0
 20
238.866667
 30
0.0
 11
687.0
 21
239.2
 31
0.0
  0
LINE
  5
409
100
AcDbEntity
  8
LAY-6
  6
CONTINUOUS
 62
     1
100
AcDbLine
 10
687.0
 20
239.2
 30
0.0
 11
685.0
 21
239.533333
 31
0.0
  0
LINE
  5
40A
100
AcDbEntity
  8
LAY-6
  6
CONTINUOUS
 62
     1
100
AcDbLine
 10
690.0
 20
254.000062
 30
0.0
 11
690.0
 21
264.6
 31
0.0
  0
LINE
  5
40B
100
AcDbEntity
  8
LAY-6
  6
CONTINUOUS
 62
     1
100
AcDbLine
 10
681.0
 20
259.500062
 30
0.0
 11
681.0
 21
264.6
 31
0.0
  0
TEXT
  5
40C
100
AcDbEntity
  8
LAY-6
  6
CONTINUOUS
 62
     2
100
AcDbText
 10
683.5
 20
264.1
 30
0.0
 40
5.0
  1
９
 41
0.672
  7
EXCADSTD
 72
     5
 11
686.7
 21
264.1
 31
0.0
100
AcDbText
  0
LINE
  5
40D
100
AcDbEntity
  8
LAY-6
  6
CONTINUOUS
 62
     1
100
AcDbLine
 10
690.0
 20
263.6
 30
0.0
 11
681.0
 21
263.6
 31
0.0
  0
LINE
  5
40E
100
AcDbEntity
  8
LAY-6
  6
CONTINUOUS
 62
     1
100
AcDbLine
 10
688.0
 20
263.266667
 30
0.0
 11
690.0
 21
263.6
 31
0.0
  0
LINE
  5
40F
100
AcDbEntity
  8
LAY-6
  6
CONTINUOUS
 62
     1
100
AcDbLine
 10
690.0
 20
263.6
 30
0.0
 11
688.0
 21
263.933333
 31
0.0
  0
LINE
  5
410
100
AcDbEntity
  8
LAY-6
  6
CONTINUOUS
 62
     1
100
AcDbLine
 10
683.0
 20
263.933333
 30
0.0
 11
681.0
 21
263.6
 31
0.0
  0
LINE
  5
411
100
AcDbEntity
  8
LAY-6
  6
CONTINUOUS
 62
     1
100
AcDbLine
 10
681.0
 20
263.6
 30
0.0
 11
683.0
 21
263.266667
 31
0.0
  0
LINE
  5
412
100
AcDbEntity
  8
LAY-6
  6
CONTINUOUS
 62
     1
100
AcDbLine
 10
225.005323
 20
397.000028
 30
0.0
 11
225.389981
 21
360.871426
 31
0.0
  0
LINE
  5
413
100
AcDbEntity
  8
LAY-6
  6
CONTINUOUS
 62
     1
100
AcDbLine
 10
431.461747
 20
399.198151
 30
0.0
 11
431.846405
 21
363.069549
 31
0.0
  0
TEXT
  5
414
100
AcDbEntity
  8
LAY-6
  6
CONTINUOUS
 62
     2
100
AcDbText
 10
319.602733
 20
363.374586
 30
0.0
 40
5.0
  1
２０６.５
 50
0.61
 41
0.62784
  7
EXCADSTD
 72
     5
 11
337.601713
 21
363.566219
 31
0.0
100
AcDbText
  0
LINE
  5
415
100
AcDbEntity
  8
LAY-6
  6
CONTINUOUS
 62
     1
100
AcDbLine
 10
225.379335
 20
361.871369
 30
0.0
 11
431.835758
 21
364.069492
 31
0.0
  0
LINE
  5
416
100
AcDbEntity
  8
LAY-6
  6
CONTINUOUS
 62
     1
100
AcDbLine
 10
227.375673
 20
362.225976
 30
0.0
 11
225.379335
 21
361.871369
 31
0.0
  0
LINE
  5
417
100
AcDbEntity
  8
LAY-6
  6
CONTINUOUS
 62
     1
100
AcDbLine
 10
225.379335
 20
361.871369
 30
0.0
 11
227.38277
 21
361.559348
 31
0.0
  0
LINE
  5
418
100
AcDbEntity
  8
LAY-6
  6
CONTINUOUS
 62
     1
100
AcDbLine
 10
429.83942
 20
363.714885
 30
0.0
 11
431.835758
 21
364.069492
 31
0.0
  0
LINE
  5
419
100
AcDbEntity
  8
LAY-6
  6
CONTINUOUS
 62
     1
100
AcDbLine
 10
431.835758
 20
364.069492
 30
0.0
 11
429.832323
 21
364.381514
 31
0.0
  0
LINE
  5
41A
100
AcDbEntity
  8
LAY-6
  6
CONTINUOUS
 62
     1
100
AcDbLine
 10
275.104392
 20
433.588973
 30
0.0
 11
278.8923
 21
451.331768
 31
0.0
  0
LINE
  5
41B
100
AcDbEntity
  8
LAY-6
  6
CONTINUOUS
 62
     1
100
AcDbLine
 10
431.560816
 20
400.187104
 30
0.0
 11
435.348724
 21
417.929899
 31
0.0
  0
TEXT
  5
41C
100
AcDbEntity
  8
LAY-6
  6
CONTINUOUS
 62
     2
100
AcDbText
 10
351.14835
 20
435.394562
 30
0.0
 40
5.0
  1
１６０
 50
347.948844
 41
0.672
  7
EXCADSTD
 72
     5
 11
362.883889
 21
432.889143
 31
0.0
100
AcDbText
  0
LINE
  5
41D
100
AcDbEntity
  8
LAY-6
  6
CONTINUOUS
 62
     1
100
AcDbLine
 10
278.683515
 20
450.353806
 30
0.0
 11
435.139939
 21
416.951937
 31
0.0
  0
LINE
  5
41E
100
AcDbEntity
  8
LAY-6
  6
CONTINUOUS
 62
     1
100
AcDbLine
 10
280.709033
 20
450.262223
 30
0.0
 11
278.683515
 21
450.353806
 31
0.0
  0
LINE
  5
41F
100
AcDbEntity
  8
LAY-6
  6
CONTINUOUS
 62
     1
100
AcDbLine
 10
278.683515
 20
450.353806
 30
0.0
 11
280.569843
 21
449.610249
 31
0.0
  0
LINE
  5
420
100
AcDbEntity
  8
LAY-6
  6
CONTINUOUS
 62
     1
100
AcDbLine
 10
433.114421
 20
417.04352
 30
0.0
 11
435.139939
 21
416.951937
 31
0.0
  0
LINE
  5
421
100
AcDbEntity
  8
LAY-6
  6
CONTINUOUS
 62
     1
100
AcDbLine
 10
435.139939
 20
416.951937
 30
0.0
 11
433.253611
 21
417.695494
 31
0.0
  0
LINE
  5
422
100
AcDbEntity
  8
LAY-6
  6
CONTINUOUS
 62
     1
100
AcDbLine
 10
690.0
 20
240.5
 30
0.0
 11
690.0
 21
228.453776
 31
0.0
  0
LINE
  5
423
100
AcDbEntity
  8
LAY-6
  6
CONTINUOUS
 62
     1
100
AcDbLine
 10
687.0
 20
248.500062
 30
0.0
 11
687.0
 21
228.453776
 31
0.0
  0
TEXT
  5
424
100
AcDbEntity
  8
LAY-6
  6
CONTINUOUS
 62
     2
100
AcDbText
 10
686.5
 20
229.953776
 30
0.0
 40
5.0
  1
３
 41
0.672
  7
EXCADSTD
 72
     5
 11
689.7
 21
229.953776
 31
0.0
100
AcDbText
  0
LINE
  5
425
100
AcDbEntity
  8
LAY-6
  6
CONTINUOUS
 62
     1
100
AcDbLine
 10
694.1
 20
229.453776
 30
0.0
 11
684.0
 21
229.453776
 31
0.0
  0
LINE
  5
426
100
AcDbEntity
  8
LAY-6
  6
CONTINUOUS
 62
     1
100
AcDbLine
 10
693.0
 20
229.953776
 30
0.0
 11
690.0
 21
229.453776
 31
0.0
  0
LINE
  5
427
100
AcDbEntity
  8
LAY-6
  6
CONTINUOUS
 62
     1
100
AcDbLine
 10
690.0
 20
229.453776
 30
0.0
 11
693.0
 21
228.953776
 31
0.0
  0
LINE
  5
428
100
AcDbEntity
  8
LAY-6
  6
CONTINUOUS
 62
     1
100
AcDbLine
 10
684.0
 20
228.953776
 30
0.0
 11
687.0
 21
229.453776
 31
0.0
  0
LINE
  5
429
100
AcDbEntity
  8
LAY-6
  6
CONTINUOUS
 62
     1
100
AcDbLine
 10
687.0
 20
229.453776
 30
0.0
 11
684.0
 21
229.953776
 31
0.0
  0
LINE
  5
42A
100
AcDbEntity
  8
LAY-6
  6
CONTINUOUS
 62
     1
100
AcDbLine
 10
224.5
 20
381.0
 30
0.0
 11
150.6
 21
381.0
 31
0.0
  0
TEXT
  5
42B
100
AcDbEntity
  8
LAY-6
  6
CONTINUOUS
 62
     2
100
AcDbText
 10
151.1
 20
410.5
 30
0.0
 40
5.0
  1
６７
 50
90.0
 41
0.672
  7
EXCADSTD
 72
     5
 11
151.1
 21
417.8328
 31
0.0
100
AcDbText
  0
LINE
  5
42C
100
AcDbEntity
  8
LAY-6
  6
CONTINUOUS
 62
     1
100
AcDbLine
 10
151.6
 20
448.0
 30
0.0
 11
151.6
 21
381.0
 31
0.0
  0
LINE
  5
42D
100
AcDbEntity
  8
LAY-6
  6
CONTINUOUS
 62
     1
100
AcDbLine
 10
151.933333
 20
446.0
 30
0.0
 11
151.6
 21
448.0
 31
0.0
  0
LINE
  5
42E
100
AcDbEntity
  8
LAY-6
  6
CONTINUOUS
 62
     1
100
AcDbLine
 10
151.6
 20
448.0
 30
0.0
 11
151.266667
 21
446.0
 31
0.0
  0
LINE
  5
42F
100
AcDbEntity
  8
LAY-6
  6
CONTINUOUS
 62
     1
100
AcDbLine
 10
151.266667
 20
383.0
 30
0.0
 11
151.6
 21
381.0
 31
0.0
  0
LINE
  5
430
100
AcDbEntity
  8
LAY-6
  6
CONTINUOUS
 62
     1
100
AcDbLine
 10
151.6
 20
381.0
 30
0.0
 11
151.933333
 21
383.0
 31
0.0
  0
LINE
  5
431
100
AcDbEntity
  8
LAY-6
  6
CONTINUOUS
 62
     1
100
AcDbLine
 10
73.0
 20
503.7
 30
0.0
 11
193.0
 21
503.7
 31
0.0
  0
LINE
  5
432
100
AcDbEntity
  8
LAY-6
  6
CONTINUOUS
 62
     1
100
AcDbLine
 10
75.0
 20
504.033333
 30
0.0
 11
73.0
 21
503.7
 31
0.0
  0
LINE
  5
433
100
AcDbEntity
  8
LAY-6
  6
CONTINUOUS
 62
     1
100
AcDbLine
 10
73.0
 20
503.7
 30
0.0
 11
75.0
 21
503.366667
 31
0.0
  0
LINE
  5
434
100
AcDbEntity
  8
LAY-6
  6
CONTINUOUS
 62
     1
100
AcDbLine
 10
191.0
 20
503.366667
 30
0.0
 11
193.0
 21
503.7
 31
0.0
  0
LINE
  5
435
100
AcDbEntity
  8
LAY-6
  6
CONTINUOUS
 62
     1
100
AcDbLine
 10
193.0
 20
503.7
 30
0.0
 11
191.0
 21
504.033333
 31
0.0
  0
TEXT
  5
436
100
AcDbEntity
  8
LAY-6
  6
CONTINUOUS
 62
     2
100
AcDbText
 10
127.0
 20
504.2
 30
0.0
 40
5.0
  1
１２０
 41
0.672
  7
EXCADSTD
 72
     5
 11
139.0
 21
504.2
 31
0.0
100
AcDbText
  0
LINE
  5
437
100
AcDbEntity
  8
LAY-6
  6
CONTINUOUS
 62
     1
100
AcDbLine
 10
193.0
 20
486.0
 30
0.0
 11
193.0
 21
505.0
 31
0.0
  0
LINE
  5
438
100
AcDbEntity
  8
LAY-6
  6
CONTINUOUS
 62
     1
100
AcDbLine
 10
209.0
 20
453.0
 30
0.0
 11
209.0
 21
504.8
 31
0.0
  0
LINE
  5
439
100
AcDbEntity
  8
LAY-6
  6
CONTINUOUS
 62
     1
100
AcDbLine
 10
239.000031
 20
465.999992
 30
0.0
 11
239.000031
 21
504.8
 31
0.0
  0
TEXT
  5
43A
100
AcDbEntity
  8
LAY-6
  6
CONTINUOUS
 62
     2
100
AcDbText
 10
220.000016
 20
503.8
 30
0.0
 40
5.0
  1
３０
 41
0.672
  7
EXCADSTD
 72
     5
 11
227.332816
 21
503.8
 31
0.0
100
AcDbText
  0
LINE
  5
43B
100
AcDbEntity
  8
LAY-6
  6
CONTINUOUS
 62
     1
100
AcDbLine
 10
209.0
 20
503.3
 30
0.0
 11
239.000031
 21
503.3
 31
0.0
  0
LINE
  5
43C
100
AcDbEntity
  8
LAY-6
  6
CONTINUOUS
 62
     1
100
AcDbLine
 10
212.0
 20
503.8
 30
0.0
 11
209.0
 21
503.3
 31
0.0
  0
LINE
  5
43D
100
AcDbEntity
  8
LAY-6
  6
CONTINUOUS
 62
     1
100
AcDbLine
 10
209.0
 20
503.3
 30
0.0
 11
212.0
 21
502.8
 31
0.0
  0
LINE
  5
43E
100
AcDbEntity
  8
LAY-6
  6
CONTINUOUS
 62
     1
100
AcDbLine
 10
236.000031
 20
502.8
 30
0.0
 11
239.000031
 21
503.3
 31
0.0
  0
LINE
  5
43F
100
AcDbEntity
  8
LAY-6
  6
CONTINUOUS
 62
     1
100
AcDbLine
 10
239.000031
 20
503.3
 30
0.0
 11
236.000031
 21
503.8
 31
0.0
  0
LINE
  5
440
100
AcDbEntity
  8
LAY-6
  6
CONTINUOUS
 62
     1
100
AcDbLine
 10
225.0
 20
439.0
 30
0.0
 11
225.0
 21
495.8
 31
0.0
  0
LINE
  5
441
100
AcDbEntity
  8
LAY-6
  6
CONTINUOUS
 62
     1
100
AcDbLine
 10
275.0
 20
453.0
 30
0.0
 11
275.0
 21
495.8
 31
0.0
  0
TEXT
  5
442
100
AcDbEntity
  8
LAY-6
  6
CONTINUOUS
 62
     2
100
AcDbText
 10
246.0
 20
494.8
 30
0.0
 40
5.0
  1
５０
 41
0.672
  7
EXCADSTD
 72
     5
 11
253.3328
 21
494.8
 31
0.0
100
AcDbText
  0
LINE
  5
443
100
AcDbEntity
  8
LAY-6
  6
CONTINUOUS
 62
     1
100
AcDbLine
 10
225.0
 20
494.3
 30
0.0
 11
275.0
 21
494.3
 31
0.0
  0
LINE
  5
444
100
AcDbEntity
  8
LAY-6
  6
CONTINUOUS
 62
     1
100
AcDbLine
 10
228.0
 20
494.8
 30
0.0
 11
225.0
 21
494.3
 31
0.0
  0
LINE
  5
445
100
AcDbEntity
  8
LAY-6
  6
CONTINUOUS
 62
     1
100
AcDbLine
 10
225.0
 20
494.3
 30
0.0
 11
228.0
 21
493.8
 31
0.0
  0
LINE
  5
446
100
AcDbEntity
  8
LAY-6
  6
CONTINUOUS
 62
     1
100
AcDbLine
 10
272.0
 20
493.8
 30
0.0
 11
275.0
 21
494.3
 31
0.0
  0
LINE
  5
447
100
AcDbEntity
  8
LAY-6
  6
CONTINUOUS
 62
     1
100
AcDbLine
 10
275.0
 20
494.3
 30
0.0
 11
272.0
 21
494.8
 31
0.0
  0
LINE
  5
448
100
AcDbEntity
  8
LAY-6
  6
CONTINUOUS
 62
     1
100
AcDbLine
 10
189.0
 20
422.897148
 30
0.0
 11
189.0
 21
419.9
 31
0.0
  0
LINE
  5
449
100
AcDbEntity
  8
LAY-6
  6
CONTINUOUS
 62
     1
100
AcDbLine
 10
207.0
 20
422.897148
 30
0.0
 11
207.0
 21
419.9
 31
0.0
  0
TEXT
  5
44A
100
AcDbEntity
  8
LAY-6
  6
CONTINUOUS
 62
     2
100
AcDbText
 10
194.0
 20
421.9
 30
0.0
 40
5.0
  1
１８
 41
0.672
  7
EXCADSTD
 72
     5
 11
201.3328
 21
421.9
 31
0.0
100
AcDbText
  0
LINE
  5
44B
100
AcDbEntity
  8
LAY-6
  6
CONTINUOUS
 62
     1
100
AcDbLine
 10
189.0
 20
421.4
 30
0.0
 11
207.0
 21
421.4
 31
0.0
  0
LINE
  5
44C
100
AcDbEntity
  8
LAY-6
  6
CONTINUOUS
 62
     1
100
AcDbLine
 10
192.0
 20
421.9
 30
0.0
 11
189.0
 21
421.4
 31
0.0
  0
LINE
  5
44D
100
AcDbEntity
  8
LAY-6
  6
CONTINUOUS
 62
     1
100
AcDbLine
 10
189.0
 20
421.4
 30
0.0
 11
192.0
 21
420.9
 31
0.0
  0
LINE
  5
44E
100
AcDbEntity
  8
LAY-6
  6
CONTINUOUS
 62
     1
100
AcDbLine
 10
204.0
 20
420.9
 30
0.0
 11
207.0
 21
421.4
 31
0.0
  0
LINE
  5
44F
100
AcDbEntity
  8
LAY-6
  6
CONTINUOUS
 62
     1
100
AcDbLine
 10
207.0
 20
421.4
 30
0.0
 11
204.0
 21
421.9
 31
0.0
  0
LINE
  5
450
100
AcDbEntity
  8
LAY-6
  6
CONTINUOUS
 62
     1
100
AcDbLine
 10
243.0
 20
423.197148
 30
0.0
 11
243.0
 21
419.9
 31
0.0
  0
TEXT
  5
451
100
AcDbEntity
  8
LAY-6
  6
CONTINUOUS
 62
     2
100
AcDbText
 10
221.0
 20
421.9
 30
0.0
 40
5.0
  1
３６
 41
0.672
  7
EXCADSTD
 72
     5
 11
228.3328
 21
421.9
 31
0.0
100
AcDbText
  0
LINE
  5
452
100
AcDbEntity
  8
LAY-6
  6
CONTINUOUS
 62
     1
100
AcDbLine
 10
207.0
 20
421.4
 30
0.0
 11
243.0
 21
421.4
 31
0.0
  0
LINE
  5
453
100
AcDbEntity
  8
LAY-6
  6
CONTINUOUS
 62
     1
100
AcDbLine
 10
210.0
 20
421.9
 30
0.0
 11
207.0
 21
421.4
 31
0.0
  0
LINE
  5
454
100
AcDbEntity
  8
LAY-6
  6
CONTINUOUS
 62
     1
100
AcDbLine
 10
207.0
 20
421.4
 30
0.0
 11
210.0
 21
420.9
 31
0.0
  0
LINE
  5
455
100
AcDbEntity
  8
LAY-6
  6
CONTINUOUS
 62
     1
100
AcDbLine
 10
240.0
 20
420.9
 30
0.0
 11
243.0
 21
421.4
 31
0.0
  0
LINE
  5
456
100
AcDbEntity
  8
LAY-6
  6
CONTINUOUS
 62
     1
100
AcDbLine
 10
243.0
 20
421.4
 30
0.0
 11
240.0
 21
421.9
 31
0.0
  0
LINE
  5
457
100
AcDbEntity
  8
LAY-6
  6
CONTINUOUS
 62
     1
100
AcDbLine
 10
261.0
 20
422.8
 30
0.0
 11
261.0
 21
419.9
 31
0.0
  0
TEXT
  5
458
100
AcDbEntity
  8
LAY-6
  6
CONTINUOUS
 62
     2
100
AcDbText
 10
248.0
 20
421.9
 30
0.0
 40
5.0
  1
１８
 41
0.672
  7
EXCADSTD
 72
     5
 11
255.3328
 21
421.9
 31
0.0
100
AcDbText
  0
LINE
  5
459
100
AcDbEntity
  8
LAY-6
  6
CONTINUOUS
 62
     1
100
AcDbLine
 10
243.0
 20
421.4
 30
0.0
 11
261.0
 21
421.4
 31
0.0
  0
LINE
  5
45A
100
AcDbEntity
  8
LAY-6
  6
CONTINUOUS
 62
     1
100
AcDbLine
 10
246.0
 20
421.9
 30
0.0
 11
243.0
 21
421.4
 31
0.0
  0
LINE
  5
45B
100
AcDbEntity
  8
LAY-6
  6
CONTINUOUS
 62
     1
100
AcDbLine
 10
243.0
 20
421.4
 30
0.0
 11
246.0
 21
420.9
 31
0.0
  0
LINE
  5
45C
100
AcDbEntity
  8
LAY-6
  6
CONTINUOUS
 62
     1
100
AcDbLine
 10
258.0
 20
420.9
 30
0.0
 11
261.0
 21
421.4
 31
0.0
  0
LINE
  5
45D
100
AcDbEntity
  8
LAY-6
  6
CONTINUOUS
 62
     1
100
AcDbLine
 10
261.0
 20
421.4
 30
0.0
 11
258.0
 21
421.9
 31
0.0
  0
LINE
  5
45E
100
AcDbEntity
  8
LAY-6
  6
CONTINUOUS
 62
     1
100
AcDbLine
 10
91.3
 20
500.0
 30
0.0
 11
96.3
 21
500.0
 31
0.0
  0
LINE
  5
45F
100
AcDbEntity
  8
LAY-6
  6
CONTINUOUS
 62
     1
100
AcDbLine
 10
91.0
 20
488.0
 30
0.0
 11
96.3
 21
488.0
 31
0.0
  0
TEXT
  5
460
100
AcDbEntity
  8
LAY-6
  6
CONTINUOUS
 62
     2
100
AcDbText
 10
94.3
 20
490.0
 30
0.0
 40
5.0
  1
１２
 50
90.0
 41
0.672
  7
EXCADSTD
 72
     5
 11
94.3
 21
497.3328
 31
0.0
100
AcDbText
  0
LINE
  5
461
100
AcDbEntity
  8
LAY-6
  6
CONTINUOUS
 62
     1
100
AcDbLine
 10
94.8
 20
500.0
 30
0.0
 11
94.8
 21
488.0
 31
0.0
  0
LINE
  5
462
100
AcDbEntity
  8
LAY-6
  6
CONTINUOUS
 62
     1
100
AcDbLine
 10
95.3
 20
497.0
 30
0.0
 11
94.8
 21
500.0
 31
0.0
  0
LINE
  5
463
100
AcDbEntity
  8
LAY-6
  6
CONTINUOUS
 62
     1
100
AcDbLine
 10
94.8
 20
500.0
 30
0.0
 11
94.3
 21
497.0
 31
0.0
  0
LINE
  5
464
100
AcDbEntity
  8
LAY-6
  6
CONTINUOUS
 62
     1
100
AcDbLine
 10
94.3
 20
491.0
 30
0.0
 11
94.8
 21
488.0
 31
0.0
  0
LINE
  5
465
100
AcDbEntity
  8
LAY-6
  6
CONTINUOUS
 62
     1
100
AcDbLine
 10
94.8
 20
488.0
 30
0.0
 11
95.3
 21
491.0
 31
0.0
  0
LINE
  5
466
100
AcDbEntity
  8
LAY-6
  6
CONTINUOUS
 62
     1
100
AcDbLine
 10
381.5
 20
191.500062
 30
0.0
 11
413.1
 21
191.500062
 31
0.0
  0
LINE
  5
467
100
AcDbEntity
  8
LAY-6
  6
CONTINUOUS
 62
     1
100
AcDbLine
 10
411.51
 20
249.5
 30
0.0
 11
413.1
 21
249.5
 31
0.0
  0
TEXT
  5
468
100
AcDbEntity
  8
LAY-6
  6
CONTINUOUS
 62
     2
100
AcDbText
 10
411.4
 20
228.100031
 30
0.0
 40
5.0
  1
５８
 50
90.0
 41
0.672
  7
EXCADSTD
 72
     5
 11
411.4
 21
235.432831
 31
0.0
100
AcDbText
  0
LINE
  5
469
100
AcDbEntity
  8
LAY-6
  6
CONTINUOUS
 62
     1
100
AcDbLine
 10
411.6
 20
191.500062
 30
0.0
 11
411.6
 21
249.5
 31
0.0
  0
LINE
  5
46A
100
AcDbEntity
  8
LAY-6
  6
CONTINUOUS
 62
     1
100
AcDbLine
 10
411.1
 20
194.500062
 30
0.0
 11
411.6
 21
191.500062
 31
0.0
  0
LINE
  5
46B
100
AcDbEntity
  8
LAY-6
  6
CONTINUOUS
 62
     1
100
AcDbLine
 10
411.6
 20
191.500062
 30
0.0
 11
412.1
 21
194.500062
 31
0.0
  0
LINE
  5
46C
100
AcDbEntity
  8
LAY-6
  6
CONTINUOUS
 62
     1
100
AcDbLine
 10
412.1
 20
246.5
 30
0.0
 11
411.6
 21
249.5
 31
0.0
  0
LINE
  5
46D
100
AcDbEntity
  8
LAY-6
  6
CONTINUOUS
 62
     1
100
AcDbLine
 10
411.6
 20
249.5
 30
0.0
 11
411.1
 21
246.5
 31
0.0
  0
LINE
  5
46E
100
AcDbEntity
  8
LAY-6
  6
CONTINUOUS
 62
     1
100
AcDbLine
 10
239.0
 20
185.000062
 30
0.0
 11
239.0
 21
157.7
 31
0.0
  0
TEXT
  5
46F
100
AcDbEntity
  8
LAY-6
  6
CONTINUOUS
 62
     2
100
AcDbText
 10
154.0
 20
159.7
 30
0.0
 40
5.0
  1
Ａ
 41
0.672
  7
EXCADSTD
 72
     5
 11
157.2
 21
159.7
 31
0.0
100
AcDbText
  0
LINE
  5
470
100
AcDbEntity
  8
LAY-6
  6
CONTINUOUS
 62
     1
100
AcDbLine
 10
239.0
 20
159.3
 30
0.0
 11
73.0
 21
159.3
 31
0.0
  0
LINE
  5
471
100
AcDbEntity
  8
LAY-6
  6
CONTINUOUS
 62
     1
100
AcDbLine
 10
236.0
 20
158.8
 30
0.0
 11
239.0
 21
159.3
 31
0.0
  0
LINE
  5
472
100
AcDbEntity
  8
LAY-6
  6
CONTINUOUS
 62
     1
100
AcDbLine
 10
239.0
 20
159.3
 30
0.0
 11
236.0
 21
159.8
 31
0.0
  0
LINE
  5
473
100
AcDbEntity
  8
LAY-6
  6
CONTINUOUS
 62
     1
100
AcDbLine
 10
76.0
 20
159.8
 30
0.0
 11
73.0
 21
159.3
 31
0.0
  0
LINE
  5
474
100
AcDbEntity
  8
LAY-6
  6
CONTINUOUS
 62
     1
100
AcDbLine
 10
73.0
 20
159.3
 30
0.0
 11
76.0
 21
158.8
 31
0.0
  0
TEXT
  5
475
100
AcDbEntity
  8
LAY-6
  6
CONTINUOUS
 62
     2
100
AcDbText
 10
160.8
 20
173.200062
 30
0.0
 40
5.0
  1
閉扉速度調整バルブ
 41
0.672
  7
EXCADSTD
 72
     5
 11
196.8
 21
173.200062
 31
0.0
100
AcDbText
  0
LINE
  5
476
100
AcDbEntity
  8
LAY-6
  6
CONTINUOUS
 62
     1
100
AcDbLine
 10
265.0
 20
145.000062
 30
0.0
 11
265.0
 21
131.400062
 31
0.0
  0
LINE
  5
477
100
AcDbEntity
  8
LAY-6
  6
CONTINUOUS
 62
     1
100
AcDbLine
 10
285.0
 20
145.000062
 30
0.0
 11
285.0
 21
131.400062
 31
0.0
  0
TEXT
  5
478
100
AcDbEntity
  8
LAY-6
  6
CONTINUOUS
 62
     2
100
AcDbText
 10
269.0
 20
132.900062
 30
0.0
 40
5.0
  1
φ
 41
0.672
  7
EXCADSTD
 72
     5
 11
272.2
 21
132.900062
 31
0.0
100
AcDbText
  0
TEXT
  5
479
100
AcDbEntity
  8
LAY-6
  6
CONTINUOUS
 62
     2
100
AcDbText
 10
273.0
 20
132.900062
 30
0.0
 40
5.0
  1
２０
 41
0.672
  7
EXCADSTD
 72
     5
 11
280.3328
 21
132.900062
 31
0.0
100
AcDbText
  0
LINE
  5
47A
100
AcDbEntity
  8
LAY-6
  6
CONTINUOUS
 62
     1
100
AcDbLine
 10
265.0
 20
132.400062
 30
0.0
 11
285.0
 21
132.400062
 31
0.0
  0
LINE
  5
47B
100
AcDbEntity
  8
LAY-6
  6
CONTINUOUS
 62
     1
100
AcDbLine
 10
267.0
 20
132.733395
 30
0.0
 11
265.0
 21
132.400062
 31
0.0
  0
LINE
  5
47C
100
AcDbEntity
  8
LAY-6
  6
CONTINUOUS
 62
     1
100
AcDbLine
 10
265.0
 20
132.400062
 30
0.0
 11
267.0
 21
132.066729
 31
0.0
  0
LINE
  5
47D
100
AcDbEntity
  8
LAY-6
  6
CONTINUOUS
 62
     1
100
AcDbLine
 10
283.0
 20
132.066729
 30
0.0
 11
285.0
 21
132.400062
 31
0.0
  0
LINE
  5
47E
100
AcDbEntity
  8
LAY-6
  6
CONTINUOUS
 62
     1
100
AcDbLine
 10
285.0
 20
132.400062
 30
0.0
 11
283.0
 21
132.733395
 31
0.0
  0
LINE
  5
47F
100
AcDbEntity
  8
LAY-6
  6
CONTINUOUS
 62
     1
100
AcDbLine
 10
397.5
 20
198.500062
 30
0.0
 11
408.0
 21
198.500062
 31
0.0
  0
LINE
  5
480
100
AcDbEntity
  8
LAY-6
  6
CONTINUOUS
 62
     1
100
AcDbLine
 10
380.5
 20
191.500062
 30
0.0
 11
408.0
 21
191.500062
 31
0.0
  0
TEXT
  5
481
100
AcDbEntity
  8
LAY-6
  6
CONTINUOUS
 62
     2
100
AcDbText
 10
406.5
 20
193.000062
 30
0.0
 40
5.0
  1
７
 50
90.0
 41
0.672
  7
EXCADSTD
 72
     5
 11
406.5
 21
196.200062
 31
0.0
100
AcDbText
  0
LINE
  5
482
100
AcDbEntity
  8
LAY-6
  6
CONTINUOUS
 62
     1
100
AcDbLine
 10
407.0
 20
198.500062
 30
0.0
 11
407.0
 21
191.500062
 31
0.0
  0
LINE
  5
483
100
AcDbEntity
  8
LAY-6
  6
CONTINUOUS
 62
     1
100
AcDbLine
 10
407.333333
 20
196.500062
 30
0.0
 11
407.0
 21
198.500062
 31
0.0
  0
LINE
  5
484
100
AcDbEntity
  8
LAY-6
  6
CONTINUOUS
 62
     1
100
AcDbLine
 10
407.0
 20
198.500062
 30
0.0
 11
406.666667
 21
196.500062
 31
0.0
  0
LINE
  5
485
100
AcDbEntity
  8
LAY-6
  6
CONTINUOUS
 62
     1
100
AcDbLine
 10
406.666667
 20
193.500062
 30
0.0
 11
407.0
 21
191.500062
 31
0.0
  0
LINE
  5
486
100
AcDbEntity
  8
LAY-6
  6
CONTINUOUS
 62
     1
100
AcDbLine
 10
407.0
 20
191.500062
 30
0.0
 11
407.333333
 21
193.500062
 31
0.0
  0
TEXT
  5
487
100
AcDbEntity
  8
LAY-6
  6
CONTINUOUS
 62
     2
100
AcDbText
 10
689.4
 20
515.5
 30
0.0
 40
5.0
  1
最大開き角度　ストップ角度範囲　Ａ寸法　Ｂ寸法
 41
0.672
  7
EXCADSTD
 72
     5
 11
781.4
 21
515.5
 31
0.0
100
AcDbText
  0
LINE
  5
488
100
AcDbEntity
  8
LAY-6
  6
CONTINUOUS
 62
     2
100
AcDbLine
 10
687.3
 20
521.6
 30
0.0
 11
783.3
 21
521.6
 31
0.0
  0
LINE
  5
489
100
AcDbEntity
  8
LAY-6
  6
CONTINUOUS
 62
     2
100
AcDbLine
 10
783.3
 20
513.6
 30
0.0
 11
687.3
 21
513.6
 31
0.0
  0
LINE
  5
48A
100
AcDbEntity
  8
LAY-6
  6
CONTINUOUS
 62
     2
100
AcDbLine
 10
783.3
 20
505.6
 30
0.0
 11
687.3
 21
505.6
 31
0.0
  0
LINE
  5
48B
100
AcDbEntity
  8
LAY-6
  6
CONTINUOUS
 62
     2
100
AcDbLine
 10
783.3
 20
497.6
 30
0.0
 11
687.3
 21
497.6
 31
0.0
  0
LINE
  5
48C
100
AcDbEntity
  8
LAY-6
  6
CONTINUOUS
 62
     2
100
AcDbLine
 10
783.3
 20
489.6
 30
0.0
 11
687.3
 21
489.6
 31
0.0
  0
LINE
  5
48D
100
AcDbEntity
  8
LAY-6
  6
CONTINUOUS
 62
     2
100
AcDbLine
 10
783.3
 20
481.6
 30
0.0
 11
687.3
 21
481.6
 31
0.0
  0
LINE
  5
48E
100
AcDbEntity
  8
LAY-6
  6
CONTINUOUS
 62
     2
100
AcDbLine
 10
783.3
 20
473.6
 30
0.0
 11
687.3
 21
473.6
 31
0.0
  0
LINE
  5
48F
100
AcDbEntity
  8
LAY-6
  6
CONTINUOUS
 62
     2
100
AcDbLine
 10
783.3
 20
465.6
 30
0.0
 11
687.3
 21
465.6
 31
0.0
  0
LINE
  5
490
100
AcDbEntity
  8
LAY-6
  6
CONTINUOUS
 62
     2
100
AcDbLine
 10
783.3
 20
457.6
 30
0.0
 11
687.3
 21
457.6
 31
0.0
  0
LINE
  5
491
100
AcDbEntity
  8
LAY-6
  6
CONTINUOUS
 62
     2
100
AcDbLine
 10
783.3
 20
449.6
 30
0.0
 11
687.3
 21
449.6
 31
0.0
  0
LINE
  5
492
100
AcDbEntity
  8
LAY-6
  6
CONTINUOUS
 62
     2
100
AcDbLine
 10
783.3
 20
441.6
 30
0.0
 11
687.3
 21
441.6
 31
0.0
  0
TEXT
  5
493
100
AcDbEntity
  8
LAY-6
  6
CONTINUOUS
 62
     2
100
AcDbText
 10
693.5
 20
507.0
 30
0.0
 40
5.0
  1
１２０゜
 41
0.672
  7
EXCADSTD
 72
     5
 11
709.5
 21
507.0
 31
0.0
100
AcDbText
  0
TEXT
  5
494
100
AcDbEntity
  8
LAY-6
  6
CONTINUOUS
 62
     2
100
AcDbText
 10
693.5
 20
499.0
 30
0.0
 40
5.0
  1
１１５゜
 41
0.672
  7
EXCADSTD
 72
     5
 11
709.5
 21
499.0
 31
0.0
100
AcDbText
  0
TEXT
  5
495
100
AcDbEntity
  8
LAY-6
  6
CONTINUOUS
 62
     2
100
AcDbText
 10
693.5
 20
491.0
 30
0.0
 40
5.0
  1
１１０゜
 41
0.672
  7
EXCADSTD
 72
     5
 11
709.5
 21
491.0
 31
0.0
100
AcDbText
  0
TEXT
  5
496
100
AcDbEntity
  8
LAY-6
  6
CONTINUOUS
 62
     2
100
AcDbText
 10
693.5
 20
483.0
 30
0.0
 40
5.0
  1
１０５゜
 41
0.672
  7
EXCADSTD
 72
     5
 11
709.5
 21
483.0
 31
0.0
100
AcDbText
  0
TEXT
  5
497
100
AcDbEntity
  8
LAY-6
  6
CONTINUOUS
 62
     2
100
AcDbText
 10
693.5
 20
475.0
 30
0.0
 40
5.0
  1
１００゜
 41
0.672
  7
EXCADSTD
 72
     5
 11
709.5
 21
475.0
 31
0.0
100
AcDbText
  0
TEXT
  5
498
100
AcDbEntity
  8
LAY-6
  6
CONTINUOUS
 62
     2
100
AcDbText
 10
693.5
 20
467.0
 30
0.0
 40
5.0
  1
　９５゜
 41
0.672
  7
EXCADSTD
 72
     5
 11
709.5
 21
467.0
 31
0.0
100
AcDbText
  0
TEXT
  5
499
100
AcDbEntity
  8
LAY-6
  6
CONTINUOUS
 62
     2
100
AcDbText
 10
693.5
 20
459.0
 30
0.0
 40
5.0
  1
　９０゜
 41
0.672
  7
EXCADSTD
 72
     5
 11
709.5
 21
459.0
 31
0.0
100
AcDbText
  0
TEXT
  5
49A
100
AcDbEntity
  8
LAY-6
  6
CONTINUOUS
 62
     2
100
AcDbText
 10
693.5
 20
451.0
 30
0.0
 40
5.0
  1
　８５゜
 41
0.672
  7
EXCADSTD
 72
     5
 11
709.5
 21
451.0
 31
0.0
100
AcDbText
  0
TEXT
  5
49B
100
AcDbEntity
  8
LAY-6
  6
CONTINUOUS
 62
     2
100
AcDbText
 10
693.5
 20
443.0
 30
0.0
 40
5.0
  1
　８０゜
 41
0.672
  7
EXCADSTD
 72
     5
 11
709.5
 21
443.0
 31
0.0
100
AcDbText
  0
LINE
  5
49C
100
AcDbEntity
  8
LAY-6
  6
CONTINUOUS
 62
     2
100
AcDbLine
 10
687.3
 20
521.6
 30
0.0
 11
687.3
 21
441.6
 31
0.0
  0
LINE
  5
49D
100
AcDbEntity
  8
LAY-6
  6
CONTINUOUS
 62
     2
100
AcDbLine
 10
715.1
 20
521.6
 30
0.0
 11
715.1
 21
441.6
 31
0.0
  0
LINE
  5
49E
100
AcDbEntity
  8
LAY-6
  6
CONTINUOUS
 62
     2
100
AcDbLine
 10
751.4
 20
521.6
 30
0.0
 11
751.4
 21
441.6
 31
0.0
  0
LINE
  5
49F
100
AcDbEntity
  8
LAY-6
  6
CONTINUOUS
 62
     2
100
AcDbLine
 10
767.1
 20
521.6
 30
0.0
 11
767.1
 21
441.6
 31
0.0
  0
LINE
  5
4A0
100
AcDbEntity
  8
LAY-6
  6
CONTINUOUS
 62
     2
100
AcDbLine
 10
783.3
 20
521.6
 30
0.0
 11
783.3
 21
441.6
 31
0.0
  0
TEXT
  5
4A1
100
AcDbEntity
  8
LAY-6
  6
CONTINUOUS
 62
     2
100
AcDbText
 10
753.7
 20
506.8
 30
0.0
 40
5.0
  1
１６６
 41
0.672
  7
EXCADSTD
 72
     5
 11
765.7
 21
506.8
 31
0.0
100
AcDbText
  0
TEXT
  5
4A2
100
AcDbEntity
  8
LAY-6
  6
CONTINUOUS
 62
     2
100
AcDbText
 10
769.4
 20
506.8
 30
0.0
 40
5.0
  1
２０２
 41
0.672
  7
EXCADSTD
 72
     5
 11
781.4
 21
506.8
 31
0.0
100
AcDbText
  0
TEXT
  5
4A3
100
AcDbEntity
  8
LAY-6
  6
CONTINUOUS
 62
     2
100
AcDbText
 10
721.0
 20
507.0
 30
0.0
 40
5.0
  1
１１７゜以内
 41
0.672
  7
EXCADSTD
 72
     5
 11
745.0
 21
507.0
 31
0.0
100
AcDbText
  0
TEXT
  5
4A4
100
AcDbEntity
  8
LAY-6
  6
CONTINUOUS
 62
     2
100
AcDbText
 10
721.0
 20
499.0
 30
0.0
 40
5.0
  1
１１２゜以内
 41
0.672
  7
EXCADSTD
 72
     5
 11
745.0
 21
499.0
 31
0.0
100
AcDbText
  0
TEXT
  5
4A5
100
AcDbEntity
  8
LAY-6
  6
CONTINUOUS
 62
     2
100
AcDbText
 10
721.0
 20
491.0
 30
0.0
 40
5.0
  1
１０７゜以内
 41
0.672
  7
EXCADSTD
 72
     5
 11
745.0
 21
491.0
 31
0.0
100
AcDbText
  0
TEXT
  5
4A6
100
AcDbEntity
  8
LAY-6
  6
CONTINUOUS
 62
     2
100
AcDbText
 10
721.0
 20
483.0
 30
0.0
 40
5.0
  1
１０２゜以内
 41
0.672
  7
EXCADSTD
 72
     5
 11
745.0
 21
483.0
 31
0.0
100
AcDbText
  0
TEXT
  5
4A7
100
AcDbEntity
  8
LAY-6
  6
CONTINUOUS
 62
     2
100
AcDbText
 10
721.0
 20
475.0
 30
0.0
 40
5.0
  1
　９７゜以内
 41
0.672
  7
EXCADSTD
 72
     5
 11
745.0
 21
475.0
 31
0.0
100
AcDbText
  0
TEXT
  5
4A8
100
AcDbEntity
  8
LAY-6
  6
CONTINUOUS
 62
     2
100
AcDbText
 10
721.0
 20
467.0
 30
0.0
 40
5.0
  1
　９２゜以内
 41
0.672
  7
EXCADSTD
 72
     5
 11
745.0
 21
467.0
 31
0.0
100
AcDbText
  0
TEXT
  5
4A9
100
AcDbEntity
  8
LAY-6
  6
CONTINUOUS
 62
     2
100
AcDbText
 10
721.0
 20
459.0
 30
0.0
 40
5.0
  1
　８７゜以内
 41
0.672
  7
EXCADSTD
 72
     5
 11
745.0
 21
459.0
 31
0.0
100
AcDbText
  0
TEXT
  5
4AA
100
AcDbEntity
  8
LAY-6
  6
CONTINUOUS
 62
     2
100
AcDbText
 10
721.0
 20
451.0
 30
0.0
 40
5.0
  1
　８２゜以内
 41
0.672
  7
EXCADSTD
 72
     5
 11
745.0
 21
451.0
 31
0.0
100
AcDbText
  0
TEXT
  5
4AB
100
AcDbEntity
  8
LAY-6
  6
CONTINUOUS
 62
     2
100
AcDbText
 10
721.0
 20
443.0
 30
0.0
 40
5.0
  1
　７７゜以内
 41
0.672
  7
EXCADSTD
 72
     5
 11
745.0
 21
443.0
 31
0.0
100
AcDbText
  0
TEXT
  5
4AC
100
AcDbEntity
  8
LAY-6
  6
CONTINUOUS
 62
     2
100
AcDbText
 10
753.7
 20
498.8
 30
0.0
 40
5.0
  1
１７０
 41
0.672
  7
EXCADSTD
 72
     5
 11
765.7
 21
498.8
 31
0.0
100
AcDbText
  0
TEXT
  5
4AD
100
AcDbEntity
  8
LAY-6
  6
CONTINUOUS
 62
     2
100
AcDbText
 10
753.7
 20
490.8
 30
0.0
 40
5.0
  1
１７６
 41
0.672
  7
EXCADSTD
 72
     5
 11
765.7
 21
490.8
 31
0.0
100
AcDbText
  0
TEXT
  5
4AE
100
AcDbEntity
  8
LAY-6
  6
CONTINUOUS
 62
     2
100
AcDbText
 10
753.7
 20
482.8
 30
0.0
 40
5.0
  1
１８２
 41
0.672
  7
EXCADSTD
 72
     5
 11
765.7
 21
482.8
 31
0.0
100
AcDbText
  0
TEXT
  5
4AF
100
AcDbEntity
  8
LAY-6
  6
CONTINUOUS
 62
     2
100
AcDbText
 10
753.7
 20
474.8
 30
0.0
 40
5.0
  1
１８９
 41
0.672
  7
EXCADSTD
 72
     5
 11
765.7
 21
474.8
 31
0.0
100
AcDbText
  0
TEXT
  5
4B0
100
AcDbEntity
  8
LAY-6
  6
CONTINUOUS
 62
     2
100
AcDbText
 10
753.7
 20
466.8
 30
0.0
 40
5.0
  1
１９７
 41
0.672
  7
EXCADSTD
 72
     5
 11
765.7
 21
466.8
 31
0.0
100
AcDbText
  0
TEXT
  5
4B1
100
AcDbEntity
  8
LAY-6
  6
CONTINUOUS
 62
     2
100
AcDbText
 10
753.7
 20
458.8
 30
0.0
 40
5.0
  1
２０６
 41
0.672
  7
EXCADSTD
 72
     5
 11
765.7
 21
458.8
 31
0.0
100
AcDbText
  0
TEXT
  5
4B2
100
AcDbEntity
  8
LAY-6
  6
CONTINUOUS
 62
     2
100
AcDbText
 10
753.7
 20
450.8
 30
0.0
 40
5.0
  1
２１７
 41
0.672
  7
EXCADSTD
 72
     5
 11
765.7
 21
450.8
 31
0.0
100
AcDbText
  0
TEXT
  5
4B3
100
AcDbEntity
  8
LAY-6
  6
CONTINUOUS
 62
     2
100
AcDbText
 10
753.7
 20
442.8
 30
0.0
 40
5.0
  1
２２９
 41
0.672
  7
EXCADSTD
 72
     5
 11
765.7
 21
442.8
 31
0.0
100
AcDbText
  0
TEXT
  5
4B4
100
AcDbEntity
  8
LAY-6
  6
CONTINUOUS
 62
     2
100
AcDbText
 10
769.4
 20
442.8
 30
0.0
 40
5.0
  1
２６５
 41
0.672
  7
EXCADSTD
 72
     5
 11
781.4
 21
442.8
 31
0.0
100
AcDbText
  0
TEXT
  5
4B5
100
AcDbEntity
  8
LAY-6
  6
CONTINUOUS
 62
     2
100
AcDbText
 10
769.4
 20
450.8
 30
0.0
 40
5.0
  1
２５３
 41
0.672
  7
EXCADSTD
 72
     5
 11
781.4
 21
450.8
 31
0.0
100
AcDbText
  0
TEXT
  5
4B6
100
AcDbEntity
  8
LAY-6
  6
CONTINUOUS
 62
     2
100
AcDbText
 10
769.4
 20
458.8
 30
0.0
 40
5.0
  1
２４２
 41
0.672
  7
EXCADSTD
 72
     5
 11
781.4
 21
458.8
 31
0.0
100
AcDbText
  0
TEXT
  5
4B7
100
AcDbEntity
  8
LAY-6
  6
CONTINUOUS
 62
     2
100
AcDbText
 10
769.4
 20
466.8
 30
0.0
 40
5.0
  1
２３３
 41
0.672
  7
EXCADSTD
 72
     5
 11
781.4
 21
466.8
 31
0.0
100
AcDbText
  0
TEXT
  5
4B8
100
AcDbEntity
  8
LAY-6
  6
CONTINUOUS
 62
     2
100
AcDbText
 10
769.4
 20
474.8
 30
0.0
 40
5.0
  1
２２５
 41
0.672
  7
EXCADSTD
 72
     5
 11
781.4
 21
474.8
 31
0.0
100
AcDbText
  0
TEXT
  5
4B9
100
AcDbEntity
  8
LAY-6
  6
CONTINUOUS
 62
     2
100
AcDbText
 10
769.4
 20
482.8
 30
0.0
 40
5.0
  1
２１８
 41
0.672
  7
EXCADSTD
 72
     5
 11
781.4
 21
482.8
 31
0.0
100
AcDbText
  0
TEXT
  5
4BA
100
AcDbEntity
  8
LAY-6
  6
CONTINUOUS
 62
     2
100
AcDbText
 10
769.4
 20
490.8
 30
0.0
 40
5.0
  1
２１２
 41
0.672
  7
EXCADSTD
 72
     5
 11
781.4
 21
490.8
 31
0.0
100
AcDbText
  0
TEXT
  5
4BB
100
AcDbEntity
  8
LAY-6
  6
CONTINUOUS
 62
     2
100
AcDbText
 10
769.4
 20
498.8
 30
0.0
 40
5.0
  1
２０６
 41
0.672
  7
EXCADSTD
 72
     5
 11
781.4
 21
498.8
 31
0.0
100
AcDbText
  0
TEXT
  5
4BC
100
AcDbEntity
  8
LAY-6
  6
CONTINUOUS
 62
     2
100
AcDbText
 10
687.2
 20
544.9
 30
0.0
 40
5.0
  1
特記事項
 41
0.672
  7
EXCADSTD
 72
     5
 11
703.2
 21
544.9
 31
0.0
100
AcDbText
  0
TEXT
  5
4BD
100
AcDbEntity
  8
LAY-6
  6
CONTINUOUS
 62
     2
100
AcDbText
 10
687.2
 20
538.9
 30
0.0
 40
5.0
  1
ドア幅：５００～８００まで 本体ＰＳ－３００１ＺＡＭを使用
 41
0.664751
  7
EXCADSTD
 72
     5
 11
801.2
 21
538.9
 31
0.0
100
AcDbText
  0
TEXT
  5
4BE
100
AcDbEntity
  8
LAY-6
  6
CONTINUOUS
 62
     2
100
AcDbText
 10
687.2
 20
532.9
 30
0.0
 40
5.0
  1
　　　　８００～９００まで 本体ＰＳ－３００２ＺＡＭを使用
 41
0.664751
  7
EXCADSTD
 72
     5
 11
801.2
 21
532.9
 31
0.0
100
AcDbText
  0
LINE
  5
4BF
100
AcDbEntity
  8
LAY-6
  6
CONTINUOUS
 62
     1
100
AcDbLine
 10
173.0
 20
448.0
 30
0.0
 11
165.0
 21
448.0
 31
0.0
  0
LINE
  5
4C0
100
AcDbEntity
  8
LAY-6
  6
CONTINUOUS
 62
     1
100
AcDbLine
 10
73.0
 20
504.5
 30
0.0
 11
73.0
 21
522.8
 31
0.0
  0
LINE
  5
4C1
100
AcDbEntity
  8
LAY-6
  6
CONTINUOUS
 62
     1
100
AcDbLine
 10
73.0
 20
521.3
 30
0.0
 11
275.0
 21
521.3
 31
0.0
  0
LINE
  5
4C2
100
AcDbEntity
  8
LAY-6
  6
CONTINUOUS
 62
     1
100
AcDbLine
 10
73.0
 20
521.3
 30
0.0
 11
75.897777
 21
522.076457
 31
0.0
  0
LINE
  5
4C3
100
AcDbEntity
  8
LAY-6
  6
CONTINUOUS
 62
     1
100
AcDbLine
 10
73.0
 20
521.3
 30
0.0
 11
75.897777
 21
520.523543
 31
0.0
  0
LINE
  5
4C4
100
AcDbEntity
  8
LAY-6
  6
CONTINUOUS
 62
     1
100
AcDbLine
 10
275.0
 20
521.3
 30
0.0
 11
272.102223
 21
520.523543
 31
0.0
  0
LINE
  5
4C5
100
AcDbEntity
  8
LAY-6
  6
CONTINUOUS
 62
     1
100
AcDbLine
 10
275.0
 20
521.3
 30
0.0
 11
272.102223
 21
522.076457
 31
0.0
  0
LINE
  5
4C6
100
AcDbEntity
  8
LAY-6
  6
CONTINUOUS
 62
     1
100
AcDbLine
 10
73.0
 20
504.5
 30
0.0
 11
73.0
 21
513.5
 31
0.0
  0
LINE
  5
4C7
100
AcDbEntity
  8
LAY-6
  6
CONTINUOUS
 62
     1
100
AcDbLine
 10
239.000031
 20
468.399969
 30
0.0
 11
239.000031
 21
513.5
 31
0.0
  0
LINE
  5
4C8
100
AcDbEntity
  8
LAY-6
  6
CONTINUOUS
 62
     1
100
AcDbLine
 10
73.0
 20
512.0
 30
0.0
 11
245.000031
 21
512.0
 31
0.0
  0
LINE
  5
4C9
100
AcDbEntity
  8
LAY-6
  6
CONTINUOUS
 62
     1
100
AcDbLine
 10
73.0
 20
512.0
 30
0.0
 11
75.897777
 21
512.776457
 31
0.0
  0
LINE
  5
4CA
100
AcDbEntity
  8
LAY-6
  6
CONTINUOUS
 62
     1
100
AcDbLine
 10
73.0
 20
512.0
 30
0.0
 11
75.897777
 21
511.223543
 31
0.0
  0
LINE
  5
4CB
100
AcDbEntity
  8
LAY-6
  6
CONTINUOUS
 62
     1
100
AcDbLine
 10
239.000031
 20
512.0
 30
0.0
 11
236.102254
 21
511.223543
 31
0.0
  0
LINE
  5
4CC
100
AcDbEntity
  8
LAY-6
  6
CONTINUOUS
 62
     1
100
AcDbLine
 10
239.000031
 20
512.0
 30
0.0
 11
236.102254
 21
512.776457
 31
0.0
  0
LINE
  5
4CD
100
AcDbEntity
  8
LAY-6
  6
CONTINUOUS
 62
     1
100
AcDbLine
 10
73.0
 20
487.0
 30
0.0
 11
73.0
 21
493.8
 31
0.0
  0
LINE
  5
4CE
100
AcDbEntity
  8
LAY-6
  6
CONTINUOUS
 62
     1
100
AcDbLine
 10
239.000031
 20
464.499992
 30
0.0
 11
239.000031
 21
513.52
 31
0.0
  0
TEXT
  5
4CF
100
AcDbEntity
  8
LAY-6
  6
CONTINUOUS
 62
     2
100
AcDbText
 10
301.000016
 20
512.52
 30
0.0
 40
5.0
  1
１３６
 41
0.672
  7
EXCADSTD
 72
     5
 11
313.000016
 21
512.52
 31
0.0
100
AcDbText
  0
LINE
  5
4D0
100
AcDbEntity
  8
LAY-6
  6
CONTINUOUS
 62
     1
100
AcDbLine
 10
79.0
 20
371.0
 30
0.0
 11
79.0
 21
421.0
 31
0.0
  0
LINE
  5
4D1
100
AcDbEntity
  8
LAY-6
  6
CONTINUOUS
 62
     1
100
AcDbLine
 10
79.0
 20
421.0
 30
0.0
 11
79.517638
 21
419.068148
 31
0.0
  0
LINE
  5
4D2
100
AcDbEntity
  8
LAY-6
  6
CONTINUOUS
 62
     1
100
AcDbLine
 10
79.0
 20
421.0
 30
0.0
 11
78.482362
 21
419.068148
 31
0.0
  0
LINE
  5
4D3
100
AcDbEntity
  8
LAY-6
  6
CONTINUOUS
 62
     1
100
AcDbLine
 10
94.5
 20
421.0
 30
0.0
 11
95.017638
 21
419.068148
 31
0.0
  0
LINE
  5
4D4
100
AcDbEntity
  8
LAY-6
  6
CONTINUOUS
 62
     1
100
AcDbLine
 10
94.5
 20
421.0
 30
0.0
 11
93.982362
 21
419.068148
 31
0.0
  0
LINE
  5
4D5
100
AcDbEntity
  8
LAY-6
  6
CONTINUOUS
 62
     1
100
AcDbLine
 10
79.0
 20
376.0
 30
0.0
 11
78.482362
 21
377.931852
 31
0.0
  0
LINE
  5
4D6
100
AcDbEntity
  8
LAY-6
  6
CONTINUOUS
 62
     1
100
AcDbLine
 10
79.0
 20
376.0
 30
0.0
 11
79.517638
 21
377.931852
 31
0.0
  0
LINE
  5
4D7
100
AcDbEntity
  8
LAY-6
  6
CONTINUOUS
 62
     1
100
AcDbLine
 10
79.0
 20
376.0
 30
0.0
 11
79.517638
 21
374.068148
 31
0.0
  0
LINE
  5
4D8
100
AcDbEntity
  8
LAY-6
  6
CONTINUOUS
 62
     1
100
AcDbLine
 10
79.0
 20
376.0
 30
0.0
 11
78.482362
 21
374.068148
 31
0.0
  0
LINE
  5
4D9
100
AcDbEntity
  8
LAY-6
  6
CONTINUOUS
 62
     1
100
AcDbLine
 10
79.0
 20
336.0
 30
0.0
 11
78.482362
 21
337.931852
 31
0.0
  0
LINE
  5
4DA
100
AcDbEntity
  8
LAY-6
  6
CONTINUOUS
 62
     1
100
AcDbLine
 10
79.0
 20
336.0
 30
0.0
 11
79.517638
 21
337.931852
 31
0.0
  0
LINE
  5
4DB
100
AcDbEntity
  8
LAY-6
  6
CONTINUOUS
 62
     1
100
AcDbLine
 10
94.5
 20
336.0
 30
0.0
 11
93.982362
 21
337.931852
 31
0.0
  0
LINE
  5
4DC
100
AcDbEntity
  8
LAY-6
  6
CONTINUOUS
 62
     1
100
AcDbLine
 10
94.5
 20
336.0
 30
0.0
 11
95.017638
 21
337.931852
 31
0.0
  0
LINE
  5
4DD
100
AcDbEntity
  8
LAY-6
  6
CONTINUOUS
 62
     1
100
AcDbLine
 10
79.0
 20
336.0
 30
0.0
 11
79.0
 21
371.0
 31
0.0
  0
LINE
  5
4DE
100
AcDbEntity
  8
LAY-6
  6
CONTINUOUS
 62
     1
100
AcDbLine
 10
94.5
 20
421.0
 30
0.0
 11
94.5
 21
336.0
 31
0.0
  0
TEXT
  5
4DF
100
AcDbEntity
  8
LAY-6
  6
CONTINUOUS
 62
     2
100
AcDbText
 10
151.000016
 20
512.5
 30
0.0
 40
5.0
  1
Ａ
 41
0.672
  7
EXCADSTD
 72
     5
 11
154.200016
 21
512.5
 31
0.0
100
AcDbText
  0
LINE
  5
4E0
100
AcDbEntity
  8
LAY-6
  6
CONTINUOUS
 62
     1
100
AcDbLine
 10
184.5
 20
431.5
 30
0.0
 11
176.0
 21
431.5
 31
0.0
  0
LINE
  5
4E1
100
AcDbEntity
  8
LAY-6
  6
CONTINUOUS
 62
     1
100
AcDbLine
 10
187.0
 20
437.5
 30
0.0
 11
176.0
 21
437.5
 31
0.0
  0
LINE
  5
4E2
100
AcDbEntity
  8
LAY-6
  6
CONTINUOUS
 62
     1
100
AcDbLine
 10
177.5
 20
431.5
 30
0.0
 11
177.5
 21
437.5
 31
0.0
  0
LINE
  5
4E3
100
AcDbEntity
  8
LAY-6
  6
CONTINUOUS
 62
     1
100
AcDbLine
 10
177.5
 20
431.5
 30
0.0
 11
176.723543
 21
434.397777
 31
0.0
  0
LINE
  5
4E4
100
AcDbEntity
  8
LAY-6
  6
CONTINUOUS
 62
     1
100
AcDbLine
 10
177.5
 20
431.5
 30
0.0
 11
178.276457
 21
434.397777
 31
0.0
  0
LINE
  5
4E5
100
AcDbEntity
  8
LAY-6
  6
CONTINUOUS
 62
     1
100
AcDbLine
 10
177.5
 20
437.5
 30
0.0
 11
178.276457
 21
434.602223
 31
0.0
  0
LINE
  5
4E6
100
AcDbEntity
  8
LAY-6
  6
CONTINUOUS
 62
     1
100
AcDbLine
 10
177.5
 20
437.5
 30
0.0
 11
176.723543
 21
434.602223
 31
0.0
  0
TEXT
  5
4E7
100
AcDbEntity
  8
LAY-6
  6
CONTINUOUS
 62
     2
100
AcDbText
 10
177.0
 20
432.5
 30
0.0
 40
5.0
  1
６
 50
90.0
 41
0.672
  7
EXCADSTD
 72
     5
 11
177.0
 21
435.7
 31
0.0
100
AcDbText
  0
LINE
  5
4E8
100
AcDbEntity
  8
LAY-6
  6
CONTINUOUS
 62
     1
100
AcDbLine
 10
187.0
 20
437.5
 30
0.0
 11
168.6
 21
437.5
 31
0.0
  0
LINE
  5
4E9
100
AcDbEntity
  8
LAY-6
  6
CONTINUOUS
 62
     1
100
AcDbLine
 10
185.6
 20
437.5
 30
0.0
 11
160.5
 21
437.5
 31
0.0
  0
LINE
  5
4EA
100
AcDbEntity
  8
LAY-6
  6
CONTINUOUS
 62
     1
100
AcDbLine
 10
186.5
 20
437.5
 30
0.0
 11
161.0
 21
437.5
 31
0.0
  0
TEXT
  5
4EB
100
AcDbEntity
  8
LAY-6
  6
CONTINUOUS
 62
     2
100
AcDbText
 10
161.3
 20
434.35
 30
0.0
 40
5.0
  1
１０.５
 50
90.0
 41
0.616
  7
EXCADSTD
 72
     5
 11
161.3
 21
448.35
 31
0.0
100
AcDbText
  0
LINE
  5
4EC
100
AcDbEntity
  8
LAY-6
  6
CONTINUOUS
 62
     1
100
AcDbLine
 10
162.0
 20
448.0
 30
0.0
 11
162.0
 21
437.5
 31
0.0
  0
LINE
  5
4ED
100
AcDbEntity
  8
LAY-6
  6
CONTINUOUS
 62
     1
100
AcDbLine
 10
162.0
 20
448.0
 30
0.0
 11
162.776457
 21
445.102223
 31
0.0
  0
LINE
  5
4EE
100
AcDbEntity
  8
LAY-6
  6
CONTINUOUS
 62
     1
100
AcDbLine
 10
162.0
 20
448.0
 30
0.0
 11
161.223543
 21
445.102223
 31
0.0
  0
LINE
  5
4EF
100
AcDbEntity
  8
LAY-6
  6
CONTINUOUS
 62
     1
100
AcDbLine
 10
162.0
 20
437.5
 30
0.0
 11
161.223543
 21
440.397777
 31
0.0
  0
LINE
  5
4F0
100
AcDbEntity
  8
LAY-6
  6
CONTINUOUS
 62
     1
100
AcDbLine
 10
162.0
 20
437.5
 30
0.0
 11
162.776457
 21
440.397777
 31
0.0
  0
LINE
  5
4F1
100
AcDbEntity
  8
LAY-6
  6
CONTINUOUS
 62
     1
100
AcDbLine
 10
180.0
 20
448.0
 30
0.0
 11
170.6
 21
448.0
 31
0.0
  0
LINE
  5
4F2
100
AcDbEntity
  8
LAY-6
  6
CONTINUOUS
 62
     1
100
AcDbLine
 10
73.0
 20
487.0
 30
0.0
 11
73.0
 21
494.7
 31
0.0
  0
TEXT
  5
4F3
100
AcDbEntity
  8
LAY-6
  6
CONTINUOUS
 62
     2
100
AcDbText
 10
169.0
 20
521.8
 30
0.0
 40
5.0
  1
Ｂ
 41
0.672
  7
EXCADSTD
 72
     5
 11
172.2
 21
521.8
 31
0.0
100
AcDbText
  0
LINE
  5
4F4
100
AcDbEntity
  8
LAY-6
  6
CONTINUOUS
 62
     1
100
AcDbLine
 10
239.0
 20
186.000062
 30
0.0
 11
239.0
 21
157.400062
 31
0.0
  0
LINE
  5
4F5
100
AcDbEntity
  8
LAY-6
  6
CONTINUOUS
 62
     1
100
AcDbLine
 10
375.0
 20
186.000062
 30
0.0
 11
375.0
 21
157.700062
 31
0.0
  0
LINE
  5
4F6
100
AcDbEntity
  8
LAY-6
  6
CONTINUOUS
 62
     1
100
AcDbLine
 10
239.0
 20
159.300062
 30
0.0
 11
375.0
 21
159.300062
 31
0.0
  0
LINE
  5
4F7
100
AcDbEntity
  8
LAY-6
  6
CONTINUOUS
 62
     1
100
AcDbLine
 10
239.0
 20
159.300062
 30
0.0
 11
240.931852
 21
159.8177
 31
0.0
  0
LINE
  5
4F8
100
AcDbEntity
  8
LAY-6
  6
CONTINUOUS
 62
     1
100
AcDbLine
 10
239.0
 20
159.300062
 30
0.0
 11
240.931852
 21
158.782424
 31
0.0
  0
LINE
  5
4F9
100
AcDbEntity
  8
LAY-6
  6
CONTINUOUS
 62
     1
100
AcDbLine
 10
375.0
 20
159.300062
 30
0.0
 11
373.068148
 21
158.782424
 31
0.0
  0
LINE
  5
4FA
100
AcDbEntity
  8
LAY-6
  6
CONTINUOUS
 62
     1
100
AcDbLine
 10
375.0
 20
159.300062
 30
0.0
 11
373.068148
 21
159.8177
 31
0.0
  0
TEXT
  5
4FB
100
AcDbEntity
  8
LAY-6
  6
CONTINUOUS
 62
     2
100
AcDbText
 10
301.0
 20
159.800062
 30
0.0
 40
5.0
  1
１３６
 41
0.672
  7
EXCADSTD
 72
     5
 11
313.0
 21
159.800062
 31
0.0
100
AcDbText
  0
LINE
  5
4FC
100
AcDbEntity
  8
LAY-6
  6
CONTINUOUS
 62
     1
100
AcDbLine
 10
209.0
 20
147.360062
 30
0.0
 11
209.0
 21
128.9
 31
0.0
  0
LINE
  5
4FD
100
AcDbEntity
  8
LAY-6
  6
CONTINUOUS
 62
     1
100
AcDbLine
 10
209.0
 20
133.9
 30
0.0
 11
209.0
 21
124.700062
 31
0.0
  0
LINE
  5
4FE
100
AcDbEntity
  8
LAY-6
  6
CONTINUOUS
 62
     1
100
AcDbLine
 10
397.0
 20
147.300062
 30
0.0
 11
397.0
 21
128.9
 31
0.0
  0
LINE
  5
4FF
100
AcDbEntity
  8
LAY-6
  6
CONTINUOUS
 62
     1
100
AcDbLine
 10
397.0
 20
133.9
 30
0.0
 11
397.0
 21
123.900062
 31
0.0
  0
LINE
  5
500
100
AcDbEntity
  8
LAY-6
  6
CONTINUOUS
 62
     1
100
AcDbLine
 10
209.0
 20
125.700062
 30
0.0
 11
397.0
 21
125.700062
 31
0.0
  0
LINE
  5
501
100
AcDbEntity
  8
LAY-6
  6
CONTINUOUS
 62
     1
100
AcDbLine
 10
209.0
 20
125.700062
 30
0.0
 11
210.931852
 21
126.2177
 31
0.0
  0
LINE
  5
502
100
AcDbEntity
  8
LAY-6
  6
CONTINUOUS
 62
     1
100
AcDbLine
 10
209.0
 20
125.700062
 30
0.0
 11
210.931852
 21
125.182424
 31
0.0
  0
LINE
  5
503
100
AcDbEntity
  8
LAY-6
  6
CONTINUOUS
 62
     1
100
AcDbLine
 10
397.0
 20
125.700062
 30
0.0
 11
395.068148
 21
125.182424
 31
0.0
  0
LINE
  5
504
100
AcDbEntity
  8
LAY-6
  6
CONTINUOUS
 62
     1
100
AcDbLine
 10
397.0
 20
125.700062
 30
0.0
 11
395.068148
 21
126.2177
 31
0.0
  0
TEXT
  5
505
100
AcDbEntity
  8
LAY-6
  6
CONTINUOUS
 62
     2
100
AcDbText
 10
297.0
 20
126.200062
 30
0.0
 40
5.0
  1
１８８
 41
0.672
  7
EXCADSTD
 72
     5
 11
309.0
 21
126.200062
 31
0.0
100
AcDbText
  0
TEXT
  5
506
100
AcDbEntity
  8
LAY-6
  6
CONTINUOUS
 62
     2
100
AcDbText
 10
636.7
 20
296.9
 30
0.0
 40
5.0
  1
（Ｐ＝０．８）
 41
0.672
  7
EXCADSTD
 72
     5
 11
664.7
 21
296.9
 31
0.0
100
AcDbText
  0
TEXT
  5
507
100
AcDbEntity
  8
LAY-6
  6
CONTINUOUS
 62
     2
100
AcDbText
 10
619.1
 20
174.9
 30
0.0
 40
5.0
  1
（Ｐ＝０．８）
 41
0.672
  7
EXCADSTD
 72
     5
 11
647.1
 21
174.9
 31
0.0
100
AcDbText
  0
LINE
  5
508
100
AcDbEntity
  8
LAY-6
  6
CONTINUOUS
 62
     1
100
AcDbLine
 10
687.0
 20
249.000062
 30
0.0
 11
687.0
 21
236.0
 31
0.0
  0
LINE
  5
509
100
AcDbEntity
  8
LAY-6
  6
CONTINUOUS
 62
     1
100
AcDbLine
 10
687.0
 20
246.06
 30
0.0
 11
687.0
 21
227.953776
 31
0.0
  0
POLYLINE
  5
50A
100
AcDbEntity
  8
LAY-6
  6
CONTINUOUS
 62
     1
100
AcDb2dPolyline
 66
     1
 10
0.0
 20
0.0
 30
0.0
 70
   128
  0
VERTEX
  5
50B
100
AcDbEntity
  8
LAY-6
  6
CONTINUOUS
 62
     1
100
AcDbVertex
100
AcDb2dVertex
 10
681.0
 20
259.000062
 30
0.0
  0
VERTEX
  5
50C
100
AcDbEntity
  8
LAY-6
  6
CONTINUOUS
 62
     1
100
AcDbVertex
100
AcDb2dVertex
 10
673.8
 20
302.0
 30
0.0
  0
VERTEX
  5
50D
100
AcDbEntity
  8
LAY-6
  6
CONTINUOUS
 62
     1
100
AcDbVertex
100
AcDb2dVertex
 10
625.3
 20
302.0
 30
0.0
  0
SEQEND
  5
50E
100
AcDbEntity
  8
LAY-6
  6
CONTINUOUS
 62
     1
  0
LINE
  5
50F
100
AcDbEntity
  8
LAY-6
  6
CONTINUOUS
 62
     1
100
AcDbLine
 10
680.340957
 20
260.917554
 30
0.0
 11
681.0
 21
259.000062
 31
0.0
  0
LINE
  5
510
100
AcDbEntity
  8
LAY-6
  6
CONTINUOUS
 62
     1
100
AcDbLine
 10
681.0
 20
259.000062
 30
0.0
 11
680.99847
 21
261.027649
 31
0.0
  0
LINE
  5
511
100
AcDbEntity
  8
LAY-6
  6
CONTINUOUS
 62
     1
100
AcDbLine
 10
701.0
 20
152.7
 30
0.0
 11
701.0
 21
122.9
 31
0.0
  0
TEXT
  5
512
100
AcDbEntity
  8
LAY-6
  6
CONTINUOUS
 62
     2
100
AcDbText
 10
243.5
 20
56.4
 30
0.0
 40
8.0
  1
※左右勝手があります
 41
0.672
  7
EXCADSTD
 72
     5
 11
307.500001
 21
56.4
 31
0.0
100
AcDbText
  0
TEXT
  5
513
100
AcDbEntity
  8
LAY-6
  6
CONTINUOUS
 62
     2
100
AcDbText
 10
243.5
 20
46.4
 30
0.0
 40
8.0
  1
　本図は左開きを示す
 41
0.672
  7
EXCADSTD
 72
     5
 11
307.500001
 21
46.4
 31
0.0
100
AcDbText
  0
POLYLINE
  5
514
100
AcDbEntity
  8
LAY-6
  6
CONTINUOUS
 62
     1
100
AcDb2dPolyline
 66
     1
 10
0.0
 20
0.0
 30
0.0
 70
   128
  0
VERTEX
  5
515
100
AcDbEntity
  8
LAY-6
  6
CONTINUOUS
 62
     1
100
AcDbVertex
100
AcDb2dVertex
 10
209.0
 20
183.500062
 30
0.0
  0
VERTEX
  5
516
100
AcDbEntity
  8
LAY-6
  6
CONTINUOUS
 62
     1
100
AcDbVertex
100
AcDb2dVertex
 10
196.7
 20
173.100062
 30
0.0
  0
VERTEX
  5
517
100
AcDbEntity
  8
LAY-6
  6
CONTINUOUS
 62
     1
100
AcDbVertex
100
AcDb2dVertex
 10
160.498979
 20
173.087257
 30
0.0
  0
SEQEND
  5
518
100
AcDbEntity
  8
LAY-6
  6
CONTINUOUS
 62
     1
  0
LINE
  5
519
100
AcDbEntity
  8
LAY-6
  6
CONTINUOUS
 62
     1
100
AcDbLine
 10
207.687978
 20
181.954194
 30
0.0
 11
209.0
 21
183.500062
 31
0.0
  0
LINE
  5
51A
100
AcDbEntity
  8
LAY-6
  6
CONTINUOUS
 62
     1
100
AcDbLine
 10
209.0
 20
183.500062
 30
0.0
 11
207.257535
 21
182.463275
 31
0.0
  0
TEXT
  5
51B
100
AcDbEntity
  8
LAY-6
  6
CONTINUOUS
 62
     2
100
AcDbText
 10
332.7
 20
20.2
 30
0.0
 40
6.0
  1
Ｈ１４.　６.　１
 41
0.622617
  7
EXCADSTD
 72
     5
 11
371.100002
 21
20.2
 31
0.0
100
AcDbText
  0
TEXT
  5
51C
100
AcDbEntity
  8
LAY-6
  6
CONTINUOUS
 62
     2
100
AcDbText
 10
414.39961
 20
469.943124
 30
0.0
 40
5.0
  1
裏板３.２ｔ以上（別途）
 41
0.654222
  7
EXCADSTD
 72
     5
 11
460.39961
 21
469.943124
 31
0.0
100
AcDbText
  0
POLYLINE
  5
51D
100
AcDbEntity
  8
LAY-6
  6
CONTINUOUS
 62
     1
100
AcDb2dPolyline
 66
     1
 10
0.0
 20
0.0
 30
0.0
 70
   128
  0
VERTEX
  5
51E
100
AcDbEntity
  8
LAY-6
  6
CONTINUOUS
 62
     1
100
AcDbVertex
100
AcDb2dVertex
 10
404.000031
 20
456.3
 30
0.0
  0
VERTEX
  5
51F
100
AcDbEntity
  8
LAY-6
  6
CONTINUOUS
 62
     1
100
AcDbVertex
100
AcDb2dVertex
 10
413.7
 20
469.6
 30
0.0
  0
VERTEX
  5
520
100
AcDbEntity
  8
LAY-6
  6
CONTINUOUS
 62
     1
100
AcDbVertex
100
AcDb2dVertex
 10
459.096087
 20
469.693794
 30
0.0
  0
SEQEND
  5
521
100
AcDbEntity
  8
LAY-6
  6
CONTINUOUS
 62
     1
  0
LINE
  5
522
100
AcDbEntity
  8
LAY-6
  6
CONTINUOUS
 62
     1
100
AcDbLine
 10
405.363818
 20
459.018471
 30
0.0
 11
404.000031
 21
456.3
 31
0.0
  0
LINE
  5
523
100
AcDbEntity
  8
LAY-6
  6
CONTINUOUS
 62
     1
100
AcDbLine
 10
404.000031
 20
456.3
 30
0.0
 11
406.171766
 21
458.429218
 31
0.0
  0
TEXT
  5
524
100
AcDbEntity
  8
LAY-6
  6
CONTINUOUS
 62
     2
100
AcDbText
 10
625.09961
 20
281.743124
 30
0.0
 40
5.0
  1
裏板３.２ｔ以上（別途）
 41
0.654222
  7
EXCADSTD
 72
     5
 11
671.09961
 21
281.743124
 31
0.0
100
AcDbText
  0
POLYLINE
  5
525
100
AcDbEntity
  8
LAY-6
  6
CONTINUOUS
 62
     1
100
AcDb2dPolyline
 66
     1
 10
0.0
 20
0.0
 30
0.0
 70
   128
  0
VERTEX
  5
526
100
AcDbEntity
  8
LAY-6
  6
CONTINUOUS
 62
     1
100
AcDbVertex
100
AcDb2dVertex
 10
675.5
 20
257.750062
 30
0.0
  0
VERTEX
  5
527
100
AcDbEntity
  8
LAY-6
  6
CONTINUOUS
 62
     1
100
AcDbVertex
100
AcDb2dVertex
 10
671.1
 20
281.5
 30
0.0
  0
VERTEX
  5
528
100
AcDbEntity
  8
LAY-6
  6
CONTINUOUS
 62
     1
100
AcDbVertex
100
AcDb2dVertex
 10
625.0
 20
281.5
 30
0.0
  0
SEQEND
  5
529
100
AcDbEntity
  8
LAY-6
  6
CONTINUOUS
 62
     1
  0
LINE
  5
52A
100
AcDbEntity
  8
LAY-6
  6
CONTINUOUS
 62
     1
100
AcDbLine
 10
674.461874
 20
260.608785
 30
0.0
 11
675.5
 21
257.750062
 31
0.0
  0
LINE
  5
52B
100
AcDbEntity
  8
LAY-6
  6
CONTINUOUS
 62
     1
100
AcDbLine
 10
675.5
 20
257.750062
 30
0.0
 11
675.445143
 21
260.790948
 31
0.0
  0
LINE
  5
52C
100
AcDbEntity
  8
LAY-9
  6
CONTINUOUS
 62
     1
100
AcDbLine
 10
44.000031
 20
491.0
 30
0.0
 11
69.0
 21
491.0
 31
0.0
  0
LINE
  5
52D
100
AcDbEntity
  8
LAY-9
  6
CONTINUOUS
 62
     1
100
AcDbLine
 10
87.0
 20
441.0
 30
0.0
 11
87.0
 21
444.5
 31
0.0
  0
LINE
  5
52E
100
AcDbEntity
  8
LAY-9
  6
CONTINUOUS
 62
     1
100
AcDbLine
 10
86.5
 20
440.5
 30
0.0
 11
69.0
 21
440.5
 31
0.0
  0
LINE
  5
52F
100
AcDbEntity
  8
LAY-9
  6
CONTINUOUS
 62
     1
100
AcDbLine
 10
78.0
 20
444.5
 30
0.0
 11
78.0
 21
442.149994
 31
0.0
  0
LINE
  5
530
100
AcDbEntity
  8
LAY-9
  6
CONTINUOUS
 62
     1
100
AcDbLine
 10
78.0
 20
442.149994
 30
0.0
 11
69.0
 21
442.149994
 31
0.0
  0
LINE
  5
531
100
AcDbEntity
  8
LAY-9
  6
CONTINUOUS
 62
     1
100
AcDbLine
 10
69.0
 20
440.5
 30
0.0
 11
69.0
 21
421.0
 31
0.0
  0
LINE
  5
532
100
AcDbEntity
  8
LAY-9
  6
CONTINUOUS
 62
     1
100
AcDbLine
 10
86.5
 20
445.0
 30
0.0
 11
84.950195
 21
445.0
 31
0.0
  0
LINE
  5
533
100
AcDbEntity
  8
LAY-9
  6
CONTINUOUS
 62
     1
100
AcDbLine
 10
69.0
 20
453.199982
 30
0.0
 11
69.0
 21
442.149994
 31
0.0
  0
LINE
  5
534
100
AcDbEntity
  8
LAY-9
  6
CONTINUOUS
 62
     1
100
AcDbLine
 10
44.000031
 20
485.5
 30
0.0
 11
44.000031
 21
487.799957
 31
0.0
  0
LINE
  5
535
100
AcDbEntity
  8
LAY-9
  6
CONTINUOUS
 62
     1
100
AcDbLine
 10
74.25354
 20
449.291016
 30
0.0
 11
82.000214
 21
447.999908
 31
0.0
  0
LINE
  5
536
100
AcDbEntity
  8
LAY-9
  6
CONTINUOUS
 62
     1
100
AcDbLine
 10
192.0
 20
488.0
 30
0.0
 11
171.0
 21
488.0
 31
0.0
  0
LINE
  5
537
100
AcDbEntity
  8
LAY-9
  6
CONTINUOUS
 62
     1
100
AcDbLine
 10
69.0
 20
454.0
 30
0.0
 11
69.0
 21
491.0
 31
0.0
  0
ARC
  5
538
100
AcDbEntity
  8
LAY-9
  6
CONTINUOUS
 62
     1
100
AcDbCircle
 10
78.5
 20
444.5
 30
0.0
 40
0.5
100
AcDbArc
 50
90.000018
 51
180.000055
  0
ARC
  5
539
100
AcDbEntity
  8
LAY-9
  6
CONTINUOUS
 62
     1
100
AcDbCircle
 10
86.5
 20
441.0
 30
0.0
 40
0.5
100
AcDbArc
 50
270.000054
 51
0.000036
  0
ARC
  5
53A
100
AcDbEntity
  8
LAY-9
  6
CONTINUOUS
 62
     1
100
AcDbCircle
 10
86.5
 20
444.5
 30
0.0
 40
0.5
100
AcDbArc
 50
0.000036
 51
90.000018
  0
ARC
  5
53B
100
AcDbEntity
  8
LAY-9
  6
CONTINUOUS
 62
     1
100
AcDbCircle
 10
74.5
 20
486.5
 30
0.0
 40
1.5
100
AcDbArc
 50
90.000018
 51
180.000055
  0
ARC
  5
53C
100
AcDbEntity
  8
LAY-9
  6
CONTINUOUS
 62
     1
100
AcDbCircle
 10
74.5
 20
450.770691
 30
0.0
 40
1.5
100
AcDbArc
 50
180.000055
 51
260.538312
  0
ARC
  5
53D
100
AcDbEntity
  8
LAY-9
  6
CONTINUOUS
 62
     1
100
AcDbCircle
 10
192.0
 20
487.0
 30
0.0
 40
1.0
100
AcDbArc
 50
0.000036
 51
90.000018
  0
LINE
  5
53E
100
AcDbEntity
  8
LAY-9
  6
CONTINUOUS
 62
     1
100
AcDbLine
 10
203.6
 20
485.5
 30
0.0
 11
193.0
 21
485.5
 31
0.0
  0
LINE
  5
53F
100
AcDbEntity
  8
LAY-9
  6
CONTINUOUS
 62
     1
100
AcDbLine
 10
207.3
 20
451.5
 30
0.0
 11
192.5
 21
451.5
 31
0.0
  0
LINE
  5
540
100
AcDbEntity
  8
LAY-9
  6
CONTINUOUS
 62
     1
100
AcDbLine
 10
209.0
 20
451.5
 30
0.0
 11
206.3
 21
451.5
 31
0.0
  0
LINE
  5
541
100
AcDbEntity
  8
LAY-9
  6
CONTINUOUS
 62
     1
100
AcDbLine
 10
162.6
 20
448.0
 30
0.0
 11
171.0
 21
448.0
 31
0.0
  0
LINE
  5
542
100
AcDbEntity
  8
LAY-9
  6
CONTINUOUS
 62
     1
100
AcDbLine
 10
171.0
 20
488.0
 30
0.0
 11
162.6
 21
488.0
 31
0.0
  0
LINE
  5
543
100
AcDbEntity
  8
LAY-9
  6
CONTINUOUS
 62
     1
100
AcDbLine
 10
165.3
 20
488.0
 30
0.0
 11
74.5
 21
488.0
 31
0.0
  0
LINE
  5
544
100
AcDbEntity
  8
LAY-9
  6
CONTINUOUS
 62
     1
100
AcDbLine
 10
54.0
 20
421.0
 30
0.0
 11
54.0
 21
336.0
 31
0.0
  0
LINE
  5
545
100
AcDbEntity
  8
LAY-9
  6
CONTINUOUS
 62
     1
100
AcDbLine
 10
54.0
 20
421.0
 30
0.0
 11
69.0
 21
421.0
 31
0.0
  0
LINE
  5
546
100
AcDbEntity
  8
LAY-9
  6
CONTINUOUS
 62
     1
100
AcDbLine
 10
69.0
 20
421.0
 30
0.0
 11
54.0
 21
421.0
 31
0.0
  0
LINE
  5
547
100
AcDbEntity
  8
LAY-9
  6
CONTINUOUS
 62
     1
100
AcDbLine
 10
44.000031
 20
487.2
 30
0.0
 11
44.000031
 21
490.999969
 31
0.0
  0
LINE
  5
548
100
AcDbEntity
  8
LAY-9
  6
CONTINUOUS
 62
     1
100
AcDbLine
 10
69.0
 20
491.0
 30
0.0
 11
69.0
 21
452.6
 31
0.0
  0
LINE
  5
549
100
AcDbEntity
  8
LAY-9
  6
CONTINUOUS
 62
     1
100
AcDbLine
 10
78.5
 20
445.0
 30
0.0
 11
85.07
 21
445.0
 31
0.0
  0
LINE
  5
54A
100
AcDbEntity
  8
LAY-9
  6
CONTINUOUS
 62
     1
100
AcDbLine
 10
163.1
 20
448.0
 30
0.0
 11
81.827057
 21
448.0
 31
0.0
  0
LINE
  5
54B
100
AcDbEntity
  8
LAY-9
  6
CONTINUOUS
 62
     1
100
AcDbLine
 10
180.0
 20
448.0
 30
0.0
 11
180.0
 21
451.5
 31
0.0
  0
LINE
  5
54C
100
AcDbEntity
  8
LAY-9
  6
CONTINUOUS
 62
     1
100
AcDbLine
 10
192.5
 20
451.5
 30
0.0
 11
180.0
 21
451.5
 31
0.0
  0
LINE
  5
54D
100
AcDbEntity
  8
LAY-9
  6
CONTINUOUS
 62
     1
100
AcDbLine
 10
193.0
 20
487.0
 30
0.0
 11
193.0
 21
485.5
 31
0.0
  0
LINE
  5
54E
100
AcDbEntity
  8
LAY-9
  6
CONTINUOUS
 62
     1
100
AcDbLine
 10
73.0
 20
452.5
 30
0.0
 11
73.0
 21
485.5
 31
0.0
  0
LINE
  5
54F
100
AcDbEntity
  8
LAY-9
  6
CONTINUOUS
 62
     1
100
AcDbLine
 10
180.0
 20
448.0
 30
0.0
 11
179.0
 21
448.0
 31
0.0
  0
LINE
  5
550
100
AcDbEntity
  8
LAY-9
  6
CONTINUOUS
 62
     1
100
AcDbLine
 10
46.0
 20
336.0
 30
0.0
 11
29.0
 21
336.0
 31
0.0
  0
LINE
  5
551
100
AcDbEntity
  8
LAY-9
  6
CONTINUOUS
 62
     1
100
AcDbLine
 10
69.0
 20
253.500029
 30
0.0
 11
69.0
 21
114.0
 31
0.0
  0
LINE
  5
552
100
AcDbEntity
  8
LAY-9
  6
CONTINUOUS
 62
     1
100
AcDbLine
 10
87.0
 20
239.500062
 30
0.0
 11
87.0
 21
113.0
 31
0.0
  0
POLYLINE
  5
553
100
AcDbEntity
  8
LAY-9
  6
CONTINUOUS
 62
     1
100
AcDb2dPolyline
 66
     1
 10
0.0
 20
0.0
 30
0.0
 70
   128
  0
VERTEX
  5
554
100
AcDbEntity
  8
LAY-9
  6
CONTINUOUS
 62
     1
100
AcDbVertex
100
AcDb2dVertex
 10
56.57557
 20
110.896471
 30
0.0
  0
VERTEX
  5
555
100
AcDbEntity
  8
LAY-9
  6
CONTINUOUS
 62
     1
100
AcDbVertex
100
AcDb2dVertex
 10
69.038111
 20
114.00952
 30
0.0
  0
VERTEX
  5
556
100
AcDbEntity
  8
LAY-9
  6
CONTINUOUS
 62
     1
100
AcDbVertex
100
AcDb2dVertex
 10
69.146788
 20
114.035925
 30
0.0
  0
VERTEX
  5
557
100
AcDbEntity
  8
LAY-9
  6
CONTINUOUS
 62
     1
100
AcDbVertex
100
AcDb2dVertex
 10
69.317543
 20
114.075982
 30
0.0
  0
VERTEX
  5
558
100
AcDbEntity
  8
LAY-9
  6
CONTINUOUS
 62
     1
100
AcDbVertex
100
AcDb2dVertex
 10
69.541889
 20
114.126458
 30
0.0
  0
VERTEX
  5
559
100
AcDbEntity
  8
LAY-9
  6
CONTINUOUS
 62
     1
100
AcDbVertex
100
AcDb2dVertex
 10
69.811341
 20
114.184121
 30
0.0
  0
VERTEX
  5
55A
100
AcDbEntity
  8
LAY-9
  6
CONTINUOUS
 62
     1
100
AcDbVertex
100
AcDb2dVertex
 10
70.11741
 20
114.245739
 30
0.0
  0
VERTEX
  5
55B
100
AcDbEntity
  8
LAY-9
  6
CONTINUOUS
 62
     1
100
AcDbVertex
100
AcDb2dVertex
 10
70.451612
 20
114.308078
 30
0.0
  0
VERTEX
  5
55C
100
AcDbEntity
  8
LAY-9
  6
CONTINUOUS
 62
     1
100
AcDbVertex
100
AcDb2dVertex
 10
70.805458
 20
114.367907
 30
0.0
  0
VERTEX
  5
55D
100
AcDbEntity
  8
LAY-9
  6
CONTINUOUS
 62
     1
100
AcDbVertex
100
AcDb2dVertex
 10
71.170463
 20
114.421992
 30
0.0
  0
VERTEX
  5
55E
100
AcDbEntity
  8
LAY-9
  6
CONTINUOUS
 62
     1
100
AcDbVertex
100
AcDb2dVertex
 10
71.538139
 20
114.4671
 30
0.0
  0
VERTEX
  5
55F
100
AcDbEntity
  8
LAY-9
  6
CONTINUOUS
 62
     1
100
AcDbVertex
100
AcDb2dVertex
 10
71.9
 20
114.5
 30
0.0
  0
VERTEX
  5
560
100
AcDbEntity
  8
LAY-9
  6
CONTINUOUS
 62
     1
100
AcDbVertex
100
AcDb2dVertex
 10
72.518376
 20
114.522417
 30
0.0
  0
VERTEX
  5
561
100
AcDbEntity
  8
LAY-9
  6
CONTINUOUS
 62
     1
100
AcDbVertex
100
AcDb2dVertex
 10
73.094739
 20
114.501669
 30
0.0
  0
VERTEX
  5
562
100
AcDbEntity
  8
LAY-9
  6
CONTINUOUS
 62
     1
100
AcDbVertex
100
AcDb2dVertex
 10
73.633384
 20
114.444591
 30
0.0
  0
VERTEX
  5
563
100
AcDbEntity
  8
LAY-9
  6
CONTINUOUS
 62
     1
100
AcDbVertex
100
AcDb2dVertex
 10
74.138605
 20
114.358013
 30
0.0
  0
VERTEX
  5
564
100
AcDbEntity
  8
LAY-9
  6
CONTINUOUS
 62
     1
100
AcDbVertex
100
AcDb2dVertex
 10
74.614695
 20
114.248771
 30
0.0
  0
VERTEX
  5
565
100
AcDbEntity
  8
LAY-9
  6
CONTINUOUS
 62
     1
100
AcDbVertex
100
AcDb2dVertex
 10
75.065951
 20
114.123696
 30
0.0
  0
VERTEX
  5
566
100
AcDbEntity
  8
LAY-9
  6
CONTINUOUS
 62
     1
100
AcDbVertex
100
AcDb2dVertex
 10
75.496665
 20
113.989623
 30
0.0
  0
VERTEX
  5
567
100
AcDbEntity
  8
LAY-9
  6
CONTINUOUS
 62
     1
100
AcDbVertex
100
AcDb2dVertex
 10
75.911133
 20
113.853383
 30
0.0
  0
VERTEX
  5
568
100
AcDbEntity
  8
LAY-9
  6
CONTINUOUS
 62
     1
100
AcDbVertex
100
AcDb2dVertex
 10
76.313648
 20
113.721811
 30
0.0
  0
VERTEX
  5
569
100
AcDbEntity
  8
LAY-9
  6
CONTINUOUS
 62
     1
100
AcDbVertex
100
AcDb2dVertex
 10
76.708506
 20
113.601739
 30
0.0
  0
VERTEX
  5
56A
100
AcDbEntity
  8
LAY-9
  6
CONTINUOUS
 62
     1
100
AcDbVertex
100
AcDb2dVertex
 10
77.1
 20
113.5
 30
0.0
  0
VERTEX
  5
56B
100
AcDbEntity
  8
LAY-9
  6
CONTINUOUS
 62
     1
100
AcDbVertex
100
AcDb2dVertex
 10
77.589452
 20
113.405973
 30
0.0
  0
VERTEX
  5
56C
100
AcDbEntity
  8
LAY-9
  6
CONTINUOUS
 62
     1
100
AcDbVertex
100
AcDb2dVertex
 10
78.085518
 20
113.345088
 30
0.0
  0
VERTEX
  5
56D
100
AcDbEntity
  8
LAY-9
  6
CONTINUOUS
 62
     1
100
AcDbVertex
100
AcDb2dVertex
 10
78.593361
 20
113.311352
 30
0.0
  0
VERTEX
  5
56E
100
AcDbEntity
  8
LAY-9
  6
CONTINUOUS
 62
     1
100
AcDbVertex
100
AcDb2dVertex
 10
79.118149
 20
113.298777
 30
0.0
  0
VERTEX
  5
56F
100
AcDbEntity
  8
LAY-9
  6
CONTINUOUS
 62
     1
100
AcDbVertex
100
AcDb2dVertex
 10
79.665047
 20
113.30137
 30
0.0
  0
VERTEX
  5
570
100
AcDbEntity
  8
LAY-9
  6
CONTINUOUS
 62
     1
100
AcDbVertex
100
AcDb2dVertex
 10
80.239219
 20
113.313142
 30
0.0
  0
VERTEX
  5
571
100
AcDbEntity
  8
LAY-9
  6
CONTINUOUS
 62
     1
100
AcDbVertex
100
AcDb2dVertex
 10
80.845832
 20
113.328101
 30
0.0
  0
VERTEX
  5
572
100
AcDbEntity
  8
LAY-9
  6
CONTINUOUS
 62
     1
100
AcDbVertex
100
AcDb2dVertex
 10
81.490051
 20
113.340257
 30
0.0
  0
VERTEX
  5
573
100
AcDbEntity
  8
LAY-9
  6
CONTINUOUS
 62
     1
100
AcDbVertex
100
AcDb2dVertex
 10
82.177042
 20
113.343619
 30
0.0
  0
VERTEX
  5
574
100
AcDbEntity
  8
LAY-9
  6
CONTINUOUS
 62
     1
100
AcDbVertex
100
AcDb2dVertex
 10
82.91197
 20
113.332197
 30
0.0
  0
VERTEX
  5
575
100
AcDbEntity
  8
LAY-9
  6
CONTINUOUS
 62
     1
100
AcDbVertex
100
AcDb2dVertex
 10
83.7
 20
113.3
 30
0.0
  0
VERTEX
  5
576
100
AcDbEntity
  8
LAY-9
  6
CONTINUOUS
 62
     1
100
AcDbVertex
100
AcDb2dVertex
 10
84.115411
 20
113.274523
 30
0.0
  0
VERTEX
  5
577
100
AcDbEntity
  8
LAY-9
  6
CONTINUOUS
 62
     1
100
AcDbVertex
100
AcDb2dVertex
 10
84.536056
 20
113.243901
 30
0.0
  0
VERTEX
  5
578
100
AcDbEntity
  8
LAY-9
  6
CONTINUOUS
 62
     1
100
AcDbVertex
100
AcDb2dVertex
 10
84.952497
 20
113.209729
 30
0.0
  0
VERTEX
  5
579
100
AcDbEntity
  8
LAY-9
  6
CONTINUOUS
 62
     1
100
AcDbVertex
100
AcDb2dVertex
 10
85.355296
 20
113.173602
 30
0.0
  0
VERTEX
  5
57A
100
AcDbEntity
  8
LAY-9
  6
CONTINUOUS
 62
     1
100
AcDbVertex
100
AcDb2dVertex
 10
85.735012
 20
113.137117
 30
0.0
  0
VERTEX
  5
57B
100
AcDbEntity
  8
LAY-9
  6
CONTINUOUS
 62
     1
100
AcDbVertex
100
AcDb2dVertex
 10
86.082207
 20
113.101867
 30
0.0
  0
VERTEX
  5
57C
100
AcDbEntity
  8
LAY-9
  6
CONTINUOUS
 62
     1
100
AcDbVertex
100
AcDb2dVertex
 10
86.387442
 20
113.069449
 30
0.0
  0
VERTEX
  5
57D
100
AcDbEntity
  8
LAY-9
  6
CONTINUOUS
 62
     1
100
AcDbVertex
100
AcDb2dVertex
 10
86.641277
 20
113.041458
 30
0.0
  0
VERTEX
  5
57E
100
AcDbEntity
  8
LAY-9
  6
CONTINUOUS
 62
     1
100
AcDbVertex
100
AcDb2dVertex
 10
86.834275
 20
113.019489
 30
0.0
  0
VERTEX
  5
57F
100
AcDbEntity
  8
LAY-9
  6
CONTINUOUS
 62
     1
100
AcDbVertex
100
AcDb2dVertex
 10
86.956996
 20
113.005138
 30
0.0
  0
VERTEX
  5
580
100
AcDbEntity
  8
LAY-9
  6
CONTINUOUS
 62
     1
100
AcDbVertex
100
AcDb2dVertex
 10
87.0
 20
113.0
 30
0.0
  0
SEQEND
  5
581
100
AcDbEntity
  8
LAY-9
  6
CONTINUOUS
 62
     1
  0
LINE
  5
582
100
AcDbEntity
  8
LAY-9
  6
DASHED2
 62
     1
100
AcDbLine
 10
73.0
 20
249.500062
 30
0.0
 11
73.0
 21
113.5
 31
0.0
  0
POLYLINE
  5
583
100
AcDbEntity
  8
LAY-9
  6
CONTINUOUS
 62
     1
100
AcDb2dPolyline
 66
     1
 10
0.0
 20
0.0
 30
0.0
 70
   128
  0
VERTEX
  5
584
100
AcDbEntity
  8
LAY-9
  6
CONTINUOUS
 62
     1
100
AcDbVertex
100
AcDb2dVertex
 10
73.0
 20
107.8
 30
0.0
  0
VERTEX
  5
585
100
AcDbEntity
  8
LAY-9
  6
CONTINUOUS
 62
     1
100
AcDbVertex
100
AcDb2dVertex
 10
73.070787
 20
107.828126
 30
0.0
  0
VERTEX
  5
586
100
AcDbEntity
  8
LAY-9
  6
CONTINUOUS
 62
     1
100
AcDbVertex
100
AcDb2dVertex
 10
73.272354
 20
107.906212
 30
0.0
  0
VERTEX
  5
587
100
AcDbEntity
  8
LAY-9
  6
CONTINUOUS
 62
     1
100
AcDbVertex
100
AcDb2dVertex
 10
73.58851
 20
108.024821
 30
0.0
  0
VERTEX
  5
588
100
AcDbEntity
  8
LAY-9
  6
CONTINUOUS
 62
     1
100
AcDbVertex
100
AcDb2dVertex
 10
74.003064
 20
108.174515
 30
0.0
  0
VERTEX
  5
589
100
AcDbEntity
  8
LAY-9
  6
CONTINUOUS
 62
     1
100
AcDbVertex
100
AcDb2dVertex
 10
74.499823
 20
108.345856
 30
0.0
  0
VERTEX
  5
58A
100
AcDbEntity
  8
LAY-9
  6
CONTINUOUS
 62
     1
100
AcDbVertex
100
AcDb2dVertex
 10
75.062598
 20
108.529407
 30
0.0
  0
VERTEX
  5
58B
100
AcDbEntity
  8
LAY-9
  6
CONTINUOUS
 62
     1
100
AcDbVertex
100
AcDb2dVertex
 10
75.675196
 20
108.715731
 30
0.0
  0
VERTEX
  5
58C
100
AcDbEntity
  8
LAY-9
  6
CONTINUOUS
 62
     1
100
AcDbVertex
100
AcDb2dVertex
 10
76.321427
 20
108.89539
 30
0.0
  0
VERTEX
  5
58D
100
AcDbEntity
  8
LAY-9
  6
CONTINUOUS
 62
     1
100
AcDbVertex
100
AcDb2dVertex
 10
76.985099
 20
109.058946
 30
0.0
  0
VERTEX
  5
58E
100
AcDbEntity
  8
LAY-9
  6
CONTINUOUS
 62
     1
100
AcDbVertex
100
AcDb2dVertex
 10
77.65002
 20
109.196962
 30
0.0
  0
VERTEX
  5
58F
100
AcDbEntity
  8
LAY-9
  6
CONTINUOUS
 62
     1
100
AcDbVertex
100
AcDb2dVertex
 10
78.3
 20
109.3
 30
0.0
  0
VERTEX
  5
590
100
AcDbEntity
  8
LAY-9
  6
CONTINUOUS
 62
     1
100
AcDbVertex
100
AcDb2dVertex
 10
79.117868
 20
109.371942
 30
0.0
  0
VERTEX
  5
591
100
AcDbEntity
  8
LAY-9
  6
CONTINUOUS
 62
     1
100
AcDbVertex
100
AcDb2dVertex
 10
79.886566
 20
109.376334
 30
0.0
  0
VERTEX
  5
592
100
AcDbEntity
  8
LAY-9
  6
CONTINUOUS
 62
     1
100
AcDbVertex
100
AcDb2dVertex
 10
80.611595
 20
109.323624
 30
0.0
  0
VERTEX
  5
593
100
AcDbEntity
  8
LAY-9
  6
CONTINUOUS
 62
     1
100
AcDbVertex
100
AcDb2dVertex
 10
81.298458
 20
109.22426
 30
0.0
  0
VERTEX
  5
594
100
AcDbEntity
  8
LAY-9
  6
CONTINUOUS
 62
     1
100
AcDbVertex
100
AcDb2dVertex
 10
81.952657
 20
109.088689
 30
0.0
  0
VERTEX
  5
595
100
AcDbEntity
  8
LAY-9
  6
CONTINUOUS
 62
     1
100
AcDbVertex
100
AcDb2dVertex
 10
82.579693
 20
108.92736
 30
0.0
  0
VERTEX
  5
596
100
AcDbEntity
  8
LAY-9
  6
CONTINUOUS
 62
     1
100
AcDbVertex
100
AcDb2dVertex
 10
83.185068
 20
108.750719
 30
0.0
  0
VERTEX
  5
597
100
AcDbEntity
  8
LAY-9
  6
CONTINUOUS
 62
     1
100
AcDbVertex
100
AcDb2dVertex
 10
83.774284
 20
108.569215
 30
0.0
  0
VERTEX
  5
598
100
AcDbEntity
  8
LAY-9
  6
CONTINUOUS
 62
     1
100
AcDbVertex
100
AcDb2dVertex
 10
84.352844
 20
108.393295
 30
0.0
  0
VERTEX
  5
599
100
AcDbEntity
  8
LAY-9
  6
CONTINUOUS
 62
     1
100
AcDbVertex
100
AcDb2dVertex
 10
84.926248
 20
108.233408
 30
0.0
  0
VERTEX
  5
59A
100
AcDbEntity
  8
LAY-9
  6
CONTINUOUS
 62
     1
100
AcDbVertex
100
AcDb2dVertex
 10
85.5
 20
108.1
 30
0.0
  0
VERTEX
  5
59B
100
AcDbEntity
  8
LAY-9
  6
CONTINUOUS
 62
     1
100
AcDbVertex
100
AcDb2dVertex
 10
86.007564
 20
108.011506
 30
0.0
  0
VERTEX
  5
59C
100
AcDbEntity
  8
LAY-9
  6
CONTINUOUS
 62
     1
100
AcDbVertex
100
AcDb2dVertex
 10
86.522214
 20
107.949189
 30
0.0
  0
VERTEX
  5
59D
100
AcDbEntity
  8
LAY-9
  6
CONTINUOUS
 62
     1
100
AcDbVertex
100
AcDb2dVertex
 10
87.046538
 20
107.910827
 30
0.0
  0
VERTEX
  5
59E
100
AcDbEntity
  8
LAY-9
  6
CONTINUOUS
 62
     1
100
AcDbVertex
100
AcDb2dVertex
 10
87.583125
 20
107.894202
 30
0.0
  0
VERTEX
  5
59F
100
AcDbEntity
  8
LAY-9
  6
CONTINUOUS
 62
     1
100
AcDbVertex
100
AcDb2dVertex
 10
88.134562
 20
107.897094
 30
0.0
  0
VERTEX
  5
5A0
100
AcDbEntity
  8
LAY-9
  6
CONTINUOUS
 62
     1
100
AcDbVertex
100
AcDb2dVertex
 10
88.703439
 20
107.917284
 30
0.0
  0
VERTEX
  5
5A1
100
AcDbEntity
  8
LAY-9
  6
CONTINUOUS
 62
     1
100
AcDbVertex
100
AcDb2dVertex
 10
89.292343
 20
107.952551
 30
0.0
  0
VERTEX
  5
5A2
100
AcDbEntity
  8
LAY-9
  6
CONTINUOUS
 62
     1
100
AcDbVertex
100
AcDb2dVertex
 10
89.903863
 20
108.000675
 30
0.0
  0
VERTEX
  5
5A3
100
AcDbEntity
  8
LAY-9
  6
CONTINUOUS
 62
     1
100
AcDbVertex
100
AcDb2dVertex
 10
90.540587
 20
108.059438
 30
0.0
  0
VERTEX
  5
5A4
100
AcDbEntity
  8
LAY-9
  6
CONTINUOUS
 62
     1
100
AcDbVertex
100
AcDb2dVertex
 10
91.205103
 20
108.12662
 30
0.0
  0
VERTEX
  5
5A5
100
AcDbEntity
  8
LAY-9
  6
CONTINUOUS
 62
     1
100
AcDbVertex
100
AcDb2dVertex
 10
91.9
 20
108.2
 30
0.0
  0
VERTEX
  5
5A6
100
AcDbEntity
  8
LAY-9
  6
CONTINUOUS
 62
     1
100
AcDbVertex
100
AcDb2dVertex
 10
93.171938
 20
108.336159
 30
0.0
  0
VERTEX
  5
5A7
100
AcDbEntity
  8
LAY-9
  6
CONTINUOUS
 62
     1
100
AcDbVertex
100
AcDb2dVertex
 10
94.504176
 20
108.479883
 30
0.0
  0
VERTEX
  5
5A8
100
AcDbEntity
  8
LAY-9
  6
CONTINUOUS
 62
     1
100
AcDbVertex
100
AcDb2dVertex
 10
95.858485
 20
108.626847
 30
0.0
  0
VERTEX
  5
5A9
100
AcDbEntity
  8
LAY-9
  6
CONTINUOUS
 62
     1
100
AcDbVertex
100
AcDb2dVertex
 10
97.196635
 20
108.772723
 30
0.0
  0
VERTEX
  5
5AA
100
AcDbEntity
  8
LAY-9
  6
CONTINUOUS
 62
     1
100
AcDbVertex
100
AcDb2dVertex
 10
98.480398
 20
108.913185
 30
0.0
  0
VERTEX
  5
5AB
100
AcDbEntity
  8
LAY-9
  6
CONTINUOUS
 62
     1
100
AcDbVertex
100
AcDb2dVertex
 10
99.671544
 20
109.043908
 30
0.0
  0
VERTEX
  5
5AC
100
AcDbEntity
  8
LAY-9
  6
CONTINUOUS
 62
     1
100
AcDbVertex
100
AcDb2dVertex
 10
100.731844
 20
109.160564
 30
0.0
  0
VERTEX
  5
5AD
100
AcDbEntity
  8
LAY-9
  6
CONTINUOUS
 62
     1
100
AcDbVertex
100
AcDb2dVertex
 10
101.623068
 20
109.258828
 30
0.0
  0
VERTEX
  5
5AE
100
AcDbEntity
  8
LAY-9
  6
CONTINUOUS
 62
     1
100
AcDbVertex
100
AcDb2dVertex
 10
102.306989
 20
109.334373
 30
0.0
  0
VERTEX
  5
5AF
100
AcDbEntity
  8
LAY-9
  6
CONTINUOUS
 62
     1
100
AcDbVertex
100
AcDb2dVertex
 10
102.745376
 20
109.382872
 30
0.0
  0
VERTEX
  5
5B0
100
AcDbEntity
  8
LAY-9
  6
CONTINUOUS
 62
     1
100
AcDbVertex
100
AcDb2dVertex
 10
102.9
 20
109.4
 30
0.0
  0
SEQEND
  5
5B1
100
AcDbEntity
  8
LAY-9
  6
CONTINUOUS
 62
     1
  0
LINE
  5
5B2
100
AcDbEntity
  8
LAY-9
  6
CONTINUOUS
 62
     1
100
AcDbLine
 10
73.0
 20
114.50508
 30
0.0
 11
73.0
 21
107.8
 31
0.0
  0
LINE
  5
5B3
100
AcDbEntity
  8
LAY-9
  6
CONTINUOUS
 62
     1
100
AcDbLine
 10
182.2
 20
253.500029
 30
0.0
 11
69.0
 21
253.500029
 31
0.0
  0
LINE
  5
5B4
100
AcDbEntity
  8
LAY-9
  6
DASHED2
 62
     1
100
AcDbLine
 10
73.0
 20
249.500062
 30
0.0
 11
445.0
 21
249.500062
 31
0.0
  0
LINE
  5
5B5
100
AcDbEntity
  8
LAY-9
  6
CONTINUOUS
 62
     1
100
AcDbLine
 10
267.9
 20
253.500029
 30
0.0
 11
445.0
 21
253.500029
 31
0.0
  0
LINE
  5
5B6
100
AcDbEntity
  8
LAY-9
  6
CONTINUOUS
 62
     1
100
AcDbLine
 10
201.685339
 20
239.500062
 30
0.0
 11
87.0
 21
239.500062
 31
0.0
  0
LINE
  5
5B7
100
AcDbEntity
  8
LAY-9
  6
CONTINUOUS
 62
     1
100
AcDbLine
 10
445.0
 20
239.500062
 30
0.0
 11
248.314661
 21
239.500062
 31
0.0
  0
POLYLINE
  5
5B8
100
AcDbEntity
  8
LAY-9
  6
CONTINUOUS
 62
     1
100
AcDb2dPolyline
 66
     1
 10
0.0
 20
0.0
 30
0.0
 70
   128
  0
VERTEX
  5
5B9
100
AcDbEntity
  8
LAY-9
  6
CONTINUOUS
 62
     1
100
AcDbVertex
100
AcDb2dVertex
 10
446.799894
 20
260.18462
 30
0.0
  0
VERTEX
  5
5BA
100
AcDbEntity
  8
LAY-9
  6
CONTINUOUS
 62
     1
100
AcDbVertex
100
AcDb2dVertex
 10
444.98525
 20
253.445251
 30
0.0
  0
VERTEX
  5
5BB
100
AcDbEntity
  8
LAY-9
  6
CONTINUOUS
 62
     1
100
AcDbVertex
100
AcDb2dVertex
 10
444.944257
 20
253.289605
 30
0.0
  0
VERTEX
  5
5BC
100
AcDbEntity
  8
LAY-9
  6
CONTINUOUS
 62
     1
100
AcDbVertex
100
AcDb2dVertex
 10
444.881902
 20
253.046122
 30
0.0
  0
VERTEX
  5
5BD
100
AcDbEntity
  8
LAY-9
  6
CONTINUOUS
 62
     1
100
AcDbVertex
100
AcDb2dVertex
 10
444.803069
 20
252.727836
 30
0.0
  0
VERTEX
  5
5BE
100
AcDbEntity
  8
LAY-9
  6
CONTINUOUS
 62
     1
100
AcDbVertex
100
AcDb2dVertex
 10
444.712641
 20
252.347777
 30
0.0
  0
VERTEX
  5
5BF
100
AcDbEntity
  8
LAY-9
  6
CONTINUOUS
 62
     1
100
AcDbVertex
100
AcDb2dVertex
 10
444.6155
 20
251.918978
 30
0.0
  0
VERTEX
  5
5C0
100
AcDbEntity
  8
LAY-9
  6
CONTINUOUS
 62
     1
100
AcDbVertex
100
AcDb2dVertex
 10
444.516528
 20
251.45447
 30
0.0
  0
VERTEX
  5
5C1
100
AcDbEntity
  8
LAY-9
  6
CONTINUOUS
 62
     1
100
AcDbVertex
100
AcDb2dVertex
 10
444.42061
 20
250.967287
 30
0.0
  0
VERTEX
  5
5C2
100
AcDbEntity
  8
LAY-9
  6
CONTINUOUS
 62
     1
100
AcDbVertex
100
AcDb2dVertex
 10
444.332627
 20
250.47046
 30
0.0
  0
VERTEX
  5
5C3
100
AcDbEntity
  8
LAY-9
  6
CONTINUOUS
 62
     1
100
AcDbVertex
100
AcDb2dVertex
 10
444.257463
 20
249.97702
 30
0.0
  0
VERTEX
  5
5C4
100
AcDbEntity
  8
LAY-9
  6
CONTINUOUS
 62
     1
100
AcDbVertex
100
AcDb2dVertex
 10
444.2
 20
249.5
 30
0.0
  0
VERTEX
  5
5C5
100
AcDbEntity
  8
LAY-9
  6
CONTINUOUS
 62
     1
100
AcDbVertex
100
AcDb2dVertex
 10
444.169128
 20
249.132995
 30
0.0
  0
VERTEX
  5
5C6
100
AcDbEntity
  8
LAY-9
  6
CONTINUOUS
 62
     1
100
AcDbVertex
100
AcDb2dVertex
 10
444.151835
 20
248.783849
 30
0.0
  0
VERTEX
  5
5C7
100
AcDbEntity
  8
LAY-9
  6
CONTINUOUS
 62
     1
100
AcDbVertex
100
AcDb2dVertex
 10
444.146864
 20
248.451076
 30
0.0
  0
VERTEX
  5
5C8
100
AcDbEntity
  8
LAY-9
  6
CONTINUOUS
 62
     1
100
AcDbVertex
100
AcDb2dVertex
 10
444.15296
 20
248.133191
 30
0.0
  0
VERTEX
  5
5C9
100
AcDbEntity
  8
LAY-9
  6
CONTINUOUS
 62
     1
100
AcDbVertex
100
AcDb2dVertex
 10
444.168866
 20
247.828706
 30
0.0
  0
VERTEX
  5
5CA
100
AcDbEntity
  8
LAY-9
  6
CONTINUOUS
 62
     1
100
AcDbVertex
100
AcDb2dVertex
 10
444.193328
 20
247.536136
 30
0.0
  0
VERTEX
  5
5CB
100
AcDbEntity
  8
LAY-9
  6
CONTINUOUS
 62
     1
100
AcDbVertex
100
AcDb2dVertex
 10
444.225088
 20
247.253995
 30
0.0
  0
VERTEX
  5
5CC
100
AcDbEntity
  8
LAY-9
  6
CONTINUOUS
 62
     1
100
AcDbVertex
100
AcDb2dVertex
 10
444.262891
 20
246.980797
 30
0.0
  0
VERTEX
  5
5CD
100
AcDbEntity
  8
LAY-9
  6
CONTINUOUS
 62
     1
100
AcDbVertex
100
AcDb2dVertex
 10
444.305481
 20
246.715056
 30
0.0
  0
VERTEX
  5
5CE
100
AcDbEntity
  8
LAY-9
  6
CONTINUOUS
 62
     1
100
AcDbVertex
100
AcDb2dVertex
 10
444.351603
 20
246.455286
 30
0.0
  0
VERTEX
  5
5CF
100
AcDbEntity
  8
LAY-9
  6
CONTINUOUS
 62
     1
100
AcDbVertex
100
AcDb2dVertex
 10
444.4
 20
246.2
 30
0.0
  0
VERTEX
  5
5D0
100
AcDbEntity
  8
LAY-9
  6
CONTINUOUS
 62
     1
100
AcDbVertex
100
AcDb2dVertex
 10
444.469712
 20
245.846409
 30
0.0
  0
VERTEX
  5
5D1
100
AcDbEntity
  8
LAY-9
  6
CONTINUOUS
 62
     1
100
AcDbVertex
100
AcDb2dVertex
 10
444.540172
 20
245.494017
 30
0.0
  0
VERTEX
  5
5D2
100
AcDbEntity
  8
LAY-9
  6
CONTINUOUS
 62
     1
100
AcDbVertex
100
AcDb2dVertex
 10
444.610119
 20
245.138118
 30
0.0
  0
VERTEX
  5
5D3
100
AcDbEntity
  8
LAY-9
  6
CONTINUOUS
 62
     1
100
AcDbVertex
100
AcDb2dVertex
 10
444.678292
 20
244.774006
 30
0.0
  0
VERTEX
  5
5D4
100
AcDbEntity
  8
LAY-9
  6
CONTINUOUS
 62
     1
100
AcDbVertex
100
AcDb2dVertex
 10
444.743433
 20
244.396976
 30
0.0
  0
VERTEX
  5
5D5
100
AcDbEntity
  8
LAY-9
  6
CONTINUOUS
 62
     1
100
AcDbVertex
100
AcDb2dVertex
 10
444.804279
 20
244.002322
 30
0.0
  0
VERTEX
  5
5D6
100
AcDbEntity
  8
LAY-9
  6
CONTINUOUS
 62
     1
100
AcDbVertex
100
AcDb2dVertex
 10
444.859572
 20
243.585338
 30
0.0
  0
VERTEX
  5
5D7
100
AcDbEntity
  8
LAY-9
  6
CONTINUOUS
 62
     1
100
AcDbVertex
100
AcDb2dVertex
 10
444.908051
 20
243.14132
 30
0.0
  0
VERTEX
  5
5D8
100
AcDbEntity
  8
LAY-9
  6
CONTINUOUS
 62
     1
100
AcDbVertex
100
AcDb2dVertex
 10
444.948455
 20
242.665561
 30
0.0
  0
VERTEX
  5
5D9
100
AcDbEntity
  8
LAY-9
  6
CONTINUOUS
 62
     1
100
AcDbVertex
100
AcDb2dVertex
 10
444.979525
 20
242.153356
 30
0.0
  0
VERTEX
  5
5DA
100
AcDbEntity
  8
LAY-9
  6
CONTINUOUS
 62
     1
100
AcDbVertex
100
AcDb2dVertex
 10
445.0
 20
241.6
 30
0.0
  0
VERTEX
  5
5DB
100
AcDbEntity
  8
LAY-9
  6
CONTINUOUS
 62
     1
100
AcDbVertex
100
AcDb2dVertex
 10
445.005521
 20
241.33579
 30
0.0
  0
VERTEX
  5
5DC
100
AcDbEntity
  8
LAY-9
  6
CONTINUOUS
 62
     1
100
AcDbVertex
100
AcDb2dVertex
 10
445.008944
 20
241.068198
 30
0.0
  0
VERTEX
  5
5DD
100
AcDbEntity
  8
LAY-9
  6
CONTINUOUS
 62
     1
100
AcDbVertex
100
AcDb2dVertex
 10
445.0106
 20
240.803238
 30
0.0
  0
VERTEX
  5
5DE
100
AcDbEntity
  8
LAY-9
  6
CONTINUOUS
 62
     1
100
AcDbVertex
100
AcDb2dVertex
 10
445.010821
 20
240.546924
 30
0.0
  0
VERTEX
  5
5DF
100
AcDbEntity
  8
LAY-9
  6
CONTINUOUS
 62
     1
100
AcDbVertex
100
AcDb2dVertex
 10
445.009938
 20
240.305273
 30
0.0
  0
VERTEX
  5
5E0
100
AcDbEntity
  8
LAY-9
  6
CONTINUOUS
 62
     1
100
AcDbVertex
100
AcDb2dVertex
 10
445.008282
 20
240.084296
 30
0.0
  0
VERTEX
  5
5E1
100
AcDbEntity
  8
LAY-9
  6
CONTINUOUS
 62
     1
100
AcDbVertex
100
AcDb2dVertex
 10
445.006184
 20
239.890011
 30
0.0
  0
VERTEX
  5
5E2
100
AcDbEntity
  8
LAY-9
  6
CONTINUOUS
 62
     1
100
AcDbVertex
100
AcDb2dVertex
 10
445.003975
 20
239.72843
 30
0.0
  0
VERTEX
  5
5E3
100
AcDbEntity
  8
LAY-9
  6
CONTINUOUS
 62
     1
100
AcDbVertex
100
AcDb2dVertex
 10
445.001988
 20
239.605569
 30
0.0
  0
VERTEX
  5
5E4
100
AcDbEntity
  8
LAY-9
  6
CONTINUOUS
 62
     1
100
AcDbVertex
100
AcDb2dVertex
 10
445.000552
 20
239.527441
 30
0.0
  0
VERTEX
  5
5E5
100
AcDbEntity
  8
LAY-9
  6
CONTINUOUS
 62
     1
100
AcDbVertex
100
AcDb2dVertex
 10
445.0
 20
239.500062
 30
0.0
  0
SEQEND
  5
5E6
100
AcDbEntity
  8
LAY-9
  6
CONTINUOUS
 62
     1
  0
LINE
  5
5E7
100
AcDbEntity
  8
LAY-9
  6
CONTINUOUS
 62
     1
100
AcDbLine
 10
444.200007
 20
249.500029
 30
0.0
 11
452.2
 21
249.500029
 31
0.0
  0
POLYLINE
  5
5E8
100
AcDbEntity
  8
LAY-9
  6
CONTINUOUS
 62
     1
100
AcDb2dPolyline
 66
     1
 10
0.0
 20
0.0
 30
0.0
 70
   128
  0
VERTEX
  5
5E9
100
AcDbEntity
  8
LAY-9
  6
CONTINUOUS
 62
     1
100
AcDbVertex
100
AcDb2dVertex
 10
452.2
 20
249.500029
 30
0.0
  0
VERTEX
  5
5EA
100
AcDbEntity
  8
LAY-9
  6
CONTINUOUS
 62
     1
100
AcDbVertex
100
AcDb2dVertex
 10
452.161989
 20
249.416006
 30
0.0
  0
VERTEX
  5
5EB
100
AcDbEntity
  8
LAY-9
  6
CONTINUOUS
 62
     1
100
AcDbVertex
100
AcDb2dVertex
 10
452.057209
 20
249.177711
 30
0.0
  0
VERTEX
  5
5EC
100
AcDbEntity
  8
LAY-9
  6
CONTINUOUS
 62
     1
100
AcDbVertex
100
AcDb2dVertex
 10
451.899542
 20
248.805806
 30
0.0
  0
VERTEX
  5
5ED
100
AcDbEntity
  8
LAY-9
  6
CONTINUOUS
 62
     1
100
AcDbVertex
100
AcDb2dVertex
 10
451.702869
 20
248.320952
 30
0.0
  0
VERTEX
  5
5EE
100
AcDbEntity
  8
LAY-9
  6
CONTINUOUS
 62
     1
100
AcDbVertex
100
AcDb2dVertex
 10
451.481071
 20
247.743811
 30
0.0
  0
VERTEX
  5
5EF
100
AcDbEntity
  8
LAY-9
  6
CONTINUOUS
 62
     1
100
AcDbVertex
100
AcDb2dVertex
 10
451.248029
 20
247.095045
 30
0.0
  0
VERTEX
  5
5F0
100
AcDbEntity
  8
LAY-9
  6
CONTINUOUS
 62
     1
100
AcDbVertex
100
AcDb2dVertex
 10
451.017624
 20
246.395316
 30
0.0
  0
VERTEX
  5
5F1
100
AcDbEntity
  8
LAY-9
  6
CONTINUOUS
 62
     1
100
AcDbVertex
100
AcDb2dVertex
 10
450.803738
 20
245.665286
 30
0.0
  0
VERTEX
  5
5F2
100
AcDbEntity
  8
LAY-9
  6
CONTINUOUS
 62
     1
100
AcDbVertex
100
AcDb2dVertex
 10
450.620251
 20
244.925615
 30
0.0
  0
VERTEX
  5
5F3
100
AcDbEntity
  8
LAY-9
  6
CONTINUOUS
 62
     1
100
AcDbVertex
100
AcDb2dVertex
 10
450.481045
 20
244.196966
 30
0.0
  0
VERTEX
  5
5F4
100
AcDbEntity
  8
LAY-9
  6
CONTINUOUS
 62
     1
100
AcDbVertex
100
AcDb2dVertex
 10
450.4
 20
243.5
 30
0.0
  0
VERTEX
  5
5F5
100
AcDbEntity
  8
LAY-9
  6
CONTINUOUS
 62
     1
100
AcDbVertex
100
AcDb2dVertex
 10
450.384362
 20
243.125964
 30
0.0
  0
VERTEX
  5
5F6
100
AcDbEntity
  8
LAY-9
  6
CONTINUOUS
 62
     1
100
AcDbVertex
100
AcDb2dVertex
 10
450.389596
 20
242.767336
 30
0.0
  0
VERTEX
  5
5F7
100
AcDbEntity
  8
LAY-9
  6
CONTINUOUS
 62
     1
100
AcDbVertex
100
AcDb2dVertex
 10
450.413424
 20
242.422705
 30
0.0
  0
VERTEX
  5
5F8
100
AcDbEntity
  8
LAY-9
  6
CONTINUOUS
 62
     1
100
AcDbVertex
100
AcDb2dVertex
 10
450.453567
 20
242.090657
 30
0.0
  0
VERTEX
  5
5F9
100
AcDbEntity
  8
LAY-9
  6
CONTINUOUS
 62
     1
100
AcDbVertex
100
AcDb2dVertex
 10
450.507747
 20
241.76978
 30
0.0
  0
VERTEX
  5
5FA
100
AcDbEntity
  8
LAY-9
  6
CONTINUOUS
 62
     1
100
AcDbVertex
100
AcDb2dVertex
 10
450.573686
 20
241.458661
 30
0.0
  0
VERTEX
  5
5FB
100
AcDbEntity
  8
LAY-9
  6
CONTINUOUS
 62
     1
100
AcDbVertex
100
AcDb2dVertex
 10
450.649104
 20
241.155888
 30
0.0
  0
VERTEX
  5
5FC
100
AcDbEntity
  8
LAY-9
  6
CONTINUOUS
 62
     1
100
AcDbVertex
100
AcDb2dVertex
 10
450.731723
 20
240.860048
 30
0.0
  0
VERTEX
  5
5FD
100
AcDbEntity
  8
LAY-9
  6
CONTINUOUS
 62
     1
100
AcDbVertex
100
AcDb2dVertex
 10
450.819264
 20
240.569728
 30
0.0
  0
VERTEX
  5
5FE
100
AcDbEntity
  8
LAY-9
  6
CONTINUOUS
 62
     1
100
AcDbVertex
100
AcDb2dVertex
 10
450.90945
 20
240.283516
 30
0.0
  0
VERTEX
  5
5FF
100
AcDbEntity
  8
LAY-9
  6
CONTINUOUS
 62
     1
100
AcDbVertex
100
AcDb2dVertex
 10
451.0
 20
240.0
 30
0.0
  0
VERTEX
  5
600
100
AcDbEntity
  8
LAY-9
  6
CONTINUOUS
 62
     1
100
AcDbVertex
100
AcDb2dVertex
 10
451.138127
 20
239.558583
 30
0.0
  0
VERTEX
  5
601
100
AcDbEntity
  8
LAY-9
  6
CONTINUOUS
 62
     1
100
AcDbVertex
100
AcDb2dVertex
 10
451.269469
 20
239.116593
 30
0.0
  0
VERTEX
  5
602
100
AcDbEntity
  8
LAY-9
  6
CONTINUOUS
 62
     1
100
AcDbVertex
100
AcDb2dVertex
 10
451.391928
 20
238.670317
 30
0.0
  0
VERTEX
  5
603
100
AcDbEntity
  8
LAY-9
  6
CONTINUOUS
 62
     1
100
AcDbVertex
100
AcDb2dVertex
 10
451.503404
 20
238.216038
 30
0.0
  0
VERTEX
  5
604
100
AcDbEntity
  8
LAY-9
  6
CONTINUOUS
 62
     1
100
AcDbVertex
100
AcDb2dVertex
 10
451.601801
 20
237.750042
 30
0.0
  0
VERTEX
  5
605
100
AcDbEntity
  8
LAY-9
  6
CONTINUOUS
 62
     1
100
AcDbVertex
100
AcDb2dVertex
 10
451.685019
 20
237.268616
 30
0.0
  0
VERTEX
  5
606
100
AcDbEntity
  8
LAY-9
  6
CONTINUOUS
 62
     1
100
AcDbVertex
100
AcDb2dVertex
 10
451.750961
 20
236.768043
 30
0.0
  0
VERTEX
  5
607
100
AcDbEntity
  8
LAY-9
  6
CONTINUOUS
 62
     1
100
AcDbVertex
100
AcDb2dVertex
 10
451.797529
 20
236.24461
 30
0.0
  0
VERTEX
  5
608
100
AcDbEntity
  8
LAY-9
  6
CONTINUOUS
 62
     1
100
AcDbVertex
100
AcDb2dVertex
 10
451.822623
 20
235.694602
 30
0.0
  0
VERTEX
  5
609
100
AcDbEntity
  8
LAY-9
  6
CONTINUOUS
 62
     1
100
AcDbVertex
100
AcDb2dVertex
 10
451.824146
 20
235.114303
 30
0.0
  0
VERTEX
  5
60A
100
AcDbEntity
  8
LAY-9
  6
CONTINUOUS
 62
     1
100
AcDbVertex
100
AcDb2dVertex
 10
451.8
 20
234.5
 30
0.0
  0
VERTEX
  5
60B
100
AcDbEntity
  8
LAY-9
  6
CONTINUOUS
 62
     1
100
AcDbVertex
100
AcDb2dVertex
 10
451.742075
 20
233.776513
 30
0.0
  0
VERTEX
  5
60C
100
AcDbEntity
  8
LAY-9
  6
CONTINUOUS
 62
     1
100
AcDbVertex
100
AcDb2dVertex
 10
451.65674
 20
233.026481
 30
0.0
  0
VERTEX
  5
60D
100
AcDbEntity
  8
LAY-9
  6
CONTINUOUS
 62
     1
100
AcDbVertex
100
AcDb2dVertex
 10
451.550932
 20
232.270013
 30
0.0
  0
VERTEX
  5
60E
100
AcDbEntity
  8
LAY-9
  6
CONTINUOUS
 62
     1
100
AcDbVertex
100
AcDb2dVertex
 10
451.431591
 20
231.527223
 30
0.0
  0
VERTEX
  5
60F
100
AcDbEntity
  8
LAY-9
  6
CONTINUOUS
 62
     1
100
AcDbVertex
100
AcDb2dVertex
 10
451.305652
 20
230.81822
 30
0.0
  0
VERTEX
  5
610
100
AcDbEntity
  8
LAY-9
  6
CONTINUOUS
 62
     1
100
AcDbVertex
100
AcDb2dVertex
 10
451.180054
 20
230.163117
 30
0.0
  0
VERTEX
  5
611
100
AcDbEntity
  8
LAY-9
  6
CONTINUOUS
 62
     1
100
AcDbVertex
100
AcDb2dVertex
 10
451.061735
 20
229.582026
 30
0.0
  0
VERTEX
  5
612
100
AcDbEntity
  8
LAY-9
  6
CONTINUOUS
 62
     1
100
AcDbVertex
100
AcDb2dVertex
 10
450.957633
 20
229.095057
 30
0.0
  0
VERTEX
  5
613
100
AcDbEntity
  8
LAY-9
  6
CONTINUOUS
 62
     1
100
AcDbVertex
100
AcDb2dVertex
 10
450.874684
 20
228.722322
 30
0.0
  0
VERTEX
  5
614
100
AcDbEntity
  8
LAY-9
  6
CONTINUOUS
 62
     1
100
AcDbVertex
100
AcDb2dVertex
 10
450.819827
 20
228.483932
 30
0.0
  0
VERTEX
  5
615
100
AcDbEntity
  8
LAY-9
  6
CONTINUOUS
 62
     1
100
AcDbVertex
100
AcDb2dVertex
 10
450.8
 20
228.4
 30
0.0
  0
SEQEND
  5
616
100
AcDbEntity
  8
LAY-9
  6
CONTINUOUS
 62
     1
  0
LINE
  5
617
100
AcDbEntity
  8
LAY-9
  6
CONTINUOUS
 62
     1
100
AcDbLine
 10
697.5
 20
248.500062
 30
0.0
 11
697.5
 21
240.500062
 31
0.0
  0
LINE
  5
618
100
AcDbEntity
  8
LAY-9
  6
CONTINUOUS
 62
     1
100
AcDbLine
 10
737.499992
 20
249.500062
 30
0.0
 11
699.450195
 21
249.500062
 31
0.0
  0
LINE
  5
619
100
AcDbEntity
  8
LAY-9
  6
CONTINUOUS
 62
     1
100
AcDbLine
 10
697.5
 20
239.500062
 30
0.0
 11
697.5
 21
249.500062
 31
0.0
  0
LINE
  5
61A
100
AcDbEntity
  8
LAY-9
  6
CONTINUOUS
 62
     1
100
AcDbLine
 10
697.5
 20
249.500062
 30
0.0
 11
699.450195
 21
249.500062
 31
0.0
  0
LINE
  5
61B
100
AcDbEntity
  8
LAY-9
  6
CONTINUOUS
 62
     1
100
AcDbLine
 10
733.050049
 20
249.500062
 30
0.0
 11
734.999756
 21
249.500062
 31
0.0
  0
LINE
  5
61C
100
AcDbEntity
  8
LAY-9
  6
CONTINUOUS
 62
     1
100
AcDbLine
 10
697.5
 20
239.500062
 30
0.0
 11
701.0
 21
239.500062
 31
0.0
  0
LINE
  5
61D
100
AcDbEntity
  8
LAY-9
  6
CONTINUOUS
 62
     1
100
AcDbLine
 10
740.499992
 20
254.000062
 30
0.0
 11
740.499992
 21
283.500062
 31
0.0
  0
LINE
  5
61E
100
AcDbEntity
  8
LAY-9
  6
CONTINUOUS
 62
     1
100
AcDbLine
 10
690.5
 20
239.500062
 30
0.0
 11
694.0
 21
239.500062
 31
0.0
  0
LINE
  5
61F
100
AcDbEntity
  8
LAY-9
  6
CONTINUOUS
 62
     1
100
AcDbLine
 10
694.0
 20
248.500062
 30
0.0
 11
691.650146
 21
248.500062
 31
0.0
  0
LINE
  5
620
100
AcDbEntity
  8
LAY-9
  6
CONTINUOUS
 62
     1
100
AcDbLine
 10
694.5
 20
254.500062
 30
0.0
 11
694.5
 21
267.500062
 31
0.0
  0
LINE
  5
621
100
AcDbEntity
  8
LAY-9
  6
CONTINUOUS
 62
     1
100
AcDbLine
 10
738.85009
 20
258.200013
 30
0.0
 11
738.85009
 21
267.499818
 31
0.0
  0
LINE
  5
622
100
AcDbEntity
  8
LAY-9
  6
CONTINUOUS
 62
     1
100
AcDbLine
 10
691.650146
 20
248.500062
 30
0.0
 11
691.650146
 21
253.500062
 31
0.0
  0
LINE
  5
623
100
AcDbEntity
  8
LAY-9
  6
CONTINUOUS
 62
     1
100
AcDbLine
 10
693.5
 20
253.500062
 30
0.0
 11
691.650146
 21
253.500062
 31
0.0
  0
LINE
  5
624
100
AcDbEntity
  8
LAY-9
  6
CONTINUOUS
 62
     1
100
AcDbLine
 10
694.5
 20
240.000062
 30
0.0
 11
694.5
 21
241.549867
 31
0.0
  0
LINE
  5
625
100
AcDbEntity
  8
LAY-9
  6
CONTINUOUS
 62
     1
100
AcDbLine
 10
735.5
 20
254.500062
 30
0.0
 11
735.5
 21
256.199769
 31
0.0
  0
LINE
  5
626
100
AcDbEntity
  8
LAY-9
  6
CONTINUOUS
 62
     1
100
AcDbLine
 10
738.85009
 20
258.200013
 30
0.0
 11
737.499992
 21
258.200013
 31
0.0
  0
LINE
  5
627
100
AcDbEntity
  8
LAY-9
  6
CONTINUOUS
 62
     1
100
AcDbLine
 10
739.999992
 20
253.500062
 30
0.0
 11
738.950188
 21
253.500062
 31
0.0
  0
LINE
  5
628
100
AcDbEntity
  8
LAY-9
  6
CONTINUOUS
 62
     1
100
AcDbLine
 10
735.0
 20
283.500062
 30
0.0
 11
737.299797
 21
283.500062
 31
0.0
  0
LINE
  5
629
100
AcDbEntity
  8
LAY-9
  6
CONTINUOUS
 62
     1
100
AcDbLine
 10
694.5
 20
267.500062
 30
0.0
 11
729.299805
 21
267.500062
 31
0.0
  0
LINE
  5
62A
100
AcDbEntity
  8
LAY-9
  6
CONTINUOUS
 62
     1
100
AcDbLine
 10
680.999863
 20
254.949861
 30
0.0
 11
680.799896
 21
255.149812
 31
0.0
  0
LINE
  5
62B
100
AcDbEntity
  8
LAY-9
  6
CONTINUOUS
 62
     1
100
AcDbLine
 10
681.200089
 20
255.149842
 30
0.0
 11
680.999893
 21
254.949891
 31
0.0
  0
ARC
  5
62C
100
AcDbEntity
  8
LAY-9
  6
CONTINUOUS
 62
     1
100
AcDbCircle
 10
693.5
 20
254.500062
 30
0.0
 40
1.0
100
AcDbArc
 50
269.999982
 51
359.999964
  0
ARC
  5
62D
100
AcDbEntity
  8
LAY-9
  6
CONTINUOUS
 62
     1
100
AcDbCircle
 10
694.0
 20
248.000062
 30
0.0
 40
0.5
100
AcDbArc
 50
359.999981
 51
90.000018
  0
ARC
  5
62E
100
AcDbEntity
  8
LAY-9
  6
CONTINUOUS
 62
     1
100
AcDbCircle
 10
694.0
 20
240.000062
 30
0.0
 40
0.5
100
AcDbArc
 50
269.999982
 51
359.999964
  0
ARC
  5
62F
100
AcDbEntity
  8
LAY-9
  6
CONTINUOUS
 62
     1
100
AcDbCircle
 10
690.5
 20
240.000062
 30
0.0
 40
0.5
100
AcDbArc
 50
180.0
 51
269.999982
  0
ARC
  5
630
100
AcDbEntity
  8
LAY-9
  6
CONTINUOUS
 62
     1
100
AcDbCircle
 10
737.499992
 20
256.200013
 30
0.0
 40
2.0
100
AcDbArc
 50
90.000018
 51
180.0
  0
ARC
  5
631
100
AcDbEntity
  8
LAY-9
  6
CONTINUOUS
 62
     1
100
AcDbCircle
 10
736.5
 20
254.500062
 30
0.0
 40
1.0
100
AcDbArc
 50
180.0
 51
269.999982
  0
ARC
  5
632
100
AcDbEntity
  8
LAY-9
  6
CONTINUOUS
 62
     1
100
AcDbCircle
 10
739.999992
 20
254.000062
 30
0.0
 40
0.5
100
AcDbArc
 50
269.999982
 51
359.999964
  0
LINE
  5
633
100
AcDbEntity
  8
LAY-9
  6
CONTINUOUS
 62
     1
100
AcDbLine
 10
701.0
 20
150.000184
 30
0.0
 11
701.0
 21
140.500138
 31
0.0
  0
LINE
  5
634
100
AcDbEntity
  8
LAY-9
  6
CONTINUOUS
 62
     1
100
AcDbLine
 10
737.499992
 20
249.500062
 30
0.0
 11
737.499992
 21
180.678041
 31
0.0
  0
LINE
  5
635
100
AcDbEntity
  8
LAY-9
  6
CONTINUOUS
 62
     1
100
AcDbLine
 10
690.0
 20
242.484437
 30
0.0
 11
690.0
 21
240.000062
 31
0.0
  0
LINE
  5
636
100
AcDbEntity
  8
LAY-9
  6
CONTINUOUS
 62
     1
100
AcDbLine
 10
701.0
 20
198.000062
 30
0.0
 11
701.0
 21
239.500062
 31
0.0
  0
LINE
  5
637
100
AcDbEntity
  8
LAY-9
  6
CONTINUOUS
 62
     1
100
AcDbLine
 10
701.0
 20
149.500184
 30
0.0
 11
701.0
 21
162.169935
 31
0.0
  0
LINE
  5
638
100
AcDbEntity
  8
LAY-9
  6
CONTINUOUS
 62
     1
100
AcDbLine
 10
690.0
 20
253.500062
 30
0.0
 11
690.0
 21
240.500062
 31
0.0
  0
LINE
  5
639
100
AcDbEntity
  8
LAY-9
  6
CONTINUOUS
 62
     1
100
AcDbLine
 10
690.0
 20
240.000062
 30
0.0
 11
690.0
 21
246.06
 31
0.0
  0
LINE
  5
63A
100
AcDbEntity
  8
LAY-9
  6
CONTINUOUS
 62
     1
100
AcDbLine
 10
690.0
 20
253.500062
 30
0.0
 11
687.0
 21
253.500062
 31
0.0
  0
LINE
  5
63B
100
AcDbEntity
  8
LAY-9
  6
CONTINUOUS
 62
     1
100
AcDbLine
 10
670.5
 20
253.500062
 30
0.0
 11
670.5
 21
268.500062
 31
0.0
  0
LINE
  5
63C
100
AcDbEntity
  8
LAY-9
  6
DASHED2
 62
     1
100
AcDbLine
 10
672.150146
 20
257.750062
 30
0.0
 11
686.999756
 21
257.750062
 31
0.0
  0
LINE
  5
63D
100
AcDbEntity
  8
LAY-9
  6
DASHED2
 62
     1
100
AcDbLine
 10
672.150146
 20
255.149964
 30
0.0
 11
680.799805
 21
255.149964
 31
0.0
  0
LINE
  5
63E
100
AcDbEntity
  8
LAY-9
  6
DASHED2
 62
     1
100
AcDbLine
 10
687.0
 20
255.149964
 30
0.0
 11
680.64
 21
255.149964
 31
0.0
  0
LINE
  5
63F
100
AcDbEntity
  8
LAY-9
  6
DASHED2
 62
     1
100
AcDbLine
 10
687.0
 20
257.750062
 30
0.0
 11
687.0
 21
255.149964
 31
0.0
  0
LINE
  5
640
100
AcDbEntity
  8
LAY-9
  6
DASHED2
 62
     1
100
AcDbLine
 10
672.150146
 20
257.750062
 30
0.0
 11
672.150146
 21
255.149964
 31
0.0
  0
LINE
  5
641
100
AcDbEntity
  8
LAY-9
  6
CONTINUOUS
 62
     1
100
AcDbLine
 10
670.5
 20
268.500062
 30
0.0
 11
670.5
 21
253.500062
 31
0.0
  0
LINE
  5
642
100
AcDbEntity
  8
LAY-9
  6
CONTINUOUS
 62
     1
100
AcDbLine
 10
737.2
 20
283.500062
 30
0.0
 11
740.499992
 21
283.500062
 31
0.0
  0
LINE
  5
643
100
AcDbEntity
  8
LAY-9
  6
CONTINUOUS
 62
     1
100
AcDbLine
 10
729.1
 20
267.500062
 30
0.0
 11
738.849846
 21
267.500062
 31
0.0
  0
LINE
  5
644
100
AcDbEntity
  8
LAY-9
  6
CONTINUOUS
 62
     1
100
AcDbLine
 10
736.4
 20
253.500062
 30
0.0
 11
739.999992
 21
253.500062
 31
0.0
  0
LINE
  5
645
100
AcDbEntity
  8
LAY-9
  6
CONTINUOUS
 62
     1
100
AcDbLine
 10
694.5
 20
248.000062
 30
0.0
 11
694.5
 21
241.3
 31
0.0
  0
LINE
  5
646
100
AcDbEntity
  8
LAY-9
  6
DIVIDE
 62
     1
100
AcDbLine
 10
741.6
 20
122.9
 30
0.0
 11
694.2
 21
122.9
 31
0.0
  0
LINE
  5
647
100
AcDbEntity
  8
LAY-9
  6
CONTINUOUS
 62
     1
100
AcDbLine
 10
737.499992
 20
182.269914
 30
0.0
 11
737.499992
 21
122.9
 31
0.0
  0
LINE
  5
648
100
AcDbEntity
  8
LAY-9
  6
CONTINUOUS
 62
     1
100
AcDbLine
 10
580.5
 20
268.500062
 30
0.0
 11
580.5
 21
281.5
 31
0.0
  0
LINE
  5
649
100
AcDbEntity
  8
LAY-9
  6
CONTINUOUS
 62
     1
100
AcDbLine
 10
670.5
 20
268.500062
 30
0.0
 11
580.5
 21
268.500062
 31
0.0
  0
LINE
  5
64A
100
AcDbEntity
  8
LAY-9
  6
DASHED2
 62
     1
100
AcDbLine
 10
701.0
 20
211.500062
 30
0.0
 11
705.8
 21
211.500062
 31
0.0
  0
LINE
  5
64B
100
AcDbEntity
  8
LAY-9
  6
DASHED2
 62
     1
100
AcDbLine
 10
705.8
 20
211.500062
 30
0.0
 11
705.8
 21
151.500062
 31
0.0
  0
LINE
  5
64C
100
AcDbEntity
  8
LAY-9
  6
DASHED2
 62
     1
100
AcDbLine
 10
701.0
 20
151.500062
 30
0.0
 11
705.8
 21
151.500062
 31
0.0
  0
LINE
  5
64D
100
AcDbEntity
  8
LAY-9
  6
DASHED2
 62
     1
100
AcDbLine
 10
204.000031
 20
456.3
 30
0.0
 11
404.000031
 21
456.3
 31
0.0
  0
LINE
  5
64E
100
AcDbEntity
  8
LAY-9
  6
DASHED2
 62
     1
100
AcDbLine
 10
404.000031
 20
451.5
 30
0.0
 11
404.000031
 21
456.3
 31
0.0
  0
LINE
  5
64F
100
AcDbEntity
  8
LAY-9
  6
DASHED2
 62
     1
100
AcDbLine
 10
204.000031
 20
451.5
 30
0.0
 11
204.000031
 21
456.3
 31
0.0
  0
LINE
  5
650
100
AcDbEntity
  8
LAY-9
  6
DIVIDE
 62
     1
100
AcDbLine
 10
463.7
 20
496.5
 30
0.0
 11
463.7
 21
329.1
 31
0.0
  0
LINE
  5
651
100
AcDbEntity
  8
LAY-9
  6
CONTINUOUS
 62
     1
100
AcDbLine
 10
463.7
 20
485.5
 30
0.0
 11
193.0
 21
485.5
 31
0.0
  0
LINE
  5
652
100
AcDbEntity
  8
LAY-9
  6
CONTINUOUS
 62
     1
100
AcDbLine
 10
397.0
 20
451.5
 30
0.0
 11
463.7
 21
451.5
 31
0.0
  0
LINE
  5
653
100
AcDbEntity
  8
LAY-9
  6
CONTINUOUS
 62
     1
100
AcDbLine
 10
54.0
 20
376.0
 30
0.0
 11
463.7
 21
376.0
 31
0.0
  0
LINE
  5
654
100
AcDbEntity
  8
LAY-9
  6
CONTINUOUS
 62
     1
100
AcDbLine
 10
463.7
 20
336.0
 30
0.0
 11
46.0
 21
336.0
 31
0.0
  0
LINE
  5
655
100
AcDbEntity
  8
LAY-10
  6
CONTINUOUS
 62
     5
100
AcDbLine
 10
15.0
 20
15.0
 30
0.0
 11
826.0
 21
15.0
 31
0.0
  0
LINE
  5
656
100
AcDbEntity
  8
LAY-10
  6
CONTINUOUS
 62
     5
100
AcDbLine
 10
826.0
 20
15.0
 30
0.0
 11
826.0
 21
579.0
 31
0.0
  0
LINE
  5
657
100
AcDbEntity
  8
LAY-10
  6
CONTINUOUS
 62
     5
100
AcDbLine
 10
15.0
 20
15.0
 30
0.0
 11
15.0
 21
579.0
 31
0.0
  0
LINE
  5
658
100
AcDbEntity
  8
LAY-10
  6
CONTINUOUS
 62
     5
100
AcDbLine
 10
15.0
 20
579.0
 30
0.0
 11
826.0
 21
579.0
 31
0.0
  0
LINE
  5
659
100
AcDbEntity
  8
LAY-10
  6
CONTINUOUS
 62
     5
100
AcDbLine
 10
15.0
 20
40.0
 30
0.0
 11
826.0
 21
40.0
 31
0.0
  0
LINE
  5
65A
100
AcDbEntity
  8
LAY-10
  6
CONTINUOUS
 62
     1
100
AcDbLine
 10
224.0
 20
40.0
 30
0.0
 11
224.0
 21
15.0
 31
0.0
  0
LINE
  5
65B
100
AcDbEntity
  8
LAY-10
  6
CONTINUOUS
 62
     1
100
AcDbLine
 10
249.5
 20
40.0
 30
0.0
 11
249.5
 21
15.0
 31
0.0
  0
LINE
  5
65C
100
AcDbEntity
  8
LAY-10
  6
CONTINUOUS
 62
     1
100
AcDbLine
 10
275.0
 20
40.0
 30
0.0
 11
275.0
 21
15.0
 31
0.0
  0
LINE
  5
65D
100
AcDbEntity
  8
LAY-10
  6
CONTINUOUS
 62
     1
100
AcDbLine
 10
300.5
 20
40.0
 30
0.0
 11
300.5
 21
15.0
 31
0.0
  0
LINE
  5
65E
100
AcDbEntity
  8
LAY-10
  6
CONTINUOUS
 62
     1
100
AcDbLine
 10
326.0
 20
40.0
 30
0.0
 11
326.0
 21
15.0
 31
0.0
  0
LINE
  5
65F
100
AcDbEntity
  8
LAY-10
  6
CONTINUOUS
 62
     1
100
AcDbLine
 10
377.0
 20
40.0
 30
0.0
 11
377.0
 21
15.0
 31
0.0
  0
LINE
  5
660
100
AcDbEntity
  8
LAY-10
  6
CONTINUOUS
 62
     1
100
AcDbLine
 10
738.0
 20
40.0
 30
0.0
 11
738.0
 21
15.0
 31
0.0
  0
LINE
  5
661
100
AcDbEntity
  8
LAY-10
  6
CONTINUOUS
 62
     1
100
AcDbLine
 10
224.0
 20
32.0
 30
0.0
 11
377.0
 21
32.0
 31
0.0
  0
TEXT
  5
662
100
AcDbEntity
  8
LAY-10
  6
CONTINUOUS
 62
     4
100
AcDbText
 10
227.5
 20
33.0
 30
0.0
 40
6.0
  1
検　  図
 41
0.57856
  7
EXCADSTD
 72
     5
 11
246.700001
 21
33.0
 31
0.0
100
AcDbText
  0
TEXT
  5
663
100
AcDbEntity
  8
LAY-10
  6
CONTINUOUS
 62
     4
100
AcDbText
 10
253.2
 20
33.0
 30
0.0
 40
6.0
  1
担　　当
 41
0.672
  7
EXCADSTD
 72
     5
 11
272.400001
 21
33.0
 31
0.0
100
AcDbText
  0
TEXT
  5
664
100
AcDbEntity
  8
LAY-10
  6
CONTINUOUS
 62
     4
100
AcDbText
 10
278.4
 20
33.0
 30
0.0
 40
6.0
  1
製　　図
 41
0.672
  7
EXCADSTD
 72
     5
 11
297.600001
 21
33.0
 31
0.0
100
AcDbText
  0
TEXT
  5
665
100
AcDbEntity
  8
LAY-10
  6
CONTINUOUS
 62
     4
100
AcDbText
 10
303.9
 20
33.0
 30
0.0
 40
6.0
  1
尺　　度
 41
0.672
  7
EXCADSTD
 72
     5
 11
323.100001
 21
33.0
 31
0.0
100
AcDbText
  0
TEXT
  5
666
100
AcDbEntity
  8
LAY-10
  6
CONTINUOUS
 62
     4
100
AcDbText
 10
339.5
 20
33.0
 30
0.0
 40
6.0
  1
作成年月日
 41
0.672
  7
EXCADSTD
 72
     5
 11
363.500001
 21
33.0
 31
0.0
100
AcDbText
  0
TEXT
  5
667
100
AcDbEntity
  8
LAY-10
  6
CONTINUOUS
 62
   134
100
AcDbText
 10
42.98
 20
20.91
 30
0.0
 40
13.0
  1
日本ドアーチエック製造株式会社
 41
0.653908
  7
EXCADSTD
 72
     5
 11
194.779994
 21
20.91
 31
0.0
100
AcDbText
  0
LINE
  5
668
100
AcDbEntity
  8
LAY-10
  6
CONTINUOUS
 62
     1
100
AcDbLine
 10
841.0
 20
0.0
 30
0.0
 11
841.0
 21
2.0
 31
0.0
  0
LINE
  5
669
100
AcDbEntity
  8
LAY-10
  6
CONTINUOUS
 62
     1
100
AcDbLine
 10
841.0
 20
592.0
 30
0.0
 11
841.0
 21
594.0
 31
0.0
  0
LINE
  5
66A
100
AcDbEntity
  8
LAY-10
  6
CONTINUOUS
 62
     1
100
AcDbLine
 10
841.0
 20
594.0
 30
0.0
 11
839.0
 21
594.0
 31
0.0
  0
LINE
  5
66B
100
AcDbEntity
  8
LAY-10
  6
CONTINUOUS
 62
     1
100
AcDbLine
 10
2.0
 20
594.0
 30
0.0
 11
0.0
 21
594.0
 31
0.0
  0
LINE
  5
66C
100
AcDbEntity
  8
LAY-10
  6
CONTINUOUS
 62
     1
100
AcDbLine
 10
0.0
 20
594.0
 30
0.0
 11
0.0
 21
592.0
 31
0.0
  0
LINE
  5
66D
100
AcDbEntity
  8
LAY-10
  6
CONTINUOUS
 62
     1
100
AcDbLine
 10
0.0
 20
2.0
 30
0.0
 11
0.0
 21
0.0
 31
0.0
  0
LINE
  5
66E
100
AcDbEntity
  8
LAY-10
  6
CONTINUOUS
 62
     1
100
AcDbLine
 10
0.0
 20
0.0
 30
0.0
 11
2.0
 21
0.0
 31
0.0
  0
LINE
  5
66F
100
AcDbEntity
  8
LAY-10
  6
CONTINUOUS
 62
     1
100
AcDbLine
 10
839.0
 20
0.0
 30
0.0
 11
841.0
 21
0.0
 31
0.0
  0
TEXT
  5
670
100
AcDbEntity
  8
LAY-10
  6
CONTINUOUS
 62
     4
100
AcDbText
 10
383.0
 20
33.0
 30
0.0
 40
6.0
  1
図 面 名
 41
0.57856
  7
EXCADSTD
 72
     5
 11
402.200001
 21
33.0
 31
0.0
100
AcDbText
  0
TEXT
  5
671
100
AcDbEntity
  8
LAY-10
  6
CONTINUOUS
 62
     4
100
AcDbText
 10
744.0
 20
33.0
 30
0.0
 40
6.0
  1
図面番号
 41
0.672
  7
EXCADSTD
 72
     5
 11
763.200001
 21
33.0
 31
0.0
100
AcDbText
  0
TEXT
  5
672
100
AcDbEntity
  8
LAY-10
  6
CONTINUOUS
 62
     2
100
AcDbText
 10
306.5
 20
20.2
 30
0.0
 40
6.0
  1
１／１
 41
0.672
  7
EXCADSTD
 72
     5
 11
320.900001
 21
20.2
 31
0.0
100
AcDbText
  0
TEXT
  5
673
100
AcDbEntity
  8
LAY-10
  6
CONTINUOUS
 62
     2
100
AcDbText
 10
406.828367
 20
19.274519
 30
0.0
 40
10.0
  1
ドアクローザ　ＰＳ－３００１ＺＡＭ/ＰＳ－３００２ＺＡＭ　納まり図
 41
0.665638
  7
EXCADSTD
 72
     5
 11
666.828367
 21
19.274519
 31
0.0
100
AcDbText
  0
ENDSEC
  0
SECTION
  2
OBJECTS
  0
DICTIONARY
  5
19
100
AcDbDictionary
  3
ACAD_GROUP
350
1A
  3
ACAD_MLINESTYLE
350
1B
  0
DICTIONARY
  5
1A
102
{ACAD_REACTORS
330
19
102
}
100
AcDbDictionary
  0
DICTIONARY
  5
1B
102
{ACAD_REACTORS
330
19
102
}
100
AcDbDictionary
  3
STANDARD
350
1C
  0
MLINESTYLE
  5
1C
102
{ACAD_REACTORS
330
1B
102
}
100
AcDbMlineStyle
  2
Standard
 70
     0
  3

 62
     0
 51
90.0
 52
90.0
 71
     2
 49
0.5
 62
   256
  6
ByLayer
 49
-0.5
 62
   256
  6
ByLayer
  0
ENDSEC
  0
EOF
