  0
SECTION
  2
HEADER
  9
$ACADVER
  1
AC1014
  9
$ACADMAINTVER
 70
     0
  9
$DWGCODEPAGE
  3
ANSI_932
  9
$INSBASE
 10
0.0
 20
0.0
 30
0.0
  9
$EXTMIN
 10
0.0
 20
0.0
 30
0.0
  9
$EXTMAX
 10
841.0
 20
594.0
 30
0.0
  9
$LIMMIN
 10
0.0
 20
0.0
  9
$LIMMAX
 10
841.0
 20
594.0
  9
$ORTHOMODE
 70
     0
  9
$REGENMODE
 70
     1
  9
$FILLMODE
 70
     1
  9
$QTEXTMODE
 70
     0
  9
$MIRRTEXT
 70
     1
  9
$DRAGMODE
 70
     2
  9
$LTSCALE
 40
1.0
  9
$OSMODE
 70
     0
  9
$ATTMODE
 70
     1
  9
$TEXTSIZE
 40
0.2
  9
$TRACEWID
 40
0.05
  9
$TEXTSTYLE
  7
STANDARD
  9
$CLAYER
  8
LAY-1
  9
$CELTYPE
  6
CONTINUOUS
  9
$CECOLOR
 62
   256
  9
$CELTSCALE
 40
1.0
  9
$DELOBJ
 70
     1
  9
$DISPSILH
 70
     0
  9
$DIMSCALE
 40
1.0
  9
$DIMASZ
 40
0.18
  9
$DIMEXO
 40
0.0625
  9
$DIMDLI
 40
0.38
  9
$DIMRND
 40
0.0
  9
$DIMDLE
 40
0.0
  9
$DIMEXE
 40
0.18
  9
$DIMTP
 40
0.0
  9
$DIMTM
 40
0.0
  9
$DIMTXT
 40
0.18
  9
$DIMCEN
 40
0.09
  9
$DIMTSZ
 40
0.0
  9
$DIMTOL
 70
     0
  9
$DIMLIM
 70
     0
  9
$DIMTIH
 70
     1
  9
$DIMTOH
 70
     1
  9
$DIMSE1
 70
     0
  9
$DIMSE2
 70
     0
  9
$DIMTAD
 70
     0
  9
$DIMZIN
 70
     0
  9
$DIMBLK
  1

  9
$DIMASO
 70
     1
  9
$DIMSHO
 70
     1
  9
$DIMPOST
  1

  9
$DIMAPOST
  1

  9
$DIMALT
 70
     0
  9
$DIMALTD
 70
     2
  9
$DIMALTF
 40
25.4
  9
$DIMLFAC
 40
1.0
  9
$DIMTOFL
 70
     0
  9
$DIMTVP
 40
0.0
  9
$DIMTIX
 70
     0
  9
$DIMSOXD
 70
     0
  9
$DIMSAH
 70
     0
  9
$DIMBLK1
  1

  9
$DIMBLK2
  1

  9
$DIMSTYLE
  2
STANDARD
  9
$DIMCLRD
 70
     0
  9
$DIMCLRE
 70
     0
  9
$DIMCLRT
 70
     0
  9
$DIMTFAC
 40
1.0
  9
$DIMGAP
 40
0.09
  9
$DIMJUST
 70
     0
  9
$DIMSD1
 70
     0
  9
$DIMSD2
 70
     0
  9
$DIMTOLJ
 70
     1
  9
$DIMTZIN
 70
     0
  9
$DIMALTZ
 70
     0
  9
$DIMALTTZ
 70
     0
  9
$DIMFIT
 70
     3
  9
$DIMUPT
 70
     0
  9
$DIMUNIT
 70
     2
  9
$DIMDEC
 70
     4
  9
$DIMTDEC
 70
     4
  9
$DIMALTU
 70
     2
  9
$DIMALTTD
 70
     2
  9
$DIMTXSTY
  7
STANDARD
  9
$DIMAUNIT
 70
     0
  9
$LUNITS
 70
     2
  9
$LUPREC
 70
     4
  9
$SKETCHINC
 40
0.1
  9
$FILLETRAD
 40
0.0
  9
$AUNITS
 70
     0
  9
$AUPREC
 70
     0
  9
$MENU
  1
acad
  9
$ELEVATION
 40
0.0
  9
$PELEVATION
 40
0.0
  9
$THICKNESS
 40
0.0
  9
$LIMCHECK
 70
     0
  9
$BLIPMODE
 70
     1
  9
$CHAMFERA
 40
0.0
  9
$CHAMFERB
 40
0.0
  9
$CHAMFERC
 40
0.0
  9
$CHAMFERD
 40
0.0
  9
$SKPOLY
 70
     0
  9
$TDCREATE
 40
2454541.750299132
  9
$TDUPDATE
 40
2454541.750299132
  9
$TDINDWG
 40
0.0000000000
  9
$TDUSRTIMER
 40
0.0000000000
  9
$USRTIMER
 70
     1
  9
$ANGBASE
 50
0.0
  9
$ANGDIR
 70
     0
  9
$PDMODE
 70
     0
  9
$PDSIZE
 40
0.0
  9
$PLINEWID
 40
0.0
  9
$COORDS
 70
     1
  9
$SPLFRAME
 70
     0
  9
$SPLINETYPE
 70
     6
  9
$SPLINESEGS
 70
     8
  9
$ATTDIA
 70
     0
  9
$ATTREQ
 70
     1
  9
$HANDLING
 70
     1
  9
$HANDSEED
  5
618
  9
$SURFTAB1
 70
     6
  9
$SURFTAB2
 70
     6
  9
$SURFTYPE
 70
     6
  9
$SURFU
 70
     6
  9
$SURFV
 70
     6
  9
$UCSNAME
  2

  9
$UCSORG
 10
0.0
 20
0.0
 30
0.0
  9
$UCSXDIR
 10
1.0
 20
0.0
 30
0.0
  9
$UCSYDIR
 10
0.0
 20
1.0
 30
0.0
  9
$PUCSNAME
  2

  9
$PUCSORG
 10
0.0
 20
0.0
 30
0.0
  9
$PUCSXDIR
 10
1.0
 20
0.0
 30
0.0
  9
$PUCSYDIR
 10
0.0
 20
1.0
 30
0.0
  9
$USERI1
 70
     0
  9
$USERI2
 70
     0
  9
$USERI3
 70
     0
  9
$USERI4
 70
     0
  9
$USERI5
 70
     0
  9
$USERR1
 40
0.0
  9
$USERR2
 40
0.0
  9
$USERR3
 40
0.0
  9
$USERR4
 40
0.0
  9
$USERR5
 40
0.0
  9
$WORLDVIEW
 70
     1
  9
$SHADEDGE
 70
     3
  9
$SHADEDIF
 70
    70
  9
$TILEMODE
 70
     1
  9
$MAXACTVP
 70
    16
  9
$PINSBASE
 10
0.0
 20
0.0
 30
0.0
  9
$PLIMCHECK
 70
     0
  9
$PEXTMIN
 10
1.000000E+20
 20
1.000000E+20
 30
1.000000E+20
  9
$PEXTMAX
 10
-1.000000E+20
 20
-1.000000E+20
 30
-1.000000E+20
  9
$PLIMMIN
 10
0.0
 20
0.0
  9
$PLIMMAX
 10
12.0
 20
9.0
  9
$UNITMODE
 70
     0
  9
$VISRETAIN
 70
     0
  9
$PLINEGEN
 70
     1
  9
$PSLTSCALE
 70
     0
  9
$TREEDEPTH
 70
  3020
  9
$PICKSTYLE
 70
     1
  9
$CMLSTYLE
  2
Standard
  9
$CMLJUST
 70
     0
  9
$CMLSCALE
 40
1.0
  9
$PROXYGRAPHICS
 70
     0
  9
$MEASUREMENT
 70
     0
  0
ENDSEC
  0
SECTION
  2
CLASSES
  0
CLASS
  1
LWPOLYLINE
  2
AcDbPolyline
  3
"AutoCAD"
 90
        0
280
     0
281
     1
  0
CLASS
  1
IMAGE
  2
AcDbRasterImage
  3
ISM
 90
      127
280
     0
281
     1
  0
CLASS
  1
OLE2FRAME
  2
AcDbOle2Frame
  3
""
 90
        0
280
     0
281
     1
  0
CLASS
  1
HATCH
  2
AcDbHatch
  3
"ACAD_SEDONA"
 90
        0
280
     0
281
     1
  0
CLASS
  1
DICTIONARYVAR
  2
AcDbDictionaryVar
  3
"AutoCAD"
 90
        0
280
     0
281
     0
  0
CLASS
  1
RASTERVARIABLES
  2
AcDbRasterVariables
  3
ISM
 90
        0
280
     0
281
     0
  0
CLASS
  1
IMAGEDEF
  2
AcDbRasterImageDef
  3
ISM
 90
        0
280
     0
281
     0
  0
CLASS
  1
IMAGEDEF_REACTOR
  2
AcDbRasterImageDefReactor
  3
ISM
 90
        1
280
     0
281
     0
  0
CLASS
  1
IDBUFFER
  2
AcDbIdBuffer
  3
"Acad"
 90
        0
280
     0
281
     0
  0
CLASS
  1
SPATIAL_FILTER
  2
AcDbSpatialFilter
  3
"Acad"
 90
        0
280
     0
281
     0
  0
CLASS
  1
XRECORD
  2
AcDbXrecord
  3
"<Built In>"
 90
        0
280
     0
281
     0
  0
CLASS
  1
SORTENTSTABLE
  2
AcDbSortentsTable
  3
"AutoCAD"
 90
        0
280
     0
281
     0
  0
CLASS
  1
LAYER_INDEX
  2
AcDbLayerIndex
  3
"Acad"
 90
        0
280
     0
281
     0
  0
CLASS
  1
SPATIAL_INDEX
  2
AcDbSpatialIndex
  3
"Acad"
 90
        0
280
     0
281
     0
  0
CLASS
  1
OBJECT_PTR
  2
CAseDLPNTableRecord
  3
"ASE-LPNTableRecord"
 90
        1
280
     0
281
     0
  0
CLASS
  1
LAYOUT
  2
AcDbLayout
  3
"AutoCAD 2000"
 90
        0
280
     0
281
     0
  0
CLASS
  1
PLOTSETTINGS
  2
AcDbPlotSettings
  3
"AutoCAD 2000"
 90
        0
280
     0
281
     0
  0
CLASS
  1
ACDBDICTIONARYWDFLT
  2
AcDbDictionaryWithDefault
  3
"AutoCAD 2000"
 90
        0
280
     0
281
     0
  0
CLASS
  1
ACDBPLACEHOLDER
  2
AcDbPlaceHolder
  3
"AutoCAD 2000"
 90
        0
280
     0
281
     0
  0
CLASS
  1
VBA_PROJECT
  2
AcDbVbaProject
  3
"acadvba"
 90
        0
280
     0
281
     0
  0
CLASS
  1
WIPEOUT
  2
AcDbWipeout
  3
WipeOut|AutoCAD Express Tool|expresstools@autodesk.com
 90
      127
280
     0
281
     1
  0
CLASS
  1
WIPEOUTVARIABLES
  2
AcDbWipeoutVariables
  3
WipeOut|AutoCAD Express Tool|expresstools@autodesk.com
 90
        0
280
     0
281
     0
  0
CLASS
  1
RTEXT
  2
RText
  3
RText|AutoCAD Express Tool|expresstools@autodesk.com
 90
        0
280
     0
281
     1
  0
CLASS
  1
ARCALIGNEDTEXT
  2
AcDbArcAlignedText
  3
ATEXT|AutoCAD Express Tool|expresstools@autodesk.com
 90
        0
280
     0
281
     1
  0
ENDSEC
  0
SECTION
  2
TABLES
  0
TABLE
  2
VPORT
  5
7
100
AcDbSymbolTable
 70
     1
  0
VPORT
  5
15
100
AcDbSymbolTableRecord
100
AcDbViewportTableRecord
  2
*ACTIVE
 70
     0
 10
0.0
 20
0.0
 11
1.0
 21
1.0
 12
420.5
 22
297.0
 13
0.0
 23
0.0
 14
1.0
 24
1.0
 15
0.0
 25
0.0
 16
0.0
 26
0.0
 36
1.0
 17
0.0
 27
0.0
 37
0.0
 40
594.0
 41
1.722533
 42
50.0
 43
0.0
 44
0.0
 50
0.0
 51
0.0
 71
     0
 72
   100
 73
     1
 74
     1
 75
     0
 76
     0
 77
     0
 78
     0
  0
ENDTAB
  0
TABLE
  2
LTYPE
  5
4
100
AcDbSymbolTable
 70
     9
  0
LTYPE
  5
11
100
AcDbSymbolTableRecord
100
AcDbLinetypeTableRecord
  2
BYBLOCK
 70
    64
  3

 72
    65
 73
     0
 40
0.0
  0
LTYPE
  5
12
100
AcDbSymbolTableRecord
100
AcDbLinetypeTableRecord
  2
BYLAYER
 70
    64
  3

 72
    65
 73
     0
 40
0.0
  0
LTYPE
  5
13
100
AcDbSymbolTableRecord
100
AcDbLinetypeTableRecord
  2
CONTINUOUS
 70
    64
  3
実線
 72
    65
 73
     0
 40
0.0
  0
LTYPE
  5
1D
100
AcDbSymbolTableRecord
100
AcDbLinetypeTableRecord
  2
DASHED
 70
    64
  3
Dashed __ __ __ __ __ __ __ __ __ __ __ __ __ _
 72
    65
 73
     2
 40
19.05
 49
12.7
 74
     0
 49
-6.35
 74
     0
  0
LTYPE
  5
1E
100
AcDbSymbolTableRecord
100
AcDbLinetypeTableRecord
  2
DASHED2
 70
    64
  3
Dashed (.5x) _ _ _ _ _ _ _ _ _ _ _ _ _ _ _ _ _ 
 72
    65
 73
     2
 40
9.525
 49
6.35
 74
     0
 49
-3.175
 74
     0
  0
LTYPE
  5
1F
100
AcDbSymbolTableRecord
100
AcDbLinetypeTableRecord
  2
DASHDOT
 70
    64
  3
Dash dot __ . __ . __ . __ . __ . __ . __ . __
 72
    65
 73
     4
 40
25.4
 49
12.7
 74
     0
 49
-6.35
 74
     0
 49
0.0
 74
     0
 49
-6.35
 74
     0
  0
LTYPE
  5
20
100
AcDbSymbolTableRecord
100
AcDbLinetypeTableRecord
  2
DIVIDE
 70
    64
  3
Divide ____ . . ____ . . ____ . . ____ . . ____
 72
    65
 73
     6
 40
31.75
 49
12.7
 74
     0
 49
-6.35
 74
     0
 49
0.0
 74
     0
 49
-6.35
 74
     0
 49
0.0
 74
     0
 49
-6.35
 74
     0
  0
LTYPE
  5
21
100
AcDbSymbolTableRecord
100
AcDbLinetypeTableRecord
  2
ACAD_ISO06W100
 70
    64
  3
ISO long-dash triple-dot ____ ... ____ ... ____
 72
    65
 73
     8
 40
36.0
 49
24.0
 74
     0
 49
-3.0
 74
     0
 49
0.0
 74
     0
 49
-3.0
 74
     0
 49
0.0
 74
     0
 49
-3.0
 74
     0
 49
0.0
 74
     0
 49
-3.0
 74
     0
  0
LTYPE
  5
22
100
AcDbSymbolTableRecord
100
AcDbLinetypeTableRecord
  2
ACAD_ISO15W100
 70
    64
  3
ISO double-dash triple-dot __ __ . . . __ __ . .
 72
    65
 73
    10
 40
39.0
 49
12.0
 74
     0
 49
-3.0
 74
     0
 49
12.0
 74
     0
 49
-3.0
 74
     0
 49
0.0
 74
     0
 49
-3.0
 74
     0
 49
0.0
 74
     0
 49
-3.0
 74
     0
 49
0.0
 74
     0
 49
-3.0
 74
     0
  0
ENDTAB
  0
TABLE
  2
LAYER
  5
2
100
AcDbSymbolTable
 70
     9
  0
LAYER
  5
14
100
AcDbSymbolTableRecord
100
AcDbLayerTableRecord
  2
0
 70
     0
 62
     7
  6
CONTINUOUS
  0
LAYER
  5
25
100
AcDbSymbolTableRecord
100
AcDbLayerTableRecord
  2
LAY-1
 70
    64
 62
     3
  6
CONTINUOUS
  0
LAYER
  5
26
100
AcDbSymbolTableRecord
100
AcDbLayerTableRecord
  2
LAY-2
 70
    64
 62
     3
  6
CONTINUOUS
  0
LAYER
  5
27
100
AcDbSymbolTableRecord
100
AcDbLayerTableRecord
  2
LAY-3
 70
    64
 62
     3
  6
CONTINUOUS
  0
LAYER
  5
28
100
AcDbSymbolTableRecord
100
AcDbLayerTableRecord
  2
LAY-4
 70
    64
 62
     3
  6
CONTINUOUS
  0
LAYER
  5
29
100
AcDbSymbolTableRecord
100
AcDbLayerTableRecord
  2
LAY-5
 70
    64
 62
     1
  6
DASHDOT
  0
LAYER
  5
2A
100
AcDbSymbolTableRecord
100
AcDbLayerTableRecord
  2
LAY-6
 70
    64
 62
     2
  6
CONTINUOUS
  0
LAYER
  5
2B
100
AcDbSymbolTableRecord
100
AcDbLayerTableRecord
  2
LAY-9
 70
    64
 62
     4
  6
CONTINUOUS
  0
LAYER
  5
2C
100
AcDbSymbolTableRecord
100
AcDbLayerTableRecord
  2
LAY-10
 70
    64
 62
     5
  6
CONTINUOUS
  0
ENDTAB
  0
TABLE
  2
STYLE
  5
3
100
AcDbSymbolTable
 70
     3
  0
STYLE
  5
17
100
AcDbSymbolTableRecord
100
AcDbTextStyleTableRecord
  2
STANDARD
 70
     0
 40
0.0
 41
1.0
 50
0.0
 71
     0
 42
0.0
  3
monotxt
  4
extfont
  0
STYLE
  5
23
100
AcDbSymbolTableRecord
100
AcDbTextStyleTableRecord
  2
EXCADSTD
 70
    64
 40
0.0
 41
1.0
 50
0.0
 71
     0
 42
0.2
  3
monotxt
  4
extfont
  0
STYLE
  5
24
100
AcDbSymbolTableRecord
100
AcDbTextStyleTableRecord
  2
EXCADVERT
 70
    68
 40
0.0
 41
1.0
 50
0.0
 71
     0
 42
0.286885
  3
monotxt
  4
extfont
  0
ENDTAB
  0
TABLE
  2
VIEW
  5
5
100
AcDbSymbolTable
 70
     0
  0
ENDTAB
  0
TABLE
  2
UCS
  5
6
100
AcDbSymbolTable
 70
     0
  0
ENDTAB
  0
TABLE
  2
APPID
  5
8
100
AcDbSymbolTable
 70
     1
  0
APPID
  5
16
100
AcDbSymbolTableRecord
100
AcDbRegAppTableRecord
  2
ACAD
 70
     0
  0
ENDTAB
  0
TABLE
  2
DIMSTYLE
  5
9
100
AcDbSymbolTable
 70
     1
  0
DIMSTYLE
105
18
100
AcDbSymbolTableRecord
100
AcDbDimStyleTableRecord
  2
STANDARD
 70
     0
  3

  4

  5

  6

  7

 40
1.0
 41
0.18
 42
0.0625
 43
0.38
 44
0.18
 45
0.0
 46
0.0
 47
0.0
 48
0.0
 71
     0
 72
     0
 73
     1
 74
     1
 75
     0
 76
     0
 77
     0
 78
     0
140
0.18
141
0.09
142
0.0
143
25.4
144
1.0
145
0.0
146
1.0
147
0.09
170
     0
171
     2
172
     1
173
     0
174
     0
175
     0
176
     0
177
     0
178
     0
270
     2
271
     4
272
     4
273
     2
274
     2
275
     0
280
     0
281
     0
282
     0
283
     1
284
     0
285
     0
286
     0
287
     3
288
     0
340
17
  0
ENDTAB
  0
TABLE
  2
BLOCK_RECORD
  5
1
100
AcDbSymbolTable
 70
    14
  0
BLOCK_RECORD
  5
A
100
AcDbSymbolTableRecord
100
AcDbBlockTableRecord
  2
*MODEL_SPACE
  0
BLOCK_RECORD
  5
B
100
AcDbSymbolTableRecord
100
AcDbBlockTableRecord
  2
*PAPER_SPACE
  0
BLOCK_RECORD
  5
2D
100
AcDbSymbolTableRecord
100
AcDbBlockTableRecord
  2
_EX_NORM
  0
BLOCK_RECORD
  5
2E
100
AcDbSymbolTableRecord
100
AcDbBlockTableRecord
  2
_EX_BNORM
  0
BLOCK_RECORD
  5
2F
100
AcDbSymbolTableRecord
100
AcDbBlockTableRecord
  2
_EX_BCIR
  0
BLOCK_RECORD
  5
30
100
AcDbSymbolTableRecord
100
AcDbBlockTableRecord
  2
_EX_RCIVIL
  0
BLOCK_RECORD
  5
31
100
AcDbSymbolTableRecord
100
AcDbBlockTableRecord
  2
_EX_SLANT
  0
BLOCK_RECORD
  5
32
100
AcDbSymbolTableRecord
100
AcDbBlockTableRecord
  2
_EX_NONE
  0
BLOCK_RECORD
  5
33
100
AcDbSymbolTableRecord
100
AcDbBlockTableRecord
  2
_EX_CIVIL
  0
BLOCK_RECORD
  5
34
100
AcDbSymbolTableRecord
100
AcDbBlockTableRecord
  2
_EX_WCIR
  0
BLOCK_RECORD
  5
35
100
AcDbSymbolTableRecord
100
AcDbBlockTableRecord
  2
_EX_WCIR2
  0
BLOCK_RECORD
  5
36
100
AcDbSymbolTableRecord
100
AcDbBlockTableRecord
  2
_EX_WNORM
  0
BLOCK_RECORD
  5
37
100
AcDbSymbolTableRecord
100
AcDbBlockTableRecord
  2
_EX_NNORM
  0
BLOCK_RECORD
  5
38
100
AcDbSymbolTableRecord
100
AcDbBlockTableRecord
  2
_EX_BBOX
  0
BLOCK_RECORD
  5
39
100
AcDbSymbolTableRecord
100
AcDbBlockTableRecord
  2
_EX_WBOX
  0
BLOCK_RECORD
  5
3A
100
AcDbSymbolTableRecord
100
AcDbBlockTableRecord
  2
_EX_INTEGRAL
  0
ENDTAB
  0
ENDSEC
  0
SECTION
  2
BLOCKS
  0
BLOCK
  5
D
100
AcDbEntity
  8
0
100
AcDbBlockBegin
  2
*MODEL_SPACE
 70
     0
 10
0.0
 20
0.0
 30
0.0
  3
*MODEL_SPACE
  1

  0
ENDBLK
  5
E
100
AcDbEntity
  8
0
100
AcDbBlockEnd
  0
BLOCK
  5
F
100
AcDbEntity
 67
     1
  8
0
100
AcDbBlockBegin
  2
*PAPER_SPACE
 70
     0
 10
0.0
 20
0.0
 30
0.0
  3
*PAPER_SPACE
  1

  0
ENDBLK
  5
10
100
AcDbEntity
 67
     1
  8
0
100
AcDbBlockEnd
  0
BLOCK
  5
3B
100
AcDbEntity
  8
0
100
AcDbBlockBegin
  2
_EX_NORM
 70
     0
 10
0.0
 20
0.0
 30
0.0
  3
_EX_NORM
  1

  0
LINE
  5
3C
100
AcDbEntity
  8
0
  6
CONTINUOUS
 62
     0
100
AcDbLine
 10
0.0
 20
0.0
 30
0.0
 11
-1.0
 21
0.0
 31
0.0
  0
LINE
  5
3D
100
AcDbEntity
  8
0
  6
CONTINUOUS
 62
     0
100
AcDbLine
 10
0.0
 20
0.0
 30
0.0
 11
-1.0
 21
0.166667
 31
0.0
  0
LINE
  5
3E
100
AcDbEntity
  8
0
  6
CONTINUOUS
 62
     0
100
AcDbLine
 10
0.0
 20
0.0
 30
0.0
 11
-1.0
 21
-0.166667
 31
0.0
  0
ENDBLK
  5
3F
100
AcDbEntity
  8
0
100
AcDbBlockEnd
  0
BLOCK
  5
40
100
AcDbEntity
  8
0
100
AcDbBlockBegin
  2
_EX_BNORM
 70
     0
 10
0.0
 20
0.0
 30
0.0
  3
_EX_BNORM
  1

  0
LINE
  5
41
100
AcDbEntity
  8
0
  6
CONTINUOUS
 62
     0
100
AcDbLine
 10
0.0
 20
0.0
 30
0.0
 11
-1.0
 21
0.0
 31
0.0
  0
LINE
  5
42
100
AcDbEntity
  8
0
  6
CONTINUOUS
 62
     0
100
AcDbLine
 10
0.0
 20
0.0
 30
0.0
 11
-1.0
 21
0.166667
 31
0.0
  0
LINE
  5
43
100
AcDbEntity
  8
0
  6
CONTINUOUS
 62
     0
100
AcDbLine
 10
0.0
 20
0.0
 30
0.0
 11
-1.0
 21
-0.166667
 31
0.0
  0
LINE
  5
44
100
AcDbEntity
  8
0
  6
CONTINUOUS
 62
     0
100
AcDbLine
 10
0.0
 20
0.0
 30
0.0
 11
-1.0
 21
0.083333
 31
0.0
  0
LINE
  5
45
100
AcDbEntity
  8
0
  6
CONTINUOUS
 62
     0
100
AcDbLine
 10
0.0
 20
0.0
 30
0.0
 11
-1.0
 21
-0.083333
 31
0.0
  0
LINE
  5
46
100
AcDbEntity
  8
0
  6
CONTINUOUS
 62
     0
100
AcDbLine
 10
-1.0
 20
0.166667
 30
0.0
 11
-1.0
 21
-0.166667
 31
0.0
  0
ENDBLK
  5
47
100
AcDbEntity
  8
0
100
AcDbBlockEnd
  0
BLOCK
  5
48
100
AcDbEntity
  8
0
100
AcDbBlockBegin
  2
_EX_BCIR
 70
     0
 10
0.0
 20
0.0
 30
0.0
  3
_EX_BCIR
  1

  0
LINE
  5
49
100
AcDbEntity
  8
0
  6
CONTINUOUS
 62
     0
100
AcDbLine
 10
0.0
 20
0.0
 30
0.0
 11
-1.0
 21
0.0
 31
0.0
  0
CIRCLE
  5
4A
100
AcDbEntity
  8
0
  6
CONTINUOUS
 62
     0
100
AcDbCircle
 10
0.0
 20
0.0
 30
0.0
 40
0.5
  0
CIRCLE
  5
4B
100
AcDbEntity
  8
0
  6
CONTINUOUS
 62
     0
100
AcDbCircle
 10
0.0
 20
0.0
 30
0.0
 40
0.25
  0
ENDBLK
  5
4C
100
AcDbEntity
  8
0
100
AcDbBlockEnd
  0
BLOCK
  5
4D
100
AcDbEntity
  8
0
100
AcDbBlockBegin
  2
_EX_RCIVIL
 70
     0
 10
0.0
 20
0.0
 30
0.0
  3
_EX_RCIVIL
  1

  0
LINE
  5
4E
100
AcDbEntity
  8
0
  6
CONTINUOUS
 62
     0
100
AcDbLine
 10
0.0
 20
0.0
 30
0.0
 11
-1.0
 21
0.0
 31
0.0
  0
LINE
  5
4F
100
AcDbEntity
  8
0
  6
CONTINUOUS
 62
     0
100
AcDbLine
 10
-1.0
 20
-0.25
 30
0.0
 11
0.0
 21
-0.25
 31
0.0
  0
LINE
  5
50
100
AcDbEntity
  8
0
  6
CONTINUOUS
 62
     0
100
AcDbLine
 10
-1.0
 20
-0.125
 30
0.0
 11
0.0
 21
-0.125
 31
0.0
  0
ENDBLK
  5
51
100
AcDbEntity
  8
0
100
AcDbBlockEnd
  0
BLOCK
  5
52
100
AcDbEntity
  8
0
100
AcDbBlockBegin
  2
_EX_SLANT
 70
     0
 10
0.0
 20
0.0
 30
0.0
  3
_EX_SLANT
  1

  0
LINE
  5
53
100
AcDbEntity
  8
0
  6
CONTINUOUS
 62
     0
100
AcDbLine
 10
0.0
 20
0.0
 30
0.0
 11
-1.0
 21
0.0
 31
0.0
  0
LINE
  5
54
100
AcDbEntity
  8
0
  6
CONTINUOUS
 62
     0
100
AcDbLine
 10
0.707107
 20
0.707107
 30
0.0
 11
-0.707107
 21
-0.707107
 31
0.0
  0
ENDBLK
  5
55
100
AcDbEntity
  8
0
100
AcDbBlockEnd
  0
BLOCK
  5
56
100
AcDbEntity
  8
0
100
AcDbBlockBegin
  2
_EX_NONE
 70
     0
 10
0.0
 20
0.0
 30
0.0
  3
_EX_NONE
  1

  0
LINE
  5
57
100
AcDbEntity
  8
0
  6
CONTINUOUS
 62
     0
100
AcDbLine
 10
0.0
 20
0.0
 30
0.0
 11
-1.0
 21
0.0
 31
0.0
  0
ENDBLK
  5
58
100
AcDbEntity
  8
0
100
AcDbBlockEnd
  0
BLOCK
  5
59
100
AcDbEntity
  8
0
100
AcDbBlockBegin
  2
_EX_CIVIL
 70
     0
 10
0.0
 20
0.0
 30
0.0
  3
_EX_CIVIL
  1

  0
LINE
  5
5A
100
AcDbEntity
  8
0
  6
CONTINUOUS
 62
     0
100
AcDbLine
 10
0.0
 20
0.0
 30
0.0
 11
-1.0
 21
0.0
 31
0.0
  0
LINE
  5
5B
100
AcDbEntity
  8
0
  6
CONTINUOUS
 62
     0
100
AcDbLine
 10
-1.0
 20
0.25
 30
0.0
 11
0.0
 21
0.25
 31
0.0
  0
LINE
  5
5C
100
AcDbEntity
  8
0
  6
CONTINUOUS
 62
     0
100
AcDbLine
 10
-1.0
 20
0.125
 30
0.0
 11
0.0
 21
0.125
 31
0.0
  0
ENDBLK
  5
5D
100
AcDbEntity
  8
0
100
AcDbBlockEnd
  0
BLOCK
  5
5E
100
AcDbEntity
  8
0
100
AcDbBlockBegin
  2
_EX_WCIR
 70
     0
 10
0.0
 20
0.0
 30
0.0
  3
_EX_WCIR
  1

  0
LINE
  5
5F
100
AcDbEntity
  8
0
  6
CONTINUOUS
 62
     0
100
AcDbLine
 10
0.0
 20
0.0
 30
0.0
 11
-1.0
 21
0.0
 31
0.0
  0
CIRCLE
  5
60
100
AcDbEntity
  8
0
  6
CONTINUOUS
 62
     0
100
AcDbCircle
 10
0.0
 20
0.0
 30
0.0
 40
0.5
  0
ENDBLK
  5
61
100
AcDbEntity
  8
0
100
AcDbBlockEnd
  0
BLOCK
  5
62
100
AcDbEntity
  8
0
100
AcDbBlockBegin
  2
_EX_WCIR2
 70
     0
 10
0.0
 20
0.0
 30
0.0
  3
_EX_WCIR2
  1

  0
LINE
  5
63
100
AcDbEntity
  8
0
  6
CONTINUOUS
 62
     0
100
AcDbLine
 10
-0.5
 20
0.0
 30
0.0
 11
-1.0
 21
0.0
 31
0.0
  0
CIRCLE
  5
64
100
AcDbEntity
  8
0
  6
CONTINUOUS
 62
     0
100
AcDbCircle
 10
0.0
 20
0.0
 30
0.0
 40
0.5
  0
ENDBLK
  5
65
100
AcDbEntity
  8
0
100
AcDbBlockEnd
  0
BLOCK
  5
66
100
AcDbEntity
  8
0
100
AcDbBlockBegin
  2
_EX_WNORM
 70
     0
 10
0.0
 20
0.0
 30
0.0
  3
_EX_WNORM
  1

  0
LINE
  5
67
100
AcDbEntity
  8
0
  6
CONTINUOUS
 62
     0
100
AcDbLine
 10
-1.0
 20
0.0
 30
0.0
 11
-1.0
 21
0.0
 31
0.0
  0
LINE
  5
68
100
AcDbEntity
  8
0
  6
CONTINUOUS
 62
     0
100
AcDbLine
 10
0.0
 20
0.0
 30
0.0
 11
-1.0
 21
0.166667
 31
0.0
  0
LINE
  5
69
100
AcDbEntity
  8
0
  6
CONTINUOUS
 62
     0
100
AcDbLine
 10
0.0
 20
0.0
 30
0.0
 11
-1.0
 21
-0.166667
 31
0.0
  0
LINE
  5
6A
100
AcDbEntity
  8
0
  6
CONTINUOUS
 62
     0
100
AcDbLine
 10
-1.0
 20
0.166667
 30
0.0
 11
-1.0
 21
-0.166667
 31
0.0
  0
ENDBLK
  5
6B
100
AcDbEntity
  8
0
100
AcDbBlockEnd
  0
BLOCK
  5
6C
100
AcDbEntity
  8
0
100
AcDbBlockBegin
  2
_EX_NNORM
 70
     0
 10
0.0
 20
0.0
 30
0.0
  3
_EX_NNORM
  1

  0
LINE
  5
6D
100
AcDbEntity
  8
0
  6
CONTINUOUS
 62
     0
100
AcDbLine
 10
0.0
 20
0.0
 30
0.0
 11
-1.0
 21
0.0
 31
0.0
  0
LINE
  5
6E
100
AcDbEntity
  8
0
  6
CONTINUOUS
 62
     0
100
AcDbLine
 10
0.0
 20
0.0
 30
0.0
 11
-1.0
 21
0.166667
 31
0.0
  0
LINE
  5
6F
100
AcDbEntity
  8
0
  6
CONTINUOUS
 62
     0
100
AcDbLine
 10
0.0
 20
0.0
 30
0.0
 11
-1.0
 21
-0.166667
 31
0.0
  0
LINE
  5
70
100
AcDbEntity
  8
0
  6
CONTINUOUS
 62
     0
100
AcDbLine
 10
-1.0
 20
0.166667
 30
0.0
 11
-1.0
 21
-0.166667
 31
0.0
  0
ENDBLK
  5
71
100
AcDbEntity
  8
0
100
AcDbBlockEnd
  0
BLOCK
  5
72
100
AcDbEntity
  8
0
100
AcDbBlockBegin
  2
_EX_BBOX
 70
     0
 10
0.0
 20
0.0
 30
0.0
  3
_EX_BBOX
  1

  0
LINE
  5
73
100
AcDbEntity
  8
0
  6
CONTINUOUS
 62
     0
100
AcDbLine
 10
0.0
 20
0.0
 30
0.0
 11
-1.0
 21
0.0
 31
0.0
  0
LINE
  5
74
100
AcDbEntity
  8
0
  6
CONTINUOUS
 62
     0
100
AcDbLine
 10
-0.5
 20
0.5
 30
0.0
 11
0.5
 21
0.5
 31
0.0
  0
LINE
  5
75
100
AcDbEntity
  8
0
  6
CONTINUOUS
 62
     0
100
AcDbLine
 10
0.5
 20
0.5
 30
0.0
 11
0.5
 21
-0.5
 31
0.0
  0
LINE
  5
76
100
AcDbEntity
  8
0
  6
CONTINUOUS
 62
     0
100
AcDbLine
 10
0.5
 20
-0.5
 30
0.0
 11
-0.5
 21
-0.5
 31
0.0
  0
LINE
  5
77
100
AcDbEntity
  8
0
  6
CONTINUOUS
 62
     0
100
AcDbLine
 10
-0.5
 20
-0.5
 30
0.0
 11
-0.5
 21
0.5
 31
0.0
  0
LINE
  5
78
100
AcDbEntity
  8
0
  6
CONTINUOUS
 62
     0
100
AcDbLine
 10
-0.25
 20
0.25
 30
0.0
 11
0.25
 21
0.25
 31
0.0
  0
LINE
  5
79
100
AcDbEntity
  8
0
  6
CONTINUOUS
 62
     0
100
AcDbLine
 10
0.25
 20
0.25
 30
0.0
 11
0.25
 21
-0.25
 31
0.0
  0
LINE
  5
7A
100
AcDbEntity
  8
0
  6
CONTINUOUS
 62
     0
100
AcDbLine
 10
0.25
 20
-0.25
 30
0.0
 11
-0.25
 21
-0.25
 31
0.0
  0
LINE
  5
7B
100
AcDbEntity
  8
0
  6
CONTINUOUS
 62
     0
100
AcDbLine
 10
-0.25
 20
-0.25
 30
0.0
 11
-0.25
 21
0.25
 31
0.0
  0
ENDBLK
  5
7C
100
AcDbEntity
  8
0
100
AcDbBlockEnd
  0
BLOCK
  5
7D
100
AcDbEntity
  8
0
100
AcDbBlockBegin
  2
_EX_WBOX
 70
     0
 10
0.0
 20
0.0
 30
0.0
  3
_EX_WBOX
  1

  0
LINE
  5
7E
100
AcDbEntity
  8
0
  6
CONTINUOUS
 62
     0
100
AcDbLine
 10
-0.5
 20
0.0
 30
0.0
 11
-1.0
 21
0.0
 31
0.0
  0
LINE
  5
7F
100
AcDbEntity
  8
0
  6
CONTINUOUS
 62
     0
100
AcDbLine
 10
-0.5
 20
0.5
 30
0.0
 11
0.5
 21
0.5
 31
0.0
  0
LINE
  5
80
100
AcDbEntity
  8
0
  6
CONTINUOUS
 62
     0
100
AcDbLine
 10
0.5
 20
0.5
 30
0.0
 11
0.5
 21
-0.5
 31
0.0
  0
LINE
  5
81
100
AcDbEntity
  8
0
  6
CONTINUOUS
 62
     0
100
AcDbLine
 10
0.5
 20
-0.5
 30
0.0
 11
-0.5
 21
-0.5
 31
0.0
  0
LINE
  5
82
100
AcDbEntity
  8
0
  6
CONTINUOUS
 62
     0
100
AcDbLine
 10
-0.5
 20
-0.5
 30
0.0
 11
-0.5
 21
0.5
 31
0.0
  0
ENDBLK
  5
83
100
AcDbEntity
  8
0
100
AcDbBlockEnd
  0
BLOCK
  5
84
100
AcDbEntity
  8
0
100
AcDbBlockBegin
  2
_EX_INTEGRAL
 70
     0
 10
0.0
 20
0.0
 30
0.0
  3
_EX_INTEGRAL
  1

  0
LINE
  5
85
100
AcDbEntity
  8
0
  6
CONTINUOUS
 62
     0
100
AcDbLine
 10
0.0
 20
0.0
 30
0.0
 11
-1.0
 21
0.0
 31
0.0
  0
ARC
  5
86
100
AcDbEntity
  8
0
  6
CONTINUOUS
 62
     0
100
AcDbCircle
 10
0.542115
 20
0.164992
 30
0.0
 40
0.56667
100
AcDbArc
 50
73.07249
 51
196.927513
  0
ARC
  5
87
100
AcDbEntity
  8
0
  6
CONTINUOUS
 62
     0
100
AcDbCircle
 10
-0.542115
 20
-0.164992
 30
0.0
 40
0.56667
100
AcDbArc
 50
253.072487
 51
16.927513
  0
ENDBLK
  5
88
100
AcDbEntity
  8
0
100
AcDbBlockEnd
  0
ENDSEC
  0
SECTION
  2
ENTITIES
  0
CIRCLE
  5
89
100
AcDbEntity
  8
LAY-1
  6
CONTINUOUS
 62
     3
100
AcDbCircle
 10
641.1
 20
157.4
 30
0.0
 40
16.200001
  0
LINE
  5
8A
100
AcDbEntity
  8
LAY-1
  6
CONTINUOUS
 62
     3
100
AcDbLine
 10
659.6
 20
133.4
 30
0.0
 11
659.6
 21
188.9
 31
0.0
  0
LINE
  5
8B
100
AcDbEntity
  8
LAY-1
  6
CONTINUOUS
 62
     3
100
AcDbLine
 10
622.6
 20
188.9
 30
0.0
 11
622.6
 21
133.4
 31
0.0
  0
CIRCLE
  5
8C
100
AcDbEntity
  8
LAY-1
  6
DASHED2
 62
     3
100
AcDbCircle
 10
629.100008
 20
174.4
 30
0.0
 40
3.5
  0
LINE
  5
8D
100
AcDbEntity
  8
LAY-1
  6
DASHED2
 62
     3
100
AcDbLine
 10
632.047716
 20
176.287054
 30
0.0
 11
630.160661
 21
174.4
 31
0.0
  0
LINE
  5
8E
100
AcDbEntity
  8
LAY-1
  6
DASHED2
 62
     3
100
AcDbLine
 10
630.160661
 20
174.4
 30
0.0
 11
632.047716
 21
172.512946
 31
0.0
  0
LINE
  5
8F
100
AcDbEntity
  8
LAY-1
  6
DASHED2
 62
     3
100
AcDbLine
 10
630.987062
 20
171.452277
 30
0.0
 11
629.100008
 21
173.339331
 31
0.0
  0
LINE
  5
90
100
AcDbEntity
  8
LAY-1
  6
DASHED2
 62
     3
100
AcDbLine
 10
629.100008
 20
173.339331
 30
0.0
 11
627.212953
 21
171.452277
 31
0.0
  0
LINE
  5
91
100
AcDbEntity
  8
LAY-1
  6
DASHED2
 62
     3
100
AcDbLine
 10
626.152284
 20
172.512946
 30
0.0
 11
628.039339
 21
174.4
 31
0.0
  0
LINE
  5
92
100
AcDbEntity
  8
LAY-1
  6
DASHED2
 62
     3
100
AcDbLine
 10
628.039339
 20
174.4
 30
0.0
 11
626.152284
 21
176.287054
 31
0.0
  0
LINE
  5
93
100
AcDbEntity
  8
LAY-1
  6
DASHED2
 62
     3
100
AcDbLine
 10
627.212953
 20
177.347723
 30
0.0
 11
629.100008
 21
175.460669
 31
0.0
  0
LINE
  5
94
100
AcDbEntity
  8
LAY-1
  6
DASHED2
 62
     3
100
AcDbLine
 10
629.100008
 20
175.460669
 30
0.0
 11
630.987062
 21
177.347723
 31
0.0
  0
CIRCLE
  5
95
100
AcDbEntity
  8
LAY-1
  6
DASHED2
 62
     3
100
AcDbCircle
 10
653.1
 20
174.4
 30
0.0
 40
3.5
  0
LINE
  5
96
100
AcDbEntity
  8
LAY-1
  6
DASHED2
 62
     3
100
AcDbLine
 10
656.047708
 20
176.287054
 30
0.0
 11
654.160654
 21
174.4
 31
0.0
  0
LINE
  5
97
100
AcDbEntity
  8
LAY-1
  6
DASHED2
 62
     3
100
AcDbLine
 10
654.160654
 20
174.4
 30
0.0
 11
656.047708
 21
172.512946
 31
0.0
  0
LINE
  5
98
100
AcDbEntity
  8
LAY-1
  6
DASHED2
 62
     3
100
AcDbLine
 10
654.987055
 20
171.452277
 30
0.0
 11
653.1
 21
173.339331
 31
0.0
  0
LINE
  5
99
100
AcDbEntity
  8
LAY-1
  6
DASHED2
 62
     3
100
AcDbLine
 10
653.1
 20
173.339331
 30
0.0
 11
651.212946
 21
171.452277
 31
0.0
  0
LINE
  5
9A
100
AcDbEntity
  8
LAY-1
  6
DASHED2
 62
     3
100
AcDbLine
 10
650.152277
 20
172.512946
 30
0.0
 11
652.039331
 21
174.4
 31
0.0
  0
LINE
  5
9B
100
AcDbEntity
  8
LAY-1
  6
DASHED2
 62
     3
100
AcDbLine
 10
652.039331
 20
174.4
 30
0.0
 11
650.152277
 21
176.287054
 31
0.0
  0
LINE
  5
9C
100
AcDbEntity
  8
LAY-1
  6
DASHED2
 62
     3
100
AcDbLine
 10
651.212946
 20
177.347723
 30
0.0
 11
653.1
 21
175.460669
 31
0.0
  0
LINE
  5
9D
100
AcDbEntity
  8
LAY-1
  6
DASHED2
 62
     3
100
AcDbLine
 10
653.1
 20
175.460669
 30
0.0
 11
654.987055
 21
177.347723
 31
0.0
  0
LINE
  5
9E
100
AcDbEntity
  8
LAY-1
  6
CONTINUOUS
 62
     3
100
AcDbLine
 10
369.7
 20
388.5
 30
0.0
 11
369.7
 21
425.50003
 31
0.0
  0
LINE
  5
9F
100
AcDbEntity
  8
LAY-1
  6
CONTINUOUS
 62
     3
100
AcDbLine
 10
181.7
 20
425.5
 30
0.0
 11
369.7
 21
425.5
 31
0.0
  0
LINE
  5
A0
100
AcDbEntity
  8
LAY-1
  6
CONTINUOUS
 62
     3
100
AcDbLine
 10
659.6
 20
145.9
 30
0.0
 11
659.6
 21
188.9
 31
0.0
  0
LINE
  5
A1
100
AcDbEntity
  8
LAY-1
  6
CONTINUOUS
 62
     3
100
AcDbLine
 10
241.35
 20
195.9
 30
0.0
 11
241.35
 21
188.9
 31
0.0
  0
LINE
  5
A2
100
AcDbEntity
  8
LAY-1
  6
CONTINUOUS
 62
     3
100
AcDbLine
 10
254.05
 20
195.9
 30
0.0
 11
254.05
 21
188.9
 31
0.0
  0
LINE
  5
A3
100
AcDbEntity
  8
LAY-1
  6
CONTINUOUS
 62
     3
100
AcDbLine
 10
241.35
 20
195.9
 30
0.0
 11
254.05
 21
195.9
 31
0.0
  0
LINE
  5
A4
100
AcDbEntity
  8
LAY-1
  6
CONTINUOUS
 62
     3
100
AcDbLine
 10
241.7
 20
196.4
 30
0.0
 11
241.35
 21
195.9
 31
0.0
  0
LINE
  5
A5
100
AcDbEntity
  8
LAY-1
  6
CONTINUOUS
 62
     3
100
AcDbLine
 10
253.7
 20
196.4
 30
0.0
 11
254.05
 21
195.9
 31
0.0
  0
LINE
  5
A6
100
AcDbEntity
  8
LAY-1
  6
CONTINUOUS
 62
     3
100
AcDbLine
 10
647.45
 20
195.9
 30
0.0
 11
647.45
 21
188.9
 31
0.0
  0
LINE
  5
A7
100
AcDbEntity
  8
LAY-1
  6
CONTINUOUS
 62
     3
100
AcDbLine
 10
634.75
 20
195.9
 30
0.0
 11
634.75
 21
188.9
 31
0.0
  0
LINE
  5
A8
100
AcDbEntity
  8
LAY-1
  6
CONTINUOUS
 62
     3
100
AcDbLine
 10
647.45
 20
195.9
 30
0.0
 11
634.75
 21
195.9
 31
0.0
  0
LINE
  5
A9
100
AcDbEntity
  8
LAY-1
  6
CONTINUOUS
 62
     3
100
AcDbLine
 10
647.1
 20
196.4
 30
0.0
 11
647.45
 21
195.9
 31
0.0
  0
LINE
  5
AA
100
AcDbEntity
  8
LAY-1
  6
CONTINUOUS
 62
     3
100
AcDbLine
 10
635.1
 20
196.4
 30
0.0
 11
634.75
 21
195.9
 31
0.0
  0
LINE
  5
AB
100
AcDbEntity
  8
LAY-1
  6
CONTINUOUS
 62
     3
100
AcDbLine
 10
245.14
 20
407.639992
 30
0.0
 11
245.14
 21
406.359992
 31
0.0
  0
LINE
  5
AC
100
AcDbEntity
  8
LAY-1
  6
CONTINUOUS
 62
     3
100
AcDbLine
 10
250.26
 20
407.639992
 30
0.0
 11
250.26
 21
406.359992
 31
0.0
  0
LINE
  5
AD
100
AcDbEntity
  8
LAY-1
  6
CONTINUOUS
 62
     3
100
AcDbLine
 10
247.06
 20
409.559992
 30
0.0
 11
248.34
 21
409.559992
 31
0.0
  0
LINE
  5
AE
100
AcDbEntity
  8
LAY-1
  6
CONTINUOUS
 62
     3
100
AcDbLine
 10
247.06
 20
404.439992
 30
0.0
 11
248.34
 21
404.439992
 31
0.0
  0
LINE
  5
AF
100
AcDbEntity
  8
LAY-1
  6
CONTINUOUS
 62
     3
100
AcDbLine
 10
245.14
 20
407.639992
 30
0.0
 11
246.1
 21
407.639992
 31
0.0
  0
LINE
  5
B0
100
AcDbEntity
  8
LAY-1
  6
CONTINUOUS
 62
     3
100
AcDbLine
 10
249.3
 20
407.639992
 30
0.0
 11
250.26
 21
407.639992
 31
0.0
  0
LINE
  5
B1
100
AcDbEntity
  8
LAY-1
  6
CONTINUOUS
 62
     3
100
AcDbLine
 10
248.34
 20
409.559992
 30
0.0
 11
248.34
 21
408.599992
 31
0.0
  0
LINE
  5
B2
100
AcDbEntity
  8
LAY-1
  6
CONTINUOUS
 62
     3
100
AcDbLine
 10
248.34
 20
405.399992
 30
0.0
 11
248.34
 21
404.439992
 31
0.0
  0
LINE
  5
B3
100
AcDbEntity
  8
LAY-1
  6
CONTINUOUS
 62
     3
100
AcDbLine
 10
245.14
 20
406.359992
 30
0.0
 11
246.1
 21
406.359992
 31
0.0
  0
LINE
  5
B4
100
AcDbEntity
  8
LAY-1
  6
CONTINUOUS
 62
     3
100
AcDbLine
 10
249.3
 20
406.359992
 30
0.0
 11
250.26
 21
406.359992
 31
0.0
  0
LINE
  5
B5
100
AcDbEntity
  8
LAY-1
  6
CONTINUOUS
 62
     3
100
AcDbLine
 10
247.06
 20
409.559992
 30
0.0
 11
247.06
 21
408.599992
 31
0.0
  0
LINE
  5
B6
100
AcDbEntity
  8
LAY-1
  6
CONTINUOUS
 62
     3
100
AcDbLine
 10
247.06
 20
405.399992
 30
0.0
 11
247.06
 21
404.439992
 31
0.0
  0
ARC
  5
B7
100
AcDbEntity
  8
LAY-1
  6
CONTINUOUS
 62
     3
100
AcDbCircle
 10
246.1
 20
408.599992
 30
0.0
 40
0.96
100
AcDbArc
 50
270.0
 51
0.0
  0
ARC
  5
B8
100
AcDbEntity
  8
LAY-1
  6
CONTINUOUS
 62
     3
100
AcDbCircle
 10
249.3
 20
408.599992
 30
0.0
 40
0.96
100
AcDbArc
 50
180.0
 51
270.0
  0
ARC
  5
B9
100
AcDbEntity
  8
LAY-1
  6
CONTINUOUS
 62
     3
100
AcDbCircle
 10
249.3
 20
405.399992
 30
0.0
 40
0.96
100
AcDbArc
 50
90.0
 51
180.0
  0
ARC
  5
BA
100
AcDbEntity
  8
LAY-1
  6
CONTINUOUS
 62
     3
100
AcDbCircle
 10
246.1
 20
405.399992
 30
0.0
 40
0.96
100
AcDbArc
 50
0.0
 51
90.0
  0
LINE
  5
BB
100
AcDbEntity
  8
LAY-1
  6
CONTINUOUS
 62
     3
100
AcDbLine
 10
181.7
 20
176.4
 30
0.0
 11
188.7
 21
174.4
 31
0.0
  0
LINE
  5
BC
100
AcDbEntity
  8
LAY-1
  6
CONTINUOUS
 62
     3
100
AcDbLine
 10
188.7
 20
174.4
 30
0.0
 11
181.7
 21
172.4
 31
0.0
  0
LINE
  5
BD
100
AcDbEntity
  8
LAY-1
  6
CONTINUOUS
 62
     1
100
AcDbLine
 10
187.875049
 20
174.164282
 30
0.0
 11
187.215075
 21
174.824256
 31
0.0
  0
LINE
  5
BE
100
AcDbEntity
  8
LAY-1
  6
CONTINUOUS
 62
     1
100
AcDbLine
 10
187.050097
 20
173.928565
 30
0.0
 11
185.730151
 21
175.248511
 31
0.0
  0
LINE
  5
BF
100
AcDbEntity
  8
LAY-1
  6
CONTINUOUS
 62
     1
100
AcDbLine
 10
186.225146
 20
173.692847
 30
0.0
 11
184.245227
 21
175.672797
 31
0.0
  0
LINE
  5
C0
100
AcDbEntity
  8
LAY-1
  6
CONTINUOUS
 62
     1
100
AcDbLine
 10
185.400195
 20
173.45716
 30
0.0
 11
182.760303
 21
176.097052
 31
0.0
  0
LINE
  5
C1
100
AcDbEntity
  8
LAY-1
  6
CONTINUOUS
 62
     1
100
AcDbLine
 10
184.575244
 20
173.221442
 30
0.0
 11
181.70003
 21
176.096686
 31
0.0
  0
LINE
  5
C2
100
AcDbEntity
  8
LAY-1
  6
CONTINUOUS
 62
     1
100
AcDbLine
 10
183.750293
 20
172.985724
 30
0.0
 11
181.70003
 21
175.036017
 31
0.0
  0
LINE
  5
C3
100
AcDbEntity
  8
LAY-1
  6
CONTINUOUS
 62
     1
100
AcDbLine
 10
182.925342
 20
172.750006
 30
0.0
 11
181.70003
 21
173.975348
 31
0.0
  0
LINE
  5
C4
100
AcDbEntity
  8
LAY-1
  6
CONTINUOUS
 62
     1
100
AcDbLine
 10
182.10039
 20
172.514319
 30
0.0
 11
181.70003
 21
172.914679
 31
0.0
  0
ARC
  5
C5
100
AcDbEntity
  8
LAY-1
  6
CONTINUOUS
 62
     3
100
AcDbCircle
 10
247.7
 20
406.999992
 30
0.0
 40
9.0
100
AcDbArc
 50
229.945179
 51
123.748989
  0
ARC
  5
C6
100
AcDbEntity
  8
LAY-1
  6
CONTINUOUS
 62
     3
100
AcDbCircle
 10
247.7
 20
410.499992
 30
0.0
 40
9.0
100
AcDbArc
 50
140.560853
 51
141.057559
  0
POLYLINE
  5
C7
100
AcDbEntity
  8
LAY-1
  6
CONTINUOUS
 62
     3
100
AcDb2dPolyline
 66
     1
 10
0.0
 20
0.0
 30
0.0
 70
   128
  0
VERTEX
  5
C8
100
AcDbEntity
  8
LAY-1
  6
CONTINUOUS
 62
     3
100
AcDbVertex
100
AcDb2dVertex
 10
242.7
 20
403.886743
 30
0.0
  0
VERTEX
  5
C9
100
AcDbEntity
  8
LAY-1
  6
CONTINUOUS
 62
     3
100
AcDbVertex
100
AcDb2dVertex
 10
247.7
 20
400.999992
 30
0.0
  0
VERTEX
  5
CA
100
AcDbEntity
  8
LAY-1
  6
CONTINUOUS
 62
     3
100
AcDbVertex
100
AcDb2dVertex
 10
252.896152
 20
403.999992
 30
0.0
  0
VERTEX
  5
CB
100
AcDbEntity
  8
LAY-1
  6
CONTINUOUS
 62
     3
100
AcDbVertex
100
AcDb2dVertex
 10
252.896152
 20
409.999992
 30
0.0
  0
VERTEX
  5
CC
100
AcDbEntity
  8
LAY-1
  6
CONTINUOUS
 62
     3
100
AcDbVertex
100
AcDb2dVertex
 10
247.7
 20
412.999992
 30
0.0
  0
SEQEND
  5
CD
100
AcDbEntity
  8
LAY-1
  6
CONTINUOUS
 62
     3
  0
LINE
  5
CE
100
AcDbEntity
  8
LAY-1
  6
CONTINUOUS
 62
     3
100
AcDbLine
 10
247.7
 20
412.999992
 30
0.0
 11
242.7
 21
410.113241
 31
0.0
  0
ARC
  5
CF
100
AcDbEntity
  8
LAY-1
  6
CONTINUOUS
 62
     3
100
AcDbCircle
 10
247.7
 20
406.999992
 30
0.0
 40
6.0
100
AcDbArc
 50
213.55731
 51
146.44269
  0
LINE
  5
D0
100
AcDbEntity
  8
LAY-1
  6
DASHED2
 62
     1
100
AcDbLine
 10
209.200031
 20
423.5
 30
0.0
 11
209.200031
 21
430.3
 31
0.0
  0
LINE
  5
D1
100
AcDbEntity
  8
LAY-1
  6
DASHED2
 62
     3
100
AcDbLine
 10
208.700031
 20
423.5
 30
0.0
 11
208.700031
 21
430.3
 31
0.0
  0
LINE
  5
D2
100
AcDbEntity
  8
LAY-1
  6
DASHED2
 62
     3
100
AcDbLine
 10
214.700031
 20
430.3
 30
0.0
 11
214.700031
 21
423.5
 31
0.0
  0
LINE
  5
D3
100
AcDbEntity
  8
LAY-1
  6
DASHED2
 62
     1
100
AcDbLine
 10
214.200031
 20
430.3
 30
0.0
 11
214.200031
 21
423.5
 31
0.0
  0
ARC
  5
D4
100
AcDbEntity
  8
LAY-1
  6
CONTINUOUS
 62
     3
100
AcDbCircle
 10
247.7
 20
410.499992
 30
0.0
 40
9.0
100
AcDbArc
 50
140.560853
 51
141.057559
  0
LINE
  5
D5
100
AcDbEntity
  8
LAY-1
  6
CONTINUOUS
 62
     3
100
AcDbLine
 10
181.7
 20
423.5
 30
0.0
 11
181.7
 21
425.5
 31
0.0
  0
POLYLINE
  5
D6
100
AcDbEntity
  8
LAY-1
  6
CONTINUOUS
 62
     3
100
AcDb2dPolyline
 66
     1
 10
0.0
 20
0.0
 30
0.0
 70
   128
  0
VERTEX
  5
D7
100
AcDbEntity
  8
LAY-1
  6
CONTINUOUS
 62
     3
100
AcDbVertex
100
AcDb2dVertex
 10
641.1
 20
169.524356
 30
0.0
  0
VERTEX
  5
D8
100
AcDbEntity
  8
LAY-1
  6
CONTINUOUS
 62
     3
100
AcDbVertex
100
AcDb2dVertex
 10
630.6
 20
163.462178
 30
0.0
  0
VERTEX
  5
D9
100
AcDbEntity
  8
LAY-1
  6
CONTINUOUS
 62
     3
100
AcDbVertex
100
AcDb2dVertex
 10
630.6
 20
151.337822
 30
0.0
  0
VERTEX
  5
DA
100
AcDbEntity
  8
LAY-1
  6
CONTINUOUS
 62
     3
100
AcDbVertex
100
AcDb2dVertex
 10
641.1
 20
145.275644
 30
0.0
  0
VERTEX
  5
DB
100
AcDbEntity
  8
LAY-1
  6
CONTINUOUS
 62
     3
100
AcDbVertex
100
AcDb2dVertex
 10
651.6
 20
151.337822
 30
0.0
  0
VERTEX
  5
DC
100
AcDbEntity
  8
LAY-1
  6
CONTINUOUS
 62
     3
100
AcDbVertex
100
AcDb2dVertex
 10
651.6
 20
163.462178
 30
0.0
  0
VERTEX
  5
DD
100
AcDbEntity
  8
LAY-1
  6
CONTINUOUS
 62
     3
100
AcDbVertex
100
AcDb2dVertex
 10
641.1
 20
169.524356
 30
0.0
  0
SEQEND
  5
DE
100
AcDbEntity
  8
LAY-1
  6
CONTINUOUS
 62
     3
  0
LINE
  5
DF
100
AcDbEntity
  8
LAY-1
  6
CONTINUOUS
 62
     3
100
AcDbLine
 10
650.1
 20
204.0
 30
0.0
 11
650.1
 21
202.4
 31
0.0
  0
LINE
  5
E0
100
AcDbEntity
  8
LAY-1
  6
CONTINUOUS
 62
     3
100
AcDbLine
 10
632.1
 20
204.0
 30
0.0
 11
632.1
 21
202.4
 31
0.0
  0
ARC
  5
E1
100
AcDbEntity
  8
LAY-1
  6
CONTINUOUS
 62
     3
100
AcDbCircle
 10
641.1
 20
204.0
 30
0.0
 40
5.0
100
AcDbArc
 50
53.130102
 51
126.869898
  0
ARC
  5
E2
100
AcDbEntity
  8
LAY-1
  6
CONTINUOUS
 62
     3
100
AcDbCircle
 10
645.6
 20
207.375
 30
0.0
 40
1.625
100
AcDbArc
 50
22.619865
 51
157.380135
  0
ARC
  5
E3
100
AcDbEntity
  8
LAY-1
  6
CONTINUOUS
 62
     3
100
AcDbCircle
 10
636.6
 20
207.375
 30
0.0
 40
1.625
100
AcDbArc
 50
22.619865
 51
157.380135
  0
LINE
  5
E4
100
AcDbEntity
  8
LAY-1
  6
CONTINUOUS
 62
     3
100
AcDbLine
 10
646.725579
 20
208.547048
 30
0.0
 11
646.19
 21
209.0
 31
0.0
  0
LINE
  5
E5
100
AcDbEntity
  8
LAY-1
  6
CONTINUOUS
 62
     3
100
AcDbLine
 10
650.1
 20
204.0
 30
0.0
 11
632.1
 21
204.0
 31
0.0
  0
ARC
  5
E6
100
AcDbEntity
  8
LAY-1
  6
CONTINUOUS
 62
     3
100
AcDbCircle
 10
641.1
 20
210.0
 30
0.0
 40
5.0
100
AcDbArc
 50
233.130102
 51
306.869898
  0
ARC
  5
E7
100
AcDbEntity
  8
LAY-1
  6
CONTINUOUS
 62
     3
100
AcDbCircle
 10
645.6
 20
206.625
 30
0.0
 40
1.625
100
AcDbArc
 50
202.619865
 51
337.380135
  0
ARC
  5
E8
100
AcDbEntity
  8
LAY-1
  6
CONTINUOUS
 62
     3
100
AcDbCircle
 10
636.6
 20
206.625
 30
0.0
 40
1.625
100
AcDbArc
 50
202.619865
 51
337.380135
  0
LINE
  5
E9
100
AcDbEntity
  8
LAY-1
  6
CONTINUOUS
 62
     3
100
AcDbLine
 10
644.1
 20
208.0
 30
0.0
 11
644.1
 21
206.0
 31
0.0
  0
LINE
  5
EA
100
AcDbEntity
  8
LAY-1
  6
CONTINUOUS
 62
     3
100
AcDbLine
 10
638.1
 20
208.0
 30
0.0
 11
638.1
 21
206.0
 31
0.0
  0
LINE
  5
EB
100
AcDbEntity
  8
LAY-1
  6
CONTINUOUS
 62
     3
100
AcDbLine
 10
647.1
 20
205.0
 30
0.0
 11
635.1
 21
205.0
 31
0.0
  0
LINE
  5
EC
100
AcDbEntity
  8
LAY-1
  6
CONTINUOUS
 62
     3
100
AcDbLine
 10
646.725579
 20
205.452952
 30
0.0
 11
646.19
 21
205.0
 31
0.0
  0
LINE
  5
ED
100
AcDbEntity
  8
LAY-1
  6
CONTINUOUS
 62
     3
100
AcDbLine
 10
635.474421
 20
208.547048
 30
0.0
 11
636.01
 21
209.0
 31
0.0
  0
LINE
  5
EE
100
AcDbEntity
  8
LAY-1
  6
CONTINUOUS
 62
     3
100
AcDbLine
 10
635.474421
 20
205.452952
 30
0.0
 11
636.01
 21
205.0
 31
0.0
  0
LINE
  5
EF
100
AcDbEntity
  8
LAY-1
  6
CONTINUOUS
 62
     3
100
AcDbLine
 10
647.1
 20
208.0
 30
0.0
 11
647.1
 21
206.0
 31
0.0
  0
LINE
  5
F0
100
AcDbEntity
  8
LAY-1
  6
CONTINUOUS
 62
     3
100
AcDbLine
 10
647.1
 20
205.0
 30
0.0
 11
647.1
 21
204.0
 31
0.0
  0
LINE
  5
F1
100
AcDbEntity
  8
LAY-1
  6
CONTINUOUS
 62
     3
100
AcDbLine
 10
635.1
 20
205.0
 30
0.0
 11
635.1
 21
204.0
 31
0.0
  0
LINE
  5
F2
100
AcDbEntity
  8
LAY-1
  6
CONTINUOUS
 62
     3
100
AcDbLine
 10
635.1
 20
208.0
 30
0.0
 11
635.1
 21
206.0
 31
0.0
  0
LINE
  5
F3
100
AcDbEntity
  8
LAY-1
  6
CONTINUOUS
 62
     3
100
AcDbLine
 10
646.19
 20
209.0
 30
0.0
 11
636.01
 21
209.0
 31
0.0
  0
LINE
  5
F4
100
AcDbEntity
  8
LAY-1
  6
CONTINUOUS
 62
     3
100
AcDbLine
 10
241.7
 20
196.4
 30
0.0
 11
253.7
 21
196.4
 31
0.0
  0
LINE
  5
F5
100
AcDbEntity
  8
LAY-1
  6
CONTINUOUS
 62
     3
100
AcDbLine
 10
239.699939
 20
202.931021
 30
0.0
 11
239.699939
 21
202.398739
 31
0.0
  0
LINE
  5
F6
100
AcDbEntity
  8
LAY-1
  6
CONTINUOUS
 62
     3
100
AcDbLine
 10
255.699939
 20
202.91085
 30
0.0
 11
255.699939
 21
202.401261
 31
0.0
  0
LINE
  5
F7
100
AcDbEntity
  8
LAY-1
  6
CONTINUOUS
 62
     3
100
AcDbLine
 10
622.6
 20
188.9
 30
0.0
 11
659.6
 21
188.9
 31
0.0
  0
LINE
  5
F8
100
AcDbEntity
  8
LAY-1
  6
CONTINUOUS
 62
     3
100
AcDbLine
 10
623.6
 20
132.4
 30
0.0
 11
658.6
 21
132.4
 31
0.0
  0
ARC
  5
F9
100
AcDbEntity
  8
LAY-1
  6
CONTINUOUS
 62
     3
100
AcDbCircle
 10
623.6
 20
133.4
 30
0.0
 40
1.0
100
AcDbArc
 50
180.0
 51
270.0
  0
ARC
  5
FA
100
AcDbEntity
  8
LAY-1
  6
CONTINUOUS
 62
     3
100
AcDbCircle
 10
658.6
 20
133.4
 30
0.0
 40
1.0
100
AcDbArc
 50
270.0
 51
0.0
  0
LINE
  5
FB
100
AcDbEntity
  8
LAY-1
  6
CONTINUOUS
 62
     3
100
AcDbLine
 10
181.7
 20
188.9
 30
0.0
 11
369.7
 21
188.9
 31
0.0
  0
LINE
  5
FC
100
AcDbEntity
  8
LAY-1
  6
CONTINUOUS
 62
     3
100
AcDbLine
 10
369.7
 20
132.4
 30
0.0
 11
181.7
 21
132.4
 31
0.0
  0
LINE
  5
FD
100
AcDbEntity
  8
LAY-1
  6
CONTINUOUS
 62
     3
100
AcDbLine
 10
352.7
 20
174.4
 30
0.0
 11
198.7
 21
174.4
 31
0.0
  0
LINE
  5
FE
100
AcDbEntity
  8
LAY-1
  6
CONTINUOUS
 62
     3
100
AcDbLine
 10
195.7
 20
177.4
 30
0.0
 11
195.7
 21
188.9
 31
0.0
  0
LINE
  5
FF
100
AcDbEntity
  8
LAY-1
  6
CONTINUOUS
 62
     3
100
AcDbLine
 10
355.7
 20
177.4
 30
0.0
 11
355.7
 21
188.9
 31
0.0
  0
ARC
  5
100
100
AcDbEntity
  8
LAY-1
  6
CONTINUOUS
 62
     3
100
AcDbCircle
 10
352.7
 20
177.4
 30
0.0
 40
3.0
100
AcDbArc
 50
270.0
 51
0.0
  0
ARC
  5
101
100
AcDbEntity
  8
LAY-1
  6
CONTINUOUS
 62
     3
100
AcDbCircle
 10
198.7
 20
177.4
 30
0.0
 40
3.0
100
AcDbArc
 50
180.0
 51
270.0
  0
LINE
  5
102
100
AcDbEntity
  8
LAY-1
  6
CONTINUOUS
 62
     3
100
AcDbLine
 10
195.3
 20
177.4
 30
0.0
 11
195.3
 21
188.9
 31
0.0
  0
LINE
  5
103
100
AcDbEntity
  8
LAY-1
  6
CONTINUOUS
 62
     3
100
AcDbLine
 10
352.7
 20
174.0
 30
0.0
 11
198.7
 21
174.0
 31
0.0
  0
LINE
  5
104
100
AcDbEntity
  8
LAY-1
  6
CONTINUOUS
 62
     3
100
AcDbLine
 10
356.1
 20
177.4
 30
0.0
 11
356.1
 21
188.9
 31
0.0
  0
ARC
  5
105
100
AcDbEntity
  8
LAY-1
  6
CONTINUOUS
 62
     3
100
AcDbCircle
 10
198.7
 20
177.4
 30
0.0
 40
3.4
100
AcDbArc
 50
180.0
 51
270.0
  0
ARC
  5
106
100
AcDbEntity
  8
LAY-1
  6
CONTINUOUS
 62
     3
100
AcDbCircle
 10
352.7
 20
177.4
 30
0.0
 40
3.4
100
AcDbArc
 50
270.0
 51
0.0
  0
TEXT
  5
107
100
AcDbEntity
  8
LAY-1
  6
CONTINUOUS
 62
     5
100
AcDbText
 10
340.4
 20
137.9
 30
0.0
 40
5.0
  1
ＮＥＷ　ＳＴＡＲ
 41
0.504
  7
EXCADSTD
 72
     5
 11
364.4
 21
137.9
 31
0.0
100
AcDbText
  0
TEXT
  5
108
100
AcDbEntity
  8
LAY-1
  6
CONTINUOUS
 62
     5
100
AcDbText
 10
349.6
 20
139.1
 30
0.0
 40
3.0
  1
★
 41
0.84
  7
EXCADSTD
 72
     5
 11
352.0
 21
139.1
 31
0.0
100
AcDbText
  0
LINE
  5
109
100
AcDbEntity
  8
LAY-1
  6
CONTINUOUS
 62
     3
100
AcDbLine
 10
340.7
 20
143.4
 30
0.0
 11
363.7
 21
143.4
 31
0.0
  0
LINE
  5
10A
100
AcDbEntity
  8
LAY-1
  6
CONTINUOUS
 62
     3
100
AcDbLine
 10
339.7
 20
138.4
 30
0.0
 11
339.7
 21
142.4
 31
0.0
  0
ARC
  5
10B
100
AcDbEntity
  8
LAY-1
  6
CONTINUOUS
 62
     3
100
AcDbCircle
 10
340.7
 20
142.4
 30
0.0
 40
1.0
100
AcDbArc
 50
90.0
 51
180.0
  0
ARC
  5
10C
100
AcDbEntity
  8
LAY-1
  6
CONTINUOUS
 62
     3
100
AcDbCircle
 10
340.7
 20
138.4
 30
0.0
 40
1.0
100
AcDbArc
 50
180.0
 51
270.0
  0
ARC
  5
10D
100
AcDbEntity
  8
LAY-1
  6
CONTINUOUS
 62
     3
100
AcDbCircle
 10
363.7
 20
138.4
 30
0.0
 40
1.0
100
AcDbArc
 50
270.0
 51
0.0
  0
ARC
  5
10E
100
AcDbEntity
  8
LAY-1
  6
CONTINUOUS
 62
     3
100
AcDbCircle
 10
363.7
 20
142.4
 30
0.0
 40
1.0
100
AcDbArc
 50
0.0
 51
90.0
  0
LINE
  5
10F
100
AcDbEntity
  8
LAY-1
  6
CONTINUOUS
 62
     1
100
AcDbLine
 10
363.7
 20
138.4
 30
0.0
 11
363.7
 21
142.4
 31
0.0
  0
LINE
  5
110
100
AcDbEntity
  8
LAY-1
  6
CONTINUOUS
 62
     1
100
AcDbLine
 10
340.7
 20
138.4
 30
0.0
 11
340.7
 21
142.4
 31
0.0
  0
LINE
  5
111
100
AcDbEntity
  8
LAY-1
  6
CONTINUOUS
 62
     1
100
AcDbLine
 10
340.7
 20
142.4
 30
0.0
 11
363.7
 21
142.4
 31
0.0
  0
LINE
  5
112
100
AcDbEntity
  8
LAY-1
  6
CONTINUOUS
 62
     1
100
AcDbLine
 10
363.7
 20
138.4
 30
0.0
 11
340.7
 21
138.4
 31
0.0
  0
LINE
  5
113
100
AcDbEntity
  8
LAY-1
  6
CONTINUOUS
 62
     3
100
AcDbLine
 10
340.7
 20
137.4
 30
0.0
 11
363.7
 21
137.4
 31
0.0
  0
LINE
  5
114
100
AcDbEntity
  8
LAY-1
  6
CONTINUOUS
 62
     3
100
AcDbLine
 10
364.7
 20
142.4
 30
0.0
 11
364.7
 21
138.4
 31
0.0
  0
LINE
  5
115
100
AcDbEntity
  8
LAY-1
  6
CONTINUOUS
 62
     3
100
AcDbLine
 10
181.7
 20
188.9
 30
0.0
 11
181.7
 21
132.4
 31
0.0
  0
LINE
  5
116
100
AcDbEntity
  8
LAY-1
  6
CONTINUOUS
 62
     3
100
AcDbLine
 10
369.7
 20
188.9
 30
0.0
 11
369.7
 21
132.4
 31
0.0
  0
LINE
  5
117
100
AcDbEntity
  8
LAY-1
  6
DASHED2
 62
     3
100
AcDbLine
 10
350.7
 20
440.499992
 30
0.0
 11
344.7
 21
440.499992
 31
0.0
  0
LINE
  5
118
100
AcDbEntity
  8
LAY-1
  6
DASHED2
 62
     3
100
AcDbLine
 10
350.7
 20
392.999992
 30
0.0
 11
344.7
 21
392.999992
 31
0.0
  0
LINE
  5
119
100
AcDbEntity
  8
LAY-1
  6
DASHED2
 62
     3
100
AcDbLine
 10
350.7
 20
392.999992
 30
0.0
 11
353.2
 21
390.499992
 31
0.0
  0
LINE
  5
11A
100
AcDbEntity
  8
LAY-1
  6
DASHED2
 62
     3
100
AcDbLine
 10
350.7
 20
415.499992
 30
0.0
 11
344.7
 21
415.499992
 31
0.0
  0
LINE
  5
11B
100
AcDbEntity
  8
LAY-1
  6
DASHED2
 62
     1
100
AcDbLine
 10
350.2
 20
415.499992
 30
0.0
 11
350.7
 21
414.633967
 31
0.0
  0
LINE
  5
11C
100
AcDbEntity
  8
LAY-1
  6
DASHED2
 62
     1
100
AcDbLine
 10
345.2
 20
415.499992
 30
0.0
 11
344.7
 21
414.633967
 31
0.0
  0
LINE
  5
11D
100
AcDbEntity
  8
LAY-1
  6
DASHED2
 62
     3
100
AcDbLine
 10
344.7
 20
392.999992
 30
0.0
 11
342.200008
 21
390.5
 31
0.0
  0
LINE
  5
11E
100
AcDbEntity
  8
LAY-1
  6
DASHED2
 62
     3
100
AcDbLine
 10
344.7
 20
392.999992
 30
0.0
 11
344.7
 21
432.3
 31
0.0
  0
LINE
  5
11F
100
AcDbEntity
  8
LAY-1
  6
DASHED2
 62
     3
100
AcDbLine
 10
344.7
 20
432.3
 30
0.0
 11
344.7
 21
440.499992
 31
0.0
  0
LINE
  5
120
100
AcDbEntity
  8
LAY-1
  6
DASHED2
 62
     1
100
AcDbLine
 10
345.2
 20
415.499992
 30
0.0
 11
345.2
 21
432.3
 31
0.0
  0
LINE
  5
121
100
AcDbEntity
  8
LAY-1
  6
DASHED2
 62
     1
100
AcDbLine
 10
345.2
 20
432.3
 30
0.0
 11
345.2
 21
440.499992
 31
0.0
  0
LINE
  5
122
100
AcDbEntity
  8
LAY-1
  6
DASHED2
 62
     3
100
AcDbLine
 10
350.7
 20
440.499992
 30
0.0
 11
350.7
 21
432.3
 31
0.0
  0
LINE
  5
123
100
AcDbEntity
  8
LAY-1
  6
DASHED2
 62
     3
100
AcDbLine
 10
350.7
 20
432.3
 30
0.0
 11
350.7
 21
392.999992
 31
0.0
  0
LINE
  5
124
100
AcDbEntity
  8
LAY-1
  6
DASHED2
 62
     1
100
AcDbLine
 10
350.2
 20
440.499992
 30
0.0
 11
350.2
 21
432.3
 31
0.0
  0
LINE
  5
125
100
AcDbEntity
  8
LAY-1
  6
DASHED2
 62
     1
100
AcDbLine
 10
350.2
 20
432.3
 30
0.0
 11
350.2
 21
415.499992
 31
0.0
  0
LINE
  5
126
100
AcDbEntity
  8
LAY-1
  6
DASHED2
 62
     3
100
AcDbLine
 10
214.700031
 20
440.499992
 30
0.0
 11
208.700031
 21
440.499992
 31
0.0
  0
LINE
  5
127
100
AcDbEntity
  8
LAY-1
  6
DASHED2
 62
     1
100
AcDbLine
 10
209.200031
 20
430.3
 30
0.0
 11
209.200031
 21
440.499992
 31
0.0
  0
LINE
  5
128
100
AcDbEntity
  8
LAY-1
  6
DASHED2
 62
     3
100
AcDbLine
 10
208.700031
 20
430.3
 30
0.0
 11
208.700031
 21
440.499992
 31
0.0
  0
LINE
  5
129
100
AcDbEntity
  8
LAY-1
  6
DASHED2
 62
     3
100
AcDbLine
 10
214.700031
 20
440.499992
 30
0.0
 11
214.700031
 21
430.3
 31
0.0
  0
LINE
  5
12A
100
AcDbEntity
  8
LAY-1
  6
DASHED2
 62
     1
100
AcDbLine
 10
214.200031
 20
440.499992
 30
0.0
 11
214.200031
 21
430.3
 31
0.0
  0
ARC
  5
12B
100
AcDbEntity
  8
LAY-1
  6
DASHED2
 62
     3
100
AcDbCircle
 10
213.2
 20
183.9
 30
0.0
 40
1.0
100
AcDbArc
 50
180.0
 51
270.0
  0
ARC
  5
12C
100
AcDbEntity
  8
LAY-1
  6
DASHED2
 62
     3
100
AcDbCircle
 10
210.2
 20
180.9
 30
0.0
 40
1.0
100
AcDbArc
 50
0.0
 51
90.0
  0
ARC
  5
12D
100
AcDbEntity
  8
LAY-1
  6
DASHED2
 62
     3
100
AcDbCircle
 10
210.2
 20
183.9
 30
0.0
 40
1.0
100
AcDbArc
 50
270.0
 51
0.0
  0
ARC
  5
12E
100
AcDbEntity
  8
LAY-1
  6
DASHED2
 62
     3
100
AcDbCircle
 10
213.2
 20
180.9
 30
0.0
 40
1.0
100
AcDbArc
 50
90.0
 51
180.0
  0
ARC
  5
12F
100
AcDbEntity
  8
LAY-1
  6
DASHED2
 62
     3
100
AcDbCircle
 10
213.2
 20
183.9
 30
0.0
 40
1.0
100
AcDbArc
 50
180.0
 51
270.0
  0
ARC
  5
130
100
AcDbEntity
  8
LAY-1
  6
DASHED2
 62
     3
100
AcDbCircle
 10
213.2
 20
180.9
 30
0.0
 40
1.0
100
AcDbArc
 50
90.0
 51
180.0
  0
CIRCLE
  5
131
100
AcDbEntity
  8
LAY-1
  6
DASHED2
 62
     3
100
AcDbCircle
 10
211.7
 20
182.4
 30
0.0
 40
5.0
  0
LINE
  5
132
100
AcDbEntity
  8
LAY-1
  6
DASHED2
 62
     3
100
AcDbLine
 10
212.2
 20
183.9
 30
0.0
 11
212.2
 21
184.95
 31
0.0
  0
LINE
  5
133
100
AcDbEntity
  8
LAY-1
  6
DASHED2
 62
     3
100
AcDbLine
 10
211.2
 20
184.95
 30
0.0
 11
212.2
 21
184.95
 31
0.0
  0
LINE
  5
134
100
AcDbEntity
  8
LAY-1
  6
DASHED2
 62
     3
100
AcDbLine
 10
211.2
 20
183.9
 30
0.0
 11
211.2
 21
184.95
 31
0.0
  0
LINE
  5
135
100
AcDbEntity
  8
LAY-1
  6
DASHED2
 62
     3
100
AcDbLine
 10
211.2
 20
183.9
 30
0.0
 11
211.2
 21
184.95
 31
0.0
  0
LINE
  5
136
100
AcDbEntity
  8
LAY-1
  6
DASHED2
 62
     3
100
AcDbLine
 10
212.2
 20
184.95
 30
0.0
 11
211.2
 21
184.95
 31
0.0
  0
LINE
  5
137
100
AcDbEntity
  8
LAY-1
  6
DASHED2
 62
     3
100
AcDbLine
 10
212.2
 20
183.9
 30
0.0
 11
212.2
 21
184.95
 31
0.0
  0
LINE
  5
138
100
AcDbEntity
  8
LAY-1
  6
DASHED2
 62
     3
100
AcDbLine
 10
209.15
 20
181.9
 30
0.0
 11
209.15
 21
182.9
 31
0.0
  0
LINE
  5
139
100
AcDbEntity
  8
LAY-1
  6
DASHED2
 62
     3
100
AcDbLine
 10
210.2
 20
181.9
 30
0.0
 11
209.15
 21
181.9
 31
0.0
  0
LINE
  5
13A
100
AcDbEntity
  8
LAY-1
  6
DASHED2
 62
     3
100
AcDbLine
 10
210.2
 20
182.9
 30
0.0
 11
209.15
 21
182.9
 31
0.0
  0
LINE
  5
13B
100
AcDbEntity
  8
LAY-1
  6
DASHED2
 62
     3
100
AcDbLine
 10
212.2
 20
179.85
 30
0.0
 11
211.2
 21
179.85
 31
0.0
  0
LINE
  5
13C
100
AcDbEntity
  8
LAY-1
  6
DASHED2
 62
     3
100
AcDbLine
 10
212.2
 20
180.9
 30
0.0
 11
212.2
 21
179.85
 31
0.0
  0
LINE
  5
13D
100
AcDbEntity
  8
LAY-1
  6
DASHED2
 62
     3
100
AcDbLine
 10
211.2
 20
180.9
 30
0.0
 11
211.2
 21
179.85
 31
0.0
  0
LINE
  5
13E
100
AcDbEntity
  8
LAY-1
  6
DASHED2
 62
     3
100
AcDbLine
 10
211.2
 20
180.9
 30
0.0
 11
211.2
 21
179.85
 31
0.0
  0
LINE
  5
13F
100
AcDbEntity
  8
LAY-1
  6
DASHED2
 62
     3
100
AcDbLine
 10
212.2
 20
180.9
 30
0.0
 11
212.2
 21
179.85
 31
0.0
  0
LINE
  5
140
100
AcDbEntity
  8
LAY-1
  6
DASHED2
 62
     3
100
AcDbLine
 10
214.25
 20
182.9
 30
0.0
 11
214.25
 21
181.9
 31
0.0
  0
LINE
  5
141
100
AcDbEntity
  8
LAY-1
  6
DASHED2
 62
     3
100
AcDbLine
 10
213.2
 20
181.9
 30
0.0
 11
214.25
 21
181.9
 31
0.0
  0
LINE
  5
142
100
AcDbEntity
  8
LAY-1
  6
DASHED2
 62
     3
100
AcDbLine
 10
213.2
 20
182.9
 30
0.0
 11
214.25
 21
182.9
 31
0.0
  0
LINE
  5
143
100
AcDbEntity
  8
LAY-1
  6
DASHED2
 62
     3
100
AcDbLine
 10
213.2
 20
182.9
 30
0.0
 11
214.25
 21
182.9
 31
0.0
  0
ARC
  5
144
100
AcDbEntity
  8
LAY-1
  6
DASHED2
 62
     3
100
AcDbCircle
 10
349.2
 20
183.9
 30
0.0
 40
1.0
100
AcDbArc
 50
180.0
 51
270.0
  0
ARC
  5
145
100
AcDbEntity
  8
LAY-1
  6
DASHED2
 62
     3
100
AcDbCircle
 10
346.2
 20
180.9
 30
0.0
 40
1.0
100
AcDbArc
 50
0.0
 51
90.0
  0
ARC
  5
146
100
AcDbEntity
  8
LAY-1
  6
DASHED2
 62
     3
100
AcDbCircle
 10
346.2
 20
183.9
 30
0.0
 40
1.0
100
AcDbArc
 50
270.0
 51
0.0
  0
ARC
  5
147
100
AcDbEntity
  8
LAY-1
  6
DASHED2
 62
     3
100
AcDbCircle
 10
349.2
 20
180.9
 30
0.0
 40
1.0
100
AcDbArc
 50
90.0
 51
180.0
  0
ARC
  5
148
100
AcDbEntity
  8
LAY-1
  6
DASHED2
 62
     3
100
AcDbCircle
 10
349.2
 20
183.9
 30
0.0
 40
1.0
100
AcDbArc
 50
180.0
 51
270.0
  0
ARC
  5
149
100
AcDbEntity
  8
LAY-1
  6
DASHED2
 62
     3
100
AcDbCircle
 10
349.2
 20
180.9
 30
0.0
 40
1.0
100
AcDbArc
 50
90.0
 51
180.0
  0
CIRCLE
  5
14A
100
AcDbEntity
  8
LAY-1
  6
DASHED2
 62
     3
100
AcDbCircle
 10
347.7
 20
182.4
 30
0.0
 40
5.0
  0
LINE
  5
14B
100
AcDbEntity
  8
LAY-1
  6
DASHED2
 62
     3
100
AcDbLine
 10
348.2
 20
183.9
 30
0.0
 11
348.2
 21
184.95
 31
0.0
  0
LINE
  5
14C
100
AcDbEntity
  8
LAY-1
  6
DASHED2
 62
     3
100
AcDbLine
 10
347.2
 20
184.95
 30
0.0
 11
348.2
 21
184.95
 31
0.0
  0
LINE
  5
14D
100
AcDbEntity
  8
LAY-1
  6
DASHED2
 62
     3
100
AcDbLine
 10
347.2
 20
183.9
 30
0.0
 11
347.2
 21
184.95
 31
0.0
  0
LINE
  5
14E
100
AcDbEntity
  8
LAY-1
  6
DASHED2
 62
     3
100
AcDbLine
 10
347.2
 20
183.9
 30
0.0
 11
347.2
 21
184.95
 31
0.0
  0
LINE
  5
14F
100
AcDbEntity
  8
LAY-1
  6
DASHED2
 62
     3
100
AcDbLine
 10
348.2
 20
184.95
 30
0.0
 11
347.2
 21
184.95
 31
0.0
  0
LINE
  5
150
100
AcDbEntity
  8
LAY-1
  6
DASHED2
 62
     3
100
AcDbLine
 10
348.2
 20
183.9
 30
0.0
 11
348.2
 21
184.95
 31
0.0
  0
LINE
  5
151
100
AcDbEntity
  8
LAY-1
  6
DASHED2
 62
     3
100
AcDbLine
 10
345.15
 20
181.9
 30
0.0
 11
345.15
 21
182.9
 31
0.0
  0
LINE
  5
152
100
AcDbEntity
  8
LAY-1
  6
DASHED2
 62
     3
100
AcDbLine
 10
346.2
 20
181.9
 30
0.0
 11
345.15
 21
181.9
 31
0.0
  0
LINE
  5
153
100
AcDbEntity
  8
LAY-1
  6
DASHED2
 62
     3
100
AcDbLine
 10
346.2
 20
182.9
 30
0.0
 11
345.15
 21
182.9
 31
0.0
  0
LINE
  5
154
100
AcDbEntity
  8
LAY-1
  6
DASHED2
 62
     3
100
AcDbLine
 10
348.2
 20
179.85
 30
0.0
 11
347.2
 21
179.85
 31
0.0
  0
LINE
  5
155
100
AcDbEntity
  8
LAY-1
  6
DASHED2
 62
     3
100
AcDbLine
 10
348.2
 20
180.9
 30
0.0
 11
348.2
 21
179.85
 31
0.0
  0
LINE
  5
156
100
AcDbEntity
  8
LAY-1
  6
DASHED2
 62
     3
100
AcDbLine
 10
347.2
 20
180.9
 30
0.0
 11
347.2
 21
179.85
 31
0.0
  0
LINE
  5
157
100
AcDbEntity
  8
LAY-1
  6
DASHED2
 62
     3
100
AcDbLine
 10
347.2
 20
180.9
 30
0.0
 11
347.2
 21
179.85
 31
0.0
  0
LINE
  5
158
100
AcDbEntity
  8
LAY-1
  6
DASHED2
 62
     3
100
AcDbLine
 10
348.2
 20
180.9
 30
0.0
 11
348.2
 21
179.85
 31
0.0
  0
LINE
  5
159
100
AcDbEntity
  8
LAY-1
  6
DASHED2
 62
     3
100
AcDbLine
 10
350.25
 20
182.9
 30
0.0
 11
350.25
 21
181.9
 31
0.0
  0
LINE
  5
15A
100
AcDbEntity
  8
LAY-1
  6
DASHED2
 62
     3
100
AcDbLine
 10
349.2
 20
181.9
 30
0.0
 11
350.25
 21
181.9
 31
0.0
  0
LINE
  5
15B
100
AcDbEntity
  8
LAY-1
  6
DASHED2
 62
     3
100
AcDbLine
 10
349.2
 20
182.9
 30
0.0
 11
350.25
 21
182.9
 31
0.0
  0
LINE
  5
15C
100
AcDbEntity
  8
LAY-1
  6
DASHED2
 62
     3
100
AcDbLine
 10
349.2
 20
182.9
 30
0.0
 11
350.25
 21
182.9
 31
0.0
  0
LINE
  5
15D
100
AcDbEntity
  8
LAY-1
  6
DASHED2
 62
     3
100
AcDbLine
 10
627.1
 20
185.4
 30
0.0
 11
627.1
 21
179.4
 31
0.0
  0
LINE
  5
15E
100
AcDbEntity
  8
LAY-1
  6
DASHED2
 62
     3
100
AcDbLine
 10
625.1
 20
177.4
 30
0.0
 11
627.1
 21
179.4
 31
0.0
  0
LINE
  5
15F
100
AcDbEntity
  8
LAY-1
  6
DASHED2
 62
     3
100
AcDbLine
 10
625.1
 20
187.4
 30
0.0
 11
625.1
 21
177.4
 31
0.0
  0
LINE
  5
160
100
AcDbEntity
  8
LAY-1
  6
DASHED2
 62
     3
100
AcDbLine
 10
627.1
 20
185.4
 30
0.0
 11
625.1
 21
187.4
 31
0.0
  0
LINE
  5
161
100
AcDbEntity
  8
LAY-1
  6
DASHED2
 62
     3
100
AcDbLine
 10
625.1
 20
187.4
 30
0.0
 11
624.600008
 21
187.4
 31
0.0
  0
LINE
  5
162
100
AcDbEntity
  8
LAY-1
  6
DASHED2
 62
     3
100
AcDbLine
 10
625.1
 20
177.4
 30
0.0
 11
624.600008
 21
177.4
 31
0.0
  0
LINE
  5
163
100
AcDbEntity
  8
LAY-1
  6
DASHED2
 62
     3
100
AcDbLine
 10
674.6
 20
185.4
 30
0.0
 11
674.6
 21
179.4
 31
0.0
  0
LINE
  5
164
100
AcDbEntity
  8
LAY-1
  6
DASHED2
 62
     3
100
AcDbLine
 10
649.6
 20
185.4
 30
0.0
 11
649.6
 21
179.4
 31
0.0
  0
LINE
  5
165
100
AcDbEntity
  8
LAY-1
  6
DASHED2
 62
     1
100
AcDbLine
 10
649.6
 20
184.9
 30
0.0
 11
648.733975
 21
185.4
 31
0.0
  0
LINE
  5
166
100
AcDbEntity
  8
LAY-1
  6
DASHED2
 62
     1
100
AcDbLine
 10
649.6
 20
179.9
 30
0.0
 11
648.733975
 21
179.4
 31
0.0
  0
LINE
  5
167
100
AcDbEntity
  8
LAY-1
  6
DASHED2
 62
     3
100
AcDbLine
 10
674.6
 20
185.4
 30
0.0
 11
666.4
 21
185.4
 31
0.0
  0
LINE
  5
168
100
AcDbEntity
  8
LAY-1
  6
DASHED2
 62
     3
100
AcDbLine
 10
666.4
 20
185.4
 30
0.0
 11
627.1
 21
185.4
 31
0.0
  0
LINE
  5
169
100
AcDbEntity
  8
LAY-1
  6
DASHED2
 62
     1
100
AcDbLine
 10
674.6
 20
184.9
 30
0.0
 11
666.4
 21
184.9
 31
0.0
  0
LINE
  5
16A
100
AcDbEntity
  8
LAY-1
  6
DASHED2
 62
     1
100
AcDbLine
 10
666.4
 20
184.9
 30
0.0
 11
649.6
 21
184.9
 31
0.0
  0
LINE
  5
16B
100
AcDbEntity
  8
LAY-1
  6
DASHED2
 62
     3
100
AcDbLine
 10
627.1
 20
179.4
 30
0.0
 11
666.4
 21
179.4
 31
0.0
  0
LINE
  5
16C
100
AcDbEntity
  8
LAY-1
  6
DASHED2
 62
     3
100
AcDbLine
 10
666.4
 20
179.4
 30
0.0
 11
674.6
 21
179.4
 31
0.0
  0
LINE
  5
16D
100
AcDbEntity
  8
LAY-1
  6
DASHED2
 62
     1
100
AcDbLine
 10
649.6
 20
179.9
 30
0.0
 11
666.4
 21
179.9
 31
0.0
  0
LINE
  5
16E
100
AcDbEntity
  8
LAY-1
  6
DASHED2
 62
     1
100
AcDbLine
 10
666.4
 20
179.9
 30
0.0
 11
674.6
 21
179.9
 31
0.0
  0
LINE
  5
16F
100
AcDbEntity
  8
LAY-1
  6
CONTINUOUS
 62
     3
100
AcDbLine
 10
624.6
 20
173.9
 30
0.0
 11
622.6
 21
173.547346
 31
0.0
  0
LINE
  5
170
100
AcDbEntity
  8
LAY-1
  6
DASHED2
 62
     3
100
AcDbLine
 10
624.6
 20
173.9
 30
0.0
 11
624.6
 21
188.9
 31
0.0
  0
LINE
  5
171
100
AcDbEntity
  8
LAY-1
  6
DASHED2
 62
     3
100
AcDbLine
 10
624.6
 20
173.9
 30
0.0
 11
622.6
 21
173.547346
 31
0.0
  0
LINE
  5
172
100
AcDbEntity
  8
LAY-1
  6
DASHED2
 62
     3
100
AcDbLine
 10
224.298468
 20
390.499992
 30
0.0
 11
355.7
 21
390.499992
 31
0.0
  0
LINE
  5
173
100
AcDbEntity
  8
LAY-1
  6
DASHED2
 62
     3
100
AcDbLine
 10
355.7
 20
390.499992
 30
0.0
 11
356.052654
 21
388.499992
 31
0.0
  0
LINE
  5
174
100
AcDbEntity
  8
LAY-1
  6
CONTINUOUS
 62
     3
100
AcDbLine
 10
369.7
 20
388.5
 30
0.0
 11
355.146198
 21
388.5
 31
0.0
  0
LINE
  5
175
100
AcDbEntity
  8
LAY-1
  6
CONTINUOUS
 62
     3
100
AcDbLine
 10
222.699996
 20
388.499992
 30
0.0
 11
283.276845
 21
388.499992
 31
0.0
  0
LINE
  5
176
100
AcDbEntity
  8
LAY-1
  6
DASHED2
 62
     3
100
AcDbLine
 10
283.276845
 20
388.5
 30
0.0
 11
355.146198
 21
388.5
 31
0.0
  0
ARC
  5
177
100
AcDbEntity
  8
LAY-1
  6
CONTINUOUS
 62
     3
100
AcDbCircle
 10
247.699969
 20
407.000053
 30
0.0
 40
15.999999
100
AcDbArc
 50
212.090178
 51
311.116024
  0
ARC
  5
178
100
AcDbEntity
  8
LAY-1
  6
CONTINUOUS
 62
     3
100
AcDbCircle
 10
247.699969
 20
407.000053
 30
0.0
 40
15.999999
100
AcDbArc
 50
19.87463
 51
111.280085
  0
LINE
  5
179
100
AcDbEntity
  8
LAY-2
  6
CONTINUOUS
 62
     3
100
AcDbLine
 10
653.1
 20
197.4
 30
0.0
 11
653.1
 21
201.4
 31
0.0
  0
LINE
  5
17A
100
AcDbEntity
  8
LAY-2
  6
CONTINUOUS
 62
     3
100
AcDbLine
 10
652.1
 20
202.4
 30
0.0
 11
580.6
 21
202.4
 31
0.0
  0
LINE
  5
17B
100
AcDbEntity
  8
LAY-2
  6
CONTINUOUS
 62
     3
100
AcDbLine
 10
579.6
 20
201.4
 30
0.0
 11
579.6
 21
198.9
 31
0.0
  0
LINE
  5
17C
100
AcDbEntity
  8
LAY-2
  6
CONTINUOUS
 62
     3
100
AcDbLine
 10
629.1
 20
197.4
 30
0.0
 11
629.1
 21
197.9
 31
0.0
  0
ARC
  5
17D
100
AcDbEntity
  8
LAY-2
  6
CONTINUOUS
 62
     3
100
AcDbCircle
 10
652.1
 20
201.4
 30
0.0
 40
1.0
100
AcDbArc
 50
0.0
 51
90.0
  0
ARC
  5
17E
100
AcDbEntity
  8
LAY-2
  6
CONTINUOUS
 62
     3
100
AcDbCircle
 10
580.6
 20
198.9
 30
0.0
 40
1.0
100
AcDbArc
 50
180.0
 51
270.0
  0
ARC
  5
17F
100
AcDbEntity
  8
LAY-2
  6
CONTINUOUS
 62
     3
100
AcDbCircle
 10
630.1
 20
197.4
 30
0.0
 40
1.0
100
AcDbArc
 50
180.0
 51
270.0
  0
ARC
  5
180
100
AcDbEntity
  8
LAY-2
  6
CONTINUOUS
 62
     3
100
AcDbCircle
 10
630.1
 20
201.4
 30
0.0
 40
1.0
100
AcDbArc
 50
90.0
 51
180.0
  0
LINE
  5
181
100
AcDbEntity
  8
LAY-2
  6
CONTINUOUS
 62
     3
100
AcDbLine
 10
591.6
 20
196.9
 30
0.0
 11
583.6
 21
196.9
 31
0.0
  0
ARC
  5
182
100
AcDbEntity
  8
LAY-2
  6
CONTINUOUS
 62
     3
100
AcDbCircle
 10
591.6
 20
197.9
 30
0.0
 40
1.0
100
AcDbArc
 50
270.0
 51
0.0
  0
ARC
  5
183
100
AcDbEntity
  8
LAY-2
  6
CONTINUOUS
 62
     3
100
AcDbCircle
 10
583.6
 20
197.9
 30
0.0
 40
1.0
100
AcDbArc
 50
180.0
 51
270.0
  0
ARC
  5
184
100
AcDbEntity
  8
LAY-2
  6
CONTINUOUS
 62
     3
100
AcDbCircle
 10
580.6
 20
201.4
 30
0.0
 40
1.0
100
AcDbArc
 50
90.0
 51
180.0
  0
LINE
  5
185
100
AcDbEntity
  8
LAY-2
  6
CONTINUOUS
 62
     3
100
AcDbLine
 10
594.6
 20
202.4
 30
0.0
 11
594.6
 21
207.4
 31
0.0
  0
LINE
  5
186
100
AcDbEntity
  8
LAY-2
  6
CONTINUOUS
 62
     3
100
AcDbLine
 10
580.6
 20
202.4
 30
0.0
 11
580.6
 21
207.4
 31
0.0
  0
LINE
  5
187
100
AcDbEntity
  8
LAY-2
  6
CONTINUOUS
 62
     3
100
AcDbLine
 10
594.6
 20
207.4
 30
0.0
 11
594.6
 21
207.9
 31
0.0
  0
LINE
  5
188
100
AcDbEntity
  8
LAY-2
  6
CONTINUOUS
 62
     3
100
AcDbLine
 10
580.6
 20
207.4
 30
0.0
 11
594.6
 21
207.4
 31
0.0
  0
LINE
  5
189
100
AcDbEntity
  8
LAY-2
  6
CONTINUOUS
 62
     3
100
AcDbLine
 10
580.1
 20
213.4
 30
0.0
 11
580.1
 21
215.0
 31
0.0
  0
LINE
  5
18A
100
AcDbEntity
  8
LAY-2
  6
CONTINUOUS
 62
     3
100
AcDbLine
 10
595.1
 20
213.4
 30
0.0
 11
595.1
 21
215.0
 31
0.0
  0
LINE
  5
18B
100
AcDbEntity
  8
LAY-2
  6
CONTINUOUS
 62
     3
100
AcDbLine
 10
580.1
 20
215.0
 30
0.0
 11
595.1
 21
215.0
 31
0.0
  0
LINE
  5
18C
100
AcDbEntity
  8
LAY-2
  6
CONTINUOUS
 62
     3
100
AcDbLine
 10
595.1
 20
213.4
 30
0.0
 11
580.1
 21
213.4
 31
0.0
  0
LINE
  5
18D
100
AcDbEntity
  8
LAY-2
  6
CONTINUOUS
 62
     3
100
AcDbLine
 10
581.7
 20
215.0
 30
0.0
 11
581.7
 21
216.0
 31
0.0
  0
LINE
  5
18E
100
AcDbEntity
  8
LAY-2
  6
CONTINUOUS
 62
     3
100
AcDbLine
 10
593.5
 20
215.0
 30
0.0
 11
593.5
 21
216.0
 31
0.0
  0
LINE
  5
18F
100
AcDbEntity
  8
LAY-2
  6
CONTINUOUS
 62
     3
100
AcDbLine
 10
581.7
 20
216.0
 30
0.0
 11
593.5
 21
216.0
 31
0.0
  0
ARC
  5
190
100
AcDbEntity
  8
LAY-2
  6
CONTINUOUS
 62
     3
100
AcDbCircle
 10
587.6
 20
208.761905
 30
0.0
 40
9.338095
100
AcDbArc
 50
50.815436
 51
129.184564
  0
LINE
  5
191
100
AcDbEntity
  8
LAY-2
  6
CONTINUOUS
 62
     3
100
AcDbLine
 10
580.6
 20
207.9
 30
0.0
 11
594.6
 21
207.9
 31
0.0
  0
LINE
  5
192
100
AcDbEntity
  8
LAY-2
  6
CONTINUOUS
 62
     3
100
AcDbLine
 10
592.8
 20
213.4
 30
0.0
 11
592.8
 21
212.797922
 31
0.0
  0
LINE
  5
193
100
AcDbEntity
  8
LAY-2
  6
CONTINUOUS
 62
     3
100
AcDbLine
 10
582.4
 20
212.797922
 30
0.0
 11
582.4
 21
213.4
 31
0.0
  0
LINE
  5
194
100
AcDbEntity
  8
LAY-2
  6
CONTINUOUS
 62
     3
100
AcDbLine
 10
582.4
 20
208.298192
 30
0.0
 11
582.4
 21
207.9
 31
0.0
  0
LINE
  5
195
100
AcDbEntity
  8
LAY-2
  6
CONTINUOUS
 62
     3
100
AcDbLine
 10
592.8
 20
207.9
 30
0.0
 11
592.8
 21
208.298192
 31
0.0
  0
LINE
  5
196
100
AcDbEntity
  8
LAY-2
  6
CONTINUOUS
 62
     3
100
AcDbLine
 10
580.6
 20
197.9
 30
0.0
 11
630.6
 21
197.9
 31
0.0
  0
LINE
  5
197
100
AcDbEntity
  8
LAY-2
  6
CONTINUOUS
 62
     3
100
AcDbLine
 10
596.6
 20
212.797922
 30
0.0
 11
578.6
 21
212.797922
 31
0.0
  0
LINE
  5
198
100
AcDbEntity
  8
LAY-2
  6
CONTINUOUS
 62
     3
100
AcDbLine
 10
596.6
 20
208.298192
 30
0.0
 11
578.6
 21
208.298192
 31
0.0
  0
LINE
  5
199
100
AcDbEntity
  8
LAY-2
  6
CONTINUOUS
 62
     3
100
AcDbLine
 10
597.1
 20
208.798192
 30
0.0
 11
597.1
 21
212.297922
 31
0.0
  0
LINE
  5
19A
100
AcDbEntity
  8
LAY-2
  6
CONTINUOUS
 62
     3
100
AcDbLine
 10
578.1
 20
212.297922
 30
0.0
 11
578.1
 21
208.798192
 31
0.0
  0
ARC
  5
19B
100
AcDbEntity
  8
LAY-2
  6
CONTINUOUS
 62
     3
100
AcDbCircle
 10
578.6
 20
212.297922
 30
0.0
 40
0.5
100
AcDbArc
 50
90.0
 51
180.0
  0
ARC
  5
19C
100
AcDbEntity
  8
LAY-2
  6
CONTINUOUS
 62
     3
100
AcDbCircle
 10
578.6
 20
208.798192
 30
0.0
 40
0.5
100
AcDbArc
 50
180.0
 51
270.0
  0
ARC
  5
19D
100
AcDbEntity
  8
LAY-2
  6
CONTINUOUS
 62
     3
100
AcDbCircle
 10
596.6
 20
208.798192
 30
0.0
 40
0.5
100
AcDbArc
 50
270.0
 51
0.0
  0
LINE
  5
19E
100
AcDbEntity
  8
LAY-2
  6
CONTINUOUS
 62
     3
100
AcDbLine
 10
580.6
 20
202.4
 30
0.0
 11
580.6
 21
207.4
 31
0.0
  0
LINE
  5
19F
100
AcDbEntity
  8
LAY-2
  6
CONTINUOUS
 62
     3
100
AcDbLine
 10
580.6
 20
207.4
 30
0.0
 11
580.6
 21
207.9
 31
0.0
  0
ARC
  5
1A0
100
AcDbEntity
  8
LAY-2
  6
CONTINUOUS
 62
     3
100
AcDbCircle
 10
596.6
 20
212.297922
 30
0.0
 40
0.5
100
AcDbArc
 50
0.0
 51
90.0
  0
LINE
  5
1A1
100
AcDbEntity
  8
LAY-2
  6
CONTINUOUS
 62
     3
100
AcDbLine
 10
580.6
 20
207.9
 30
0.0
 11
587.975945
 21
207.9
 31
0.0
  0
LINE
  5
1A2
100
AcDbEntity
  8
LAY-2
  6
CONTINUOUS
 62
     3
100
AcDbLine
 10
579.6
 20
208.1
 30
0.0
 11
579.6
 21
207.994058
 31
0.0
  0
LINE
  5
1A3
100
AcDbEntity
  8
LAY-2
  6
CONTINUOUS
 62
     3
100
AcDbLine
 10
595.6
 20
207.973887
 30
0.0
 11
595.6
 21
208.1
 31
0.0
  0
LINE
  5
1A4
100
AcDbEntity
  8
LAY-2
  6
CONTINUOUS
 62
     3
100
AcDbLine
 10
652.1
 20
196.4
 30
0.0
 11
630.1
 21
196.4
 31
0.0
  0
ARC
  5
1A5
100
AcDbEntity
  8
LAY-2
  6
CONTINUOUS
 62
     3
100
AcDbCircle
 10
652.1
 20
197.4
 30
0.0
 40
1.0
100
AcDbArc
 50
270.0
 51
0.0
  0
LINE
  5
1A6
100
AcDbEntity
  8
LAY-2
  6
CONTINUOUS
 62
     3
100
AcDbLine
 10
235.7
 20
197.4
 30
0.0
 11
235.7
 21
201.4
 31
0.0
  0
LINE
  5
1A7
100
AcDbEntity
  8
LAY-2
  6
CONTINUOUS
 62
     3
100
AcDbLine
 10
259.7
 20
197.4
 30
0.0
 11
259.7
 21
197.9
 31
0.0
  0
LINE
  5
1A8
100
AcDbEntity
  8
LAY-2
  6
CONTINUOUS
 62
     3
100
AcDbLine
 10
468.672994
 20
201.4
 30
0.0
 11
468.672994
 21
198.9
 31
0.0
  0
LINE
  5
1A9
100
AcDbEntity
  8
LAY-2
  6
CONTINUOUS
 62
     3
100
AcDbLine
 10
236.7
 20
196.4
 30
0.0
 11
258.7
 21
196.4
 31
0.0
  0
ARC
  5
1AA
100
AcDbEntity
  8
LAY-2
  6
CONTINUOUS
 62
     3
100
AcDbCircle
 10
236.7
 20
201.4
 30
0.0
 40
1.0
100
AcDbArc
 50
90.0
 51
180.0
  0
ARC
  5
1AB
100
AcDbEntity
  8
LAY-2
  6
CONTINUOUS
 62
     3
100
AcDbCircle
 10
236.7
 20
197.4
 30
0.0
 40
1.0
100
AcDbArc
 50
180.0
 51
270.0
  0
ARC
  5
1AC
100
AcDbEntity
  8
LAY-2
  6
CONTINUOUS
 62
     3
100
AcDbCircle
 10
258.7
 20
197.4
 30
0.0
 40
1.0
100
AcDbArc
 50
270.0
 51
0.0
  0
ARC
  5
1AD
100
AcDbEntity
  8
LAY-2
  6
CONTINUOUS
 62
     3
100
AcDbCircle
 10
467.672994
 20
201.4
 30
0.0
 40
1.0
100
AcDbArc
 50
0.0
 51
90.0
  0
ARC
  5
1AE
100
AcDbEntity
  8
LAY-2
  6
CONTINUOUS
 62
     3
100
AcDbCircle
 10
467.672994
 20
198.9
 30
0.0
 40
1.0
100
AcDbArc
 50
270.0
 51
0.0
  0
ARC
  5
1AF
100
AcDbEntity
  8
LAY-2
  6
CONTINUOUS
 62
     3
100
AcDbCircle
 10
258.7
 20
201.4
 30
0.0
 40
1.0
100
AcDbArc
 50
0.0
 51
90.0
  0
LINE
  5
1B0
100
AcDbEntity
  8
LAY-2
  6
CONTINUOUS
 62
     3
100
AcDbLine
 10
456.672994
 20
196.9
 30
0.0
 11
464.672994
 21
196.9
 31
0.0
  0
ARC
  5
1B1
100
AcDbEntity
  8
LAY-2
  6
CONTINUOUS
 62
     3
100
AcDbCircle
 10
456.672994
 20
197.9
 30
0.0
 40
1.0
100
AcDbArc
 50
180.0
 51
270.0
  0
ARC
  5
1B2
100
AcDbEntity
  8
LAY-2
  6
CONTINUOUS
 62
     3
100
AcDbCircle
 10
464.672994
 20
197.9
 30
0.0
 40
1.0
100
AcDbArc
 50
270.0
 51
0.0
  0
LINE
  5
1B3
100
AcDbEntity
  8
LAY-2
  6
CONTINUOUS
 62
     3
100
AcDbLine
 10
453.672994
 20
202.4
 30
0.0
 11
453.672994
 21
207.9
 31
0.0
  0
LINE
  5
1B4
100
AcDbEntity
  8
LAY-2
  6
CONTINUOUS
 62
     3
100
AcDbLine
 10
467.672994
 20
202.4
 30
0.0
 11
467.672994
 21
207.9
 31
0.0
  0
LINE
  5
1B5
100
AcDbEntity
  8
LAY-2
  6
CONTINUOUS
 62
     3
100
AcDbLine
 10
453.672994
 20
207.4
 30
0.0
 11
467.672994
 21
207.4
 31
0.0
  0
LINE
  5
1B6
100
AcDbEntity
  8
LAY-2
  6
CONTINUOUS
 62
     3
100
AcDbLine
 10
453.172994
 20
213.4
 30
0.0
 11
453.172994
 21
215.0
 31
0.0
  0
LINE
  5
1B7
100
AcDbEntity
  8
LAY-2
  6
CONTINUOUS
 62
     3
100
AcDbLine
 10
468.172994
 20
213.4
 30
0.0
 11
468.172994
 21
215.0
 31
0.0
  0
LINE
  5
1B8
100
AcDbEntity
  8
LAY-2
  6
CONTINUOUS
 62
     3
100
AcDbLine
 10
453.172994
 20
215.0
 30
0.0
 11
468.172994
 21
215.0
 31
0.0
  0
LINE
  5
1B9
100
AcDbEntity
  8
LAY-2
  6
CONTINUOUS
 62
     3
100
AcDbLine
 10
468.172994
 20
213.4
 30
0.0
 11
453.172994
 21
213.4
 31
0.0
  0
LINE
  5
1BA
100
AcDbEntity
  8
LAY-2
  6
CONTINUOUS
 62
     3
100
AcDbLine
 10
454.772994
 20
215.0
 30
0.0
 11
454.772994
 21
216.0
 31
0.0
  0
LINE
  5
1BB
100
AcDbEntity
  8
LAY-2
  6
CONTINUOUS
 62
     3
100
AcDbLine
 10
466.572994
 20
215.0
 30
0.0
 11
466.572994
 21
216.0
 31
0.0
  0
LINE
  5
1BC
100
AcDbEntity
  8
LAY-2
  6
CONTINUOUS
 62
     3
100
AcDbLine
 10
454.772994
 20
216.0
 30
0.0
 11
466.572994
 21
216.0
 31
0.0
  0
ARC
  5
1BD
100
AcDbEntity
  8
LAY-2
  6
CONTINUOUS
 62
     3
100
AcDbCircle
 10
460.672994
 20
208.761905
 30
0.0
 40
9.338095
100
AcDbArc
 50
50.815436
 51
129.184564
  0
LINE
  5
1BE
100
AcDbEntity
  8
LAY-2
  6
CONTINUOUS
 62
     3
100
AcDbLine
 10
238.7
 20
202.932281
 30
0.0
 11
238.7
 21
202.4
 31
0.0
  0
LINE
  5
1BF
100
AcDbEntity
  8
LAY-2
  6
CONTINUOUS
 62
     3
100
AcDbLine
 10
256.7
 20
202.909589
 30
0.0
 11
256.7
 21
202.4
 31
0.0
  0
LINE
  5
1C0
100
AcDbEntity
  8
LAY-2
  6
CONTINUOUS
 62
     3
100
AcDbLine
 10
453.672994
 20
207.9
 30
0.0
 11
467.672994
 21
207.9
 31
0.0
  0
LINE
  5
1C1
100
AcDbEntity
  8
LAY-2
  6
CONTINUOUS
 62
     3
100
AcDbLine
 10
465.872994
 20
213.4
 30
0.0
 11
465.872994
 21
212.893446
 31
0.0
  0
LINE
  5
1C2
100
AcDbEntity
  8
LAY-2
  6
CONTINUOUS
 62
     3
100
AcDbLine
 10
455.472994
 20
213.4
 30
0.0
 11
455.472994
 21
212.906557
 31
0.0
  0
LINE
  5
1C3
100
AcDbEntity
  8
LAY-2
  6
CONTINUOUS
 62
     3
100
AcDbLine
 10
455.472994
 20
208.406554
 30
0.0
 11
455.472994
 21
207.9
 31
0.0
  0
LINE
  5
1C4
100
AcDbEntity
  8
LAY-2
  6
CONTINUOUS
 62
     3
100
AcDbLine
 10
465.872994
 20
208.393443
 30
0.0
 11
465.872994
 21
207.9
 31
0.0
  0
LINE
  5
1C5
100
AcDbEntity
  8
LAY-2
  6
CONTINUOUS
 62
     3
100
AcDbLine
 10
236.7
 20
202.4
 30
0.0
 11
331.5
 21
202.4
 31
0.0
  0
LINE
  5
1C6
100
AcDbEntity
  8
LAY-2
  6
CONTINUOUS
 62
     3
100
AcDbLine
 10
438.055796
 20
202.4
 30
0.0
 11
467.672994
 21
202.4
 31
0.0
  0
LINE
  5
1C7
100
AcDbEntity
  8
LAY-2
  6
CONTINUOUS
 62
     3
100
AcDbLine
 10
467.672994
 20
197.9
 30
0.0
 11
437.455796
 21
197.9
 31
0.0
  0
LINE
  5
1C8
100
AcDbEntity
  8
LAY-2
  6
CONTINUOUS
 62
     3
100
AcDbLine
 10
440.0
 20
197.9
 30
0.0
 11
258.1
 21
197.9
 31
0.0
  0
LINE
  5
1C9
100
AcDbEntity
  8
LAY-2
  6
CONTINUOUS
 62
     3
100
AcDbLine
 10
329.7
 20
202.4
 30
0.0
 11
440.0
 21
202.4
 31
0.0
  0
LINE
  5
1CA
100
AcDbEntity
  8
LAY-2
  6
DASHED2
 62
     3
100
AcDbLine
 10
239.699939
 20
202.931021
 30
0.0
 11
239.699939
 21
204.000007
 31
0.0
  0
LINE
  5
1CB
100
AcDbEntity
  8
LAY-2
  6
DASHED2
 62
     3
100
AcDbLine
 10
255.699939
 20
202.91085
 30
0.0
 11
255.699939
 21
204.000007
 31
0.0
  0
LINE
  5
1CC
100
AcDbEntity
  8
LAY-2
  6
DASHED2
 62
     3
100
AcDbLine
 10
239.699939
 20
204.000007
 30
0.0
 11
255.699939
 21
204.000007
 31
0.0
  0
LINE
  5
1CD
100
AcDbEntity
  8
LAY-2
  6
DASHED2
 62
     3
100
AcDbLine
 10
253.7
 20
205.000007
 30
0.0
 11
241.7
 21
205.000007
 31
0.0
  0
LINE
  5
1CE
100
AcDbEntity
  8
LAY-2
  6
DASHED2
 62
     3
100
AcDbLine
 10
242.699878
 20
209.000022
 30
0.0
 11
252.699878
 21
209.000007
 31
0.0
  0
LINE
  5
1CF
100
AcDbEntity
  8
LAY-2
  6
DASHED2
 62
     3
100
AcDbLine
 10
252.699817
 20
205.000007
 30
0.0
 11
252.699878
 21
209.000007
 31
0.0
  0
LINE
  5
1D0
100
AcDbEntity
  8
LAY-2
  6
DASHED2
 62
     3
100
AcDbLine
 10
247.699878
 20
205.999946
 30
0.0
 11
247.699878
 21
208.000007
 31
0.0
  0
ARC
  5
1D1
100
AcDbEntity
  8
LAY-2
  6
DASHED2
 62
     3
100
AcDbCircle
 10
250.199878
 20
205.375007
 30
0.0
 40
3.625
100
AcDbArc
 50
46.397206
 51
133.602814
  0
ARC
  5
1D2
100
AcDbEntity
  8
LAY-2
  6
DASHED2
 62
     3
100
AcDbCircle
 10
245.199878
 20
205.375007
 30
0.0
 40
3.625
100
AcDbArc
 50
46.397148
 51
133.602872
  0
LINE
  5
1D3
100
AcDbEntity
  8
LAY-2
  6
DASHED2
 62
     3
100
AcDbLine
 10
242.699939
 20
205.000007
 30
0.0
 11
242.699878
 21
209.000022
 31
0.0
  0
ARC
  5
1D4
100
AcDbEntity
  8
LAY-2
  6
DASHED2
 62
     3
100
AcDbCircle
 10
245.199878
 20
208.625007
 30
0.0
 40
3.625
100
AcDbArc
 50
226.397168
 51
313.602834
  0
ARC
  5
1D5
100
AcDbEntity
  8
LAY-2
  6
DASHED2
 62
     3
100
AcDbCircle
 10
250.199878
 20
208.625007
 30
0.0
 40
3.625
100
AcDbArc
 50
226.397168
 51
313.602834
  0
LINE
  5
1D6
100
AcDbEntity
  8
LAY-2
  6
DASHED2
 62
     3
100
AcDbLine
 10
253.7
 20
205.000007
 30
0.0
 11
253.7
 21
204.000007
 31
0.0
  0
LINE
  5
1D7
100
AcDbEntity
  8
LAY-2
  6
DASHED2
 62
     3
100
AcDbLine
 10
241.7
 20
205.000007
 30
0.0
 11
241.7
 21
204.000007
 31
0.0
  0
LINE
  5
1D8
100
AcDbEntity
  8
LAY-2
  6
DASHED2
 62
     3
100
AcDbLine
 10
247.699878
 20
208.000007
 30
0.0
 11
247.699878
 21
206.000008
 31
0.0
  0
ARC
  5
1D9
100
AcDbEntity
  8
LAY-2
  6
CONTINUOUS
 62
     3
100
AcDbCircle
 10
460.695438
 20
351.939366
 30
0.0
 40
8.0
100
AcDbArc
 50
165.5856
 51
165.585815
  0
CIRCLE
  5
1DA
100
AcDbEntity
  8
LAY-2
  6
CONTINUOUS
 62
     3
100
AcDbCircle
 10
460.695438
 20
351.939366
 30
0.0
 40
7.5
  0
CIRCLE
  5
1DB
100
AcDbEntity
  8
LAY-2
  6
CONTINUOUS
 62
     3
100
AcDbCircle
 10
460.695438
 20
351.939366
 30
0.0
 40
6.0
  0
LINE
  5
1DC
100
AcDbEntity
  8
LAY-2
  6
CONTINUOUS
 62
     3
100
AcDbLine
 10
463.507024
 20
349.094205
 30
0.0
 11
457.883837
 21
354.784528
 31
0.0
  0
LINE
  5
1DD
100
AcDbEntity
  8
LAY-2
  6
CONTINUOUS
 62
     3
100
AcDbLine
 10
457.850269
 20
349.127773
 30
0.0
 11
463.540592
 21
354.75096
 31
0.0
  0
ARC
  5
1DE
100
AcDbEntity
  8
LAY-2
  6
CONTINUOUS
 62
     3
100
AcDbCircle
 10
242.859358
 20
408.252264
 30
0.0
 40
20.0
100
AcDbArc
 50
345.4956
 51
17.488116
  0
ARC
  5
1DF
100
AcDbEntity
  8
LAY-2
  6
CONTINUOUS
 62
     3
100
AcDbCircle
 10
227.679586
 20
329.611312
 30
0.0
 40
91.686379
100
AcDbArc
 50
68.455916
 51
75.4956
  0
ARC
  5
1E0
100
AcDbEntity
  8
LAY-2
  6
CONTINUOUS
 62
     3
100
AcDbCircle
 10
260.981165
 20
413.961915
 30
0.0
 40
1.0
100
AcDbArc
 50
17.488116
 51
68.455916
  0
LINE
  5
1E1
100
AcDbEntity
  8
LAY-2
  6
CONTINUOUS
 62
     3
100
AcDbLine
 10
455.197312
 20
362.616825
 30
0.0
 11
262.991086
 21
412.340483
 31
0.0
  0
ARC
  5
1E2
100
AcDbEntity
  8
LAY-2
  6
CONTINUOUS
 62
     3
100
AcDbCircle
 10
263.24154
 20
413.308611
 30
0.0
 40
1.0
100
AcDbArc
 50
193.93249
 51
255.4956
  0
ARC
  5
1E3
100
AcDbEntity
  8
LAY-2
  6
CONTINUOUS
 62
     3
100
AcDbCircle
 10
460.68825
 20
351.900035
 30
0.0
 40
8.0
100
AcDbArc
 50
165.4956
 51
165.495815
  0
ARC
  5
1E4
100
AcDbEntity
  8
LAY-2
  6
CONTINUOUS
 62
     3
100
AcDbCircle
 10
242.859358
 20
408.252264
 30
0.0
 40
20.0
100
AcDbArc
 50
313.503084
 51
345.4956
  0
ARC
  5
1E5
100
AcDbEntity
  8
LAY-2
  6
CONTINUOUS
 62
     3
100
AcDbCircle
 10
255.938837
 20
394.470855
 30
0.0
 40
1.0
100
AcDbArc
 50
262.535284
 51
313.503084
  0
ARC
  5
1E6
100
AcDbEntity
  8
LAY-2
  6
CONTINUOUS
 62
     3
100
AcDbCircle
 10
258.232453
 20
393.946043
 30
0.0
 40
1.0
100
AcDbArc
 50
75.4956
 51
137.05871
  0
ARC
  5
1E7
100
AcDbEntity
  8
LAY-2
  6
CONTINUOUS
 62
     3
100
AcDbCircle
 10
468.004005
 20
356.49618
 30
0.0
 40
1.0
100
AcDbArc
 50
2.971255
 51
60.915236
  0
ARC
  5
1E8
100
AcDbEntity
  8
LAY-2
  6
CONTINUOUS
 62
     3
100
AcDbCircle
 10
464.857336
 20
344.332767
 30
0.0
 40
1.0
100
AcDbArc
 50
262.4956
 51
334.464522
  0
LINE
  5
1E9
100
AcDbEntity
  8
LAY-2
  6
CONTINUOUS
 62
     3
100
AcDbLine
 10
455.197312
 20
362.616825
 30
0.0
 11
458.147064
 21
361.454625
 31
0.0
  0
LINE
  5
1EA
100
AcDbEntity
  8
LAY-2
  6
CONTINUOUS
 62
     3
100
AcDbLine
 10
447.327447
 20
346.06018
 30
0.0
 11
445.118331
 21
346.631678
 31
0.0
  0
LINE
  5
1EB
100
AcDbEntity
  8
LAY-2
  6
CONTINUOUS
 62
     3
100
AcDbLine
 10
402.390199
 20
357.685425
 30
0.0
 11
258.482907
 21
394.914172
 31
0.0
  0
ARC
  5
1EC
100
AcDbEntity
  8
LAY-2
  6
CONTINUOUS
 62
     3
100
AcDbCircle
 10
233.087039
 20
350.513759
 30
0.0
 40
70.095806
100
AcDbArc
 50
75.4956
 51
82.138626
  0
ARC
  5
1ED
100
AcDbEntity
  8
LAY-2
  6
CONTINUOUS
 62
     3
100
AcDbCircle
 10
267.720414
 20
484.388672
 30
0.0
 40
91.686379
100
AcDbArc
 50
249.515334
 51
262.535284
  0
LINE
  5
1EE
100
AcDbEntity
  8
LAY-3
  6
CONTINUOUS
 62
     3
100
AcDbLine
 10
596.6
 20
212.797922
 30
0.0
 11
578.6
 21
212.797922
 31
0.0
  0
LINE
  5
1EF
100
AcDbEntity
  8
LAY-3
  6
CONTINUOUS
 62
     3
100
AcDbLine
 10
596.6
 20
208.298192
 30
0.0
 11
578.6
 21
208.298192
 31
0.0
  0
LINE
  5
1F0
100
AcDbEntity
  8
LAY-3
  6
CONTINUOUS
 62
     3
100
AcDbLine
 10
597.1
 20
208.798192
 30
0.0
 11
597.1
 21
212.297922
 31
0.0
  0
LINE
  5
1F1
100
AcDbEntity
  8
LAY-3
  6
CONTINUOUS
 62
     3
100
AcDbLine
 10
578.1
 20
212.297922
 30
0.0
 11
578.1
 21
208.798192
 31
0.0
  0
ARC
  5
1F2
100
AcDbEntity
  8
LAY-3
  6
CONTINUOUS
 62
     3
100
AcDbCircle
 10
578.6
 20
212.297922
 30
0.0
 40
0.5
100
AcDbArc
 50
90.0
 51
180.0
  0
ARC
  5
1F3
100
AcDbEntity
  8
LAY-3
  6
CONTINUOUS
 62
     3
100
AcDbCircle
 10
578.6
 20
208.798192
 30
0.0
 40
0.5
100
AcDbArc
 50
180.0
 51
270.0
  0
ARC
  5
1F4
100
AcDbEntity
  8
LAY-3
  6
CONTINUOUS
 62
     3
100
AcDbCircle
 10
596.6
 20
208.798192
 30
0.0
 40
0.5
100
AcDbArc
 50
270.0
 51
0.0
  0
ARC
  5
1F5
100
AcDbEntity
  8
LAY-3
  6
CONTINUOUS
 62
     3
100
AcDbCircle
 10
596.6
 20
212.297922
 30
0.0
 40
0.5
100
AcDbArc
 50
0.0
 51
90.0
  0
LINE
  5
1F6
100
AcDbEntity
  8
LAY-3
  6
CONTINUOUS
 62
     3
100
AcDbLine
 10
322.7
 20
202.326384
 30
0.0
 11
322.7
 21
219.326397
 31
0.0
  0
LINE
  5
1F7
100
AcDbEntity
  8
LAY-3
  6
CONTINUOUS
 62
     3
100
AcDbLine
 10
225.084565
 20
218.949459
 30
0.0
 11
322.7
 21
218.826397
 31
0.0
  0
LINE
  5
1F8
100
AcDbEntity
  8
LAY-3
  6
CONTINUOUS
 62
     3
100
AcDbLine
 10
322.7
 20
202.826384
 30
0.0
 11
233.20063
 21
202.939214
 31
0.0
  0
LINE
  5
1F9
100
AcDbEntity
  8
LAY-3
  6
CONTINUOUS
 62
     3
100
AcDbLine
 10
184.698739
 20
200.500357
 30
0.0
 11
232.399622
 21
200.440222
 31
0.0
  0
LINE
  5
1FA
100
AcDbEntity
  8
LAY-3
  6
CONTINUOUS
 62
     3
100
AcDbLine
 10
185.70063
 20
207.9991
 30
0.0
 11
221.757219
 21
207.953644
 31
0.0
  0
LINE
  5
1FB
100
AcDbEntity
  8
LAY-3
  6
CONTINUOUS
 62
     3
100
AcDbLine
 10
184.701261
 20
205.200358
 30
0.0
 11
185.2
 21
205.199729
 31
0.0
  0
LINE
  5
1FC
100
AcDbEntity
  8
LAY-3
  6
CONTINUOUS
 62
     3
100
AcDbLine
 10
183.7
 20
204.200359
 30
0.0
 11
183.7
 21
201.500357
 31
0.0
  0
LINE
  5
1FD
100
AcDbEntity
  8
LAY-3
  6
CONTINUOUS
 62
     3
100
AcDbLine
 10
185.2
 20
207.499101
 30
0.0
 11
185.2
 21
205.199729
 31
0.0
  0
ARC
  5
1FE
100
AcDbEntity
  8
LAY-3
  6
CONTINUOUS
 62
     3
100
AcDbCircle
 10
184.7
 20
201.500357
 30
0.0
 40
1.0
100
AcDbArc
 50
180.0
 51
269.927769
  0
ARC
  5
1FF
100
AcDbEntity
  8
LAY-3
  6
CONTINUOUS
 62
     3
100
AcDbCircle
 10
184.7
 20
204.200359
 30
0.0
 40
1.0
100
AcDbArc
 50
89.927769
 51
180.0
  0
ARC
  5
200
100
AcDbEntity
  8
LAY-3
  6
CONTINUOUS
 62
     3
100
AcDbCircle
 10
185.7
 20
207.499101
 30
0.0
 40
0.5
100
AcDbArc
 50
89.927769
 51
180.0
  0
LINE
  5
201
100
AcDbEntity
  8
LAY-3
  6
CONTINUOUS
 62
     3
100
AcDbLine
 10
223.583882
 20
217.509657
 30
0.0
 11
223.257901
 21
209.393446
 31
0.0
  0
ARC
  5
202
100
AcDbEntity
  8
LAY-3
  6
CONTINUOUS
 62
     3
100
AcDbCircle
 10
221.75911
 20
209.453643
 30
0.0
 40
1.5
100
AcDbArc
 50
269.927769
 51
357.7
  0
ARC
  5
203
100
AcDbEntity
  8
LAY-3
  6
CONTINUOUS
 62
     3
100
AcDbCircle
 10
225.082674
 20
217.44946
 30
0.0
 40
1.5
100
AcDbArc
 50
89.927769
 51
177.7
  0
ARC
  5
204
100
AcDbEntity
  8
LAY-3
  6
CONTINUOUS
 62
     3
100
AcDbCircle
 10
224.65
 20
210.95
 30
0.0
 40
5.55
100
AcDbArc
 50
101.549427
 51
149.101852
  0
LINE
  5
205
100
AcDbEntity
  8
LAY-3
  6
CONTINUOUS
 62
     3
100
AcDbLine
 10
232.7
 20
202.439214
 30
0.0
 11
232.7
 21
200.740222
 31
0.0
  0
ARC
  5
206
100
AcDbEntity
  8
LAY-3
  6
CONTINUOUS
 62
     3
100
AcDbCircle
 10
232.4
 20
200.740222
 30
0.0
 40
0.3
100
AcDbArc
 50
269.927769
 51
0.0
  0
ARC
  5
207
100
AcDbEntity
  8
LAY-3
  6
CONTINUOUS
 62
     3
100
AcDbCircle
 10
233.2
 20
202.439214
 30
0.0
 40
0.5
100
AcDbArc
 50
89.927769
 51
180.0
  0
LINE
  5
208
100
AcDbEntity
  8
LAY-3
  6
CONTINUOUS
 62
     3
100
AcDbLine
 10
329.7
 20
202.317559
 30
0.0
 11
329.7
 21
219.317573
 31
0.0
  0
LINE
  5
209
100
AcDbEntity
  8
LAY-3
  6
CONTINUOUS
 62
     3
100
AcDbLine
 10
322.7
 20
219.326397
 30
0.0
 11
329.7
 21
219.317573
 31
0.0
  0
LINE
  5
20A
100
AcDbEntity
  8
LAY-3
  6
CONTINUOUS
 62
     3
100
AcDbLine
 10
322.7
 20
202.326384
 30
0.0
 11
329.7
 21
202.317559
 31
0.0
  0
ARC
  5
20B
100
AcDbEntity
  8
LAY-3
  6
CONTINUOUS
 62
     3
100
AcDbCircle
 10
319.7
 20
215.080176
 30
0.0
 40
10.0
100
AcDbArc
 50
334.777105
 51
25.078432
  0
ARC
  5
20C
100
AcDbEntity
  8
LAY-3
  6
CONTINUOUS
 62
     3
100
AcDbCircle
 10
332.7
 20
215.080176
 30
0.0
 40
10.0
100
AcDbArc
 50
154.921568
 51
205.222895
  0
ARC
  5
20D
100
AcDbEntity
  8
LAY-3
  6
CONTINUOUS
 62
     3
100
AcDbCircle
 10
332.689243
 20
206.547405
 30
0.0
 40
10.0
100
AcDbArc
 50
154.632642
 51
204.933969
  0
ARC
  5
20E
100
AcDbEntity
  8
LAY-3
  6
CONTINUOUS
 62
     3
100
AcDbCircle
 10
319.689284
 20
206.580183
 30
0.0
 40
10.0
100
AcDbArc
 50
334.777105
 51
25.078432
  0
LINE
  5
20F
100
AcDbEntity
  8
LAY-3
  6
CONTINUOUS
 62
     3
100
AcDbLine
 10
323.650408
 20
210.825192
 30
0.0
 11
328.746568
 21
210.818768
 31
0.0
  0
LINE
  5
210
100
AcDbEntity
  8
LAY-3
  6
CONTINUOUS
 62
     3
100
AcDbLine
 10
329.7
 20
216.817571
 30
0.0
 11
355.674839
 21
216.784825
 31
0.0
  0
LINE
  5
211
100
AcDbEntity
  8
LAY-3
  6
CONTINUOUS
 62
     3
100
AcDbLine
 10
329.7
 20
204.817561
 30
0.0
 11
355.674839
 21
204.784815
 31
0.0
  0
LINE
  5
212
100
AcDbEntity
  8
LAY-3
  6
CONTINUOUS
 62
     3
100
AcDbLine
 10
355.674839
 20
204.784815
 30
0.0
 11
355.674839
 21
216.784825
 31
0.0
  0
LINE
  5
213
100
AcDbEntity
  8
LAY-3
  6
CONTINUOUS
 62
     3
100
AcDbLine
 10
449.672994
 20
212.913869
 30
0.0
 11
470.172994
 21
212.888025
 31
0.0
  0
LINE
  5
214
100
AcDbEntity
  8
LAY-3
  6
CONTINUOUS
 62
     3
100
AcDbLine
 10
449.672994
 20
208.413866
 30
0.0
 11
470.172994
 21
208.388022
 31
0.0
  0
LINE
  5
215
100
AcDbEntity
  8
LAY-3
  6
CONTINUOUS
 62
     3
100
AcDbLine
 10
470.172994
 20
208.388022
 30
0.0
 11
470.172994
 21
212.888025
 31
0.0
  0
LINE
  5
216
100
AcDbEntity
  8
LAY-3
  6
CONTINUOUS
 62
     3
100
AcDbLine
 10
446.529406
 20
205.270277
 30
0.0
 11
449.672994
 21
208.413866
 31
0.0
  0
LINE
  5
217
100
AcDbEntity
  8
LAY-3
  6
CONTINUOUS
 62
     3
100
AcDbLine
 10
446.516561
 20
216.070302
 30
0.0
 11
449.672994
 21
212.913869
 31
0.0
  0
LINE
  5
218
100
AcDbEntity
  8
LAY-3
  6
CONTINUOUS
 62
     1
100
AcDbLine
 10
329.7
 20
216.21757
 30
0.0
 11
355.674839
 21
216.184824
 31
0.0
  0
LINE
  5
219
100
AcDbEntity
  8
LAY-3
  6
CONTINUOUS
 62
     3
100
AcDbLine
 10
355.674839
 20
216.184824
 30
0.0
 11
446.516561
 21
216.070302
 31
0.0
  0
LINE
  5
21A
100
AcDbEntity
  8
LAY-3
  6
CONTINUOUS
 62
     1
100
AcDbLine
 10
329.7
 20
205.417561
 30
0.0
 11
355.674839
 21
205.384816
 31
0.0
  0
LINE
  5
21B
100
AcDbEntity
  8
LAY-3
  6
CONTINUOUS
 62
     3
100
AcDbLine
 10
355.674839
 20
205.384816
 30
0.0
 11
446.529406
 21
205.270277
 31
0.0
  0
LINE
  5
21C
100
AcDbEntity
  8
LAY-3
  6
CONTINUOUS
 62
     3
100
AcDbLine
 10
223.747015
 20
361.345573
 30
0.0
 11
322.745272
 21
360.758098
 31
0.0
  0
LINE
  5
21D
100
AcDbEntity
  8
LAY-3
  6
CONTINUOUS
 62
     3
100
AcDbLine
 10
223.747015
 20
361.345573
 30
0.0
 11
223.699542
 21
353.345714
 31
0.0
  0
LINE
  5
21E
100
AcDbEntity
  8
LAY-3
  6
CONTINUOUS
 62
     3
100
AcDbLine
 10
223.65207
 20
345.345854
 30
0.0
 11
322.650326
 21
344.75838
 31
0.0
  0
LINE
  5
21F
100
AcDbEntity
  8
LAY-3
  6
CONTINUOUS
 62
     3
100
AcDbLine
 10
223.65207
 20
345.345854
 30
0.0
 11
223.699542
 21
353.345714
 31
0.0
  0
ARC
  5
220
100
AcDbEntity
  8
LAY-3
  6
CONTINUOUS
 62
     3
100
AcDbCircle
 10
224.199533
 20
353.342747
 30
0.0
 40
5.555
100
AcDbArc
 50
94.824125
 51
264.495875
  0
LINE
  5
221
100
AcDbEntity
  8
LAY-3
  6
CONTINUOUS
 62
     3
100
AcDbLine
 10
322.745272
 20
360.758098
 30
0.0
 11
322.650326
 21
344.75838
 31
0.0
  0
LINE
  5
222
100
AcDbEntity
  8
LAY-3
  6
CONTINUOUS
 62
     3
100
AcDbLine
 10
329.697676
 20
352.716701
 30
0.0
 11
329.741358
 21
360.077787
 31
0.0
  0
LINE
  5
223
100
AcDbEntity
  8
LAY-3
  6
CONTINUOUS
 62
     3
100
AcDbLine
 10
329.697676
 20
352.716701
 30
0.0
 11
329.656563
 21
345.788619
 31
0.0
  0
LINE
  5
224
100
AcDbEntity
  8
LAY-3
  6
CONTINUOUS
 62
     3
100
AcDbLine
 10
329.074033
 20
362.535529
 30
0.0
 11
323.437928
 21
362.568975
 31
0.0
  0
LINE
  5
225
100
AcDbEntity
  8
LAY-3
  6
CONTINUOUS
 62
     3
100
AcDbLine
 10
329.044912
 20
357.628138
 30
0.0
 11
323.408806
 21
357.661584
 31
0.0
  0
ARC
  5
226
100
AcDbEntity
  8
LAY-3
  6
CONTINUOUS
 62
     3
100
AcDbCircle
 10
311.697993
 20
352.823514
 30
0.0
 40
18.0
100
AcDbArc
 50
343.838718
 51
15.481282
  0
ARC
  5
227
100
AcDbEntity
  8
LAY-3
  6
CONTINUOUS
 62
     3
100
AcDbCircle
 10
324.98573
 20
360.106008
 30
0.0
 40
4.755712
100
AcDbArc
 50
328.598614
 51
30.721386
  0
ARC
  5
228
100
AcDbEntity
  8
LAY-3
  6
CONTINUOUS
 62
     3
100
AcDbCircle
 10
327.497109
 20
360.091105
 30
0.0
 40
4.755712
100
AcDbArc
 50
148.598614
 51
210.721386
  0
ARC
  5
229
100
AcDbEntity
  8
LAY-3
  6
CONTINUOUS
 62
     3
100
AcDbCircle
 10
324.898366
 20
345.383835
 30
0.0
 40
4.755712
100
AcDbArc
 50
328.598614
 51
30.721386
  0
ARC
  5
22A
100
AcDbEntity
  8
LAY-3
  6
CONTINUOUS
 62
     3
100
AcDbCircle
 10
327.409745
 20
345.368932
 30
0.0
 40
4.755712
100
AcDbArc
 50
148.598614
 51
210.721386
  0
LINE
  5
22B
100
AcDbEntity
  8
LAY-3
  6
CONTINUOUS
 62
     3
100
AcDbLine
 10
328.957547
 20
342.905965
 30
0.0
 11
323.321442
 21
342.939411
 31
0.0
  0
LINE
  5
22C
100
AcDbEntity
  8
LAY-3
  6
CONTINUOUS
 62
     3
100
AcDbLine
 10
328.986669
 20
347.813356
 30
0.0
 11
323.350563
 21
347.846802
 31
0.0
  0
ARC
  5
22D
100
AcDbEntity
  8
LAY-3
  6
CONTINUOUS
 62
     3
100
AcDbCircle
 10
340.697482
 20
352.651426
 30
0.0
 40
18.0
100
AcDbArc
 50
163.838718
 51
195.481282
  0
ARC
  5
22E
100
AcDbEntity
  8
LAY-3
  6
CONTINUOUS
 62
     3
100
AcDbCircle
 10
460.695431
 20
351.939335
 30
0.0
 40
9.5
100
AcDbArc
 50
359.66
 51
89.66
  0
LINE
  5
22F
100
AcDbEntity
  8
LAY-3
  6
CONTINUOUS
 62
     3
100
AcDbLine
 10
460.751804
 20
361.439168
 30
0.0
 11
453.553339
 21
361.481885
 31
0.0
  0
LINE
  5
230
100
AcDbEntity
  8
LAY-3
  6
CONTINUOUS
 62
     3
100
AcDbLine
 10
355.732884
 20
358.562309
 30
0.0
 11
355.697279
 21
352.562414
 31
0.0
  0
LINE
  5
231
100
AcDbEntity
  8
LAY-3
  6
CONTINUOUS
 62
     3
100
AcDbLine
 10
446.527725
 20
357.423504
 30
0.0
 11
355.729323
 21
357.962319
 31
0.0
  0
LINE
  5
232
100
AcDbEntity
  8
LAY-3
  6
CONTINUOUS
 62
     3
100
AcDbLine
 10
453.553339
 20
361.481885
 30
0.0
 11
446.502982
 21
357.466953
 31
0.0
  0
CIRCLE
  5
233
100
AcDbEntity
  8
LAY-3
  6
CONTINUOUS
 62
     3
100
AcDbCircle
 10
460.695431
 20
351.939335
 30
0.0
 40
5.35
  0
LINE
  5
234
100
AcDbEntity
  8
LAY-3
  6
CONTINUOUS
 62
     3
100
AcDbLine
 10
446.463636
 20
346.623694
 30
0.0
 11
355.665235
 21
347.162509
 31
0.0
  0
LINE
  5
235
100
AcDbEntity
  8
LAY-3
  6
CONTINUOUS
 62
     3
100
AcDbLine
 10
453.440592
 20
342.48222
 30
0.0
 11
446.43838
 21
346.580542
 31
0.0
  0
LINE
  5
236
100
AcDbEntity
  8
LAY-3
  6
CONTINUOUS
 62
     3
100
AcDbLine
 10
460.639057
 20
342.439503
 30
0.0
 11
453.440592
 21
342.48222
 31
0.0
  0
ARC
  5
237
100
AcDbEntity
  8
LAY-3
  6
CONTINUOUS
 62
     3
100
AcDbCircle
 10
460.695431
 20
351.939335
 30
0.0
 40
9.5
100
AcDbArc
 50
269.66
 51
359.66
  0
LINE
  5
238
100
AcDbEntity
  8
LAY-3
  6
CONTINUOUS
 62
     3
100
AcDbLine
 10
355.661675
 20
346.56252
 30
0.0
 11
355.697279
 21
352.562414
 31
0.0
  0
LINE
  5
239
100
AcDbEntity
  8
LAY-3
  6
CONTINUOUS
 62
     3
100
AcDbLine
 10
446.527725
 20
357.423504
 30
0.0
 11
446.463636
 21
346.623694
 31
0.0
  0
LINE
  5
23A
100
AcDbEntity
  8
LAY-3
  6
CONTINUOUS
 62
     3
100
AcDbLine
 10
355.732884
 20
358.562309
 30
0.0
 11
329.73328
 21
358.716595
 31
0.0
  0
LINE
  5
23B
100
AcDbEntity
  8
LAY-3
  6
CONTINUOUS
 62
     3
100
AcDbLine
 10
355.661675
 20
346.56252
 30
0.0
 11
329.662071
 21
346.716806
 31
0.0
  0
LINE
  5
23C
100
AcDbEntity
  8
LAY-3
  6
CONTINUOUS
 62
     1
100
AcDbLine
 10
355.665235
 20
347.162509
 30
0.0
 11
329.665632
 21
347.316796
 31
0.0
  0
LINE
  5
23D
100
AcDbEntity
  8
LAY-3
  6
CONTINUOUS
 62
     1
100
AcDbLine
 10
355.729323
 20
357.962319
 30
0.0
 11
329.72972
 21
358.116606
 31
0.0
  0
LINE
  5
23E
100
AcDbEntity
  8
LAY-3
  6
DASHED2
 62
     3
100
AcDbLine
 10
329.73328
 20
358.716595
 30
0.0
 11
305.733764
 21
358.859013
 31
0.0
  0
LINE
  5
23F
100
AcDbEntity
  8
LAY-3
  6
DASHED2
 62
     1
100
AcDbLine
 10
329.72972
 20
358.116606
 30
0.0
 11
305.730204
 21
358.259023
 31
0.0
  0
LINE
  5
240
100
AcDbEntity
  8
LAY-3
  6
DASHED2
 62
     1
100
AcDbLine
 10
329.665632
 20
347.316796
 30
0.0
 11
305.666116
 21
347.459214
 31
0.0
  0
LINE
  5
241
100
AcDbEntity
  8
LAY-3
  6
DASHED2
 62
     3
100
AcDbLine
 10
329.662071
 20
346.716806
 30
0.0
 11
305.662555
 21
346.859224
 31
0.0
  0
LINE
  5
242
100
AcDbEntity
  8
LAY-3
  6
DASHED2
 62
     3
100
AcDbLine
 10
305.733764
 20
358.859013
 30
0.0
 11
305.662555
 21
346.859224
 31
0.0
  0
ARC
  5
243
100
AcDbEntity
  8
LAY-3
  6
CONTINUOUS
 62
     3
100
AcDbCircle
 10
224.016007
 20
406.674775
 30
0.0
 40
45.33
100
AcDbArc
 50
255.544017
 51
269.66
  0
ARC
  5
244
100
AcDbEntity
  8
LAY-3
  6
CONTINUOUS
 62
     3
100
AcDbCircle
 10
223.383077
 20
300.016653
 30
0.0
 40
45.33
100
AcDbArc
 50
89.66
 51
109.699302
  0
ARC
  5
245
100
AcDbEntity
  8
LAY-4
  6
CONTINUOUS
 62
     3
100
AcDbCircle
 10
247.7
 20
410.499992
 30
0.0
 40
9.0
100
AcDbArc
 50
140.560853
 51
141.057559
  0
LINE
  5
246
100
AcDbEntity
  8
LAY-4
  6
CONTINUOUS
 62
     3
100
AcDbLine
 10
156.7
 20
423.5
 30
0.0
 11
238.7
 21
423.5
 31
0.0
  0
LINE
  5
247
100
AcDbEntity
  8
LAY-4
  6
CONTINUOUS
 62
     3
100
AcDbLine
 10
156.7
 20
398.5
 30
0.0
 11
164.60983
 21
398.5
 31
0.0
  0
LINE
  5
248
100
AcDbEntity
  8
LAY-4
  6
CONTINUOUS
 62
     3
100
AcDbLine
 10
152.7
 20
419.5
 30
0.0
 11
152.7
 21
402.5
 31
0.0
  0
ARC
  5
249
100
AcDbEntity
  8
LAY-4
  6
CONTINUOUS
 62
     3
100
AcDbCircle
 10
156.7
 20
419.5
 30
0.0
 40
4.0
100
AcDbArc
 50
90.0
 51
180.0
  0
ARC
  5
24A
100
AcDbEntity
  8
LAY-4
  6
CONTINUOUS
 62
     3
100
AcDbCircle
 10
156.7
 20
402.5
 30
0.0
 40
4.0
100
AcDbArc
 50
180.0
 51
270.0
  0
ARC
  5
24B
100
AcDbEntity
  8
LAY-4
  6
CONTINUOUS
 62
     3
100
AcDbCircle
 10
238.7
 20
419.5
 30
0.0
 40
4.0
100
AcDbArc
 50
0.0
 51
90.0
  0
LINE
  5
24C
100
AcDbEntity
  8
LAY-4
  6
CONTINUOUS
 62
     3
100
AcDbLine
 10
242.7
 20
419.5
 30
0.0
 11
242.7
 21
402.5
 31
0.0
  0
ARC
  5
24D
100
AcDbEntity
  8
LAY-4
  6
CONTINUOUS
 62
     3
100
AcDbCircle
 10
238.7
 20
402.5
 30
0.0
 40
4.0
100
AcDbArc
 50
270.0
 51
0.0
  0
LINE
  5
24E
100
AcDbEntity
  8
LAY-4
  6
CONTINUOUS
 62
     3
100
AcDbLine
 10
238.7
 20
398.5
 30
0.0
 11
230.79017
 21
398.5
 31
0.0
  0
CIRCLE
  5
24F
100
AcDbEntity
  8
LAY-4
  6
CONTINUOUS
 62
     3
100
AcDbCircle
 10
159.7
 20
415.5
 30
0.0
 40
2.4
  0
CIRCLE
  5
250
100
AcDbEntity
  8
LAY-4
  6
DASHED2
 62
     3
100
AcDbCircle
 10
159.7
 20
415.5
 30
0.0
 40
5.1
  0
CIRCLE
  5
251
100
AcDbEntity
  8
LAY-4
  6
CONTINUOUS
 62
     3
100
AcDbCircle
 10
235.7
 20
415.5
 30
0.0
 40
2.4
  0
CIRCLE
  5
252
100
AcDbEntity
  8
LAY-4
  6
DASHED2
 62
     3
100
AcDbCircle
 10
235.7
 20
415.5
 30
0.0
 40
5.1
  0
CIRCLE
  5
253
100
AcDbEntity
  8
LAY-4
  6
CONTINUOUS
 62
     3
100
AcDbCircle
 10
177.7
 20
405.5
 30
0.0
 40
2.4
  0
CIRCLE
  5
254
100
AcDbEntity
  8
LAY-4
  6
DASHED2
 62
     3
100
AcDbCircle
 10
177.7
 20
405.5
 30
0.0
 40
5.1
  0
LINE
  5
255
100
AcDbEntity
  8
LAY-4
  6
DASHED2
 62
     3
100
AcDbLine
 10
240.7
 20
228.8
 30
0.0
 11
240.7
 21
229.1
 31
0.0
  0
LINE
  5
256
100
AcDbEntity
  8
LAY-4
  6
DASHED2
 62
     3
100
AcDbLine
 10
238.2
 20
231.6
 30
0.0
 11
233.2
 21
231.6
 31
0.0
  0
LINE
  5
257
100
AcDbEntity
  8
LAY-4
  6
DASHED2
 62
     3
100
AcDbLine
 10
240.7
 20
229.1
 30
0.0
 11
238.2
 21
231.6
 31
0.0
  0
LINE
  5
258
100
AcDbEntity
  8
LAY-4
  6
DASHED2
 62
     3
100
AcDbLine
 10
238.2
 20
231.6
 30
0.0
 11
238.2
 21
241.1
 31
0.0
  0
LINE
  5
259
100
AcDbEntity
  8
LAY-4
  6
DASHED2
 62
     1
100
AcDbLine
 10
237.7
 20
231.6
 30
0.0
 11
237.7
 21
241.1
 31
0.0
  0
LINE
  5
25A
100
AcDbEntity
  8
LAY-4
  6
DASHED2
 62
     3
100
AcDbLine
 10
230.7
 20
228.8
 30
0.0
 11
230.7
 21
229.1
 31
0.0
  0
LINE
  5
25B
100
AcDbEntity
  8
LAY-4
  6
DASHED2
 62
     3
100
AcDbLine
 10
230.7
 20
229.1
 30
0.0
 11
233.2
 21
231.6
 31
0.0
  0
LINE
  5
25C
100
AcDbEntity
  8
LAY-4
  6
DASHED2
 62
     3
100
AcDbLine
 10
233.2
 20
231.6
 30
0.0
 11
233.2
 21
241.1
 31
0.0
  0
LINE
  5
25D
100
AcDbEntity
  8
LAY-4
  6
DASHED2
 62
     1
100
AcDbLine
 10
233.7
 20
231.6
 30
0.0
 11
233.7
 21
241.1
 31
0.0
  0
LINE
  5
25E
100
AcDbEntity
  8
LAY-4
  6
CONTINUOUS
 62
     3
100
AcDbLine
 10
240.7
 20
228.8
 30
0.0
 11
230.7
 21
228.8
 31
0.0
  0
LINE
  5
25F
100
AcDbEntity
  8
LAY-4
  6
DASHED2
 62
     3
100
AcDbLine
 10
240.7
 20
229.1
 30
0.0
 11
230.7
 21
229.1
 31
0.0
  0
ARC
  5
260
100
AcDbEntity
  8
LAY-4
  6
CONTINUOUS
 62
     3
100
AcDbCircle
 10
235.7
 20
238.616667
 30
0.0
 40
11.016667
100
AcDbArc
 50
243.008533
 51
296.991467
  0
LINE
  5
261
100
AcDbEntity
  8
LAY-4
  6
CONTINUOUS
 62
     3
100
AcDbLine
 10
657.6
 20
232.4
 30
0.0
 11
617.886876
 21
232.4
 31
0.0
  0
LINE
  5
262
100
AcDbEntity
  8
LAY-4
  6
CONTINUOUS
 62
     3
100
AcDbLine
 10
657.6
 20
228.8
 30
0.0
 11
616.74731
 21
228.8
 31
0.0
  0
LINE
  5
263
100
AcDbEntity
  8
LAY-4
  6
CONTINUOUS
 62
     3
100
AcDbLine
 10
657.6
 20
232.4
 30
0.0
 11
657.6
 21
228.8
 31
0.0
  0
LINE
  5
264
100
AcDbEntity
  8
LAY-4
  6
CONTINUOUS
 62
     3
100
AcDbLine
 10
152.7
 20
232.4
 30
0.0
 11
242.7
 21
232.4
 31
0.0
  0
LINE
  5
265
100
AcDbEntity
  8
LAY-4
  6
CONTINUOUS
 62
     3
100
AcDbLine
 10
152.7
 20
232.4
 30
0.0
 11
152.7
 21
228.8
 31
0.0
  0
LINE
  5
266
100
AcDbEntity
  8
LAY-4
  6
CONTINUOUS
 62
     3
100
AcDbLine
 10
152.7
 20
228.8
 30
0.0
 11
177.12563
 21
228.8
 31
0.0
  0
LINE
  5
267
100
AcDbEntity
  8
LAY-4
  6
CONTINUOUS
 62
     3
100
AcDbLine
 10
242.7
 20
232.4
 30
0.0
 11
242.7
 21
228.8
 31
0.0
  0
LINE
  5
268
100
AcDbEntity
  8
LAY-4
  6
CONTINUOUS
 62
     3
100
AcDbLine
 10
242.7
 20
228.8
 30
0.0
 11
218.27437
 21
228.8
 31
0.0
  0
LINE
  5
269
100
AcDbEntity
  8
LAY-4
  6
CONTINUOUS
 62
     3
100
AcDbLine
 10
172.7
 20
228.8
 30
0.0
 11
177.12563
 21
228.8
 31
0.0
  0
LINE
  5
26A
100
AcDbEntity
  8
LAY-4
  6
CONTINUOUS
 62
     3
100
AcDbLine
 10
218.27437
 20
228.8
 30
0.0
 11
222.7
 21
228.8
 31
0.0
  0
LINE
  5
26B
100
AcDbEntity
  8
LAY-4
  6
DASHED2
 62
     3
100
AcDbLine
 10
154.7
 20
228.8
 30
0.0
 11
154.7
 21
229.1
 31
0.0
  0
LINE
  5
26C
100
AcDbEntity
  8
LAY-4
  6
DASHED2
 62
     3
100
AcDbLine
 10
157.2
 20
231.6
 30
0.0
 11
162.2
 21
231.6
 31
0.0
  0
LINE
  5
26D
100
AcDbEntity
  8
LAY-4
  6
DASHED2
 62
     3
100
AcDbLine
 10
154.7
 20
229.1
 30
0.0
 11
157.2
 21
231.6
 31
0.0
  0
LINE
  5
26E
100
AcDbEntity
  8
LAY-4
  6
DASHED2
 62
     3
100
AcDbLine
 10
157.2
 20
231.6
 30
0.0
 11
157.2
 21
241.1
 31
0.0
  0
LINE
  5
26F
100
AcDbEntity
  8
LAY-4
  6
DASHED2
 62
     1
100
AcDbLine
 10
157.7
 20
231.6
 30
0.0
 11
157.7
 21
241.1
 31
0.0
  0
LINE
  5
270
100
AcDbEntity
  8
LAY-4
  6
DASHED2
 62
     3
100
AcDbLine
 10
164.7
 20
228.8
 30
0.0
 11
164.7
 21
229.1
 31
0.0
  0
LINE
  5
271
100
AcDbEntity
  8
LAY-4
  6
DASHED2
 62
     3
100
AcDbLine
 10
164.7
 20
229.1
 30
0.0
 11
162.2
 21
231.6
 31
0.0
  0
LINE
  5
272
100
AcDbEntity
  8
LAY-4
  6
DASHED2
 62
     3
100
AcDbLine
 10
162.2
 20
231.6
 30
0.0
 11
162.2
 21
241.1
 31
0.0
  0
LINE
  5
273
100
AcDbEntity
  8
LAY-4
  6
DASHED2
 62
     1
100
AcDbLine
 10
161.7
 20
231.6
 30
0.0
 11
161.7
 21
241.1
 31
0.0
  0
LINE
  5
274
100
AcDbEntity
  8
LAY-4
  6
CONTINUOUS
 62
     3
100
AcDbLine
 10
154.7
 20
228.8
 30
0.0
 11
164.7
 21
228.8
 31
0.0
  0
LINE
  5
275
100
AcDbEntity
  8
LAY-4
  6
DASHED2
 62
     3
100
AcDbLine
 10
154.7
 20
229.1
 30
0.0
 11
164.7
 21
229.1
 31
0.0
  0
ARC
  5
276
100
AcDbEntity
  8
LAY-4
  6
CONTINUOUS
 62
     3
100
AcDbCircle
 10
159.7
 20
238.616667
 30
0.0
 40
11.016667
100
AcDbArc
 50
243.008533
 51
296.991467
  0
LINE
  5
277
100
AcDbEntity
  8
LAY-4
  6
DASHED2
 62
     3
100
AcDbLine
 10
654.6
 20
228.8
 30
0.0
 11
654.6
 21
229.1
 31
0.0
  0
LINE
  5
278
100
AcDbEntity
  8
LAY-4
  6
DASHED2
 62
     3
100
AcDbLine
 10
652.1
 20
231.6
 30
0.0
 11
647.1
 21
231.6
 31
0.0
  0
LINE
  5
279
100
AcDbEntity
  8
LAY-4
  6
DASHED2
 62
     3
100
AcDbLine
 10
654.6
 20
229.1
 30
0.0
 11
652.1
 21
231.6
 31
0.0
  0
LINE
  5
27A
100
AcDbEntity
  8
LAY-4
  6
DASHED2
 62
     3
100
AcDbLine
 10
644.6
 20
228.8
 30
0.0
 11
644.6
 21
229.1
 31
0.0
  0
LINE
  5
27B
100
AcDbEntity
  8
LAY-4
  6
DASHED2
 62
     3
100
AcDbLine
 10
644.6
 20
229.1
 30
0.0
 11
647.1
 21
231.6
 31
0.0
  0
LINE
  5
27C
100
AcDbEntity
  8
LAY-4
  6
CONTINUOUS
 62
     3
100
AcDbLine
 10
654.6
 20
228.8
 30
0.0
 11
644.6
 21
228.8
 31
0.0
  0
LINE
  5
27D
100
AcDbEntity
  8
LAY-4
  6
DASHED2
 62
     3
100
AcDbLine
 10
654.6
 20
229.1
 30
0.0
 11
644.6
 21
229.1
 31
0.0
  0
ARC
  5
27E
100
AcDbEntity
  8
LAY-4
  6
CONTINUOUS
 62
     3
100
AcDbCircle
 10
649.6
 20
238.616667
 30
0.0
 40
11.016667
100
AcDbArc
 50
243.008533
 51
296.991467
  0
LINE
  5
27F
100
AcDbEntity
  8
LAY-4
  6
CONTINUOUS
 62
     3
100
AcDbLine
 10
632.6
 20
228.8
 30
0.0
 11
632.6
 21
232.4
 31
0.0
  0
LINE
  5
280
100
AcDbEntity
  8
LAY-4
  6
DASHED2
 62
     3
100
AcDbLine
 10
652.1
 20
241.1
 30
0.0
 11
647.1
 21
241.1
 31
0.0
  0
LINE
  5
281
100
AcDbEntity
  8
LAY-4
  6
DASHED2
 62
     3
100
AcDbLine
 10
652.1
 20
231.6
 30
0.0
 11
652.1
 21
237.2
 31
0.0
  0
LINE
  5
282
100
AcDbEntity
  8
LAY-4
  6
DASHED2
 62
     3
100
AcDbLine
 10
652.1
 20
237.2
 30
0.0
 11
652.1
 21
241.1
 31
0.0
  0
LINE
  5
283
100
AcDbEntity
  8
LAY-4
  6
DASHED2
 62
     1
100
AcDbLine
 10
651.6
 20
231.6
 30
0.0
 11
651.6
 21
237.2
 31
0.0
  0
LINE
  5
284
100
AcDbEntity
  8
LAY-4
  6
DASHED2
 62
     1
100
AcDbLine
 10
651.6
 20
237.2
 30
0.0
 11
651.6
 21
241.1
 31
0.0
  0
LINE
  5
285
100
AcDbEntity
  8
LAY-4
  6
DASHED2
 62
     1
100
AcDbLine
 10
647.6
 20
231.6
 30
0.0
 11
647.6
 21
237.2
 31
0.0
  0
LINE
  5
286
100
AcDbEntity
  8
LAY-4
  6
DASHED2
 62
     1
100
AcDbLine
 10
647.6
 20
237.2
 30
0.0
 11
647.6
 21
241.1
 31
0.0
  0
LINE
  5
287
100
AcDbEntity
  8
LAY-4
  6
DASHED2
 62
     3
100
AcDbLine
 10
647.1
 20
231.6
 30
0.0
 11
647.1
 21
237.2
 31
0.0
  0
LINE
  5
288
100
AcDbEntity
  8
LAY-4
  6
DASHED2
 62
     3
100
AcDbLine
 10
647.1
 20
237.2
 30
0.0
 11
647.1
 21
241.1
 31
0.0
  0
LINE
  5
289
100
AcDbEntity
  8
LAY-4
  6
DASHED2
 62
     3
100
AcDbLine
 10
157.2
 20
241.1
 30
0.0
 11
162.2
 21
241.1
 31
0.0
  0
LINE
  5
28A
100
AcDbEntity
  8
LAY-4
  6
DASHED2
 62
     3
100
AcDbLine
 10
233.2
 20
241.1
 30
0.0
 11
238.2
 21
241.1
 31
0.0
  0
ARC
  5
28B
100
AcDbEntity
  8
LAY-4
  6
CONTINUOUS
 62
     3
100
AcDbCircle
 10
247.7
 20
410.499992
 30
0.0
 40
9.0
100
AcDbArc
 50
140.560853
 51
141.057559
  0
LINE
  5
28C
100
AcDbEntity
  8
LAY-4
  6
DASHED2
 62
     3
100
AcDbLine
 10
644.6
 20
228.8
 30
0.0
 11
644.6
 21
229.1
 31
0.0
  0
LINE
  5
28D
100
AcDbEntity
  8
LAY-4
  6
DASHED2
 62
     3
100
AcDbLine
 10
644.6
 20
229.1
 30
0.0
 11
642.1
 21
231.6
 31
0.0
  0
LINE
  5
28E
100
AcDbEntity
  8
LAY-4
  6
DASHED2
 62
     3
100
AcDbLine
 10
634.6
 20
228.8
 30
0.0
 11
634.6
 21
229.1
 31
0.0
  0
LINE
  5
28F
100
AcDbEntity
  8
LAY-4
  6
DASHED2
 62
     3
100
AcDbLine
 10
634.6
 20
229.1
 30
0.0
 11
637.1
 21
231.6
 31
0.0
  0
LINE
  5
290
100
AcDbEntity
  8
LAY-4
  6
CONTINUOUS
 62
     3
100
AcDbLine
 10
644.6
 20
228.8
 30
0.0
 11
634.6
 21
228.8
 31
0.0
  0
LINE
  5
291
100
AcDbEntity
  8
LAY-4
  6
DASHED2
 62
     3
100
AcDbLine
 10
644.6
 20
229.1
 30
0.0
 11
634.6
 21
229.1
 31
0.0
  0
ARC
  5
292
100
AcDbEntity
  8
LAY-4
  6
CONTINUOUS
 62
     3
100
AcDbCircle
 10
639.6
 20
238.616667
 30
0.0
 40
11.016667
100
AcDbArc
 50
243.008533
 51
296.991467
  0
LINE
  5
293
100
AcDbEntity
  8
LAY-4
  6
DASHED2
 62
     3
100
AcDbLine
 10
642.1
 20
241.1
 30
0.0
 11
637.1
 21
241.1
 31
0.0
  0
LINE
  5
294
100
AcDbEntity
  8
LAY-4
  6
DASHED2
 62
     3
100
AcDbLine
 10
642.1
 20
237.2
 30
0.0
 11
642.1
 21
241.1
 31
0.0
  0
LINE
  5
295
100
AcDbEntity
  8
LAY-4
  6
DASHED2
 62
     1
100
AcDbLine
 10
641.6
 20
237.2
 30
0.0
 11
641.6
 21
241.1
 31
0.0
  0
LINE
  5
296
100
AcDbEntity
  8
LAY-4
  6
DASHED2
 62
     1
100
AcDbLine
 10
637.6
 20
237.2
 30
0.0
 11
637.6
 21
241.1
 31
0.0
  0
LINE
  5
297
100
AcDbEntity
  8
LAY-4
  6
DASHED2
 62
     3
100
AcDbLine
 10
637.1
 20
237.2
 30
0.0
 11
637.1
 21
241.1
 31
0.0
  0
LINE
  5
298
100
AcDbEntity
  8
LAY-4
  6
DASHED2
 62
     3
100
AcDbLine
 10
642.1
 20
231.6
 30
0.0
 11
637.1
 21
231.6
 31
0.0
  0
LINE
  5
299
100
AcDbEntity
  8
LAY-4
  6
DASHED2
 62
     3
100
AcDbLine
 10
642.1
 20
231.6
 30
0.0
 11
642.1
 21
237.2
 31
0.0
  0
LINE
  5
29A
100
AcDbEntity
  8
LAY-4
  6
DASHED2
 62
     1
100
AcDbLine
 10
641.6
 20
231.6
 30
0.0
 11
641.6
 21
237.2
 31
0.0
  0
LINE
  5
29B
100
AcDbEntity
  8
LAY-4
  6
DASHED2
 62
     1
100
AcDbLine
 10
637.6
 20
231.6
 30
0.0
 11
637.6
 21
237.2
 31
0.0
  0
LINE
  5
29C
100
AcDbEntity
  8
LAY-4
  6
DASHED2
 62
     3
100
AcDbLine
 10
637.1
 20
231.6
 30
0.0
 11
637.1
 21
237.2
 31
0.0
  0
CIRCLE
  5
29D
100
AcDbEntity
  8
LAY-4
  6
CONTINUOUS
 62
     3
100
AcDbCircle
 10
217.7
 20
405.5
 30
0.0
 40
2.4
  0
CIRCLE
  5
29E
100
AcDbEntity
  8
LAY-4
  6
DASHED2
 62
     3
100
AcDbCircle
 10
217.7
 20
405.5
 30
0.0
 40
5.1
  0
LINE
  5
29F
100
AcDbEntity
  8
LAY-4
  6
DASHED2
 62
     3
100
AcDbLine
 10
177.12563
 20
228.8
 30
0.0
 11
218.27437
 21
228.8
 31
0.0
  0
LINE
  5
2A0
100
AcDbEntity
  8
LAY-4
  6
DASHED2
 62
     3
100
AcDbLine
 10
172.7
 20
228.8
 30
0.0
 11
172.7
 21
229.1
 31
0.0
  0
LINE
  5
2A1
100
AcDbEntity
  8
LAY-4
  6
DASHED2
 62
     3
100
AcDbLine
 10
175.2
 20
231.6
 30
0.0
 11
180.2
 21
231.6
 31
0.0
  0
LINE
  5
2A2
100
AcDbEntity
  8
LAY-4
  6
DASHED2
 62
     3
100
AcDbLine
 10
172.7
 20
229.1
 30
0.0
 11
175.2
 21
231.6
 31
0.0
  0
LINE
  5
2A3
100
AcDbEntity
  8
LAY-4
  6
DASHED2
 62
     3
100
AcDbLine
 10
175.2
 20
231.6
 30
0.0
 11
175.2
 21
241.1
 31
0.0
  0
LINE
  5
2A4
100
AcDbEntity
  8
LAY-4
  6
DASHED2
 62
     1
100
AcDbLine
 10
175.7
 20
231.6
 30
0.0
 11
175.7
 21
241.1
 31
0.0
  0
LINE
  5
2A5
100
AcDbEntity
  8
LAY-4
  6
DASHED2
 62
     3
100
AcDbLine
 10
182.7
 20
228.8
 30
0.0
 11
182.7
 21
229.1
 31
0.0
  0
LINE
  5
2A6
100
AcDbEntity
  8
LAY-4
  6
DASHED2
 62
     3
100
AcDbLine
 10
182.7
 20
229.1
 30
0.0
 11
180.2
 21
231.6
 31
0.0
  0
LINE
  5
2A7
100
AcDbEntity
  8
LAY-4
  6
DASHED2
 62
     3
100
AcDbLine
 10
180.2
 20
231.6
 30
0.0
 11
180.2
 21
241.1
 31
0.0
  0
LINE
  5
2A8
100
AcDbEntity
  8
LAY-4
  6
DASHED2
 62
     1
100
AcDbLine
 10
179.7
 20
231.6
 30
0.0
 11
179.7
 21
241.1
 31
0.0
  0
LINE
  5
2A9
100
AcDbEntity
  8
LAY-4
  6
CONTINUOUS
 62
     3
100
AcDbLine
 10
172.7
 20
228.8
 30
0.0
 11
182.7
 21
228.8
 31
0.0
  0
LINE
  5
2AA
100
AcDbEntity
  8
LAY-4
  6
DASHED2
 62
     3
100
AcDbLine
 10
172.7
 20
229.1
 30
0.0
 11
182.7
 21
229.1
 31
0.0
  0
ARC
  5
2AB
100
AcDbEntity
  8
LAY-4
  6
CONTINUOUS
 62
     3
100
AcDbCircle
 10
177.7
 20
238.616667
 30
0.0
 40
11.016667
100
AcDbArc
 50
243.008533
 51
272.943284
  0
LINE
  5
2AC
100
AcDbEntity
  8
LAY-4
  6
DASHED2
 62
     3
100
AcDbLine
 10
175.2
 20
241.1
 30
0.0
 11
180.2
 21
241.1
 31
0.0
  0
LINE
  5
2AD
100
AcDbEntity
  8
LAY-4
  6
DASHED2
 62
     3
100
AcDbLine
 10
212.7
 20
228.8
 30
0.0
 11
212.7
 21
229.1
 31
0.0
  0
LINE
  5
2AE
100
AcDbEntity
  8
LAY-4
  6
DASHED2
 62
     3
100
AcDbLine
 10
215.2
 20
231.6
 30
0.0
 11
220.2
 21
231.6
 31
0.0
  0
LINE
  5
2AF
100
AcDbEntity
  8
LAY-4
  6
DASHED2
 62
     3
100
AcDbLine
 10
212.7
 20
229.1
 30
0.0
 11
215.2
 21
231.6
 31
0.0
  0
LINE
  5
2B0
100
AcDbEntity
  8
LAY-4
  6
DASHED2
 62
     3
100
AcDbLine
 10
215.2
 20
231.6
 30
0.0
 11
215.2
 21
241.1
 31
0.0
  0
LINE
  5
2B1
100
AcDbEntity
  8
LAY-4
  6
DASHED2
 62
     1
100
AcDbLine
 10
215.7
 20
231.6
 30
0.0
 11
215.7
 21
241.1
 31
0.0
  0
LINE
  5
2B2
100
AcDbEntity
  8
LAY-4
  6
DASHED2
 62
     3
100
AcDbLine
 10
222.7
 20
228.8
 30
0.0
 11
222.7
 21
229.1
 31
0.0
  0
LINE
  5
2B3
100
AcDbEntity
  8
LAY-4
  6
DASHED2
 62
     3
100
AcDbLine
 10
222.7
 20
229.1
 30
0.0
 11
220.2
 21
231.6
 31
0.0
  0
LINE
  5
2B4
100
AcDbEntity
  8
LAY-4
  6
DASHED2
 62
     3
100
AcDbLine
 10
220.2
 20
231.6
 30
0.0
 11
220.2
 21
241.1
 31
0.0
  0
LINE
  5
2B5
100
AcDbEntity
  8
LAY-4
  6
DASHED2
 62
     1
100
AcDbLine
 10
219.7
 20
231.6
 30
0.0
 11
219.7
 21
241.1
 31
0.0
  0
LINE
  5
2B6
100
AcDbEntity
  8
LAY-4
  6
CONTINUOUS
 62
     3
100
AcDbLine
 10
212.7
 20
228.8
 30
0.0
 11
222.7
 21
228.8
 31
0.0
  0
LINE
  5
2B7
100
AcDbEntity
  8
LAY-4
  6
DASHED2
 62
     3
100
AcDbLine
 10
212.7
 20
229.1
 30
0.0
 11
222.7
 21
229.1
 31
0.0
  0
LINE
  5
2B8
100
AcDbEntity
  8
LAY-4
  6
DASHED2
 62
     3
100
AcDbLine
 10
215.2
 20
241.1
 30
0.0
 11
220.2
 21
241.1
 31
0.0
  0
ARC
  5
2B9
100
AcDbEntity
  8
LAY-4
  6
DASHED2
 62
     3
100
AcDbCircle
 10
177.7
 20
238.616667
 30
0.0
 40
11.016667
100
AcDbArc
 50
272.943284
 51
296.991467
  0
ARC
  5
2BA
100
AcDbEntity
  8
LAY-4
  6
DASHED2
 62
     3
100
AcDbCircle
 10
217.7
 20
238.616667
 30
0.0
 40
11.016667
100
AcDbArc
 50
243.008533
 51
267.056716
  0
ARC
  5
2BB
100
AcDbEntity
  8
LAY-4
  6
CONTINUOUS
 62
     3
100
AcDbCircle
 10
217.7
 20
238.616667
 30
0.0
 40
11.016667
100
AcDbArc
 50
267.056716
 51
296.991467
  0
LINE
  5
2BC
100
AcDbEntity
  8
LAY-4
  6
CONTINUOUS
 62
     3
100
AcDbLine
 10
572.6
 20
215.3
 30
0.0
 11
581.7
 21
215.3
 31
0.0
  0
LINE
  5
2BD
100
AcDbEntity
  8
LAY-4
  6
CONTINUOUS
 62
     3
100
AcDbLine
 10
572.6
 20
215.3
 30
0.0
 11
572.6
 21
218.9
 31
0.0
  0
LINE
  5
2BE
100
AcDbEntity
  8
LAY-4
  6
CONTINUOUS
 62
     3
100
AcDbLine
 10
572.6
 20
218.9
 30
0.0
 11
591.505124
 21
218.9
 31
0.0
  0
LINE
  5
2BF
100
AcDbEntity
  8
LAY-4
  6
CONTINUOUS
 62
     3
100
AcDbLine
 10
616.489219
 20
232.054535
 30
0.0
 11
591.505124
 21
218.9
 31
0.0
  0
LINE
  5
2C0
100
AcDbEntity
  8
LAY-4
  6
CONTINUOUS
 62
     3
100
AcDbLine
 10
625.636534
 20
228.8
 30
0.0
 11
604.868059
 21
215.75933
 31
0.0
  0
LINE
  5
2C1
100
AcDbEntity
  8
LAY-4
  6
CONTINUOUS
 62
     3
100
AcDbLine
 10
593.5
 20
215.3
 30
0.0
 11
603.272755
 21
215.3
 31
0.0
  0
LINE
  5
2C2
100
AcDbEntity
  8
LAY-4
  6
CONTINUOUS
 62
     3
100
AcDbLine
 10
593.067352
 20
216.332115
 30
0.0
 11
616.74731
 21
228.8
 31
0.0
  0
ARC
  5
2C3
100
AcDbEntity
  8
LAY-4
  6
CONTINUOUS
 62
     3
100
AcDbCircle
 10
617.886876
 20
229.4
 30
0.0
 40
3.0
100
AcDbArc
 50
90.0
 51
117.767539
  0
ARC
  5
2C4
100
AcDbEntity
  8
LAY-4
  6
CONTINUOUS
 62
     3
100
AcDbCircle
 10
603.272755
 20
218.3
 30
0.0
 40
3.0
100
AcDbArc
 50
270.0
 51
302.124998
  0
LINE
  5
2C5
100
AcDbEntity
  8
LAY-4
  6
CONTINUOUS
 62
     3
100
AcDbLine
 10
577.6
 20
221.9
 30
0.0
 11
597.202953
 21
221.9
 31
0.0
  0
LINE
  5
2C6
100
AcDbEntity
  8
LAY-4
  6
CONTINUOUS
 62
     3
100
AcDbLine
 10
577.1
 20
218.9
 30
0.0
 11
577.1
 21
220.9
 31
0.0
  0
LINE
  5
2C7
100
AcDbEntity
  8
LAY-4
  6
CONTINUOUS
 62
     3
100
AcDbLine
 10
577.6
 20
220.9
 30
0.0
 11
577.6
 21
221.9
 31
0.0
  0
LINE
  5
2C8
100
AcDbEntity
  8
LAY-4
  6
CONTINUOUS
 62
     3
100
AcDbLine
 10
595.303676
 20
220.9
 30
0.0
 11
577.1
 21
220.9
 31
0.0
  0
LINE
  5
2C9
100
AcDbEntity
  8
LAY-4
  6
CONTINUOUS
 62
     3
100
AcDbLine
 10
591.853785
 20
226.9
 30
0.0
 11
587.6
 21
226.9
 31
0.0
  0
LINE
  5
2CA
100
AcDbEntity
  8
LAY-4
  6
CONTINUOUS
 62
     3
100
AcDbLine
 10
579.1
 20
225.95371
 30
0.0
 11
579.1
 21
222.84629
 31
0.0
  0
ARC
  5
2CB
100
AcDbEntity
  8
LAY-4
  6
CONTINUOUS
 62
     3
100
AcDbCircle
 10
583.346215
 20
231.9
 30
0.0
 40
10.0
100
AcDbArc
 50
244.873295
 51
295.222895
  0
ARC
  5
2CC
100
AcDbEntity
  8
LAY-4
  6
CONTINUOUS
 62
     3
100
AcDbCircle
 10
583.346215
 20
216.9
 30
0.0
 40
10.0
100
AcDbArc
 50
64.777105
 51
115.126705
  0
ARC
  5
2CD
100
AcDbEntity
  8
LAY-4
  6
CONTINUOUS
 62
     3
100
AcDbCircle
 10
591.853785
 20
216.9
 30
0.0
 40
10.0
100
AcDbArc
 50
64.873295
 51
115.222895
  0
ARC
  5
2CE
100
AcDbEntity
  8
LAY-4
  6
CONTINUOUS
 62
     3
100
AcDbCircle
 10
591.853785
 20
231.9
 30
0.0
 40
10.0
100
AcDbArc
 50
244.777105
 51
295.126705
  0
LINE
  5
2CF
100
AcDbEntity
  8
LAY-4
  6
CONTINUOUS
 62
     3
100
AcDbLine
 10
596.1
 20
225.95371
 30
0.0
 11
596.1
 21
222.84629
 31
0.0
  0
LINE
  5
2D0
100
AcDbEntity
  8
LAY-4
  6
CONTINUOUS
 62
     3
100
AcDbLine
 10
587.6
 20
225.950155
 30
0.0
 11
587.6
 21
222.849845
 31
0.0
  0
LINE
  5
2D1
100
AcDbEntity
  8
LAY-4
  6
CONTINUOUS
 62
     3
100
AcDbLine
 10
573.6
 20
213.8
 30
0.0
 11
573.6
 21
208.1
 31
0.0
  0
LINE
  5
2D2
100
AcDbEntity
  8
LAY-4
  6
CONTINUOUS
 62
     3
100
AcDbLine
 10
600.1
 20
215.3
 30
0.0
 11
600.1
 21
214.55
 31
0.0
  0
LINE
  5
2D3
100
AcDbEntity
  8
LAY-4
  6
CONTINUOUS
 62
     3
100
AcDbLine
 10
574.6
 20
214.55
 30
0.0
 11
580.1
 21
214.55
 31
0.0
  0
LINE
  5
2D4
100
AcDbEntity
  8
LAY-4
  6
CONTINUOUS
 62
     3
100
AcDbLine
 10
575.1
 20
215.3
 30
0.0
 11
575.1
 21
214.55
 31
0.0
  0
LINE
  5
2D5
100
AcDbEntity
  8
LAY-4
  6
CONTINUOUS
 62
     3
100
AcDbLine
 10
574.6
 20
214.55
 30
0.0
 11
574.6
 21
213.8
 31
0.0
  0
LINE
  5
2D6
100
AcDbEntity
  8
LAY-4
  6
CONTINUOUS
 62
     3
100
AcDbLine
 10
600.6
 20
214.55
 30
0.0
 11
600.6
 21
213.8
 31
0.0
  0
ARC
  5
2D7
100
AcDbEntity
  8
LAY-4
  6
CONTINUOUS
 62
     3
100
AcDbCircle
 10
574.6
 20
201.500357
 30
0.0
 40
1.0
100
AcDbArc
 50
180.0
 51
269.927769
  0
LINE
  5
2D8
100
AcDbEntity
  8
LAY-4
  6
CONTINUOUS
 62
     3
100
AcDbLine
 10
577.6
 20
199.296573
 30
0.0
 11
579.6
 21
199.294051
 31
0.0
  0
LINE
  5
2D9
100
AcDbEntity
  8
LAY-4
  6
CONTINUOUS
 62
     3
100
AcDbLine
 10
577.6
 20
199.296573
 30
0.0
 11
578.6
 21
198.295311
 31
0.0
  0
LINE
  5
2DA
100
AcDbEntity
  8
LAY-4
  6
CONTINUOUS
 62
     3
100
AcDbLine
 10
577.6
 20
199.296573
 30
0.0
 11
577.6
 21
200.496574
 31
0.0
  0
LINE
  5
2DB
100
AcDbEntity
  8
LAY-4
  6
CONTINUOUS
 62
     3
100
AcDbLine
 10
578.6
 20
198.295311
 30
0.0
 11
579.804693
 21
198.293793
 31
0.0
  0
LINE
  5
2DC
100
AcDbEntity
  8
LAY-4
  6
CONTINUOUS
 62
     3
100
AcDbLine
 10
579.6
 20
208.1
 30
0.0
 11
579.6
 21
207.994058
 31
0.0
  0
LINE
  5
2DD
100
AcDbEntity
  8
LAY-4
  6
CONTINUOUS
 62
     3
100
AcDbLine
 10
595.6
 20
207.973887
 30
0.0
 11
595.6
 21
208.1
 31
0.0
  0
LINE
  5
2DE
100
AcDbEntity
  8
LAY-4
  6
CONTINUOUS
 62
     3
100
AcDbLine
 10
601.6
 20
208.1
 30
0.0
 11
601.6
 21
213.8
 31
0.0
  0
LINE
  5
2DF
100
AcDbEntity
  8
LAY-4
  6
CONTINUOUS
 62
     3
100
AcDbLine
 10
573.6
 20
213.8
 30
0.0
 11
580.1
 21
213.8
 31
0.0
  0
LINE
  5
2E0
100
AcDbEntity
  8
LAY-4
  6
CONTINUOUS
 62
     3
100
AcDbLine
 10
573.6
 20
208.1
 30
0.0
 11
582.4
 21
208.1
 31
0.0
  0
LINE
  5
2E1
100
AcDbEntity
  8
LAY-4
  6
CONTINUOUS
 62
     3
100
AcDbLine
 10
573.6
 20
207.000361
 30
0.0
 11
573.6
 21
201.500357
 31
0.0
  0
ARC
  5
2E2
100
AcDbEntity
  8
LAY-4
  6
CONTINUOUS
 62
     3
100
AcDbCircle
 10
574.6
 20
207.000361
 30
0.0
 40
1.0
100
AcDbArc
 50
89.927769
 51
180.0
  0
LINE
  5
2E3
100
AcDbEntity
  8
LAY-4
  6
CONTINUOUS
 62
     3
100
AcDbLine
 10
601.6
 20
207.000361
 30
0.0
 11
601.6
 21
202.4
 31
0.0
  0
ARC
  5
2E4
100
AcDbEntity
  8
LAY-4
  6
CONTINUOUS
 62
     3
100
AcDbCircle
 10
600.6
 20
207.000361
 30
0.0
 40
1.0
100
AcDbArc
 50
0.0
 51
75.217532
  0
LINE
  5
2E5
100
AcDbEntity
  8
LAY-4
  6
CONTINUOUS
 62
     3
100
AcDbLine
 10
574.601261
 20
208.00036
 30
0.0
 11
582.399862
 21
207.990529
 31
0.0
  0
LINE
  5
2E6
100
AcDbEntity
  8
LAY-4
  6
CONTINUOUS
 62
     3
100
AcDbLine
 10
574.598739
 20
200.500357
 30
0.0
 11
579.6
 21
200.494052
 31
0.0
  0
LINE
  5
2E7
100
AcDbEntity
  8
LAY-4
  6
CONTINUOUS
 62
     3
100
AcDbLine
 10
595.1
 20
214.55
 30
0.0
 11
600.6
 21
214.55
 31
0.0
  0
LINE
  5
2E8
100
AcDbEntity
  8
LAY-4
  6
CONTINUOUS
 62
     3
100
AcDbLine
 10
595.1
 20
213.8
 30
0.0
 11
601.6
 21
213.8
 31
0.0
  0
LINE
  5
2E9
100
AcDbEntity
  8
LAY-4
  6
CONTINUOUS
 62
     3
100
AcDbLine
 10
592.799845
 20
207.977418
 30
0.0
 11
600.85515
 21
207.967262
 31
0.0
  0
LINE
  5
2EA
100
AcDbEntity
  8
LAY-4
  6
CONTINUOUS
 62
     3
100
AcDbLine
 10
592.8
 20
208.1
 30
0.0
 11
601.6
 21
208.1
 31
0.0
  0
LINE
  5
2EB
100
AcDbEntity
  8
LAY-4
  6
CONTINUOUS
 62
     3
100
AcDbLine
 10
583.1
 20
228.289662
 30
0.0
 11
583.1
 21
226.896968
 31
0.0
  0
LINE
  5
2EC
100
AcDbEntity
  8
LAY-4
  6
CONTINUOUS
 62
     3
100
AcDbLine
 10
592.1
 20
228.278316
 30
0.0
 11
592.1
 21
226.896968
 31
0.0
  0
LINE
  5
2ED
100
AcDbEntity
  8
LAY-4
  6
CONTINUOUS
 62
     3
100
AcDbLine
 10
582.6
 20
227.790292
 30
0.0
 11
592.6
 21
227.777685
 31
0.0
  0
LINE
  5
2EE
100
AcDbEntity
  8
LAY-4
  6
CONTINUOUS
 62
     3
100
AcDbLine
 10
583.1
 20
228.289662
 30
0.0
 11
582.6
 21
227.790292
 31
0.0
  0
LINE
  5
2EF
100
AcDbEntity
  8
LAY-4
  6
CONTINUOUS
 62
     3
100
AcDbLine
 10
592.1
 20
228.278316
 30
0.0
 11
592.6
 21
227.777685
 31
0.0
  0
LINE
  5
2F0
100
AcDbEntity
  8
LAY-4
  6
CONTINUOUS
 62
     3
100
AcDbLine
 10
592.6
 20
226.872119
 30
0.0
 11
592.6
 21
227.777685
 31
0.0
  0
LINE
  5
2F1
100
AcDbEntity
  8
LAY-4
  6
CONTINUOUS
 62
     3
100
AcDbLine
 10
583.1
 20
228.289662
 30
0.0
 11
592.1
 21
228.278316
 31
0.0
  0
LINE
  5
2F2
100
AcDbEntity
  8
LAY-4
  6
CONTINUOUS
 62
     3
100
AcDbLine
 10
582.6
 20
226.872119
 30
0.0
 11
582.6
 21
227.790292
 31
0.0
  0
LINE
  5
2F3
100
AcDbEntity
  8
LAY-4
  6
CONTINUOUS
 62
     3
100
AcDbLine
 10
583.346215
 20
226.9
 30
0.0
 11
587.6
 21
226.9
 31
0.0
  0
LINE
  5
2F4
100
AcDbEntity
  8
LAY-4
  6
CONTINUOUS
 62
     3
100
AcDbLine
 10
172.7
 20
228.8
 30
0.0
 11
177.12563
 21
228.8
 31
0.0
  0
LINE
  5
2F5
100
AcDbEntity
  8
LAY-4
  6
CONTINUOUS
 62
     3
100
AcDbLine
 10
218.27437
 20
228.8
 30
0.0
 11
222.7
 21
228.8
 31
0.0
  0
ARC
  5
2F6
100
AcDbEntity
  8
LAY-4
  6
CONTINUOUS
 62
     3
100
AcDbCircle
 10
175.402519
 20
228.4
 30
0.0
 40
4.0
100
AcDbArc
 50
18.023626
 51
90.0
  0
ARC
  5
2F7
100
AcDbEntity
  8
LAY-4
  6
CONTINUOUS
 62
     3
100
AcDbCircle
 10
177.12563
 20
227.8
 30
0.0
 40
1.0
100
AcDbArc
 50
11.599464
 51
90.0
  0
ARC
  5
2F8
100
AcDbEntity
  8
LAY-4
  6
CONTINUOUS
 62
     3
100
AcDbCircle
 10
218.27437
 20
227.8
 30
0.0
 40
1.0
100
AcDbArc
 50
90.0
 51
168.400536
  0
ARC
  5
2F9
100
AcDbEntity
  8
LAY-4
  6
CONTINUOUS
 62
     3
100
AcDbCircle
 10
219.997481
 20
228.4
 30
0.0
 40
4.0
100
AcDbArc
 50
90.0
 51
161.976374
  0
LINE
  5
2FA
100
AcDbEntity
  8
LAY-4
  6
CONTINUOUS
 62
     3
100
AcDbLine
 10
212.7
 20
215.3
 30
0.0
 11
182.7
 21
215.3
 31
0.0
  0
LINE
  5
2FB
100
AcDbEntity
  8
LAY-4
  6
CONTINUOUS
 62
     3
100
AcDbLine
 10
182.7
 20
218.9
 30
0.0
 11
212.7
 21
218.9
 31
0.0
  0
LINE
  5
2FC
100
AcDbEntity
  8
LAY-4
  6
CONTINUOUS
 62
     3
100
AcDbLine
 10
182.7
 20
215.3
 30
0.0
 11
182.7
 21
218.9
 31
0.0
  0
LINE
  5
2FD
100
AcDbEntity
  8
LAY-4
  6
CONTINUOUS
 62
     3
100
AcDbLine
 10
212.7
 20
215.3
 30
0.0
 11
212.7
 21
218.9
 31
0.0
  0
LINE
  5
2FE
100
AcDbEntity
  8
LAY-4
  6
CONTINUOUS
 62
     3
100
AcDbLine
 10
212.7
 20
218.9
 30
0.0
 11
216.193765
 21
229.637637
 31
0.0
  0
LINE
  5
2FF
100
AcDbEntity
  8
LAY-4
  6
CONTINUOUS
 62
     3
100
AcDbLine
 10
182.7
 20
218.9
 30
0.0
 11
179.206235
 21
229.637637
 31
0.0
  0
LINE
  5
300
100
AcDbEntity
  8
LAY-4
  6
CONTINUOUS
 62
     3
100
AcDbLine
 10
182.7
 20
215.3
 30
0.0
 11
178.066247
 21
228.139468
 31
0.0
  0
LINE
  5
301
100
AcDbEntity
  8
LAY-4
  6
CONTINUOUS
 62
     3
100
AcDbLine
 10
212.7
 20
215.3
 30
0.0
 11
217.333753
 21
228.139468
 31
0.0
  0
LINE
  5
302
100
AcDbEntity
  8
LAY-4
  6
CONTINUOUS
 62
     3
100
AcDbLine
 10
185.2
 20
215.3
 30
0.0
 11
185.2
 21
214.55
 31
0.0
  0
LINE
  5
303
100
AcDbEntity
  8
LAY-4
  6
CONTINUOUS
 62
     3
100
AcDbLine
 10
210.2
 20
215.3
 30
0.0
 11
210.2
 21
214.55
 31
0.0
  0
LINE
  5
304
100
AcDbEntity
  8
LAY-4
  6
CONTINUOUS
 62
     3
100
AcDbLine
 10
183.7
 20
213.8
 30
0.0
 11
221.7
 21
213.8
 31
0.0
  0
LINE
  5
305
100
AcDbEntity
  8
LAY-4
  6
CONTINUOUS
 62
     3
100
AcDbLine
 10
184.7
 20
214.55
 30
0.0
 11
210.7
 21
214.55
 31
0.0
  0
LINE
  5
306
100
AcDbEntity
  8
LAY-4
  6
CONTINUOUS
 62
     3
100
AcDbLine
 10
208.2
 20
220.9
 30
0.0
 11
187.2
 21
220.9
 31
0.0
  0
LINE
  5
307
100
AcDbEntity
  8
LAY-4
  6
CONTINUOUS
 62
     3
100
AcDbLine
 10
187.2
 20
218.9
 30
0.0
 11
187.2
 21
220.9
 31
0.0
  0
LINE
  5
308
100
AcDbEntity
  8
LAY-4
  6
CONTINUOUS
 62
     3
100
AcDbLine
 10
208.2
 20
218.9
 30
0.0
 11
208.2
 21
220.9
 31
0.0
  0
LINE
  5
309
100
AcDbEntity
  8
LAY-4
  6
CONTINUOUS
 62
     3
100
AcDbLine
 10
187.7
 20
220.9
 30
0.0
 11
187.7
 21
221.9
 31
0.0
  0
LINE
  5
30A
100
AcDbEntity
  8
LAY-4
  6
CONTINUOUS
 62
     3
100
AcDbLine
 10
207.7
 20
220.9
 30
0.0
 11
207.7
 21
221.9
 31
0.0
  0
LINE
  5
30B
100
AcDbEntity
  8
LAY-4
  6
CONTINUOUS
 62
     3
100
AcDbLine
 10
187.7
 20
221.9
 30
0.0
 11
207.7
 21
221.9
 31
0.0
  0
LINE
  5
30C
100
AcDbEntity
  8
LAY-4
  6
CONTINUOUS
 62
     3
100
AcDbLine
 10
187.885045
 20
223.481606
 30
0.0
 11
187.885045
 21
225.318394
 31
0.0
  0
LINE
  5
30D
100
AcDbEntity
  8
LAY-4
  6
CONTINUOUS
 62
     3
100
AcDbLine
 10
192.792523
 20
223.465319
 30
0.0
 11
192.792523
 21
225.334681
 31
0.0
  0
ARC
  5
30E
100
AcDbEntity
  8
LAY-4
  6
CONTINUOUS
 62
     3
100
AcDbCircle
 10
197.7
 20
218.9
 30
0.0
 40
8.0
100
AcDbArc
 50
90.0
 51
127.838268
  0
ARC
  5
30F
100
AcDbEntity
  8
LAY-4
  6
CONTINUOUS
 62
     3
100
AcDbCircle
 10
190.342523
 20
224.2
 30
0.0
 40
2.7
100
AcDbArc
 50
22.562661
 51
155.529792
  0
LINE
  5
310
100
AcDbEntity
  8
LAY-4
  6
CONTINUOUS
 62
     3
100
AcDbLine
 10
190.342523
 20
226.9
 30
0.0
 11
197.7
 21
226.9
 31
0.0
  0
ARC
  5
311
100
AcDbEntity
  8
LAY-4
  6
CONTINUOUS
 62
     3
100
AcDbCircle
 10
197.7
 20
229.9
 30
0.0
 40
8.0
100
AcDbArc
 50
232.161732
 51
270.0
  0
ARC
  5
312
100
AcDbEntity
  8
LAY-4
  6
CONTINUOUS
 62
     3
100
AcDbCircle
 10
190.342523
 20
224.6
 30
0.0
 40
2.7
100
AcDbArc
 50
204.470208
 51
337.437339
  0
ARC
  5
313
100
AcDbEntity
  8
LAY-4
  6
CONTINUOUS
 62
     3
100
AcDbCircle
 10
197.7
 20
218.9
 30
0.0
 40
8.0
100
AcDbArc
 50
52.161732
 51
90.0
  0
ARC
  5
314
100
AcDbEntity
  8
LAY-4
  6
CONTINUOUS
 62
     3
100
AcDbCircle
 10
205.057477
 20
224.2
 30
0.0
 40
2.7
100
AcDbArc
 50
24.470208
 51
157.437339
  0
LINE
  5
315
100
AcDbEntity
  8
LAY-4
  6
CONTINUOUS
 62
     3
100
AcDbLine
 10
205.057477
 20
226.9
 30
0.0
 11
197.7
 21
226.9
 31
0.0
  0
ARC
  5
316
100
AcDbEntity
  8
LAY-4
  6
CONTINUOUS
 62
     3
100
AcDbCircle
 10
197.7
 20
229.9
 30
0.0
 40
8.0
100
AcDbArc
 50
270.0
 51
307.838268
  0
ARC
  5
317
100
AcDbEntity
  8
LAY-4
  6
CONTINUOUS
 62
     3
100
AcDbCircle
 10
205.057477
 20
224.6
 30
0.0
 40
2.7
100
AcDbArc
 50
202.562661
 51
335.529792
  0
LINE
  5
318
100
AcDbEntity
  8
LAY-4
  6
CONTINUOUS
 62
     3
100
AcDbLine
 10
202.607477
 20
223.465319
 30
0.0
 11
202.607477
 21
225.334681
 31
0.0
  0
LINE
  5
319
100
AcDbEntity
  8
LAY-4
  6
CONTINUOUS
 62
     3
100
AcDbLine
 10
207.514955
 20
223.481606
 30
0.0
 11
207.514955
 21
225.318394
 31
0.0
  0
LINE
  5
31A
100
AcDbEntity
  8
LAY-4
  6
CONTINUOUS
 62
     3
100
AcDbLine
 10
183.7
 20
208.1
 30
0.0
 11
221.7
 21
208.1
 31
0.0
  0
LINE
  5
31B
100
AcDbEntity
  8
LAY-4
  6
CONTINUOUS
 62
     3
100
AcDbLine
 10
183.7
 20
213.8
 30
0.0
 11
183.7
 21
208.1
 31
0.0
  0
LINE
  5
31C
100
AcDbEntity
  8
LAY-4
  6
CONTINUOUS
 62
     3
100
AcDbLine
 10
184.7
 20
214.55
 30
0.0
 11
184.7
 21
213.8
 31
0.0
  0
LINE
  5
31D
100
AcDbEntity
  8
LAY-4
  6
CONTINUOUS
 62
     3
100
AcDbLine
 10
210.7
 20
214.55
 30
0.0
 11
210.7
 21
213.8
 31
0.0
  0
LINE
  5
31E
100
AcDbEntity
  8
LAY-4
  6
CONTINUOUS
 62
     3
100
AcDbLine
 10
221.7
 20
213.8
 30
0.0
 11
221.7
 21
208.1
 31
0.0
  0
LINE
  5
31F
100
AcDbEntity
  8
LAY-4
  6
CONTINUOUS
 62
     3
100
AcDbLine
 10
188.7
 20
198.295311
 30
0.0
 11
206.7
 21
198.272619
 31
0.0
  0
LINE
  5
320
100
AcDbEntity
  8
LAY-4
  6
CONTINUOUS
 62
     3
100
AcDbLine
 10
187.7
 20
199.296573
 30
0.0
 11
187.7
 21
200.496574
 31
0.0
  0
LINE
  5
321
100
AcDbEntity
  8
LAY-4
  6
CONTINUOUS
 62
     3
100
AcDbLine
 10
207.7
 20
199.271359
 30
0.0
 11
207.7
 21
200.47136
 31
0.0
  0
LINE
  5
322
100
AcDbEntity
  8
LAY-4
  6
CONTINUOUS
 62
     3
100
AcDbLine
 10
187.7
 20
199.296573
 30
0.0
 11
207.7
 21
199.271359
 31
0.0
  0
LINE
  5
323
100
AcDbEntity
  8
LAY-4
  6
CONTINUOUS
 62
     3
100
AcDbLine
 10
187.7
 20
199.296573
 30
0.0
 11
188.7
 21
198.295311
 31
0.0
  0
LINE
  5
324
100
AcDbEntity
  8
LAY-4
  6
CONTINUOUS
 62
     3
100
AcDbLine
 10
207.7
 20
199.271359
 30
0.0
 11
206.7
 21
198.272619
 31
0.0
  0
LINE
  5
325
100
AcDbEntity
  8
LAY-4
  6
CONTINUOUS
 62
     3
100
AcDbLine
 10
189.7
 20
208.1
 30
0.0
 11
189.7
 21
207.994058
 31
0.0
  0
LINE
  5
326
100
AcDbEntity
  8
LAY-4
  6
CONTINUOUS
 62
     3
100
AcDbLine
 10
205.7
 20
207.973887
 30
0.0
 11
205.7
 21
208.1
 31
0.0
  0
LINE
  5
327
100
AcDbEntity
  8
LAY-4
  6
CONTINUOUS
 62
     3
100
AcDbLine
 10
193.2
 20
228.289662
 30
0.0
 11
202.2
 21
228.278316
 31
0.0
  0
LINE
  5
328
100
AcDbEntity
  8
LAY-4
  6
CONTINUOUS
 62
     3
100
AcDbLine
 10
192.7
 20
226.9
 30
0.0
 11
192.7
 21
227.790292
 31
0.0
  0
LINE
  5
329
100
AcDbEntity
  8
LAY-4
  6
CONTINUOUS
 62
     3
100
AcDbLine
 10
202.7
 20
226.9
 30
0.0
 11
202.7
 21
227.777685
 31
0.0
  0
LINE
  5
32A
100
AcDbEntity
  8
LAY-4
  6
CONTINUOUS
 62
     3
100
AcDbLine
 10
193.2
 20
228.289662
 30
0.0
 11
193.2
 21
226.9
 31
0.0
  0
LINE
  5
32B
100
AcDbEntity
  8
LAY-4
  6
CONTINUOUS
 62
     3
100
AcDbLine
 10
202.2
 20
228.278316
 30
0.0
 11
202.2
 21
226.9
 31
0.0
  0
LINE
  5
32C
100
AcDbEntity
  8
LAY-4
  6
CONTINUOUS
 62
     3
100
AcDbLine
 10
192.7
 20
227.790292
 30
0.0
 11
202.7
 21
227.777685
 31
0.0
  0
LINE
  5
32D
100
AcDbEntity
  8
LAY-4
  6
CONTINUOUS
 62
     3
100
AcDbLine
 10
193.2
 20
228.289662
 30
0.0
 11
192.7
 21
227.790292
 31
0.0
  0
LINE
  5
32E
100
AcDbEntity
  8
LAY-4
  6
CONTINUOUS
 62
     3
100
AcDbLine
 10
202.2
 20
228.278316
 30
0.0
 11
202.7
 21
227.777685
 31
0.0
  0
LINE
  5
32F
100
AcDbEntity
  8
LAY-4
  6
CONTINUOUS
 62
     3
100
AcDbLine
 10
182.7
 20
368.5
 30
0.0
 11
182.7
 21
353.5
 31
0.0
  0
LINE
  5
330
100
AcDbEntity
  8
LAY-4
  6
CONTINUOUS
 62
     3
100
AcDbLine
 10
212.7
 20
353.5
 30
0.0
 11
212.7
 21
368.5
 31
0.0
  0
ARC
  5
331
100
AcDbEntity
  8
LAY-4
  6
CONTINUOUS
 62
     3
100
AcDbCircle
 10
197.7
 20
353.5
 30
0.0
 40
15.0
100
AcDbArc
 50
179.999999
 51
0.0
  0
LINE
  5
332
100
AcDbEntity
  8
LAY-4
  6
CONTINUOUS
 62
     3
100
AcDbLine
 10
226.318034
 20
395.736068
 30
0.0
 11
212.7
 21
368.5
 31
0.0
  0
LINE
  5
333
100
AcDbEntity
  8
LAY-4
  6
CONTINUOUS
 62
     3
100
AcDbLine
 10
169.081966
 20
395.736068
 30
0.0
 11
182.7
 21
368.5
 31
0.0
  0
ARC
  5
334
100
AcDbEntity
  8
LAY-4
  6
CONTINUOUS
 62
     3
100
AcDbCircle
 10
197.7
 20
353.5
 30
0.0
 40
15.5
100
AcDbArc
 50
14.592551
 51
165.407449
  0
CIRCLE
  5
335
100
AcDbEntity
  8
LAY-4
  6
CONTINUOUS
 62
     3
100
AcDbCircle
 10
197.7
 20
353.5
 30
0.0
 40
10.5
  0
CIRCLE
  5
336
100
AcDbEntity
  8
LAY-4
  6
CONTINUOUS
 62
     3
100
AcDbCircle
 10
197.7
 20
353.5
 30
0.0
 40
10.0
  0
CIRCLE
  5
337
100
AcDbEntity
  8
LAY-4
  6
CONTINUOUS
 62
     3
100
AcDbCircle
 10
197.7
 20
353.5
 30
0.0
 40
8.5
  0
LINE
  5
338
100
AcDbEntity
  8
LAY-4
  6
CONTINUOUS
 62
     3
100
AcDbLine
 10
192.792523
 20
345.0
 30
0.0
 11
202.607477
 21
345.0
 31
0.0
  0
LINE
  5
339
100
AcDbEntity
  8
LAY-4
  6
CONTINUOUS
 62
     3
100
AcDbLine
 10
192.792523
 20
362.0
 30
0.0
 11
202.607477
 21
362.0
 31
0.0
  0
LINE
  5
33A
100
AcDbEntity
  8
LAY-4
  6
CONTINUOUS
 62
     3
100
AcDbLine
 10
187.885045
 20
353.5
 30
0.0
 11
192.792523
 21
362.0
 31
0.0
  0
LINE
  5
33B
100
AcDbEntity
  8
LAY-4
  6
CONTINUOUS
 62
     3
100
AcDbLine
 10
202.607477
 20
345.0
 30
0.0
 11
207.514955
 21
353.5
 31
0.0
  0
LINE
  5
33C
100
AcDbEntity
  8
LAY-4
  6
CONTINUOUS
 62
     3
100
AcDbLine
 10
187.885045
 20
353.5
 30
0.0
 11
192.792523
 21
345.0
 31
0.0
  0
LINE
  5
33D
100
AcDbEntity
  8
LAY-4
  6
CONTINUOUS
 62
     3
100
AcDbLine
 10
207.514955
 20
353.5
 30
0.0
 11
202.607477
 21
362.0
 31
0.0
  0
CIRCLE
  5
33E
100
AcDbEntity
  8
LAY-4
  6
CONTINUOUS
 62
     1
100
AcDbCircle
 10
197.7
 20
353.5
 30
0.0
 40
5.0
  0
CIRCLE
  5
33F
100
AcDbEntity
  8
LAY-4
  6
CONTINUOUS
 62
     3
100
AcDbCircle
 10
197.7
 20
353.5
 30
0.0
 40
4.5
  0
ARC
  5
340
100
AcDbEntity
  8
LAY-4
  6
CONTINUOUS
 62
     3
100
AcDbCircle
 10
230.79017
 20
393.5
 30
0.0
 40
5.0
100
AcDbArc
 50
90.0
 51
153.434949
  0
ARC
  5
341
100
AcDbEntity
  8
LAY-4
  6
CONTINUOUS
 62
     3
100
AcDbCircle
 10
164.60983
 20
393.5
 30
0.0
 40
5.0
100
AcDbArc
 50
26.565051
 51
90.0
  0
ARC
  5
342
100
AcDbEntity
  8
LAY-4
  6
CONTINUOUS
 62
     3
100
AcDbCircle
 10
197.7
 20
353.5
 30
0.0
 40
28.5
100
AcDbArc
 50
49.821186
 51
130.178814
  0
ARC
  5
343
100
AcDbEntity
  8
LAY-5
  6
CONTINUOUS
 62
     3
100
AcDbCircle
 10
247.7
 20
410.499992
 30
0.0
 40
9.0
100
AcDbArc
 50
140.560853
 51
141.057559
  0
ARC
  5
344
100
AcDbEntity
  8
LAY-5
  6
CONTINUOUS
 62
     3
100
AcDbCircle
 10
247.7
 20
410.499992
 30
0.0
 40
9.0
100
AcDbArc
 50
140.560853
 51
141.057559
  0
LINE
  5
345
100
AcDbEntity
  8
LAY-5
  6
DASHDOT
 62
     1
100
AcDbLine
 10
227.05
 20
415.5
 30
0.0
 11
243.19
 21
415.5
 31
0.0
  0
LINE
  5
346
100
AcDbEntity
  8
LAY-5
  6
DASHDOT
 62
     1
100
AcDbLine
 10
150.39
 20
415.5
 30
0.0
 11
167.99
 21
415.5
 31
0.0
  0
LINE
  5
347
100
AcDbEntity
  8
LAY-5
  6
DASHDOT
 62
     1
100
AcDbLine
 10
169.8
 20
405.5
 30
0.0
 11
185.77
 21
405.5
 31
0.0
  0
LINE
  5
348
100
AcDbEntity
  8
LAY-5
  6
DASHDOT
 62
     1
100
AcDbLine
 10
247.7
 20
381.0
 30
0.0
 11
247.7
 21
432.6
 31
0.0
  0
LINE
  5
349
100
AcDbEntity
  8
LAY-5
  6
DASHDOT
 62
     1
100
AcDbLine
 10
347.7
 20
386.5
 30
0.0
 11
347.7
 21
444.5
 31
0.0
  0
LINE
  5
34A
100
AcDbEntity
  8
LAY-5
  6
DASHDOT
 62
     1
100
AcDbLine
 10
179.1
 20
174.4
 30
0.0
 11
191.7
 21
174.4
 31
0.0
  0
LINE
  5
34B
100
AcDbEntity
  8
LAY-5
  6
DASHDOT
 62
     1
100
AcDbLine
 10
211.7
 20
190.8
 30
0.0
 11
211.7
 21
173.3
 31
0.0
  0
LINE
  5
34C
100
AcDbEntity
  8
LAY-5
  6
DASHDOT
 62
     1
100
AcDbLine
 10
203.1
 20
182.4
 30
0.0
 11
220.1
 21
182.4
 31
0.0
  0
LINE
  5
34D
100
AcDbEntity
  8
LAY-5
  6
DASHDOT
 62
     1
100
AcDbLine
 10
347.7
 20
191.5
 30
0.0
 11
347.7
 21
173.8
 31
0.0
  0
LINE
  5
34E
100
AcDbEntity
  8
LAY-5
  6
DASHDOT
 62
     1
100
AcDbLine
 10
339.2
 20
182.4
 30
0.0
 11
356.8
 21
182.4
 31
0.0
  0
LINE
  5
34F
100
AcDbEntity
  8
LAY-5
  6
DASHDOT
 62
     1
100
AcDbLine
 10
235.7
 20
245.4
 30
0.0
 11
235.7
 21
224.8
 31
0.0
  0
LINE
  5
350
100
AcDbEntity
  8
LAY-5
  6
DASHDOT
 62
     1
100
AcDbLine
 10
159.7
 20
245.4
 30
0.0
 11
159.7
 21
224.8
 31
0.0
  0
LINE
  5
351
100
AcDbEntity
  8
LAY-5
  6
DASHDOT
 62
     1
100
AcDbLine
 10
179.3
 20
157.4
 30
0.0
 11
373.6
 21
157.4
 31
0.0
  0
LINE
  5
352
100
AcDbEntity
  8
LAY-5
  6
DASHDOT
 62
     1
100
AcDbLine
 10
653.1
 20
179.62757
 30
0.0
 11
653.1
 21
169.487219
 31
0.0
  0
LINE
  5
353
100
AcDbEntity
  8
LAY-5
  6
DASHDOT
 62
     1
100
AcDbLine
 10
629.1
 20
179.381964
 30
0.0
 11
629.1
 21
169.592505
 31
0.0
  0
LINE
  5
354
100
AcDbEntity
  8
LAY-5
  6
DASHDOT
 62
     1
100
AcDbLine
 10
641.1
 20
124.0
 30
0.0
 11
641.1
 21
212.7
 31
0.0
  0
LINE
  5
355
100
AcDbEntity
  8
LAY-5
  6
DASHDOT
 62
     1
100
AcDbLine
 10
633.966608
 20
174.4
 30
0.0
 11
623.931528
 21
174.4
 31
0.0
  0
LINE
  5
356
100
AcDbEntity
  8
LAY-5
  6
DASHDOT
 62
     1
100
AcDbLine
 10
657.826235
 20
174.4
 30
0.0
 11
648.14203
 21
174.4
 31
0.0
  0
LINE
  5
357
100
AcDbEntity
  8
LAY-5
  6
DASHDOT
 62
     1
100
AcDbLine
 10
649.6
 20
224.4
 30
0.0
 11
649.6
 21
244.1
 31
0.0
  0
LINE
  5
358
100
AcDbEntity
  8
LAY-5
  6
DASHDOT
 62
     1
100
AcDbLine
 10
620.7
 20
182.4
 30
0.0
 11
679.2
 21
182.4
 31
0.0
  0
LINE
  5
359
100
AcDbEntity
  8
LAY-5
  6
DASHDOT
 62
     1
100
AcDbLine
 10
107.7
 20
491.1
 30
0.0
 11
107.7
 21
409.3
 31
0.0
  0
LINE
  5
35A
100
AcDbEntity
  8
LAY-5
  6
DASHDOT
 62
     1
100
AcDbLine
 10
95.8
 20
480.5
 30
0.0
 11
119.8
 21
480.5
 31
0.0
  0
LINE
  5
35B
100
AcDbEntity
  8
LAY-5
  6
DASHDOT
 62
     1
100
AcDbLine
 10
618.999994
 20
157.4
 30
0.0
 11
663.3
 21
157.4
 31
0.0
  0
LINE
  5
35C
100
AcDbEntity
  8
LAY-5
  6
DASHDOT
 62
     1
100
AcDbLine
 10
107.7
 20
285.3
 30
0.0
 11
107.7
 21
142.0
 31
0.0
  0
LINE
  5
35D
100
AcDbEntity
  8
LAY-5
  6
DASHDOT
 62
     1
100
AcDbLine
 10
197.7
 20
240.0
 30
0.0
 11
197.7
 21
193.42
 31
0.0
  0
LINE
  5
35E
100
AcDbEntity
  8
LAY-5
  6
DASHDOT
 62
     1
100
AcDbLine
 10
247.7
 20
210.8
 30
0.0
 11
247.7
 21
123.7
 31
0.0
  0
LINE
  5
35F
100
AcDbEntity
  8
LAY-5
  6
DASHDOT
 62
     1
100
AcDbLine
 10
639.6
 20
224.4
 30
0.0
 11
639.6
 21
244.1
 31
0.0
  0
LINE
  5
360
100
AcDbEntity
  8
LAY-5
  6
DASHDOT
 62
     1
100
AcDbLine
 10
159.7
 20
424.54
 30
0.0
 11
159.7
 21
406.79
 31
0.0
  0
LINE
  5
361
100
AcDbEntity
  8
LAY-5
  6
DASHDOT
 62
     1
100
AcDbLine
 10
177.7
 20
413.8
 30
0.0
 11
177.7
 21
396.7
 31
0.0
  0
LINE
  5
362
100
AcDbEntity
  8
LAY-5
  6
DASHDOT
 62
     1
100
AcDbLine
 10
197.7
 20
432.6
 30
0.0
 11
197.7
 21
330.6
 31
0.0
  0
LINE
  5
363
100
AcDbEntity
  8
LAY-5
  6
DASHDOT
 62
     1
100
AcDbLine
 10
235.7
 20
424.93
 30
0.0
 11
235.7
 21
407.29
 31
0.0
  0
LINE
  5
364
100
AcDbEntity
  8
LAY-5
  6
DASHDOT
 62
     1
100
AcDbLine
 10
217.7
 20
413.8
 30
0.0
 11
217.7
 21
396.7
 31
0.0
  0
LINE
  5
365
100
AcDbEntity
  8
LAY-5
  6
DASHDOT
 62
     1
100
AcDbLine
 10
209.8
 20
405.5
 30
0.0
 11
225.77
 21
405.5
 31
0.0
  0
LINE
  5
366
100
AcDbEntity
  8
LAY-5
  6
DASHDOT
 62
     1
100
AcDbLine
 10
177.7
 20
245.4
 30
0.0
 11
177.7
 21
224.8
 31
0.0
  0
LINE
  5
367
100
AcDbEntity
  8
LAY-5
  6
DASHDOT
 62
     1
100
AcDbLine
 10
217.7
 20
245.4
 30
0.0
 11
217.7
 21
224.8
 31
0.0
  0
LINE
  5
368
100
AcDbEntity
  8
LAY-5
  6
DASHDOT
 62
     1
100
AcDbLine
 10
587.6
 20
232.6
 30
0.0
 11
587.6
 21
192.8
 31
0.0
  0
LINE
  5
369
100
AcDbEntity
  8
LAY-5
  6
DASHDOT
 62
     1
100
AcDbLine
 10
460.672994
 20
219.92
 30
0.0
 11
460.672994
 21
195.3
 31
0.0
  0
LINE
  5
36A
100
AcDbEntity
  8
LAY-5
  6
DASHDOT
 62
     1
100
AcDbLine
 10
471.3
 20
210.639054
 30
0.0
 11
220.000953
 21
210.955861
 31
0.0
  0
LINE
  5
36B
100
AcDbEntity
  8
LAY-5
  6
DASHDOT
 62
     1
100
AcDbLine
 10
211.700031
 20
442.3
 30
0.0
 11
211.700031
 21
423.5
 31
0.0
  0
LINE
  5
36C
100
AcDbEntity
  8
LAY-5
  6
DASHDOT
 62
     1
100
AcDbLine
 10
176.4
 20
353.5
 30
0.0
 11
219.3
 21
353.5
 31
0.0
  0
LINE
  5
36D
100
AcDbEntity
  8
LAY-5
  6
DASHDOT
 62
     1
100
AcDbLine
 10
233.9
 20
406.999992
 30
0.0
 11
264.678241
 21
406.999992
 31
0.0
  0
LINE
  5
36E
100
AcDbEntity
  8
LAY-5
  6
DASHDOT
 62
     1
100
AcDbLine
 10
244.190013
 20
393.425013
 30
0.0
 11
251.157743
 21
420.372914
 31
0.0
  0
LINE
  5
36F
100
AcDbEntity
  8
LAY-5
  6
DASHDOT
 62
     1
100
AcDbLine
 10
197.7
 20
353.5
 30
0.0
 11
197.582696
 21
333.883957
 31
0.0
  0
LINE
  5
370
100
AcDbEntity
  8
LAY-5
  6
DASHDOT
 62
     1
100
AcDbLine
 10
457.239995
 20
338.563802
 30
0.0
 11
464.340609
 21
366.025632
 31
0.0
  0
LINE
  5
371
100
AcDbEntity
  8
LAY-5
  6
DASHDOT
 62
     1
100
AcDbLine
 10
460.618163
 20
339.028595
 30
0.0
 11
460.782325
 21
366.480372
 31
0.0
  0
LINE
  5
372
100
AcDbEntity
  8
LAY-5
  6
DASHDOT
 62
     1
100
AcDbLine
 10
473.888555
 20
348.515995
 30
0.0
 11
236.710709
 21
409.841416
 31
0.0
  0
LINE
  5
373
100
AcDbEntity
  8
LAY-5
  6
DASHDOT
 62
     1
100
AcDbLine
 10
197.7
 20
353.5
 30
0.0
 11
473.985336
 21
351.847809
 31
0.0
  0
LINE
  5
374
100
AcDbEntity
  8
LAY-6
  6
CONTINUOUS
 62
     1
100
AcDbLine
 10
622.6
 20
132.4
 30
0.0
 11
622.6
 21
112.3
 31
0.0
  0
TEXT
  5
375
100
AcDbEntity
  8
LAY-6
  6
CONTINUOUS
 62
     2
100
AcDbText
 10
637.1
 20
113.8
 30
0.0
 40
5.0
  1
３７
 41
0.672
  7
EXCADSTD
 72
     5
 11
644.4328
 21
113.8
 31
0.0
100
AcDbText
  0
LINE
  5
376
100
AcDbEntity
  8
LAY-6
  6
CONTINUOUS
 62
     1
100
AcDbLine
 10
622.6
 20
113.3
 30
0.0
 11
659.6
 21
113.3
 31
0.0
  0
LINE
  5
377
100
AcDbEntity
  8
LAY-6
  6
CONTINUOUS
 62
     1
100
AcDbLine
 10
624.6
 20
113.633333
 30
0.0
 11
622.6
 21
113.3
 31
0.0
  0
LINE
  5
378
100
AcDbEntity
  8
LAY-6
  6
CONTINUOUS
 62
     1
100
AcDbLine
 10
622.6
 20
113.3
 30
0.0
 11
624.6
 21
112.966667
 31
0.0
  0
LINE
  5
379
100
AcDbEntity
  8
LAY-6
  6
CONTINUOUS
 62
     1
100
AcDbLine
 10
657.6
 20
112.966667
 30
0.0
 11
659.6
 21
113.3
 31
0.0
  0
LINE
  5
37A
100
AcDbEntity
  8
LAY-6
  6
CONTINUOUS
 62
     1
100
AcDbLine
 10
659.6
 20
113.3
 30
0.0
 11
657.6
 21
113.633333
 31
0.0
  0
TEXT
  5
37B
100
AcDbEntity
  8
LAY-6
  6
CONTINUOUS
 62
     2
100
AcDbText
 10
573.1
 20
147.3
 30
0.0
 40
5.0
  1
第一速度調整バルブ
 41
0.672
  7
EXCADSTD
 72
     5
 11
609.1
 21
147.3
 31
0.0
100
AcDbText
  0
TEXT
  5
37C
100
AcDbEntity
  8
LAY-6
  6
CONTINUOUS
 62
     2
100
AcDbText
 10
668.1
 20
154.2
 30
0.0
 40
5.0
  1
第二速度調整バルブ
 41
0.672
  7
EXCADSTD
 72
     5
 11
704.1
 21
154.2
 31
0.0
100
AcDbText
  0
TEXT
  5
37D
100
AcDbEntity
  8
LAY-6
  6
CONTINUOUS
 62
     2
100
AcDbText
 10
732.1
 20
166.0
 30
0.0
 40
5.0
  1
２－Ｍ６×５０皿小ネジ（Ｄ＝１０）
 41
0.672
  7
EXCADSTD
 72
     5
 11
800.1
 21
166.0
 31
0.0
100
AcDbText
  0
POLYLINE
  5
37E
100
AcDbEntity
  8
LAY-6
  6
CONTINUOUS
 62
     1
100
AcDb2dPolyline
 66
     1
 10
0.0
 20
0.0
 30
0.0
 70
   128
  0
VERTEX
  5
37F
100
AcDbEntity
  8
LAY-6
  6
CONTINUOUS
 62
     1
100
AcDbVertex
100
AcDb2dVertex
 10
674.6
 20
182.4
 30
0.0
  0
VERTEX
  5
380
100
AcDbEntity
  8
LAY-6
  6
CONTINUOUS
 62
     1
100
AcDbVertex
100
AcDb2dVertex
 10
706.1
 20
165.0
 30
0.0
  0
VERTEX
  5
381
100
AcDbEntity
  8
LAY-6
  6
CONTINUOUS
 62
     1
100
AcDbVertex
100
AcDb2dVertex
 10
800.6
 20
165.0
 30
0.0
  0
SEQEND
  5
382
100
AcDbEntity
  8
LAY-6
  6
CONTINUOUS
 62
     1
  0
LINE
  5
383
100
AcDbEntity
  8
LAY-6
  6
CONTINUOUS
 62
     1
100
AcDbLine
 10
676.511841
 20
181.724742
 30
0.0
 11
674.6
 21
182.4
 31
0.0
  0
LINE
  5
384
100
AcDbEntity
  8
LAY-6
  6
CONTINUOUS
 62
     1
100
AcDbLine
 10
674.6
 20
182.4
 30
0.0
 11
676.189496
 21
181.141186
 31
0.0
  0
TEXT
  5
385
100
AcDbEntity
  8
LAY-6
  6
CONTINUOUS
 62
     2
100
AcDbText
 10
683.0
 20
283.2
 30
0.0
 40
5.0
  1
４－Ｍ５×１２丸皿小ネジ（Ｐ＝０．８）
 41
0.672
  7
EXCADSTD
 72
     5
 11
759.0
 21
283.2
 31
0.0
100
AcDbText
  0
LINE
  5
386
100
AcDbEntity
  8
LAY-6
  6
CONTINUOUS
 62
     1
100
AcDbLine
 10
177.7
 20
246.3
 30
0.0
 11
177.7
 21
258.1
 31
0.0
  0
TEXT
  5
387
100
AcDbEntity
  8
LAY-6
  6
CONTINUOUS
 62
     2
100
AcDbText
 10
164.7
 20
257.6
 30
0.0
 40
5.0
  1
１８
 41
0.672
  7
EXCADSTD
 72
     5
 11
172.0328
 21
257.6
 31
0.0
100
AcDbText
  0
LINE
  5
388
100
AcDbEntity
  8
LAY-6
  6
CONTINUOUS
 62
     1
100
AcDbLine
 10
159.7
 20
257.1
 30
0.0
 11
177.7
 21
257.1
 31
0.0
  0
LINE
  5
389
100
AcDbEntity
  8
LAY-6
  6
CONTINUOUS
 62
     1
100
AcDbLine
 10
161.7
 20
257.433333
 30
0.0
 11
159.7
 21
257.1
 31
0.0
  0
LINE
  5
38A
100
AcDbEntity
  8
LAY-6
  6
CONTINUOUS
 62
     1
100
AcDbLine
 10
159.7
 20
257.1
 30
0.0
 11
161.7
 21
256.766667
 31
0.0
  0
LINE
  5
38B
100
AcDbEntity
  8
LAY-6
  6
CONTINUOUS
 62
     1
100
AcDbLine
 10
175.7
 20
256.766667
 30
0.0
 11
177.7
 21
257.1
 31
0.0
  0
LINE
  5
38C
100
AcDbEntity
  8
LAY-6
  6
CONTINUOUS
 62
     1
100
AcDbLine
 10
177.7
 20
257.1
 30
0.0
 11
175.7
 21
257.433333
 31
0.0
  0
LINE
  5
38D
100
AcDbEntity
  8
LAY-6
  6
CONTINUOUS
 62
     1
100
AcDbLine
 10
217.7
 20
246.3
 30
0.0
 11
217.7
 21
258.1
 31
0.0
  0
TEXT
  5
38E
100
AcDbEntity
  8
LAY-6
  6
CONTINUOUS
 62
     2
100
AcDbText
 10
193.7
 20
257.6
 30
0.0
 40
5.0
  1
４０
 41
0.672
  7
EXCADSTD
 72
     5
 11
201.0328
 21
257.6
 31
0.0
100
AcDbText
  0
LINE
  5
38F
100
AcDbEntity
  8
LAY-6
  6
CONTINUOUS
 62
     1
100
AcDbLine
 10
177.7
 20
257.1
 30
0.0
 11
217.7
 21
257.1
 31
0.0
  0
LINE
  5
390
100
AcDbEntity
  8
LAY-6
  6
CONTINUOUS
 62
     1
100
AcDbLine
 10
179.7
 20
257.433333
 30
0.0
 11
177.7
 21
257.1
 31
0.0
  0
LINE
  5
391
100
AcDbEntity
  8
LAY-6
  6
CONTINUOUS
 62
     1
100
AcDbLine
 10
177.7
 20
257.1
 30
0.0
 11
179.7
 21
256.766667
 31
0.0
  0
LINE
  5
392
100
AcDbEntity
  8
LAY-6
  6
CONTINUOUS
 62
     1
100
AcDbLine
 10
215.7
 20
256.766667
 30
0.0
 11
217.7
 21
257.1
 31
0.0
  0
LINE
  5
393
100
AcDbEntity
  8
LAY-6
  6
CONTINUOUS
 62
     1
100
AcDbLine
 10
217.7
 20
257.1
 30
0.0
 11
215.7
 21
257.433333
 31
0.0
  0
LINE
  5
394
100
AcDbEntity
  8
LAY-6
  6
CONTINUOUS
 62
     1
100
AcDbLine
 10
159.7
 20
246.4
 30
0.0
 11
159.7
 21
266.0
 31
0.0
  0
TEXT
  5
395
100
AcDbEntity
  8
LAY-6
  6
CONTINUOUS
 62
     2
100
AcDbText
 10
129.7
 20
265.5
 30
0.0
 40
5.0
  1
５２
 41
0.672
  7
EXCADSTD
 72
     5
 11
137.0328
 21
265.5
 31
0.0
100
AcDbText
  0
LINE
  5
396
100
AcDbEntity
  8
LAY-6
  6
CONTINUOUS
 62
     1
100
AcDbLine
 10
107.7
 20
265.0
 30
0.0
 11
159.7
 21
265.0
 31
0.0
  0
LINE
  5
397
100
AcDbEntity
  8
LAY-6
  6
CONTINUOUS
 62
     1
100
AcDbLine
 10
109.7
 20
265.333333
 30
0.0
 11
107.7
 21
265.0
 31
0.0
  0
LINE
  5
398
100
AcDbEntity
  8
LAY-6
  6
CONTINUOUS
 62
     1
100
AcDbLine
 10
107.7
 20
265.0
 30
0.0
 11
109.7
 21
264.666667
 31
0.0
  0
LINE
  5
399
100
AcDbEntity
  8
LAY-6
  6
CONTINUOUS
 62
     1
100
AcDbLine
 10
157.7
 20
264.666667
 30
0.0
 11
159.7
 21
265.0
 31
0.0
  0
LINE
  5
39A
100
AcDbEntity
  8
LAY-6
  6
CONTINUOUS
 62
     1
100
AcDbLine
 10
159.7
 20
265.0
 30
0.0
 11
157.7
 21
265.333333
 31
0.0
  0
LINE
  5
39B
100
AcDbEntity
  8
LAY-6
  6
CONTINUOUS
 62
     1
100
AcDbLine
 10
235.7
 20
246.3
 30
0.0
 11
235.7
 21
266.0
 31
0.0
  0
TEXT
  5
39C
100
AcDbEntity
  8
LAY-6
  6
CONTINUOUS
 62
     2
100
AcDbText
 10
193.7
 20
265.5
 30
0.0
 40
5.0
  1
７６
 41
0.672
  7
EXCADSTD
 72
     5
 11
201.0328
 21
265.5
 31
0.0
100
AcDbText
  0
LINE
  5
39D
100
AcDbEntity
  8
LAY-6
  6
CONTINUOUS
 62
     1
100
AcDbLine
 10
159.7
 20
265.0
 30
0.0
 11
235.7
 21
265.0
 31
0.0
  0
LINE
  5
39E
100
AcDbEntity
  8
LAY-6
  6
CONTINUOUS
 62
     1
100
AcDbLine
 10
161.7
 20
265.333333
 30
0.0
 11
159.7
 21
265.0
 31
0.0
  0
LINE
  5
39F
100
AcDbEntity
  8
LAY-6
  6
CONTINUOUS
 62
     1
100
AcDbLine
 10
159.7
 20
265.0
 30
0.0
 11
161.7
 21
264.666667
 31
0.0
  0
LINE
  5
3A0
100
AcDbEntity
  8
LAY-6
  6
CONTINUOUS
 62
     1
100
AcDbLine
 10
233.7
 20
264.666667
 30
0.0
 11
235.7
 21
265.0
 31
0.0
  0
LINE
  5
3A1
100
AcDbEntity
  8
LAY-6
  6
CONTINUOUS
 62
     1
100
AcDbLine
 10
235.7
 20
265.0
 30
0.0
 11
233.7
 21
265.333333
 31
0.0
  0
LINE
  5
3A2
100
AcDbEntity
  8
LAY-6
  6
CONTINUOUS
 62
     1
100
AcDbLine
 10
202.4
 20
182.4
 30
0.0
 11
142.4
 21
182.4
 31
0.0
  0
TEXT
  5
3A3
100
AcDbEntity
  8
LAY-6
  6
CONTINUOUS
 62
     2
100
AcDbText
 10
142.9
 20
203.4
 30
0.0
 40
5.0
  1
５０
 50
90.0
 41
0.672
  7
EXCADSTD
 72
     5
 11
142.9
 21
210.7328
 31
0.0
100
AcDbText
  0
LINE
  5
3A4
100
AcDbEntity
  8
LAY-6
  6
CONTINUOUS
 62
     1
100
AcDbLine
 10
143.4
 20
182.4
 30
0.0
 11
143.4
 21
232.4
 31
0.0
  0
LINE
  5
3A5
100
AcDbEntity
  8
LAY-6
  6
CONTINUOUS
 62
     1
100
AcDbLine
 10
143.066667
 20
184.4
 30
0.0
 11
143.4
 21
182.4
 31
0.0
  0
LINE
  5
3A6
100
AcDbEntity
  8
LAY-6
  6
CONTINUOUS
 62
     1
100
AcDbLine
 10
143.4
 20
182.4
 30
0.0
 11
143.733333
 21
184.4
 31
0.0
  0
LINE
  5
3A7
100
AcDbEntity
  8
LAY-6
  6
CONTINUOUS
 62
     1
100
AcDbLine
 10
143.733333
 20
230.4
 30
0.0
 11
143.4
 21
232.4
 31
0.0
  0
LINE
  5
3A8
100
AcDbEntity
  8
LAY-6
  6
CONTINUOUS
 62
     1
100
AcDbLine
 10
143.4
 20
232.4
 30
0.0
 11
143.066667
 21
230.4
 31
0.0
  0
LINE
  5
3A9
100
AcDbEntity
  8
LAY-6
  6
CONTINUOUS
 62
     1
100
AcDbLine
 10
107.7
 20
163.6
 30
0.0
 11
107.7
 21
165.2
 31
0.0
  0
LINE
  5
3AA
100
AcDbEntity
  8
LAY-6
  6
CONTINUOUS
 62
     1
100
AcDbLine
 10
211.7
 20
172.4
 30
0.0
 11
211.7
 21
163.2
 31
0.0
  0
TEXT
  5
3AB
100
AcDbEntity
  8
LAY-6
  6
CONTINUOUS
 62
     2
100
AcDbText
 10
153.7
 20
164.7
 30
0.0
 40
5.0
  1
１０４
 41
0.672
  7
EXCADSTD
 72
     5
 11
165.7
 21
164.7
 31
0.0
100
AcDbText
  0
LINE
  5
3AC
100
AcDbEntity
  8
LAY-6
  6
CONTINUOUS
 62
     1
100
AcDbLine
 10
107.7
 20
164.2
 30
0.0
 11
211.7
 21
164.2
 31
0.0
  0
LINE
  5
3AD
100
AcDbEntity
  8
LAY-6
  6
CONTINUOUS
 62
     1
100
AcDbLine
 10
109.7
 20
164.533333
 30
0.0
 11
107.7
 21
164.2
 31
0.0
  0
LINE
  5
3AE
100
AcDbEntity
  8
LAY-6
  6
CONTINUOUS
 62
     1
100
AcDbLine
 10
107.7
 20
164.2
 30
0.0
 11
109.7
 21
163.866667
 31
0.0
  0
LINE
  5
3AF
100
AcDbEntity
  8
LAY-6
  6
CONTINUOUS
 62
     1
100
AcDbLine
 10
209.7
 20
163.866667
 30
0.0
 11
211.7
 21
164.2
 31
0.0
  0
LINE
  5
3B0
100
AcDbEntity
  8
LAY-6
  6
CONTINUOUS
 62
     1
100
AcDbLine
 10
211.7
 20
164.2
 30
0.0
 11
209.7
 21
164.533333
 31
0.0
  0
LINE
  5
3B1
100
AcDbEntity
  8
LAY-6
  6
CONTINUOUS
 62
     1
100
AcDbLine
 10
181.7
 20
131.92
 30
0.0
 11
181.7
 21
107.6
 31
0.0
  0
LINE
  5
3B2
100
AcDbEntity
  8
LAY-6
  6
CONTINUOUS
 62
     1
100
AcDbLine
 10
369.7
 20
131.4
 30
0.0
 11
369.7
 21
107.6
 31
0.0
  0
TEXT
  5
3B3
100
AcDbEntity
  8
LAY-6
  6
CONTINUOUS
 62
     2
100
AcDbText
 10
269.7
 20
109.1
 30
0.0
 40
5.0
  1
１８８
 41
0.672
  7
EXCADSTD
 72
     5
 11
281.7
 21
109.1
 31
0.0
100
AcDbText
  0
LINE
  5
3B4
100
AcDbEntity
  8
LAY-6
  6
CONTINUOUS
 62
     1
100
AcDbLine
 10
181.7
 20
108.6
 30
0.0
 11
369.7
 21
108.6
 31
0.0
  0
LINE
  5
3B5
100
AcDbEntity
  8
LAY-6
  6
CONTINUOUS
 62
     1
100
AcDbLine
 10
183.7
 20
108.933333
 30
0.0
 11
181.7
 21
108.6
 31
0.0
  0
LINE
  5
3B6
100
AcDbEntity
  8
LAY-6
  6
CONTINUOUS
 62
     1
100
AcDbLine
 10
181.7
 20
108.6
 30
0.0
 11
183.7
 21
108.266667
 31
0.0
  0
LINE
  5
3B7
100
AcDbEntity
  8
LAY-6
  6
CONTINUOUS
 62
     1
100
AcDbLine
 10
367.7
 20
108.266667
 30
0.0
 11
369.7
 21
108.6
 31
0.0
  0
LINE
  5
3B8
100
AcDbEntity
  8
LAY-6
  6
CONTINUOUS
 62
     1
100
AcDbLine
 10
369.7
 20
108.6
 30
0.0
 11
367.7
 21
108.933333
 31
0.0
  0
TEXT
  5
3B9
100
AcDbEntity
  8
LAY-6
  6
CONTINUOUS
 62
     2
100
AcDbText
 10
130.7
 20
151.0
 30
0.0
 40
5.0
  1
閉扉速度調整バルブ
 41
0.672
  7
EXCADSTD
 72
     5
 11
166.7
 21
151.0
 31
0.0
100
AcDbText
  0
LINE
  5
3BA
100
AcDbEntity
  8
LAY-6
  6
CONTINUOUS
 62
     1
100
AcDbLine
 10
107.7
 20
491.9
 30
0.0
 11
107.7
 21
497.0
 31
0.0
  0
LINE
  5
3BB
100
AcDbEntity
  8
LAY-6
  6
CONTINUOUS
 62
     1
100
AcDbLine
 10
247.7
 20
432.6
 30
0.0
 11
247.7
 21
497.0
 31
0.0
  0
TEXT
  5
3BC
100
AcDbEntity
  8
LAY-6
  6
CONTINUOUS
 62
     2
100
AcDbText
 10
171.7
 20
496.5
 30
0.0
 40
5.0
  1
１４０
 41
0.672
  7
EXCADSTD
 72
     5
 11
183.7
 21
496.5
 31
0.0
100
AcDbText
  0
LINE
  5
3BD
100
AcDbEntity
  8
LAY-6
  6
CONTINUOUS
 62
     1
100
AcDbLine
 10
107.7
 20
496.0
 30
0.0
 11
247.7
 21
496.0
 31
0.0
  0
LINE
  5
3BE
100
AcDbEntity
  8
LAY-6
  6
CONTINUOUS
 62
     1
100
AcDbLine
 10
109.7
 20
496.333333
 30
0.0
 11
107.7
 21
496.0
 31
0.0
  0
LINE
  5
3BF
100
AcDbEntity
  8
LAY-6
  6
CONTINUOUS
 62
     1
100
AcDbLine
 10
107.7
 20
496.0
 30
0.0
 11
109.7
 21
495.666667
 31
0.0
  0
LINE
  5
3C0
100
AcDbEntity
  8
LAY-6
  6
CONTINUOUS
 62
     1
100
AcDbLine
 10
245.7
 20
495.666667
 30
0.0
 11
247.7
 21
496.0
 31
0.0
  0
LINE
  5
3C1
100
AcDbEntity
  8
LAY-6
  6
CONTINUOUS
 62
     1
100
AcDbLine
 10
247.7
 20
496.0
 30
0.0
 11
245.7
 21
496.333333
 31
0.0
  0
TEXT
  5
3C2
100
AcDbEntity
  8
LAY-6
  6
CONTINUOUS
 62
     2
100
AcDbText
 10
218.7
 20
475.5
 30
0.0
 40
5.0
  1
５０
 41
0.672
  7
EXCADSTD
 72
     5
 11
226.0328
 21
475.5
 31
0.0
100
AcDbText
  0
LINE
  5
3C3
100
AcDbEntity
  8
LAY-6
  6
CONTINUOUS
 62
     1
100
AcDbLine
 10
197.7
 20
475.0
 30
0.0
 11
247.7
 21
475.0
 31
0.0
  0
LINE
  5
3C4
100
AcDbEntity
  8
LAY-6
  6
CONTINUOUS
 62
     1
100
AcDbLine
 10
199.7
 20
475.333333
 30
0.0
 11
197.7
 21
475.0
 31
0.0
  0
LINE
  5
3C5
100
AcDbEntity
  8
LAY-6
  6
CONTINUOUS
 62
     1
100
AcDbLine
 10
197.7
 20
475.0
 30
0.0
 11
199.7
 21
474.666667
 31
0.0
  0
LINE
  5
3C6
100
AcDbEntity
  8
LAY-6
  6
CONTINUOUS
 62
     1
100
AcDbLine
 10
245.7
 20
474.666667
 30
0.0
 11
247.7
 21
475.0
 31
0.0
  0
LINE
  5
3C7
100
AcDbEntity
  8
LAY-6
  6
CONTINUOUS
 62
     1
100
AcDbLine
 10
247.7
 20
475.0
 30
0.0
 11
245.7
 21
475.333333
 31
0.0
  0
LINE
  5
3C8
100
AcDbEntity
  8
LAY-6
  6
CONTINUOUS
 62
     1
100
AcDbLine
 10
347.7
 20
444.8
 30
0.0
 11
347.7
 21
457.0
 31
0.0
  0
LINE
  5
3C9
100
AcDbEntity
  8
LAY-6
  6
CONTINUOUS
 62
     1
100
AcDbLine
 10
211.700031
 20
443.8
 30
0.0
 11
211.700031
 21
457.0
 31
0.0
  0
TEXT
  5
3CA
100
AcDbEntity
  8
LAY-6
  6
CONTINUOUS
 62
     2
100
AcDbText
 10
273.700015
 20
456.5
 30
0.0
 40
5.0
  1
１３６
 41
0.672
  7
EXCADSTD
 72
     5
 11
285.700015
 21
456.5
 31
0.0
100
AcDbText
  0
LINE
  5
3CB
100
AcDbEntity
  8
LAY-6
  6
CONTINUOUS
 62
     1
100
AcDbLine
 10
347.7
 20
456.0
 30
0.0
 11
211.700031
 21
456.0
 31
0.0
  0
LINE
  5
3CC
100
AcDbEntity
  8
LAY-6
  6
CONTINUOUS
 62
     1
100
AcDbLine
 10
345.7
 20
455.666667
 30
0.0
 11
347.7
 21
456.0
 31
0.0
  0
LINE
  5
3CD
100
AcDbEntity
  8
LAY-6
  6
CONTINUOUS
 62
     1
100
AcDbLine
 10
347.7
 20
456.0
 30
0.0
 11
345.7
 21
456.333333
 31
0.0
  0
LINE
  5
3CE
100
AcDbEntity
  8
LAY-6
  6
CONTINUOUS
 62
     1
100
AcDbLine
 10
213.700031
 20
456.333333
 30
0.0
 11
211.700031
 21
456.0
 31
0.0
  0
LINE
  5
3CF
100
AcDbEntity
  8
LAY-6
  6
CONTINUOUS
 62
     1
100
AcDbLine
 10
211.700031
 20
456.0
 30
0.0
 11
213.700031
 21
455.666667
 31
0.0
  0
TEXT
  5
3D0
100
AcDbEntity
  8
LAY-6
  6
CONTINUOUS
 62
     2
100
AcDbText
 10
153.700015
 20
456.5
 30
0.0
 40
5.0
  1
１０４
 41
0.672
  7
EXCADSTD
 72
     5
 11
165.700015
 21
456.5
 31
0.0
100
AcDbText
  0
LINE
  5
3D1
100
AcDbEntity
  8
LAY-6
  6
CONTINUOUS
 62
     1
100
AcDbLine
 10
211.700031
 20
456.0
 30
0.0
 11
107.7
 21
456.0
 31
0.0
  0
LINE
  5
3D2
100
AcDbEntity
  8
LAY-6
  6
CONTINUOUS
 62
     1
100
AcDbLine
 10
209.700031
 20
455.666667
 30
0.0
 11
211.700031
 21
456.0
 31
0.0
  0
LINE
  5
3D3
100
AcDbEntity
  8
LAY-6
  6
CONTINUOUS
 62
     1
100
AcDbLine
 10
211.700031
 20
456.0
 30
0.0
 11
209.700031
 21
456.333333
 31
0.0
  0
LINE
  5
3D4
100
AcDbEntity
  8
LAY-6
  6
CONTINUOUS
 62
     1
100
AcDbLine
 10
109.7
 20
456.333333
 30
0.0
 11
107.7
 21
456.0
 31
0.0
  0
LINE
  5
3D5
100
AcDbEntity
  8
LAY-6
  6
CONTINUOUS
 62
     1
100
AcDbLine
 10
107.7
 20
456.0
 30
0.0
 11
109.7
 21
455.666667
 31
0.0
  0
LINE
  5
3D6
100
AcDbEntity
  8
LAY-6
  6
CONTINUOUS
 62
     1
100
AcDbLine
 10
156.2
 20
398.5
 30
0.0
 11
139.5
 21
398.5
 31
0.0
  0
TEXT
  5
3D7
100
AcDbEntity
  8
LAY-6
  6
CONTINUOUS
 62
     2
100
AcDbText
 10
140.0
 20
407.0
 30
0.0
 40
5.0
  1
２５
 50
90.0
 41
0.672
  7
EXCADSTD
 72
     5
 11
140.0
 21
414.3328
 31
0.0
100
AcDbText
  0
LINE
  5
3D8
100
AcDbEntity
  8
LAY-6
  6
CONTINUOUS
 62
     1
100
AcDbLine
 10
140.5
 20
423.5
 30
0.0
 11
140.5
 21
398.5
 31
0.0
  0
LINE
  5
3D9
100
AcDbEntity
  8
LAY-6
  6
CONTINUOUS
 62
     1
100
AcDbLine
 10
140.833333
 20
421.5
 30
0.0
 11
140.5
 21
423.5
 31
0.0
  0
LINE
  5
3DA
100
AcDbEntity
  8
LAY-6
  6
CONTINUOUS
 62
     1
100
AcDbLine
 10
140.5
 20
423.5
 30
0.0
 11
140.166667
 21
421.5
 31
0.0
  0
LINE
  5
3DB
100
AcDbEntity
  8
LAY-6
  6
CONTINUOUS
 62
     1
100
AcDbLine
 10
140.166667
 20
400.5
 30
0.0
 11
140.5
 21
398.5
 31
0.0
  0
LINE
  5
3DC
100
AcDbEntity
  8
LAY-6
  6
CONTINUOUS
 62
     1
100
AcDbLine
 10
140.5
 20
398.5
 30
0.0
 11
140.833333
 21
400.5
 31
0.0
  0
LINE
  5
3DD
100
AcDbEntity
  8
LAY-6
  6
CONTINUOUS
 62
     1
100
AcDbLine
 10
155.7
 20
423.5
 30
0.0
 11
130.7
 21
423.5
 31
0.0
  0
LINE
  5
3DE
100
AcDbEntity
  8
LAY-6
  6
CONTINUOUS
 62
     1
100
AcDbLine
 10
174.9
 20
353.5
 30
0.0
 11
130.7
 21
353.5
 31
0.0
  0
TEXT
  5
3DF
100
AcDbEntity
  8
LAY-6
  6
CONTINUOUS
 62
     2
100
AcDbText
 10
131.2
 20
384.5
 30
0.0
 40
5.0
  1
７０
 50
90.0
 41
0.672
  7
EXCADSTD
 72
     5
 11
131.2
 21
391.8328
 31
0.0
100
AcDbText
  0
LINE
  5
3E0
100
AcDbEntity
  8
LAY-6
  6
CONTINUOUS
 62
     1
100
AcDbLine
 10
131.7
 20
423.5
 30
0.0
 11
131.7
 21
353.5
 31
0.0
  0
LINE
  5
3E1
100
AcDbEntity
  8
LAY-6
  6
CONTINUOUS
 62
     1
100
AcDbLine
 10
132.033333
 20
421.5
 30
0.0
 11
131.7
 21
423.5
 31
0.0
  0
LINE
  5
3E2
100
AcDbEntity
  8
LAY-6
  6
CONTINUOUS
 62
     1
100
AcDbLine
 10
131.7
 20
423.5
 30
0.0
 11
131.366667
 21
421.5
 31
0.0
  0
LINE
  5
3E3
100
AcDbEntity
  8
LAY-6
  6
CONTINUOUS
 62
     1
100
AcDbLine
 10
131.366667
 20
355.5
 30
0.0
 11
131.7
 21
353.5
 31
0.0
  0
LINE
  5
3E4
100
AcDbEntity
  8
LAY-6
  6
CONTINUOUS
 62
     1
100
AcDbLine
 10
131.7
 20
353.5
 30
0.0
 11
132.033333
 21
355.5
 31
0.0
  0
LINE
  5
3E5
100
AcDbEntity
  8
LAY-6
  6
CONTINUOUS
 62
     1
100
AcDbLine
 10
107.7
 20
446.6
 30
0.0
 11
107.7
 21
447.8
 31
0.0
  0
TEXT
  5
3E6
100
AcDbEntity
  8
LAY-6
  6
CONTINUOUS
 62
     2
100
AcDbText
 10
129.7
 20
447.3
 30
0.0
 40
5.0
  1
５２
 41
0.672
  7
EXCADSTD
 72
     5
 11
137.0328
 21
447.3
 31
0.0
100
AcDbText
  0
LINE
  5
3E7
100
AcDbEntity
  8
LAY-6
  6
CONTINUOUS
 62
     1
100
AcDbLine
 10
107.7
 20
446.8
 30
0.0
 11
159.7
 21
446.8
 31
0.0
  0
LINE
  5
3E8
100
AcDbEntity
  8
LAY-6
  6
CONTINUOUS
 62
     1
100
AcDbLine
 10
109.7
 20
447.133333
 30
0.0
 11
107.7
 21
446.8
 31
0.0
  0
LINE
  5
3E9
100
AcDbEntity
  8
LAY-6
  6
CONTINUOUS
 62
     1
100
AcDbLine
 10
107.7
 20
446.8
 30
0.0
 11
109.7
 21
446.466667
 31
0.0
  0
LINE
  5
3EA
100
AcDbEntity
  8
LAY-6
  6
CONTINUOUS
 62
     1
100
AcDbLine
 10
157.7
 20
446.466667
 30
0.0
 11
159.7
 21
446.8
 31
0.0
  0
LINE
  5
3EB
100
AcDbEntity
  8
LAY-6
  6
CONTINUOUS
 62
     1
100
AcDbLine
 10
159.7
 20
446.8
 30
0.0
 11
157.7
 21
447.133333
 31
0.0
  0
TEXT
  5
3EC
100
AcDbEntity
  8
LAY-6
  6
CONTINUOUS
 62
     2
100
AcDbText
 10
193.7
 20
447.3
 30
0.0
 40
5.0
  1
７６
 41
0.672
  7
EXCADSTD
 72
     5
 11
201.0328
 21
447.3
 31
0.0
100
AcDbText
  0
LINE
  5
3ED
100
AcDbEntity
  8
LAY-6
  6
CONTINUOUS
 62
     1
100
AcDbLine
 10
159.7
 20
446.8
 30
0.0
 11
235.7
 21
446.8
 31
0.0
  0
LINE
  5
3EE
100
AcDbEntity
  8
LAY-6
  6
CONTINUOUS
 62
     1
100
AcDbLine
 10
161.7
 20
447.133333
 30
0.0
 11
159.7
 21
446.8
 31
0.0
  0
LINE
  5
3EF
100
AcDbEntity
  8
LAY-6
  6
CONTINUOUS
 62
     1
100
AcDbLine
 10
159.7
 20
446.8
 30
0.0
 11
161.7
 21
446.466667
 31
0.0
  0
LINE
  5
3F0
100
AcDbEntity
  8
LAY-6
  6
CONTINUOUS
 62
     1
100
AcDbLine
 10
233.7
 20
446.466667
 30
0.0
 11
235.7
 21
446.8
 31
0.0
  0
LINE
  5
3F1
100
AcDbEntity
  8
LAY-6
  6
CONTINUOUS
 62
     1
100
AcDbLine
 10
235.7
 20
446.8
 30
0.0
 11
233.7
 21
447.133333
 31
0.0
  0
LINE
  5
3F2
100
AcDbEntity
  8
LAY-6
  6
CONTINUOUS
 62
     1
100
AcDbLine
 10
186.21
 20
405.5
 30
0.0
 11
192.5
 21
405.5
 31
0.0
  0
LINE
  5
3F3
100
AcDbEntity
  8
LAY-6
  6
CONTINUOUS
 62
     1
100
AcDbLine
 10
168.76
 20
415.5
 30
0.0
 11
192.5
 21
415.5
 31
0.0
  0
TEXT
  5
3F4
100
AcDbEntity
  8
LAY-6
  6
CONTINUOUS
 62
     2
100
AcDbText
 10
191.0
 20
406.5
 30
0.0
 40
5.0
  1
１０
 50
90.0
 41
0.672
  7
EXCADSTD
 72
     5
 11
191.0
 21
413.8328
 31
0.0
100
AcDbText
  0
LINE
  5
3F5
100
AcDbEntity
  8
LAY-6
  6
CONTINUOUS
 62
     1
100
AcDbLine
 10
191.5
 20
405.5
 30
0.0
 11
191.5
 21
415.5
 31
0.0
  0
LINE
  5
3F6
100
AcDbEntity
  8
LAY-6
  6
CONTINUOUS
 62
     1
100
AcDbLine
 10
191.166667
 20
407.5
 30
0.0
 11
191.5
 21
405.5
 31
0.0
  0
LINE
  5
3F7
100
AcDbEntity
  8
LAY-6
  6
CONTINUOUS
 62
     1
100
AcDbLine
 10
191.5
 20
405.5
 30
0.0
 11
191.833333
 21
407.5
 31
0.0
  0
LINE
  5
3F8
100
AcDbEntity
  8
LAY-6
  6
CONTINUOUS
 62
     1
100
AcDbLine
 10
191.833333
 20
413.5
 30
0.0
 11
191.5
 21
415.5
 31
0.0
  0
LINE
  5
3F9
100
AcDbEntity
  8
LAY-6
  6
CONTINUOUS
 62
     1
100
AcDbLine
 10
191.5
 20
415.5
 30
0.0
 11
191.166667
 21
413.5
 31
0.0
  0
TEXT
  5
3FA
100
AcDbEntity
  8
LAY-6
  6
CONTINUOUS
 62
     2
100
AcDbText
 10
191.0
 20
417.5
 30
0.0
 40
5.0
  1
８
 50
90.0
 41
0.672
  7
EXCADSTD
 72
     5
 11
191.0
 21
420.7
 31
0.0
100
AcDbText
  0
LINE
  5
3FB
100
AcDbEntity
  8
LAY-6
  6
CONTINUOUS
 62
     1
100
AcDbLine
 10
191.5
 20
415.5
 30
0.0
 11
191.5
 21
423.5
 31
0.0
  0
LINE
  5
3FC
100
AcDbEntity
  8
LAY-6
  6
CONTINUOUS
 62
     1
100
AcDbLine
 10
191.166667
 20
417.5
 30
0.0
 11
191.5
 21
415.5
 31
0.0
  0
LINE
  5
3FD
100
AcDbEntity
  8
LAY-6
  6
CONTINUOUS
 62
     1
100
AcDbLine
 10
191.5
 20
415.5
 30
0.0
 11
191.833333
 21
417.5
 31
0.0
  0
LINE
  5
3FE
100
AcDbEntity
  8
LAY-6
  6
CONTINUOUS
 62
     1
100
AcDbLine
 10
191.833333
 20
421.5
 30
0.0
 11
191.5
 21
423.5
 31
0.0
  0
LINE
  5
3FF
100
AcDbEntity
  8
LAY-6
  6
CONTINUOUS
 62
     1
100
AcDbLine
 10
191.5
 20
423.5
 30
0.0
 11
191.166667
 21
421.5
 31
0.0
  0
LINE
  5
400
100
AcDbEntity
  8
LAY-6
  6
CONTINUOUS
 62
     1
100
AcDbLine
 10
152.7
 20
401.8
 30
0.0
 11
152.7
 21
375.0
 31
0.0
  0
LINE
  5
401
100
AcDbEntity
  8
LAY-6
  6
CONTINUOUS
 62
     1
100
AcDbLine
 10
242.7
 20
403.186743
 30
0.0
 11
242.7
 21
375.0
 31
0.0
  0
TEXT
  5
402
100
AcDbEntity
  8
LAY-6
  6
CONTINUOUS
 62
     2
100
AcDbText
 10
193.7
 20
376.0
 30
0.0
 40
5.0
  1
９０
 41
0.672
  7
EXCADSTD
 72
     5
 11
201.0328
 21
376.0
 31
0.0
100
AcDbText
  0
LINE
  5
403
100
AcDbEntity
  8
LAY-6
  6
CONTINUOUS
 62
     1
100
AcDbLine
 10
152.7
 20
375.7
 30
0.0
 11
242.7
 21
375.7
 31
0.0
  0
LINE
  5
404
100
AcDbEntity
  8
LAY-6
  6
CONTINUOUS
 62
     1
100
AcDbLine
 10
154.2
 20
375.95
 30
0.0
 11
152.7
 21
375.7
 31
0.0
  0
LINE
  5
405
100
AcDbEntity
  8
LAY-6
  6
CONTINUOUS
 62
     1
100
AcDbLine
 10
152.7
 20
375.7
 30
0.0
 11
154.2
 21
375.45
 31
0.0
  0
LINE
  5
406
100
AcDbEntity
  8
LAY-6
  6
CONTINUOUS
 62
     1
100
AcDbLine
 10
241.2
 20
375.45
 30
0.0
 11
242.7
 21
375.7
 31
0.0
  0
LINE
  5
407
100
AcDbEntity
  8
LAY-6
  6
CONTINUOUS
 62
     1
100
AcDbLine
 10
242.7
 20
375.7
 30
0.0
 11
241.2
 21
375.95
 31
0.0
  0
LINE
  5
408
100
AcDbEntity
  8
LAY-6
  6
CONTINUOUS
 62
     1
100
AcDbLine
 10
177.7
 20
396.0
 30
0.0
 11
177.7
 21
387.7
 31
0.0
  0
LINE
  5
409
100
AcDbEntity
  8
LAY-6
  6
CONTINUOUS
 62
     1
100
AcDbLine
 10
217.7
 20
396.0
 30
0.0
 11
217.7
 21
387.7
 31
0.0
  0
TEXT
  5
40A
100
AcDbEntity
  8
LAY-6
  6
CONTINUOUS
 62
     2
100
AcDbText
 10
193.7
 20
388.7
 30
0.0
 40
5.0
  1
４０
 41
0.672
  7
EXCADSTD
 72
     5
 11
201.0328
 21
388.7
 31
0.0
100
AcDbText
  0
LINE
  5
40B
100
AcDbEntity
  8
LAY-6
  6
CONTINUOUS
 62
     1
100
AcDbLine
 10
177.7
 20
388.4
 30
0.0
 11
217.7
 21
388.4
 31
0.0
  0
LINE
  5
40C
100
AcDbEntity
  8
LAY-6
  6
CONTINUOUS
 62
     1
100
AcDbLine
 10
179.2
 20
388.65
 30
0.0
 11
177.7
 21
388.4
 31
0.0
  0
LINE
  5
40D
100
AcDbEntity
  8
LAY-6
  6
CONTINUOUS
 62
     1
100
AcDbLine
 10
177.7
 20
388.4
 30
0.0
 11
179.2
 21
388.15
 31
0.0
  0
LINE
  5
40E
100
AcDbEntity
  8
LAY-6
  6
CONTINUOUS
 62
     1
100
AcDbLine
 10
216.2
 20
388.15
 30
0.0
 11
217.7
 21
388.4
 31
0.0
  0
LINE
  5
40F
100
AcDbEntity
  8
LAY-6
  6
CONTINUOUS
 62
     1
100
AcDbLine
 10
217.7
 20
388.4
 30
0.0
 11
216.2
 21
388.65
 31
0.0
  0
LINE
  5
410
100
AcDbEntity
  8
LAY-6
  6
CONTINUOUS
 62
     1
100
AcDbLine
 10
159.7
 20
406.09
 30
0.0
 11
159.7
 21
387.7
 31
0.0
  0
TEXT
  5
411
100
AcDbEntity
  8
LAY-6
  6
CONTINUOUS
 62
     2
100
AcDbText
 10
162.4
 20
388.9
 30
0.0
 40
5.0
  1
１８
 41
0.672
  7
EXCADSTD
 72
     5
 11
169.7328
 21
388.9
 31
0.0
100
AcDbText
  0
LINE
  5
412
100
AcDbEntity
  8
LAY-6
  6
CONTINUOUS
 62
     1
100
AcDbLine
 10
159.7
 20
388.4
 30
0.0
 11
177.7
 21
388.4
 31
0.0
  0
LINE
  5
413
100
AcDbEntity
  8
LAY-6
  6
CONTINUOUS
 62
     1
100
AcDbLine
 10
161.2
 20
388.65
 30
0.0
 11
159.7
 21
388.4
 31
0.0
  0
LINE
  5
414
100
AcDbEntity
  8
LAY-6
  6
CONTINUOUS
 62
     1
100
AcDbLine
 10
159.7
 20
388.4
 30
0.0
 11
161.2
 21
388.15
 31
0.0
  0
LINE
  5
415
100
AcDbEntity
  8
LAY-6
  6
CONTINUOUS
 62
     1
100
AcDbLine
 10
176.2
 20
388.15
 30
0.0
 11
177.7
 21
388.4
 31
0.0
  0
LINE
  5
416
100
AcDbEntity
  8
LAY-6
  6
CONTINUOUS
 62
     1
100
AcDbLine
 10
177.7
 20
388.4
 30
0.0
 11
176.2
 21
388.65
 31
0.0
  0
LINE
  5
417
100
AcDbEntity
  8
LAY-6
  6
CONTINUOUS
 62
     1
100
AcDbLine
 10
658.3
 20
232.4
 30
0.0
 11
689.9
 21
232.4
 31
0.0
  0
LINE
  5
418
100
AcDbEntity
  8
LAY-6
  6
CONTINUOUS
 62
     1
100
AcDbLine
 10
679.9
 20
182.4
 30
0.0
 11
689.9
 21
182.4
 31
0.0
  0
TEXT
  5
419
100
AcDbEntity
  8
LAY-6
  6
CONTINUOUS
 62
     2
100
AcDbText
 10
688.9
 20
203.4
 30
0.0
 40
5.0
  1
５０
 50
90.0
 41
0.672
  7
EXCADSTD
 72
     5
 11
688.9
 21
210.7328
 31
0.0
100
AcDbText
  0
LINE
  5
41A
100
AcDbEntity
  8
LAY-6
  6
CONTINUOUS
 62
     1
100
AcDbLine
 10
689.2
 20
232.4
 30
0.0
 11
689.2
 21
182.4
 31
0.0
  0
LINE
  5
41B
100
AcDbEntity
  8
LAY-6
  6
CONTINUOUS
 62
     1
100
AcDbLine
 10
689.45
 20
230.9
 30
0.0
 11
689.2
 21
232.4
 31
0.0
  0
LINE
  5
41C
100
AcDbEntity
  8
LAY-6
  6
CONTINUOUS
 62
     1
100
AcDbLine
 10
689.2
 20
232.4
 30
0.0
 11
688.95
 21
230.9
 31
0.0
  0
LINE
  5
41D
100
AcDbEntity
  8
LAY-6
  6
CONTINUOUS
 62
     1
100
AcDbLine
 10
688.95
 20
183.9
 30
0.0
 11
689.2
 21
182.4
 31
0.0
  0
LINE
  5
41E
100
AcDbEntity
  8
LAY-6
  6
CONTINUOUS
 62
     1
100
AcDbLine
 10
689.2
 20
182.4
 30
0.0
 11
689.45
 21
183.9
 31
0.0
  0
TEXT
  5
41F
100
AcDbEntity
  8
LAY-6
  6
CONTINUOUS
 62
     2
100
AcDbText
 10
354.7
 20
164.5
 30
0.0
 40
5.0
  1
２２
 41
0.672
  7
EXCADSTD
 72
     5
 11
362.0328
 21
164.5
 31
0.0
100
AcDbText
  0
LINE
  5
420
100
AcDbEntity
  8
LAY-6
  6
CONTINUOUS
 62
     1
100
AcDbLine
 10
347.7
 20
164.2
 30
0.0
 11
369.7
 21
164.2
 31
0.0
  0
LINE
  5
421
100
AcDbEntity
  8
LAY-6
  6
CONTINUOUS
 62
     1
100
AcDbLine
 10
349.2
 20
164.45
 30
0.0
 11
347.7
 21
164.2
 31
0.0
  0
LINE
  5
422
100
AcDbEntity
  8
LAY-6
  6
CONTINUOUS
 62
     1
100
AcDbLine
 10
347.7
 20
164.2
 30
0.0
 11
349.2
 21
163.95
 31
0.0
  0
LINE
  5
423
100
AcDbEntity
  8
LAY-6
  6
CONTINUOUS
 62
     1
100
AcDbLine
 10
368.2
 20
163.95
 30
0.0
 11
369.7
 21
164.2
 31
0.0
  0
LINE
  5
424
100
AcDbEntity
  8
LAY-6
  6
CONTINUOUS
 62
     1
100
AcDbLine
 10
369.7
 20
164.2
 30
0.0
 11
368.2
 21
164.45
 31
0.0
  0
TEXT
  5
425
100
AcDbEntity
  8
LAY-6
  6
CONTINUOUS
 62
     2
100
AcDbText
 10
192.7
 20
170.0
 30
0.0
 40
5.0
  1
３０
 41
0.672
  7
EXCADSTD
 72
     5
 11
200.0328
 21
170.0
 31
0.0
100
AcDbText
  0
LINE
  5
426
100
AcDbEntity
  8
LAY-6
  6
CONTINUOUS
 62
     1
100
AcDbLine
 10
181.7
 20
169.7
 30
0.0
 11
211.7
 21
169.7
 31
0.0
  0
LINE
  5
427
100
AcDbEntity
  8
LAY-6
  6
CONTINUOUS
 62
     1
100
AcDbLine
 10
183.2
 20
169.95
 30
0.0
 11
181.7
 21
169.7
 31
0.0
  0
LINE
  5
428
100
AcDbEntity
  8
LAY-6
  6
CONTINUOUS
 62
     1
100
AcDbLine
 10
181.7
 20
169.7
 30
0.0
 11
183.2
 21
169.45
 31
0.0
  0
LINE
  5
429
100
AcDbEntity
  8
LAY-6
  6
CONTINUOUS
 62
     1
100
AcDbLine
 10
210.2
 20
169.45
 30
0.0
 11
211.7
 21
169.7
 31
0.0
  0
LINE
  5
42A
100
AcDbEntity
  8
LAY-6
  6
CONTINUOUS
 62
     1
100
AcDbLine
 10
211.7
 20
169.7
 30
0.0
 11
210.2
 21
169.95
 31
0.0
  0
LINE
  5
42B
100
AcDbEntity
  8
LAY-6
  6
CONTINUOUS
 62
     1
100
AcDbLine
 10
247.7
 20
123.0
 30
0.0
 11
247.7
 21
115.7
 31
0.0
  0
TEXT
  5
42C
100
AcDbEntity
  8
LAY-6
  6
CONTINUOUS
 62
     2
100
AcDbText
 10
210.7
 20
116.7
 30
0.0
 40
5.0
  1
６６
 41
0.672
  7
EXCADSTD
 72
     5
 11
218.0328
 21
116.7
 31
0.0
100
AcDbText
  0
LINE
  5
42D
100
AcDbEntity
  8
LAY-6
  6
CONTINUOUS
 62
     1
100
AcDbLine
 10
181.7
 20
116.4
 30
0.0
 11
247.7
 21
116.4
 31
0.0
  0
LINE
  5
42E
100
AcDbEntity
  8
LAY-6
  6
CONTINUOUS
 62
     1
100
AcDbLine
 10
183.2
 20
116.65
 30
0.0
 11
181.7
 21
116.4
 31
0.0
  0
LINE
  5
42F
100
AcDbEntity
  8
LAY-6
  6
CONTINUOUS
 62
     1
100
AcDbLine
 10
181.7
 20
116.4
 30
0.0
 11
183.2
 21
116.15
 31
0.0
  0
LINE
  5
430
100
AcDbEntity
  8
LAY-6
  6
CONTINUOUS
 62
     1
100
AcDbLine
 10
246.2
 20
116.15
 30
0.0
 11
247.7
 21
116.4
 31
0.0
  0
LINE
  5
431
100
AcDbEntity
  8
LAY-6
  6
CONTINUOUS
 62
     1
100
AcDbLine
 10
247.7
 20
116.4
 30
0.0
 11
246.2
 21
116.65
 31
0.0
  0
TEXT
  5
432
100
AcDbEntity
  8
LAY-6
  6
CONTINUOUS
 62
     2
100
AcDbText
 10
302.7
 20
116.7
 30
0.0
 40
5.0
  1
１２２
 41
0.672
  7
EXCADSTD
 72
     5
 11
314.7
 21
116.7
 31
0.0
100
AcDbText
  0
LINE
  5
433
100
AcDbEntity
  8
LAY-6
  6
CONTINUOUS
 62
     1
100
AcDbLine
 10
247.7
 20
116.4
 30
0.0
 11
369.7
 21
116.4
 31
0.0
  0
LINE
  5
434
100
AcDbEntity
  8
LAY-6
  6
CONTINUOUS
 62
     1
100
AcDbLine
 10
249.2
 20
116.65
 30
0.0
 11
247.7
 21
116.4
 31
0.0
  0
LINE
  5
435
100
AcDbEntity
  8
LAY-6
  6
CONTINUOUS
 62
     1
100
AcDbLine
 10
247.7
 20
116.4
 30
0.0
 11
249.2
 21
116.15
 31
0.0
  0
LINE
  5
436
100
AcDbEntity
  8
LAY-6
  6
CONTINUOUS
 62
     1
100
AcDbLine
 10
368.2
 20
116.15
 30
0.0
 11
369.7
 21
116.4
 31
0.0
  0
LINE
  5
437
100
AcDbEntity
  8
LAY-6
  6
CONTINUOUS
 62
     1
100
AcDbLine
 10
369.7
 20
116.4
 30
0.0
 11
368.2
 21
116.65
 31
0.0
  0
TEXT
  5
438
100
AcDbEntity
  8
LAY-6
  6
CONTINUOUS
 62
     2
100
AcDbText
 10
225.7
 20
164.5
 30
0.0
 40
5.0
  1
３６
 41
0.672
  7
EXCADSTD
 72
     5
 11
233.0328
 21
164.5
 31
0.0
100
AcDbText
  0
LINE
  5
439
100
AcDbEntity
  8
LAY-6
  6
CONTINUOUS
 62
     1
100
AcDbLine
 10
211.7
 20
164.2
 30
0.0
 11
247.7
 21
164.2
 31
0.0
  0
LINE
  5
43A
100
AcDbEntity
  8
LAY-6
  6
CONTINUOUS
 62
     1
100
AcDbLine
 10
213.2
 20
164.45
 30
0.0
 11
211.7
 21
164.2
 31
0.0
  0
LINE
  5
43B
100
AcDbEntity
  8
LAY-6
  6
CONTINUOUS
 62
     1
100
AcDbLine
 10
211.7
 20
164.2
 30
0.0
 11
213.2
 21
163.95
 31
0.0
  0
LINE
  5
43C
100
AcDbEntity
  8
LAY-6
  6
CONTINUOUS
 62
     1
100
AcDbLine
 10
246.2
 20
163.95
 30
0.0
 11
247.7
 21
164.2
 31
0.0
  0
LINE
  5
43D
100
AcDbEntity
  8
LAY-6
  6
CONTINUOUS
 62
     1
100
AcDbLine
 10
247.7
 20
164.2
 30
0.0
 11
246.2
 21
164.45
 31
0.0
  0
LINE
  5
43E
100
AcDbEntity
  8
LAY-6
  6
CONTINUOUS
 62
     1
100
AcDbLine
 10
347.7
 20
173.1
 30
0.0
 11
347.7
 21
163.5
 31
0.0
  0
TEXT
  5
43F
100
AcDbEntity
  8
LAY-6
  6
CONTINUOUS
 62
     2
100
AcDbText
 10
291.7
 20
164.5
 30
0.0
 40
5.0
  1
１００
 41
0.672
  7
EXCADSTD
 72
     5
 11
303.7
 21
164.5
 31
0.0
100
AcDbText
  0
LINE
  5
440
100
AcDbEntity
  8
LAY-6
  6
CONTINUOUS
 62
     1
100
AcDbLine
 10
247.7
 20
164.2
 30
0.0
 11
347.7
 21
164.2
 31
0.0
  0
LINE
  5
441
100
AcDbEntity
  8
LAY-6
  6
CONTINUOUS
 62
     1
100
AcDbLine
 10
249.2
 20
164.45
 30
0.0
 11
247.7
 21
164.2
 31
0.0
  0
LINE
  5
442
100
AcDbEntity
  8
LAY-6
  6
CONTINUOUS
 62
     1
100
AcDbLine
 10
247.7
 20
164.2
 30
0.0
 11
249.2
 21
163.95
 31
0.0
  0
LINE
  5
443
100
AcDbEntity
  8
LAY-6
  6
CONTINUOUS
 62
     1
100
AcDbLine
 10
346.2
 20
163.95
 30
0.0
 11
347.7
 21
164.2
 31
0.0
  0
LINE
  5
444
100
AcDbEntity
  8
LAY-6
  6
CONTINUOUS
 62
     1
100
AcDbLine
 10
347.7
 20
164.2
 30
0.0
 11
346.2
 21
164.45
 31
0.0
  0
LINE
  5
445
100
AcDbEntity
  8
LAY-6
  6
CONTINUOUS
 62
     1
100
AcDbLine
 10
587.6
 20
233.6
 30
0.0
 11
587.6
 21
264.0
 31
0.0
  0
LINE
  5
446
100
AcDbEntity
  8
LAY-6
  6
CONTINUOUS
 62
     1
100
AcDbLine
 10
657.6
 20
233.1
 30
0.0
 11
657.6
 21
264.0
 31
0.0
  0
TEXT
  5
447
100
AcDbEntity
  8
LAY-6
  6
CONTINUOUS
 62
     2
100
AcDbText
 10
618.6
 20
263.6
 30
0.0
 40
5.0
  1
７０
 41
0.672
  7
EXCADSTD
 72
     5
 11
625.9328
 21
263.6
 31
0.0
100
AcDbText
  0
LINE
  5
448
100
AcDbEntity
  8
LAY-6
  6
CONTINUOUS
 62
     1
100
AcDbLine
 10
587.6
 20
263.3
 30
0.0
 11
657.6
 21
263.3
 31
0.0
  0
LINE
  5
449
100
AcDbEntity
  8
LAY-6
  6
CONTINUOUS
 62
     1
100
AcDbLine
 10
589.1
 20
263.55
 30
0.0
 11
587.6
 21
263.3
 31
0.0
  0
LINE
  5
44A
100
AcDbEntity
  8
LAY-6
  6
CONTINUOUS
 62
     1
100
AcDbLine
 10
587.6
 20
263.3
 30
0.0
 11
589.1
 21
263.05
 31
0.0
  0
LINE
  5
44B
100
AcDbEntity
  8
LAY-6
  6
CONTINUOUS
 62
     1
100
AcDbLine
 10
656.1
 20
263.05
 30
0.0
 11
657.6
 21
263.3
 31
0.0
  0
LINE
  5
44C
100
AcDbEntity
  8
LAY-6
  6
CONTINUOUS
 62
     1
100
AcDbLine
 10
657.6
 20
263.3
 30
0.0
 11
656.1
 21
263.55
 31
0.0
  0
LINE
  5
44D
100
AcDbEntity
  8
LAY-6
  6
CONTINUOUS
 62
     1
100
AcDbLine
 10
639.6
 20
223.7
 30
0.0
 11
639.6
 21
218.3
 31
0.0
  0
LINE
  5
44E
100
AcDbEntity
  8
LAY-6
  6
CONTINUOUS
 62
     1
100
AcDbLine
 10
649.6
 20
223.7
 30
0.0
 11
649.6
 21
218.3
 31
0.0
  0
TEXT
  5
44F
100
AcDbEntity
  8
LAY-6
  6
CONTINUOUS
 62
     2
100
AcDbText
 10
640.6
 20
219.3
 30
0.0
 40
5.0
  1
１０
 41
0.672
  7
EXCADSTD
 72
     5
 11
647.9328
 21
219.3
 31
0.0
100
AcDbText
  0
LINE
  5
450
100
AcDbEntity
  8
LAY-6
  6
CONTINUOUS
 62
     1
100
AcDbLine
 10
639.6
 20
219.0
 30
0.0
 11
649.6
 21
219.0
 31
0.0
  0
LINE
  5
451
100
AcDbEntity
  8
LAY-6
  6
CONTINUOUS
 62
     1
100
AcDbLine
 10
641.1
 20
219.25
 30
0.0
 11
639.6
 21
219.0
 31
0.0
  0
LINE
  5
452
100
AcDbEntity
  8
LAY-6
  6
CONTINUOUS
 62
     1
100
AcDbLine
 10
639.6
 20
219.0
 30
0.0
 11
641.1
 21
218.75
 31
0.0
  0
LINE
  5
453
100
AcDbEntity
  8
LAY-6
  6
CONTINUOUS
 62
     1
100
AcDbLine
 10
648.1
 20
218.75
 30
0.0
 11
649.6
 21
219.0
 31
0.0
  0
LINE
  5
454
100
AcDbEntity
  8
LAY-6
  6
CONTINUOUS
 62
     1
100
AcDbLine
 10
649.6
 20
219.0
 30
0.0
 11
648.1
 21
219.25
 31
0.0
  0
LINE
  5
455
100
AcDbEntity
  8
LAY-6
  6
CONTINUOUS
 62
     1
100
AcDbLine
 10
657.6
 20
228.1
 30
0.0
 11
657.6
 21
218.3
 31
0.0
  0
TEXT
  5
456
100
AcDbEntity
  8
LAY-6
  6
CONTINUOUS
 62
     2
100
AcDbText
 10
651.6
 20
219.3
 30
0.0
 40
5.0
  1
８
 41
0.672
  7
EXCADSTD
 72
     5
 11
654.8
 21
219.3
 31
0.0
100
AcDbText
  0
LINE
  5
457
100
AcDbEntity
  8
LAY-6
  6
CONTINUOUS
 62
     1
100
AcDbLine
 10
649.6
 20
219.0
 30
0.0
 11
657.6
 21
219.0
 31
0.0
  0
LINE
  5
458
100
AcDbEntity
  8
LAY-6
  6
CONTINUOUS
 62
     1
100
AcDbLine
 10
651.1
 20
219.25
 30
0.0
 11
649.6
 21
219.0
 31
0.0
  0
LINE
  5
459
100
AcDbEntity
  8
LAY-6
  6
CONTINUOUS
 62
     1
100
AcDbLine
 10
649.6
 20
219.0
 30
0.0
 11
651.1
 21
218.75
 31
0.0
  0
LINE
  5
45A
100
AcDbEntity
  8
LAY-6
  6
CONTINUOUS
 62
     1
100
AcDbLine
 10
656.1
 20
218.75
 30
0.0
 11
657.6
 21
219.0
 31
0.0
  0
LINE
  5
45B
100
AcDbEntity
  8
LAY-6
  6
CONTINUOUS
 62
     1
100
AcDbLine
 10
657.6
 20
219.0
 30
0.0
 11
656.1
 21
219.25
 31
0.0
  0
TEXT
  5
45C
100
AcDbEntity
  8
LAY-6
  6
CONTINUOUS
 62
     2
100
AcDbText
 10
183.129208
 20
329.904254
 30
0.0
 40
5.0
  1
Ｒ
 50
52.963787
 41
0.672
  7
EXCADSTD
 72
     5
 11
185.056631
 21
332.458669
 31
0.0
100
AcDbText
  0
TEXT
  5
45D
100
AcDbEntity
  8
LAY-6
  6
CONTINUOUS
 62
     2
100
AcDbText
 10
185.538487
 20
333.097273
 30
0.0
 40
5.0
  1
１５
 50
52.963787
 41
0.672
  7
EXCADSTD
 72
     5
 11
189.955176
 21
338.950718
 31
0.0
100
AcDbText
  0
LINE
  5
45E
100
AcDbEntity
  8
LAY-6
  6
CONTINUOUS
 62
     1
100
AcDbLine
 10
188.665205
 20
341.526175
 30
0.0
 11
197.7
 21
353.5
 31
0.0
  0
LINE
  5
45F
100
AcDbEntity
  8
LAY-6
  6
CONTINUOUS
 62
     1
100
AcDbLine
 10
189.369121
 20
342.874138
 30
0.0
 11
188.665205
 21
341.526175
 31
0.0
  0
LINE
  5
460
100
AcDbEntity
  8
LAY-6
  6
CONTINUOUS
 62
     1
100
AcDbLine
 10
188.665205
 20
341.526175
 30
0.0
 11
189.768248
 21
342.572978
 31
0.0
  0
LINE
  5
461
100
AcDbEntity
  8
LAY-6
  6
CONTINUOUS
 62
     1
100
AcDbLine
 10
621.9
 20
188.9
 30
0.0
 11
613.8
 21
188.9
 31
0.0
  0
LINE
  5
462
100
AcDbEntity
  8
LAY-6
  6
CONTINUOUS
 62
     1
100
AcDbLine
 10
622.9
 20
132.4
 30
0.0
 11
613.8
 21
132.4
 31
0.0
  0
TEXT
  5
463
100
AcDbEntity
  8
LAY-6
  6
CONTINUOUS
 62
     2
100
AcDbText
 10
614.2
 20
154.525
 30
0.0
 40
4.7
  1
５６.５
 50
90.0
 41
0.573404
  7
EXCADSTD
 72
     5
 11
614.2
 21
166.775
 31
0.0
100
AcDbText
  0
LINE
  5
464
100
AcDbEntity
  8
LAY-6
  6
CONTINUOUS
 62
     1
100
AcDbLine
 10
614.5
 20
188.9
 30
0.0
 11
614.5
 21
132.4
 31
0.0
  0
LINE
  5
465
100
AcDbEntity
  8
LAY-6
  6
CONTINUOUS
 62
     1
100
AcDbLine
 10
614.75
 20
187.4
 30
0.0
 11
614.5
 21
188.9
 31
0.0
  0
LINE
  5
466
100
AcDbEntity
  8
LAY-6
  6
CONTINUOUS
 62
     1
100
AcDbLine
 10
614.5
 20
188.9
 30
0.0
 11
614.25
 21
187.4
 31
0.0
  0
LINE
  5
467
100
AcDbEntity
  8
LAY-6
  6
CONTINUOUS
 62
     1
100
AcDbLine
 10
614.25
 20
133.9
 30
0.0
 11
614.5
 21
132.4
 31
0.0
  0
LINE
  5
468
100
AcDbEntity
  8
LAY-6
  6
CONTINUOUS
 62
     1
100
AcDbLine
 10
614.5
 20
132.4
 30
0.0
 11
614.75
 21
133.9
 31
0.0
  0
LINE
  5
469
100
AcDbEntity
  8
LAY-6
  6
CONTINUOUS
 62
     1
100
AcDbLine
 10
660.3
 20
188.9
 30
0.0
 11
682.9
 21
188.9
 31
0.0
  0
TEXT
  5
46A
100
AcDbEntity
  8
LAY-6
  6
CONTINUOUS
 62
     2
100
AcDbText
 10
681.9
 20
181.275
 30
0.0
 40
4.7
  1
６.５
 50
90.0
 41
0.554374
  7
EXCADSTD
 72
     5
 11
681.9
 21
190.025
 31
0.0
100
AcDbText
  0
LINE
  5
46B
100
AcDbEntity
  8
LAY-6
  6
CONTINUOUS
 62
     1
100
AcDbLine
 10
682.2
 20
188.9
 30
0.0
 11
682.2
 21
182.4
 31
0.0
  0
LINE
  5
46C
100
AcDbEntity
  8
LAY-6
  6
CONTINUOUS
 62
     1
100
AcDbLine
 10
682.45
 20
187.4
 30
0.0
 11
682.2
 21
188.9
 31
0.0
  0
LINE
  5
46D
100
AcDbEntity
  8
LAY-6
  6
CONTINUOUS
 62
     1
100
AcDbLine
 10
682.2
 20
188.9
 30
0.0
 11
681.95
 21
187.4
 31
0.0
  0
LINE
  5
46E
100
AcDbEntity
  8
LAY-6
  6
CONTINUOUS
 62
     1
100
AcDbLine
 10
681.95
 20
183.9
 30
0.0
 11
682.2
 21
182.4
 31
0.0
  0
LINE
  5
46F
100
AcDbEntity
  8
LAY-6
  6
CONTINUOUS
 62
     1
100
AcDbLine
 10
682.2
 20
182.4
 30
0.0
 11
682.45
 21
183.9
 31
0.0
  0
LINE
  5
470
100
AcDbEntity
  8
LAY-6
  6
CONTINUOUS
 62
     1
100
AcDbLine
 10
370.4
 20
188.9
 30
0.0
 11
386.0
 21
188.9
 31
0.0
  0
LINE
  5
471
100
AcDbEntity
  8
LAY-6
  6
CONTINUOUS
 62
     1
100
AcDbLine
 10
370.4
 20
132.4
 30
0.0
 11
386.0
 21
132.4
 31
0.0
  0
TEXT
  5
472
100
AcDbEntity
  8
LAY-6
  6
CONTINUOUS
 62
     2
100
AcDbText
 10
385.0
 20
154.525
 30
0.0
 40
4.7
  1
５６.５
 50
90.0
 41
0.573404
  7
EXCADSTD
 72
     5
 11
385.0
 21
166.775
 31
0.0
100
AcDbText
  0
LINE
  5
473
100
AcDbEntity
  8
LAY-6
  6
CONTINUOUS
 62
     1
100
AcDbLine
 10
385.3
 20
188.9
 30
0.0
 11
385.3
 21
132.4
 31
0.0
  0
LINE
  5
474
100
AcDbEntity
  8
LAY-6
  6
CONTINUOUS
 62
     1
100
AcDbLine
 10
385.55
 20
187.4
 30
0.0
 11
385.3
 21
188.9
 31
0.0
  0
LINE
  5
475
100
AcDbEntity
  8
LAY-6
  6
CONTINUOUS
 62
     1
100
AcDbLine
 10
385.3
 20
188.9
 30
0.0
 11
385.05
 21
187.4
 31
0.0
  0
LINE
  5
476
100
AcDbEntity
  8
LAY-6
  6
CONTINUOUS
 62
     1
100
AcDbLine
 10
385.05
 20
133.9
 30
0.0
 11
385.3
 21
132.4
 31
0.0
  0
LINE
  5
477
100
AcDbEntity
  8
LAY-6
  6
CONTINUOUS
 62
     1
100
AcDbLine
 10
385.3
 20
132.4
 30
0.0
 11
385.55
 21
133.9
 31
0.0
  0
TEXT
  5
478
100
AcDbEntity
  8
LAY-6
  6
CONTINUOUS
 62
     2
100
AcDbText
 10
705.0
 20
166.0
 30
0.0
 40
5.0
  1
（スチール扉）
 41
0.672
  7
EXCADSTD
 72
     5
 11
733.0
 21
166.0
 31
0.0
100
AcDbText
  0
TEXT
  5
479
100
AcDbEntity
  8
LAY-6
  6
CONTINUOUS
 62
     2
100
AcDbText
 10
680.7
 20
288.4
 30
0.0
 40
5.0
  1
（スチール枠）
 41
0.672
  7
EXCADSTD
 72
     5
 11
708.7
 21
288.4
 31
0.0
100
AcDbText
  0
TEXT
  5
47A
100
AcDbEntity
  8
LAY-6
  6
CONTINUOUS
 62
     2
100
AcDbText
 10
682.9
 20
276.0
 30
0.0
 40
5.0
  1
（木枠）４－５．１×２５丸皿木ネジ
 41
0.672
  7
EXCADSTD
 72
     5
 11
750.9
 21
276.0
 31
0.0
100
AcDbText
  0
TEXT
  5
47B
100
AcDbEntity
  8
LAY-6
  6
CONTINUOUS
 62
     2
100
AcDbText
 10
662.7
 20
91.0
 30
0.0
 40
5.0
  1
ドア
 41
0.672
  7
EXCADSTD
 72
     5
 11
670.0328
 21
91.0
 31
0.0
100
AcDbText
  0
TEXT
  5
47C
100
AcDbEntity
  8
LAY-6
  6
CONTINUOUS
 62
     2
100
AcDbText
 10
677.4
 20
257.6
 30
0.0
 40
5.0
  1
上枠
 41
0.672
  7
EXCADSTD
 72
     5
 11
684.7328
 21
257.6
 31
0.0
100
AcDbText
  0
TEXT
  5
47D
100
AcDbEntity
  8
LAY-6
  6
CONTINUOUS
 62
     2
100
AcDbText
 10
477.5
 20
237.5
 30
0.0
 40
5.0
  1
ドア
 41
0.672
  7
EXCADSTD
 72
     5
 11
484.8328
 21
237.5
 31
0.0
100
AcDbText
  0
TEXT
  5
47E
100
AcDbEntity
  8
LAY-6
  6
CONTINUOUS
 62
     2
100
AcDbText
 10
475.7
 20
249.1
 30
0.0
 40
5.0
  1
上枠
 41
0.672
  7
EXCADSTD
 72
     5
 11
483.0328
 21
249.1
 31
0.0
100
AcDbText
  0
TEXT
  5
47F
100
AcDbEntity
  8
LAY-6
  6
CONTINUOUS
 62
     2
100
AcDbText
 10
475.2
 20
428.4
 30
0.0
 40
5.0
  1
ドア
 41
0.672
  7
EXCADSTD
 72
     5
 11
482.5328
 21
428.4
 31
0.0
100
AcDbText
  0
TEXT
  5
480
100
AcDbEntity
  8
LAY-6
  6
CONTINUOUS
 62
     2
100
AcDbText
 10
94.1
 20
433.7
 30
0.0
 40
5.0
  1
竪
 41
0.672
  7
EXCADSTD
 72
     5
 11
97.3
 21
433.7
 31
0.0
100
AcDbText
  0
TEXT
  5
481
100
AcDbEntity
  8
LAY-6
  6
CONTINUOUS
 62
     2
100
AcDbText
 10
94.1
 20
428.7
 30
0.0
 40
5.0
  1
枠
 41
0.672
  7
EXCADSTD
 72
     5
 11
97.3
 21
428.7
 31
0.0
100
AcDbText
  0
TEXT
  5
482
100
AcDbEntity
  8
LAY-6
  6
CONTINUOUS
 62
     2
100
AcDbText
 10
98.4
 20
500.7
 30
0.0
 40
5.0
  1
ドア吊り芯
 41
0.672
  7
EXCADSTD
 72
     5
 11
118.4
 21
500.7
 31
0.0
100
AcDbText
  0
POLYLINE
  5
483
100
AcDbEntity
  8
LAY-6
  6
CONTINUOUS
 62
     1
100
AcDb2dPolyline
 66
     1
 10
0.0
 20
0.0
 30
0.0
 70
   128
  0
VERTEX
  5
484
100
AcDbEntity
  8
LAY-6
  6
CONTINUOUS
 62
     1
100
AcDbVertex
100
AcDb2dVertex
 10
649.6
 20
241.1
 30
0.0
  0
VERTEX
  5
485
100
AcDbEntity
  8
LAY-6
  6
CONTINUOUS
 62
     1
100
AcDbVertex
100
AcDb2dVertex
 10
681.5
 20
282.2
 30
0.0
  0
VERTEX
  5
486
100
AcDbEntity
  8
LAY-6
  6
CONTINUOUS
 62
     1
100
AcDbVertex
100
AcDb2dVertex
 10
757.5
 20
282.2
 30
0.0
  0
SEQEND
  5
487
100
AcDbEntity
  8
LAY-6
  6
CONTINUOUS
 62
     1
  0
LINE
  5
488
100
AcDbEntity
  8
LAY-6
  6
CONTINUOUS
 62
     1
100
AcDbLine
 10
650.56296
 20
242.884326
 30
0.0
 11
649.6
 21
241.1
 31
0.0
  0
LINE
  5
489
100
AcDbEntity
  8
LAY-6
  6
CONTINUOUS
 62
     1
100
AcDbLine
 10
649.6
 20
241.1
 30
0.0
 11
651.089608
 21
242.475565
 31
0.0
  0
LINE
  5
48A
100
AcDbEntity
  8
LAY-6
  6
CONTINUOUS
 62
     1
100
AcDbLine
 10
159.7
 20
424.87
 30
0.0
 11
159.7
 21
447.8
 31
0.0
  0
LINE
  5
48B
100
AcDbEntity
  8
LAY-6
  6
CONTINUOUS
 62
     1
100
AcDbLine
 10
197.7
 20
434.0
 30
0.0
 11
197.7
 21
476.0
 31
0.0
  0
LINE
  5
48C
100
AcDbEntity
  8
LAY-6
  6
CONTINUOUS
 62
     1
100
AcDbLine
 10
235.7
 20
425.5
 30
0.0
 11
235.7
 21
447.8
 31
0.0
  0
TEXT
  5
48D
100
AcDbEntity
  8
LAY-6
  6
CONTINUOUS
 62
     2
100
AcDbText
 10
707.8
 20
159.2
 30
0.0
 40
5.0
  1
（木扉）２－５.８×６３皿木ネジ（Ｄ＝１０）
 41
0.662413
  7
EXCADSTD
 72
     5
 11
793.8
 21
159.2
 31
0.0
100
AcDbText
  0
LINE
  5
48E
100
AcDbEntity
  8
LAY-6
  6
CONTINUOUS
 62
     3
100
AcDbLine
 10
223.448086
 20
388.499992
 30
0.0
 11
279.33
 21
388.499992
 31
0.0
  0
LINE
  5
48F
100
AcDbEntity
  8
LAY-6
  6
CONTINUOUS
 62
     1
100
AcDbLine
 10
197.691007
 20
352.000027
 30
0.0
 11
197.536211
 21
326.181707
 31
0.0
  0
LINE
  5
490
100
AcDbEntity
  8
LAY-6
  6
CONTINUOUS
 62
     1
100
AcDbLine
 10
460.702521
 20
350.423118
 30
0.0
 11
460.547725
 21
324.604798
 31
0.0
  0
LINE
  5
491
100
AcDbEntity
  8
LAY-6
  6
CONTINUOUS
 62
     1
100
AcDbLine
 10
197.545204
 20
327.68168
 30
0.0
 11
460.556719
 21
326.104771
 31
0.0
  0
LINE
  5
492
100
AcDbEntity
  8
LAY-6
  6
CONTINUOUS
 62
     1
100
AcDbLine
 10
199.547166
 20
328.003017
 30
0.0
 11
197.545204
 21
327.68168
 31
0.0
  0
LINE
  5
493
100
AcDbEntity
  8
LAY-6
  6
CONTINUOUS
 62
     1
100
AcDbLine
 10
197.545204
 20
327.68168
 30
0.0
 11
199.54317
 21
327.336362
 31
0.0
  0
LINE
  5
494
100
AcDbEntity
  8
LAY-6
  6
CONTINUOUS
 62
     1
100
AcDbLine
 10
458.554756
 20
325.783435
 30
0.0
 11
460.556719
 21
326.104771
 31
0.0
  0
LINE
  5
495
100
AcDbEntity
  8
LAY-6
  6
CONTINUOUS
 62
     1
100
AcDbLine
 10
460.556719
 20
326.104771
 30
0.0
 11
458.558753
 21
326.450089
 31
0.0
  0
TEXT
  5
496
100
AcDbEntity
  8
LAY-6
  6
CONTINUOUS
 62
     2
100
AcDbText
 10
323.054067
 20
327.42919
 30
0.0
 40
5.0
  1
２６３
 50
359.656482
 41
0.672
  7
EXCADSTD
 72
     5
 11
335.053851
 21
327.357244
 31
0.0
100
AcDbText
  0
LINE
  5
497
100
AcDbEntity
  8
LAY-6
  6
CONTINUOUS
 62
     1
100
AcDbLine
 10
461.074835
 20
353.395606
 30
0.0
 11
466.252458
 21
373.426445
 31
0.0
  0
LINE
  5
498
100
AcDbEntity
  8
LAY-6
  6
CONTINUOUS
 62
     1
100
AcDbLine
 10
248.075386
 20
408.452261
 30
0.0
 11
253.25301
 21
428.4831
 31
0.0
  0
TEXT
  5
499
100
AcDbEntity
  8
LAY-6
  6
CONTINUOUS
 62
     2
100
AcDbText
 10
353.693401
 20
401.488138
 30
0.0
 40
5.0
  1
２２０
 50
345.507248
 41
0.672
  7
EXCADSTD
 72
     5
 11
365.311553
 21
398.485048
 31
0.0
100
AcDbText
  0
LINE
  5
49A
100
AcDbEntity
  8
LAY-6
  6
CONTINUOUS
 62
     1
100
AcDbLine
 10
465.877072
 20
371.974176
 30
0.0
 11
252.877624
 21
427.030831
 31
0.0
  0
LINE
  5
49B
100
AcDbEntity
  8
LAY-6
  6
CONTINUOUS
 62
     1
100
AcDbLine
 10
463.857294
 20
372.151965
 30
0.0
 11
465.877072
 21
371.974176
 31
0.0
  0
LINE
  5
49C
100
AcDbEntity
  8
LAY-6
  6
CONTINUOUS
 62
     1
100
AcDbLine
 10
465.877072
 20
371.974176
 30
0.0
 11
464.024133
 21
372.797418
 31
0.0
  0
LINE
  5
49D
100
AcDbEntity
  8
LAY-6
  6
CONTINUOUS
 62
     1
100
AcDbLine
 10
254.897402
 20
426.853043
 30
0.0
 11
252.877624
 21
427.030831
 31
0.0
  0
LINE
  5
49E
100
AcDbEntity
  8
LAY-6
  6
CONTINUOUS
 62
     1
100
AcDbLine
 10
252.877624
 20
427.030831
 30
0.0
 11
254.730563
 21
426.20759
 31
0.0
  0
POLYLINE
  5
49F
100
AcDbEntity
  8
LAY-6
  6
CONTINUOUS
 62
     1
100
AcDb2dPolyline
 66
     1
 10
0.0
 20
0.0
 30
0.0
 70
   128
  0
VERTEX
  5
4A0
100
AcDbEntity
  8
LAY-6
  6
CONTINUOUS
 62
     1
100
AcDbVertex
100
AcDb2dVertex
 10
182.13498
 20
174.441602
 30
0.0
  0
VERTEX
  5
4A1
100
AcDbEntity
  8
LAY-6
  6
CONTINUOUS
 62
     1
100
AcDbVertex
100
AcDb2dVertex
 10
166.238281
 20
150.641602
 30
0.0
  0
VERTEX
  5
4A2
100
AcDbEntity
  8
LAY-6
  6
CONTINUOUS
 62
     1
100
AcDbVertex
100
AcDb2dVertex
 10
130.1
 20
150.641602
 30
0.0
  0
SEQEND
  5
4A3
100
AcDbEntity
  8
LAY-6
  6
CONTINUOUS
 62
     1
  0
LINE
  5
4A4
100
AcDbEntity
  8
LAY-6
  6
CONTINUOUS
 62
     1
100
AcDbLine
 10
181.509732
 20
173.055397
 30
0.0
 11
182.13498
 21
174.441602
 31
0.0
  0
LINE
  5
4A5
100
AcDbEntity
  8
LAY-6
  6
CONTINUOUS
 62
     1
100
AcDbLine
 10
182.13498
 20
174.441602
 30
0.0
 11
181.093949
 21
173.33311
 31
0.0
  0
POLYLINE
  5
4A6
100
AcDbEntity
  8
LAY-6
  6
CONTINUOUS
 62
     1
100
AcDb2dPolyline
 66
     1
 10
0.0
 20
0.0
 30
0.0
 70
   128
  0
VERTEX
  5
4A7
100
AcDbEntity
  8
LAY-6
  6
CONTINUOUS
 62
     1
100
AcDbVertex
100
AcDb2dVertex
 10
626.885673
 20
171.988872
 30
0.0
  0
VERTEX
  5
4A8
100
AcDbEntity
  8
LAY-6
  6
CONTINUOUS
 62
     1
100
AcDbVertex
100
AcDb2dVertex
 10
609.1
 20
147.1
 30
0.0
  0
VERTEX
  5
4A9
100
AcDbEntity
  8
LAY-6
  6
CONTINUOUS
 62
     1
100
AcDbVertex
100
AcDb2dVertex
 10
571.9
 20
147.1
 30
0.0
  0
SEQEND
  5
4AA
100
AcDbEntity
  8
LAY-6
  6
CONTINUOUS
 62
     1
  0
LINE
  5
4AB
100
AcDbEntity
  8
LAY-6
  6
CONTINUOUS
 62
     1
100
AcDbLine
 10
626.216962
 20
170.623103
 30
0.0
 11
626.885673
 21
171.988872
 31
0.0
  0
LINE
  5
4AC
100
AcDbEntity
  8
LAY-6
  6
CONTINUOUS
 62
     1
100
AcDbLine
 10
626.885673
 20
171.988872
 30
0.0
 11
625.810157
 21
170.913808
 31
0.0
  0
POLYLINE
  5
4AD
100
AcDbEntity
  8
LAY-6
  6
CONTINUOUS
 62
     1
100
AcDb2dPolyline
 66
     1
 10
0.0
 20
0.0
 30
0.0
 70
   128
  0
VERTEX
  5
4AE
100
AcDbEntity
  8
LAY-6
  6
CONTINUOUS
 62
     1
100
AcDbVertex
100
AcDb2dVertex
 10
655.37435
 20
171.729048
 30
0.0
  0
VERTEX
  5
4AF
100
AcDbEntity
  8
LAY-6
  6
CONTINUOUS
 62
     1
100
AcDbVertex
100
AcDb2dVertex
 10
668.028198
 20
154.021537
 30
0.0
  0
VERTEX
  5
4B0
100
AcDbEntity
  8
LAY-6
  6
CONTINUOUS
 62
     1
100
AcDbVertex
100
AcDb2dVertex
 10
704.2
 20
154.021537
 30
0.0
  0
SEQEND
  5
4B1
100
AcDbEntity
  8
LAY-6
  6
CONTINUOUS
 62
     1
  0
LINE
  5
4B2
100
AcDbEntity
  8
LAY-6
  6
CONTINUOUS
 62
     1
100
AcDbLine
 10
656.449867
 20
170.653983
 30
0.0
 11
655.37435
 21
171.729048
 31
0.0
  0
LINE
  5
4B3
100
AcDbEntity
  8
LAY-6
  6
CONTINUOUS
 62
     1
100
AcDbLine
 10
655.37435
 20
171.729048
 30
0.0
 11
656.043061
 21
170.363278
 31
0.0
  0
TEXT
  5
4B4
100
AcDbEntity
  8
LAY-6
  6
CONTINUOUS
 62
     2
100
AcDbText
 10
672.09961
 20
127.443124
 30
0.0
 40
5.0
  1
裏板３.２ｔ以上（別途）
 41
0.654222
  7
EXCADSTD
 72
     5
 11
718.09961
 21
127.443124
 31
0.0
100
AcDbText
  0
POLYLINE
  5
4B5
100
AcDbEntity
  8
LAY-6
  6
CONTINUOUS
 62
     1
100
AcDb2dPolyline
 66
     1
 10
0.0
 20
0.0
 30
0.0
 70
   128
  0
VERTEX
  5
4B6
100
AcDbEntity
  8
LAY-6
  6
CONTINUOUS
 62
     1
100
AcDbVertex
100
AcDb2dVertex
 10
662.4
 20
140.7
 30
0.0
  0
VERTEX
  5
4B7
100
AcDbEntity
  8
LAY-6
  6
CONTINUOUS
 62
     1
100
AcDbVertex
100
AcDb2dVertex
 10
671.8
 20
127.3
 30
0.0
  0
VERTEX
  5
4B8
100
AcDbEntity
  8
LAY-6
  6
CONTINUOUS
 62
     1
100
AcDbVertex
100
AcDb2dVertex
 10
717.5
 20
127.3
 30
0.0
  0
SEQEND
  5
4B9
100
AcDbEntity
  8
LAY-6
  6
CONTINUOUS
 62
     1
  0
LINE
  5
4BA
100
AcDbEntity
  8
LAY-6
  6
CONTINUOUS
 62
     1
100
AcDbLine
 10
663.466088
 20
139.615584
 30
0.0
 11
662.4
 21
140.7
 31
0.0
  0
LINE
  5
4BB
100
AcDbEntity
  8
LAY-6
  6
CONTINUOUS
 62
     1
100
AcDbLine
 10
662.4
 20
140.7
 30
0.0
 11
663.056759
 21
139.328443
 31
0.0
  0
TEXT
  5
4BC
100
AcDbEntity
  8
LAY-6
  6
CONTINUOUS
 62
     2
100
AcDbText
 10
594.29961
 20
279.143124
 30
0.0
 40
5.0
  1
裏板３.２ｔ以上（別途）
 41
0.654222
  7
EXCADSTD
 72
     5
 11
640.29961
 21
279.143124
 31
0.0
100
AcDbText
  0
POLYLINE
  5
4BD
100
AcDbEntity
  8
LAY-6
  6
CONTINUOUS
 62
     1
100
AcDb2dPolyline
 66
     1
 10
0.0
 20
0.0
 30
0.0
 70
   128
  0
VERTEX
  5
4BE
100
AcDbEntity
  8
LAY-6
  6
CONTINUOUS
 62
     1
100
AcDbVertex
100
AcDb2dVertex
 10
634.8
 20
237.2
 30
0.0
  0
VERTEX
  5
4BF
100
AcDbEntity
  8
LAY-6
  6
CONTINUOUS
 62
     1
100
AcDbVertex
100
AcDb2dVertex
 10
640.5
 20
278.9
 30
0.0
  0
VERTEX
  5
4C0
100
AcDbEntity
  8
LAY-6
  6
CONTINUOUS
 62
     1
100
AcDbVertex
100
AcDb2dVertex
 10
593.8
 20
278.9
 30
0.0
  0
SEQEND
  5
4C1
100
AcDbEntity
  8
LAY-6
  6
CONTINUOUS
 62
     1
  0
LINE
  5
4C2
100
AcDbEntity
  8
LAY-6
  6
CONTINUOUS
 62
     1
100
AcDbLine
 10
634.7109
 20
240.240076
 30
0.0
 11
634.8
 21
237.2
 31
0.0
  0
LINE
  5
4C3
100
AcDbEntity
  8
LAY-6
  6
CONTINUOUS
 62
     1
100
AcDbLine
 10
634.8
 20
237.2
 30
0.0
 11
635.701687
 21
240.104645
 31
0.0
  0
LINE
  5
4C4
100
AcDbEntity
  8
LAY-9
  6
CONTINUOUS
 62
     4
100
AcDbLine
 10
82.7
 20
468.5
 30
0.0
 11
104.7
 21
468.5
 31
0.0
  0
CIRCLE
  5
4C5
100
AcDbEntity
  8
LAY-9
  6
CONTINUOUS
 62
     4
100
AcDbCircle
 10
107.7
 20
480.5
 30
0.0
 40
7.5
  0
LINE
  5
4C6
100
AcDbEntity
  8
LAY-9
  6
CONTINUOUS
 62
     4
100
AcDbLine
 10
106.2
 20
467.0
 30
0.0
 11
106.2
 21
425.0
 31
0.0
  0
LINE
  5
4C7
100
AcDbEntity
  8
LAY-9
  6
CONTINUOUS
 62
     4
100
AcDbLine
 10
109.2
 20
464.0
 30
0.0
 11
109.2
 21
427.0
 31
0.0
  0
LINE
  5
4C8
100
AcDbEntity
  8
LAY-9
  6
CONTINUOUS
 62
     4
100
AcDbLine
 10
110.7
 20
425.5
 30
0.0
 11
181.7
 21
425.5
 31
0.0
  0
ARC
  5
4C9
100
AcDbEntity
  8
LAY-9
  6
CONTINUOUS
 62
     4
100
AcDbCircle
 10
110.7
 20
464.0
 30
0.0
 40
1.5
100
AcDbArc
 50
90.0
 51
180.0
  0
ARC
  5
4CA
100
AcDbEntity
  8
LAY-9
  6
CONTINUOUS
 62
     4
100
AcDbCircle
 10
110.7
 20
427.0
 30
0.0
 40
1.5
100
AcDbArc
 50
180.0
 51
270.0
  0
LINE
  5
4CB
100
AcDbEntity
  8
LAY-9
  6
CONTINUOUS
 62
     4
100
AcDbLine
 10
107.7
 20
423.5
 30
0.0
 11
119.7
 21
423.5
 31
0.0
  0
LINE
  5
4CC
100
AcDbEntity
  8
LAY-9
  6
CONTINUOUS
 62
     4
100
AcDbLine
 10
121.2
 20
422.0
 30
0.0
 11
121.2
 21
400.0
 31
0.0
  0
LINE
  5
4CD
100
AcDbEntity
  8
LAY-9
  6
CONTINUOUS
 62
     4
100
AcDbLine
 10
81.2
 20
467.0
 30
0.0
 11
81.2
 21
448.5
 31
0.0
  0
LINE
  5
4CE
100
AcDbEntity
  8
LAY-9
  6
CONTINUOUS
 62
     4
100
AcDbLine
 10
119.7
 20
398.5
 30
0.0
 11
82.7
 21
398.5
 31
0.0
  0
LINE
  5
4CF
100
AcDbEntity
  8
LAY-9
  6
CONTINUOUS
 62
     4
100
AcDbLine
 10
81.2
 20
418.5
 30
0.0
 11
81.2
 21
400.0
 31
0.0
  0
ARC
  5
4D0
100
AcDbEntity
  8
LAY-9
  6
CONTINUOUS
 62
     4
100
AcDbCircle
 10
82.7
 20
467.0
 30
0.0
 40
1.5
100
AcDbArc
 50
90.0
 51
180.0
  0
ARC
  5
4D1
100
AcDbEntity
  8
LAY-9
  6
CONTINUOUS
 62
     4
100
AcDbCircle
 10
104.7
 20
467.0
 30
0.0
 40
1.5
100
AcDbArc
 50
0.0
 51
90.0
  0
ARC
  5
4D2
100
AcDbEntity
  8
LAY-9
  6
CONTINUOUS
 62
     4
100
AcDbCircle
 10
82.7
 20
400.0
 30
0.0
 40
1.5
100
AcDbArc
 50
180.0
 51
270.0
  0
ARC
  5
4D3
100
AcDbEntity
  8
LAY-9
  6
CONTINUOUS
 62
     4
100
AcDbCircle
 10
119.7
 20
400.0
 30
0.0
 40
1.5
100
AcDbArc
 50
270.0
 51
0.0
  0
ARC
  5
4D4
100
AcDbEntity
  8
LAY-9
  6
CONTINUOUS
 62
     4
100
AcDbCircle
 10
119.7
 20
422.0
 30
0.0
 40
1.5
100
AcDbArc
 50
0.0
 51
90.0
  0
ARC
  5
4D5
100
AcDbEntity
  8
LAY-9
  6
CONTINUOUS
 62
     4
100
AcDbCircle
 10
107.7
 20
425.0
 30
0.0
 40
1.5
100
AcDbArc
 50
180.0
 51
270.0
  0
LINE
  5
4D6
100
AcDbEntity
  8
LAY-9
  6
CONTINUOUS
 62
     4
100
AcDbLine
 10
659.6
 20
188.9
 30
0.0
 11
659.6
 21
242.9
 31
0.0
  0
LINE
  5
4D7
100
AcDbEntity
  8
LAY-9
  6
CONTINUOUS
 62
     4
100
AcDbLine
 10
661.1
 20
244.4
 30
0.0
 11
698.1
 21
244.4
 31
0.0
  0
ARC
  5
4D8
100
AcDbEntity
  8
LAY-9
  6
CONTINUOUS
 62
     4
100
AcDbCircle
 10
661.1
 20
242.9
 30
0.0
 40
1.5
100
AcDbArc
 50
90.0
 51
180.0
  0
ARC
  5
4D9
100
AcDbEntity
  8
LAY-9
  6
CONTINUOUS
 62
     4
100
AcDbCircle
 10
698.1
 20
242.9
 30
0.0
 40
1.5
100
AcDbArc
 50
0.0
 51
90.0
  0
LINE
  5
4DA
100
AcDbEntity
  8
LAY-9
  6
CONTINUOUS
 62
     4
100
AcDbLine
 10
657.6
 20
247.4
 30
0.0
 11
701.1
 21
247.4
 31
0.0
  0
LINE
  5
4DB
100
AcDbEntity
  8
LAY-9
  6
CONTINUOUS
 62
     4
100
AcDbLine
 10
702.6
 20
248.9
 30
0.0
 11
702.6
 21
270.9
 31
0.0
  0
LINE
  5
4DC
100
AcDbEntity
  8
LAY-9
  6
CONTINUOUS
 62
     4
100
AcDbLine
 10
701.1
 20
272.4
 30
0.0
 11
682.6
 21
272.4
 31
0.0
  0
ARC
  5
4DD
100
AcDbEntity
  8
LAY-9
  6
CONTINUOUS
 62
     4
100
AcDbCircle
 10
701.1
 20
270.9
 30
0.0
 40
1.5
100
AcDbArc
 50
0.0
 51
90.0
  0
ARC
  5
4DE
100
AcDbEntity
  8
LAY-9
  6
CONTINUOUS
 62
     4
100
AcDbCircle
 10
701.1
 20
248.9
 30
0.0
 40
1.5
100
AcDbArc
 50
270.0
 51
0.0
  0
LINE
  5
4DF
100
AcDbEntity
  8
LAY-9
  6
CONTINUOUS
 62
     4
100
AcDbLine
 10
632.6
 20
233.9
 30
0.0
 11
632.6
 21
270.9
 31
0.0
  0
LINE
  5
4E0
100
AcDbEntity
  8
LAY-9
  6
CONTINUOUS
 62
     4
100
AcDbLine
 10
634.1
 20
272.4
 30
0.0
 11
652.6
 21
272.4
 31
0.0
  0
ARC
  5
4E1
100
AcDbEntity
  8
LAY-9
  6
CONTINUOUS
 62
     4
100
AcDbCircle
 10
634.1
 20
270.9
 30
0.0
 40
1.5
100
AcDbArc
 50
90.0
 51
180.0
  0
ARC
  5
4E2
100
AcDbEntity
  8
LAY-9
  6
CONTINUOUS
 62
     4
100
AcDbCircle
 10
634.1
 20
233.9
 30
0.0
 40
1.5
100
AcDbArc
 50
180.0
 51
270.0
  0
LINE
  5
4E3
100
AcDbEntity
  8
LAY-9
  6
DASHED2
 62
     4
100
AcDbLine
 10
632.6
 20
237.2
 30
0.0
 11
657.6
 21
237.2
 31
0.0
  0
LINE
  5
4E4
100
AcDbEntity
  8
LAY-9
  6
DASHED2
 62
     4
100
AcDbLine
 10
664.4
 20
195.9
 30
0.0
 11
664.4
 21
124.7
 31
0.0
  0
LINE
  5
4E5
100
AcDbEntity
  8
LAY-9
  6
DASHED2
 62
     4
100
AcDbLine
 10
659.6
 20
195.9
 30
0.0
 11
664.4
 21
195.9
 31
0.0
  0
LINE
  5
4E6
100
AcDbEntity
  8
LAY-9
  6
DASHED2
 62
     4
100
AcDbLine
 10
659.6
 20
124.7
 30
0.0
 11
664.4
 21
124.7
 31
0.0
  0
LINE
  5
4E7
100
AcDbEntity
  8
LAY-9
  6
CONTINUOUS
 62
     4
100
AcDbLine
 10
659.6
 20
134.9
 30
0.0
 11
659.6
 21
89.0
 31
0.0
  0
LINE
  5
4E8
100
AcDbEntity
  8
LAY-9
  6
CONTINUOUS
 62
     4
100
AcDbLine
 10
110.7
 20
465.5
 30
0.0
 11
491.0
 21
465.5
 31
0.0
  0
LINE
  5
4E9
100
AcDbEntity
  8
LAY-9
  6
CONTINUOUS
 62
     4
100
AcDbLine
 10
369.7
 20
425.5
 30
0.0
 11
491.0
 21
425.5
 31
0.0
  0
LINE
  5
4EA
100
AcDbEntity
  8
LAY-9
  6
CONTINUOUS
 62
     4
100
AcDbLine
 10
81.2
 20
272.4
 30
0.0
 11
492.986046
 21
272.4
 31
0.0
  0
LINE
  5
4EB
100
AcDbEntity
  8
LAY-9
  6
CONTINUOUS
 62
     4
100
AcDbLine
 10
81.2
 20
272.4
 30
0.0
 11
81.2
 21
95.6
 31
0.0
  0
LINE
  5
4EC
100
AcDbEntity
  8
LAY-9
  6
CONTINUOUS
 62
     4
100
AcDbLine
 10
491.182961
 20
244.4
 30
0.0
 11
513.1
 21
244.4
 31
0.0
  0
POLYLINE
  5
4ED
100
AcDbEntity
  8
LAY-9
  6
CONTINUOUS
 62
     4
100
AcDb2dPolyline
 66
     1
 10
0.0
 20
0.0
 30
0.0
 70
   128
  0
VERTEX
  5
4EE
100
AcDbEntity
  8
LAY-9
  6
CONTINUOUS
 62
     4
100
AcDbVertex
100
AcDb2dVertex
 10
513.1
 20
244.4
 30
0.0
  0
VERTEX
  5
4EF
100
AcDbEntity
  8
LAY-9
  6
CONTINUOUS
 62
     4
100
AcDbVertex
100
AcDb2dVertex
 10
513.074659
 20
244.344202
 30
0.0
  0
VERTEX
  5
4F0
100
AcDbEntity
  8
LAY-9
  6
CONTINUOUS
 62
     4
100
AcDbVertex
100
AcDb2dVertex
 10
513.003813
 20
244.184914
 30
0.0
  0
VERTEX
  5
4F1
100
AcDbEntity
  8
LAY-9
  6
CONTINUOUS
 62
     4
100
AcDbVertex
100
AcDb2dVertex
 10
512.895229
 20
243.93429
 30
0.0
  0
VERTEX
  5
4F2
100
AcDbEntity
  8
LAY-9
  6
CONTINUOUS
 62
     4
100
AcDbVertex
100
AcDb2dVertex
 10
512.756675
 20
243.604488
 30
0.0
  0
VERTEX
  5
4F3
100
AcDbEntity
  8
LAY-9
  6
CONTINUOUS
 62
     4
100
AcDbVertex
100
AcDb2dVertex
 10
512.595915
 20
243.207663
 30
0.0
  0
VERTEX
  5
4F4
100
AcDbEntity
  8
LAY-9
  6
CONTINUOUS
 62
     4
100
AcDbVertex
100
AcDb2dVertex
 10
512.420718
 20
242.755973
 30
0.0
  0
VERTEX
  5
4F5
100
AcDbEntity
  8
LAY-9
  6
CONTINUOUS
 62
     4
100
AcDbVertex
100
AcDb2dVertex
 10
512.23885
 20
242.261572
 30
0.0
  0
VERTEX
  5
4F6
100
AcDbEntity
  8
LAY-9
  6
CONTINUOUS
 62
     4
100
AcDbVertex
100
AcDb2dVertex
 10
512.058077
 20
241.736619
 30
0.0
  0
VERTEX
  5
4F7
100
AcDbEntity
  8
LAY-9
  6
CONTINUOUS
 62
     4
100
AcDbVertex
100
AcDb2dVertex
 10
511.886167
 20
241.193268
 30
0.0
  0
VERTEX
  5
4F8
100
AcDbEntity
  8
LAY-9
  6
CONTINUOUS
 62
     4
100
AcDbVertex
100
AcDb2dVertex
 10
511.730886
 20
240.643676
 30
0.0
  0
VERTEX
  5
4F9
100
AcDbEntity
  8
LAY-9
  6
CONTINUOUS
 62
     4
100
AcDbVertex
100
AcDb2dVertex
 10
511.6
 20
240.1
 30
0.0
  0
VERTEX
  5
4FA
100
AcDbEntity
  8
LAY-9
  6
CONTINUOUS
 62
     4
100
AcDbVertex
100
AcDb2dVertex
 10
511.44723
 20
239.217526
 30
0.0
  0
VERTEX
  5
4FB
100
AcDbEntity
  8
LAY-9
  6
CONTINUOUS
 62
     4
100
AcDbVertex
100
AcDb2dVertex
 10
511.372012
 20
238.382948
 30
0.0
  0
VERTEX
  5
4FC
100
AcDbEntity
  8
LAY-9
  6
CONTINUOUS
 62
     4
100
AcDbVertex
100
AcDb2dVertex
 10
511.359892
 20
237.592466
 30
0.0
  0
VERTEX
  5
4FD
100
AcDbEntity
  8
LAY-9
  6
CONTINUOUS
 62
     4
100
AcDbVertex
100
AcDb2dVertex
 10
511.396416
 20
236.842279
 30
0.0
  0
VERTEX
  5
4FE
100
AcDbEntity
  8
LAY-9
  6
CONTINUOUS
 62
     4
100
AcDbVertex
100
AcDb2dVertex
 10
511.46713
 20
236.128587
 30
0.0
  0
VERTEX
  5
4FF
100
AcDbEntity
  8
LAY-9
  6
CONTINUOUS
 62
     4
100
AcDbVertex
100
AcDb2dVertex
 10
511.557581
 20
235.447589
 30
0.0
  0
VERTEX
  5
500
100
AcDbEntity
  8
LAY-9
  6
CONTINUOUS
 62
     4
100
AcDbVertex
100
AcDb2dVertex
 10
511.653315
 20
234.795486
 30
0.0
  0
VERTEX
  5
501
100
AcDbEntity
  8
LAY-9
  6
CONTINUOUS
 62
     4
100
AcDbVertex
100
AcDb2dVertex
 10
511.739877
 20
234.168476
 30
0.0
  0
VERTEX
  5
502
100
AcDbEntity
  8
LAY-9
  6
CONTINUOUS
 62
     4
100
AcDbVertex
100
AcDb2dVertex
 10
511.802815
 20
233.562758
 30
0.0
  0
VERTEX
  5
503
100
AcDbEntity
  8
LAY-9
  6
CONTINUOUS
 62
     4
100
AcDbVertex
100
AcDb2dVertex
 10
511.827674
 20
232.974533
 30
0.0
  0
VERTEX
  5
504
100
AcDbEntity
  8
LAY-9
  6
CONTINUOUS
 62
     4
100
AcDbVertex
100
AcDb2dVertex
 10
511.8
 20
232.4
 30
0.0
  0
VERTEX
  5
505
100
AcDbEntity
  8
LAY-9
  6
CONTINUOUS
 62
     4
100
AcDbVertex
100
AcDb2dVertex
 10
511.724181
 20
231.905206
 30
0.0
  0
VERTEX
  5
506
100
AcDbEntity
  8
LAY-9
  6
CONTINUOUS
 62
     4
100
AcDbVertex
100
AcDb2dVertex
 10
511.604189
 20
231.411733
 30
0.0
  0
VERTEX
  5
507
100
AcDbEntity
  8
LAY-9
  6
CONTINUOUS
 62
     4
100
AcDbVertex
100
AcDb2dVertex
 10
511.447075
 20
230.91334
 30
0.0
  0
VERTEX
  5
508
100
AcDbEntity
  8
LAY-9
  6
CONTINUOUS
 62
     4
100
AcDbVertex
100
AcDb2dVertex
 10
511.259892
 20
230.403785
 30
0.0
  0
VERTEX
  5
509
100
AcDbEntity
  8
LAY-9
  6
CONTINUOUS
 62
     4
100
AcDbVertex
100
AcDb2dVertex
 10
511.04969
 20
229.876825
 30
0.0
  0
VERTEX
  5
50A
100
AcDbEntity
  8
LAY-9
  6
CONTINUOUS
 62
     4
100
AcDbVertex
100
AcDb2dVertex
 10
510.823523
 20
229.326217
 30
0.0
  0
VERTEX
  5
50B
100
AcDbEntity
  8
LAY-9
  6
CONTINUOUS
 62
     4
100
AcDbVertex
100
AcDb2dVertex
 10
510.58844
 20
228.745721
 30
0.0
  0
VERTEX
  5
50C
100
AcDbEntity
  8
LAY-9
  6
CONTINUOUS
 62
     4
100
AcDbVertex
100
AcDb2dVertex
 10
510.351495
 20
228.129093
 30
0.0
  0
VERTEX
  5
50D
100
AcDbEntity
  8
LAY-9
  6
CONTINUOUS
 62
     4
100
AcDbVertex
100
AcDb2dVertex
 10
510.119739
 20
227.470092
 30
0.0
  0
VERTEX
  5
50E
100
AcDbEntity
  8
LAY-9
  6
CONTINUOUS
 62
     4
100
AcDbVertex
100
AcDb2dVertex
 10
509.900223
 20
226.762475
 30
0.0
  0
VERTEX
  5
50F
100
AcDbEntity
  8
LAY-9
  6
CONTINUOUS
 62
     4
100
AcDbVertex
100
AcDb2dVertex
 10
509.7
 20
226.0
 30
0.0
  0
VERTEX
  5
510
100
AcDbEntity
  8
LAY-9
  6
CONTINUOUS
 62
     4
100
AcDbVertex
100
AcDb2dVertex
 10
509.576238
 20
225.440719
 30
0.0
  0
VERTEX
  5
511
100
AcDbEntity
  8
LAY-9
  6
CONTINUOUS
 62
     4
100
AcDbVertex
100
AcDb2dVertex
 10
509.46491
 20
224.866627
 30
0.0
  0
VERTEX
  5
512
100
AcDbEntity
  8
LAY-9
  6
CONTINUOUS
 62
     4
100
AcDbVertex
100
AcDb2dVertex
 10
509.365881
 20
224.292066
 30
0.0
  0
VERTEX
  5
513
100
AcDbEntity
  8
LAY-9
  6
CONTINUOUS
 62
     4
100
AcDbVertex
100
AcDb2dVertex
 10
509.279013
 20
223.73138
 30
0.0
  0
VERTEX
  5
514
100
AcDbEntity
  8
LAY-9
  6
CONTINUOUS
 62
     4
100
AcDbVertex
100
AcDb2dVertex
 10
509.204171
 20
223.198915
 30
0.0
  0
VERTEX
  5
515
100
AcDbEntity
  8
LAY-9
  6
CONTINUOUS
 62
     4
100
AcDbVertex
100
AcDb2dVertex
 10
509.141216
 20
222.709013
 30
0.0
  0
VERTEX
  5
516
100
AcDbEntity
  8
LAY-9
  6
CONTINUOUS
 62
     4
100
AcDbVertex
100
AcDb2dVertex
 10
509.090015
 20
222.276019
 30
0.0
  0
VERTEX
  5
517
100
AcDbEntity
  8
LAY-9
  6
CONTINUOUS
 62
     4
100
AcDbVertex
100
AcDb2dVertex
 10
509.050429
 20
221.914277
 30
0.0
  0
VERTEX
  5
518
100
AcDbEntity
  8
LAY-9
  6
CONTINUOUS
 62
     4
100
AcDbVertex
100
AcDb2dVertex
 10
509.022322
 20
221.63813
 30
0.0
  0
VERTEX
  5
519
100
AcDbEntity
  8
LAY-9
  6
CONTINUOUS
 62
     4
100
AcDbVertex
100
AcDb2dVertex
 10
509.005558
 20
221.461923
 30
0.0
  0
VERTEX
  5
51A
100
AcDbEntity
  8
LAY-9
  6
CONTINUOUS
 62
     4
100
AcDbVertex
100
AcDb2dVertex
 10
509.0
 20
221.4
 30
0.0
  0
SEQEND
  5
51B
100
AcDbEntity
  8
LAY-9
  6
CONTINUOUS
 62
     4
  0
LINE
  5
51C
100
AcDbEntity
  8
LAY-9
  6
DASHED2
 62
     4
100
AcDbLine
 10
109.2
 20
244.4
 30
0.0
 11
491.182961
 21
244.4
 31
0.0
  0
LINE
  5
51D
100
AcDbEntity
  8
LAY-9
  6
DASHED2
 62
     4
100
AcDbLine
 10
109.2
 20
244.4
 30
0.0
 11
109.2
 21
96.066402
 31
0.0
  0
LINE
  5
51E
100
AcDbEntity
  8
LAY-9
  6
CONTINUOUS
 62
     4
100
AcDbLine
 10
109.2
 20
86.02
 30
0.0
 11
109.2
 21
96.066402
 31
0.0
  0
POLYLINE
  5
51F
100
AcDbEntity
  8
LAY-9
  6
CONTINUOUS
 62
     4
100
AcDb2dPolyline
 66
     1
 10
0.0
 20
0.0
 30
0.0
 70
   128
  0
VERTEX
  5
520
100
AcDbEntity
  8
LAY-9
  6
CONTINUOUS
 62
     4
100
AcDbVertex
100
AcDb2dVertex
 10
109.2
 20
86.02
 30
0.0
  0
VERTEX
  5
521
100
AcDbEntity
  8
LAY-9
  6
CONTINUOUS
 62
     4
100
AcDbVertex
100
AcDb2dVertex
 10
109.255696
 20
86.043582
 30
0.0
  0
VERTEX
  5
522
100
AcDbEntity
  8
LAY-9
  6
CONTINUOUS
 62
     4
100
AcDbVertex
100
AcDb2dVertex
 10
109.41406
 20
86.108795
 30
0.0
  0
VERTEX
  5
523
100
AcDbEntity
  8
LAY-9
  6
CONTINUOUS
 62
     4
100
AcDbVertex
100
AcDb2dVertex
 10
109.662005
 20
86.207341
 30
0.0
  0
VERTEX
  5
524
100
AcDbEntity
  8
LAY-9
  6
CONTINUOUS
 62
     4
100
AcDbVertex
100
AcDb2dVertex
 10
109.986443
 20
86.330924
 30
0.0
  0
VERTEX
  5
525
100
AcDbEntity
  8
LAY-9
  6
CONTINUOUS
 62
     4
100
AcDbVertex
100
AcDb2dVertex
 10
110.374288
 20
86.471244
 30
0.0
  0
VERTEX
  5
526
100
AcDbEntity
  8
LAY-9
  6
CONTINUOUS
 62
     4
100
AcDbVertex
100
AcDb2dVertex
 10
110.812451
 20
86.620006
 30
0.0
  0
VERTEX
  5
527
100
AcDbEntity
  8
LAY-9
  6
CONTINUOUS
 62
     4
100
AcDbVertex
100
AcDb2dVertex
 10
111.287846
 20
86.76891
 30
0.0
  0
VERTEX
  5
528
100
AcDbEntity
  8
LAY-9
  6
CONTINUOUS
 62
     4
100
AcDbVertex
100
AcDb2dVertex
 10
111.787386
 20
86.909659
 30
0.0
  0
VERTEX
  5
529
100
AcDbEntity
  8
LAY-9
  6
CONTINUOUS
 62
     4
100
AcDbVertex
100
AcDb2dVertex
 10
112.297983
 20
87.033956
 30
0.0
  0
VERTEX
  5
52A
100
AcDbEntity
  8
LAY-9
  6
CONTINUOUS
 62
     4
100
AcDbVertex
100
AcDb2dVertex
 10
112.80655
 20
87.133502
 30
0.0
  0
VERTEX
  5
52B
100
AcDbEntity
  8
LAY-9
  6
CONTINUOUS
 62
     4
100
AcDbVertex
100
AcDb2dVertex
 10
113.3
 20
87.2
 30
0.0
  0
VERTEX
  5
52C
100
AcDbEntity
  8
LAY-9
  6
CONTINUOUS
 62
     4
100
AcDbVertex
100
AcDb2dVertex
 10
113.865953
 20
87.228091
 30
0.0
  0
VERTEX
  5
52D
100
AcDbEntity
  8
LAY-9
  6
CONTINUOUS
 62
     4
100
AcDbVertex
100
AcDb2dVertex
 10
114.395005
 20
87.202485
 30
0.0
  0
VERTEX
  5
52E
100
AcDbEntity
  8
LAY-9
  6
CONTINUOUS
 62
     4
100
AcDbVertex
100
AcDb2dVertex
 10
114.892029
 20
87.130724
 30
0.0
  0
VERTEX
  5
52F
100
AcDbEntity
  8
LAY-9
  6
CONTINUOUS
 62
     4
100
AcDbVertex
100
AcDb2dVertex
 10
115.361899
 20
87.020348
 30
0.0
  0
VERTEX
  5
530
100
AcDbEntity
  8
LAY-9
  6
CONTINUOUS
 62
     4
100
AcDbVertex
100
AcDb2dVertex
 10
115.809487
 20
86.8789
 30
0.0
  0
VERTEX
  5
531
100
AcDbEntity
  8
LAY-9
  6
CONTINUOUS
 62
     4
100
AcDbVertex
100
AcDb2dVertex
 10
116.239666
 20
86.713921
 30
0.0
  0
VERTEX
  5
532
100
AcDbEntity
  8
LAY-9
  6
CONTINUOUS
 62
     4
100
AcDbVertex
100
AcDb2dVertex
 10
116.657311
 20
86.532951
 30
0.0
  0
VERTEX
  5
533
100
AcDbEntity
  8
LAY-9
  6
CONTINUOUS
 62
     4
100
AcDbVertex
100
AcDb2dVertex
 10
117.067293
 20
86.343533
 30
0.0
  0
VERTEX
  5
534
100
AcDbEntity
  8
LAY-9
  6
CONTINUOUS
 62
     4
100
AcDbVertex
100
AcDb2dVertex
 10
117.474487
 20
86.153208
 30
0.0
  0
VERTEX
  5
535
100
AcDbEntity
  8
LAY-9
  6
CONTINUOUS
 62
     4
100
AcDbVertex
100
AcDb2dVertex
 10
117.883765
 20
85.969516
 30
0.0
  0
VERTEX
  5
536
100
AcDbEntity
  8
LAY-9
  6
CONTINUOUS
 62
     4
100
AcDbVertex
100
AcDb2dVertex
 10
118.3
 20
85.8
 30
0.0
  0
VERTEX
  5
537
100
AcDbEntity
  8
LAY-9
  6
CONTINUOUS
 62
     4
100
AcDbVertex
100
AcDb2dVertex
 10
119.140786
 20
85.528921
 30
0.0
  0
VERTEX
  5
538
100
AcDbEntity
  8
LAY-9
  6
CONTINUOUS
 62
     4
100
AcDbVertex
100
AcDb2dVertex
 10
120.019017
 20
85.333485
 30
0.0
  0
VERTEX
  5
539
100
AcDbEntity
  8
LAY-9
  6
CONTINUOUS
 62
     4
100
AcDbVertex
100
AcDb2dVertex
 10
120.927373
 20
85.207155
 30
0.0
  0
VERTEX
  5
53A
100
AcDbEntity
  8
LAY-9
  6
CONTINUOUS
 62
     4
100
AcDbVertex
100
AcDb2dVertex
 10
121.858529
 20
85.143395
 30
0.0
  0
VERTEX
  5
53B
100
AcDbEntity
  8
LAY-9
  6
CONTINUOUS
 62
     4
100
AcDbVertex
100
AcDb2dVertex
 10
122.805165
 20
85.135669
 30
0.0
  0
VERTEX
  5
53C
100
AcDbEntity
  8
LAY-9
  6
CONTINUOUS
 62
     4
100
AcDbVertex
100
AcDb2dVertex
 10
123.759958
 20
85.177441
 30
0.0
  0
VERTEX
  5
53D
100
AcDbEntity
  8
LAY-9
  6
CONTINUOUS
 62
     4
100
AcDbVertex
100
AcDb2dVertex
 10
124.715586
 20
85.262175
 30
0.0
  0
VERTEX
  5
53E
100
AcDbEntity
  8
LAY-9
  6
CONTINUOUS
 62
     4
100
AcDbVertex
100
AcDb2dVertex
 10
125.664726
 20
85.383334
 30
0.0
  0
VERTEX
  5
53F
100
AcDbEntity
  8
LAY-9
  6
CONTINUOUS
 62
     4
100
AcDbVertex
100
AcDb2dVertex
 10
126.600057
 20
85.534382
 30
0.0
  0
VERTEX
  5
540
100
AcDbEntity
  8
LAY-9
  6
CONTINUOUS
 62
     4
100
AcDbVertex
100
AcDb2dVertex
 10
127.514255
 20
85.708782
 30
0.0
  0
VERTEX
  5
541
100
AcDbEntity
  8
LAY-9
  6
CONTINUOUS
 62
     4
100
AcDbVertex
100
AcDb2dVertex
 10
128.4
 20
85.9
 30
0.0
  0
VERTEX
  5
542
100
AcDbEntity
  8
LAY-9
  6
CONTINUOUS
 62
     4
100
AcDbVertex
100
AcDb2dVertex
 10
129.24026
 20
86.099011
 30
0.0
  0
VERTEX
  5
543
100
AcDbEntity
  8
LAY-9
  6
CONTINUOUS
 62
     4
100
AcDbVertex
100
AcDb2dVertex
 10
130.056578
 20
86.305549
 30
0.0
  0
VERTEX
  5
544
100
AcDbEntity
  8
LAY-9
  6
CONTINUOUS
 62
     4
100
AcDbVertex
100
AcDb2dVertex
 10
130.859705
 20
86.51717
 30
0.0
  0
VERTEX
  5
545
100
AcDbEntity
  8
LAY-9
  6
CONTINUOUS
 62
     4
100
AcDbVertex
100
AcDb2dVertex
 10
131.660393
 20
86.731431
 30
0.0
  0
VERTEX
  5
546
100
AcDbEntity
  8
LAY-9
  6
CONTINUOUS
 62
     4
100
AcDbVertex
100
AcDb2dVertex
 10
132.469393
 20
86.945891
 30
0.0
  0
VERTEX
  5
547
100
AcDbEntity
  8
LAY-9
  6
CONTINUOUS
 62
     4
100
AcDbVertex
100
AcDb2dVertex
 10
133.297455
 20
87.158105
 30
0.0
  0
VERTEX
  5
548
100
AcDbEntity
  8
LAY-9
  6
CONTINUOUS
 62
     4
100
AcDbVertex
100
AcDb2dVertex
 10
134.155332
 20
87.365631
 30
0.0
  0
VERTEX
  5
549
100
AcDbEntity
  8
LAY-9
  6
CONTINUOUS
 62
     4
100
AcDbVertex
100
AcDb2dVertex
 10
135.053773
 20
87.566027
 30
0.0
  0
VERTEX
  5
54A
100
AcDbEntity
  8
LAY-9
  6
CONTINUOUS
 62
     4
100
AcDbVertex
100
AcDb2dVertex
 10
136.003531
 20
87.756848
 30
0.0
  0
VERTEX
  5
54B
100
AcDbEntity
  8
LAY-9
  6
CONTINUOUS
 62
     4
100
AcDbVertex
100
AcDb2dVertex
 10
137.015356
 20
87.935654
 30
0.0
  0
VERTEX
  5
54C
100
AcDbEntity
  8
LAY-9
  6
CONTINUOUS
 62
     4
100
AcDbVertex
100
AcDb2dVertex
 10
138.1
 20
88.1
 30
0.0
  0
VERTEX
  5
54D
100
AcDbEntity
  8
LAY-9
  6
CONTINUOUS
 62
     4
100
AcDbVertex
100
AcDb2dVertex
 10
139.247071
 20
88.246331
 30
0.0
  0
VERTEX
  5
54E
100
AcDbEntity
  8
LAY-9
  6
CONTINUOUS
 62
     4
100
AcDbVertex
100
AcDb2dVertex
 10
140.442586
 20
88.376593
 30
0.0
  0
VERTEX
  5
54F
100
AcDbEntity
  8
LAY-9
  6
CONTINUOUS
 62
     4
100
AcDbVertex
100
AcDb2dVertex
 10
141.653318
 20
88.491236
 30
0.0
  0
VERTEX
  5
550
100
AcDbEntity
  8
LAY-9
  6
CONTINUOUS
 62
     4
100
AcDbVertex
100
AcDb2dVertex
 10
142.846044
 20
88.590709
 30
0.0
  0
VERTEX
  5
551
100
AcDbEntity
  8
LAY-9
  6
CONTINUOUS
 62
     4
100
AcDbVertex
100
AcDb2dVertex
 10
143.987538
 20
88.675461
 30
0.0
  0
VERTEX
  5
552
100
AcDbEntity
  8
LAY-9
  6
CONTINUOUS
 62
     4
100
AcDbVertex
100
AcDb2dVertex
 10
145.044573
 20
88.745942
 30
0.0
  0
VERTEX
  5
553
100
AcDbEntity
  8
LAY-9
  6
CONTINUOUS
 62
     4
100
AcDbVertex
100
AcDb2dVertex
 10
145.983926
 20
88.802601
 30
0.0
  0
VERTEX
  5
554
100
AcDbEntity
  8
LAY-9
  6
CONTINUOUS
 62
     4
100
AcDbVertex
100
AcDb2dVertex
 10
146.77237
 20
88.845887
 30
0.0
  0
VERTEX
  5
555
100
AcDbEntity
  8
LAY-9
  6
CONTINUOUS
 62
     4
100
AcDbVertex
100
AcDb2dVertex
 10
147.376681
 20
88.876249
 30
0.0
  0
VERTEX
  5
556
100
AcDbEntity
  8
LAY-9
  6
CONTINUOUS
 62
     4
100
AcDbVertex
100
AcDb2dVertex
 10
147.763633
 20
88.894137
 30
0.0
  0
VERTEX
  5
557
100
AcDbEntity
  8
LAY-9
  6
CONTINUOUS
 62
     4
100
AcDbVertex
100
AcDb2dVertex
 10
147.9
 20
88.9
 30
0.0
  0
SEQEND
  5
558
100
AcDbEntity
  8
LAY-9
  6
CONTINUOUS
 62
     4
  0
LINE
  5
559
100
AcDbEntity
  8
LAY-9
  6
DASHED2
 62
     4
100
AcDbLine
 10
174.700031
 20
425.5
 30
0.0
 11
174.700031
 21
430.3
 31
0.0
  0
LINE
  5
55A
100
AcDbEntity
  8
LAY-9
  6
DASHED2
 62
     4
100
AcDbLine
 10
174.700031
 20
430.3
 30
0.0
 11
376.700031
 21
430.3
 31
0.0
  0
LINE
  5
55B
100
AcDbEntity
  8
LAY-9
  6
DASHED2
 62
     4
100
AcDbLine
 10
376.700031
 20
425.5
 30
0.0
 11
376.700031
 21
430.3
 31
0.0
  0
LINE
  5
55C
100
AcDbEntity
  8
LAY-9
  6
CONTINUOUS
 62
     4
100
AcDbLine
 10
242.7
 20
232.4
 30
0.0
 11
491.0
 21
232.4
 31
0.0
  0
LINE
  5
55D
100
AcDbEntity
  8
LAY-9
  6
CONTINUOUS
 62
     4
100
AcDbLine
 10
121.2
 20
232.4
 30
0.0
 11
152.7
 21
232.4
 31
0.0
  0
LINE
  5
55E
100
AcDbEntity
  8
LAY-9
  6
CONTINUOUS
 62
     4
100
AcDbLine
 10
121.2
 20
98.143042
 30
0.0
 11
121.2
 21
232.4
 31
0.0
  0
LINE
  5
55F
100
AcDbEntity
  8
LAY-9
  6
DASHED2
 62
     4
100
AcDbLine
 10
106.2
 20
247.4
 30
0.0
 11
106.2
 21
95.6
 31
0.0
  0
POLYLINE
  5
560
100
AcDbEntity
  8
LAY-9
  6
CONTINUOUS
 62
     4
100
AcDb2dPolyline
 66
     1
 10
0.0
 20
0.0
 30
0.0
 70
   128
  0
VERTEX
  5
561
100
AcDbEntity
  8
LAY-9
  6
CONTINUOUS
 62
     4
100
AcDbVertex
100
AcDb2dVertex
 10
81.2
 20
95.6
 30
0.0
  0
VERTEX
  5
562
100
AcDbEntity
  8
LAY-9
  6
CONTINUOUS
 62
     4
100
AcDbVertex
100
AcDb2dVertex
 10
81.273864
 20
95.621503
 30
0.0
  0
VERTEX
  5
563
100
AcDbEntity
  8
LAY-9
  6
CONTINUOUS
 62
     4
100
AcDbVertex
100
AcDb2dVertex
 10
81.484092
 20
95.681377
 30
0.0
  0
VERTEX
  5
564
100
AcDbEntity
  8
LAY-9
  6
CONTINUOUS
 62
     4
100
AcDbVertex
100
AcDb2dVertex
 10
81.813639
 20
95.772671
 30
0.0
  0
VERTEX
  5
565
100
AcDbEntity
  8
LAY-9
  6
CONTINUOUS
 62
     4
100
AcDbVertex
100
AcDb2dVertex
 10
82.245458
 20
95.888434
 30
0.0
  0
VERTEX
  5
566
100
AcDbEntity
  8
LAY-9
  6
CONTINUOUS
 62
     4
100
AcDbVertex
100
AcDb2dVertex
 10
82.762505
 20
96.021715
 30
0.0
  0
VERTEX
  5
567
100
AcDbEntity
  8
LAY-9
  6
CONTINUOUS
 62
     4
100
AcDbVertex
100
AcDb2dVertex
 10
83.347733
 20
96.165562
 30
0.0
  0
VERTEX
  5
568
100
AcDbEntity
  8
LAY-9
  6
CONTINUOUS
 62
     4
100
AcDbVertex
100
AcDb2dVertex
 10
83.984097
 20
96.313025
 30
0.0
  0
VERTEX
  5
569
100
AcDbEntity
  8
LAY-9
  6
CONTINUOUS
 62
     4
100
AcDbVertex
100
AcDb2dVertex
 10
84.654551
 20
96.457151
 30
0.0
  0
VERTEX
  5
56A
100
AcDbEntity
  8
LAY-9
  6
CONTINUOUS
 62
     4
100
AcDbVertex
100
AcDb2dVertex
 10
85.34205
 20
96.59099
 30
0.0
  0
VERTEX
  5
56B
100
AcDbEntity
  8
LAY-9
  6
CONTINUOUS
 62
     4
100
AcDbVertex
100
AcDb2dVertex
 10
86.029548
 20
96.70759
 30
0.0
  0
VERTEX
  5
56C
100
AcDbEntity
  8
LAY-9
  6
CONTINUOUS
 62
     4
100
AcDbVertex
100
AcDb2dVertex
 10
86.7
 20
96.8
 30
0.0
  0
VERTEX
  5
56D
100
AcDbEntity
  8
LAY-9
  6
CONTINUOUS
 62
     4
100
AcDbVertex
100
AcDb2dVertex
 10
87.570433
 20
96.879014
 30
0.0
  0
VERTEX
  5
56E
100
AcDbEntity
  8
LAY-9
  6
CONTINUOUS
 62
     4
100
AcDbVertex
100
AcDb2dVertex
 10
88.384112
 20
96.906837
 30
0.0
  0
VERTEX
  5
56F
100
AcDbEntity
  8
LAY-9
  6
CONTINUOUS
 62
     4
100
AcDbVertex
100
AcDb2dVertex
 10
89.14859
 20
96.891023
 30
0.0
  0
VERTEX
  5
570
100
AcDbEntity
  8
LAY-9
  6
CONTINUOUS
 62
     4
100
AcDbVertex
100
AcDb2dVertex
 10
89.871427
 20
96.839125
 30
0.0
  0
VERTEX
  5
571
100
AcDbEntity
  8
LAY-9
  6
CONTINUOUS
 62
     4
100
AcDbVertex
100
AcDb2dVertex
 10
90.560176
 20
96.758697
 30
0.0
  0
VERTEX
  5
572
100
AcDbEntity
  8
LAY-9
  6
CONTINUOUS
 62
     4
100
AcDbVertex
100
AcDb2dVertex
 10
91.222395
 20
96.657293
 30
0.0
  0
VERTEX
  5
573
100
AcDbEntity
  8
LAY-9
  6
CONTINUOUS
 62
     4
100
AcDbVertex
100
AcDb2dVertex
 10
91.865639
 20
96.542466
 30
0.0
  0
VERTEX
  5
574
100
AcDbEntity
  8
LAY-9
  6
CONTINUOUS
 62
     4
100
AcDbVertex
100
AcDb2dVertex
 10
92.497466
 20
96.421769
 30
0.0
  0
VERTEX
  5
575
100
AcDbEntity
  8
LAY-9
  6
CONTINUOUS
 62
     4
100
AcDbVertex
100
AcDb2dVertex
 10
93.125431
 20
96.302757
 30
0.0
  0
VERTEX
  5
576
100
AcDbEntity
  8
LAY-9
  6
CONTINUOUS
 62
     4
100
AcDbVertex
100
AcDb2dVertex
 10
93.75709
 20
96.192983
 30
0.0
  0
VERTEX
  5
577
100
AcDbEntity
  8
LAY-9
  6
CONTINUOUS
 62
     4
100
AcDbVertex
100
AcDb2dVertex
 10
94.4
 20
96.1
 30
0.0
  0
VERTEX
  5
578
100
AcDbEntity
  8
LAY-9
  6
CONTINUOUS
 62
     4
100
AcDbVertex
100
AcDb2dVertex
 10
95.014624
 20
96.033529
 30
0.0
  0
VERTEX
  5
579
100
AcDbEntity
  8
LAY-9
  6
CONTINUOUS
 62
     4
100
AcDbVertex
100
AcDb2dVertex
 10
95.643497
 20
95.984879
 30
0.0
  0
VERTEX
  5
57A
100
AcDbEntity
  8
LAY-9
  6
CONTINUOUS
 62
     4
100
AcDbVertex
100
AcDb2dVertex
 10
96.284531
 20
95.950723
 30
0.0
  0
VERTEX
  5
57B
100
AcDbEntity
  8
LAY-9
  6
CONTINUOUS
 62
     4
100
AcDbVertex
100
AcDb2dVertex
 10
96.935638
 20
95.927734
 30
0.0
  0
VERTEX
  5
57C
100
AcDbEntity
  8
LAY-9
  6
CONTINUOUS
 62
     4
100
AcDbVertex
100
AcDb2dVertex
 10
97.594728
 20
95.912584
 30
0.0
  0
VERTEX
  5
57D
100
AcDbEntity
  8
LAY-9
  6
CONTINUOUS
 62
     4
100
AcDbVertex
100
AcDb2dVertex
 10
98.259715
 20
95.901948
 30
0.0
  0
VERTEX
  5
57E
100
AcDbEntity
  8
LAY-9
  6
CONTINUOUS
 62
     4
100
AcDbVertex
100
AcDb2dVertex
 10
98.92851
 20
95.892496
 30
0.0
  0
VERTEX
  5
57F
100
AcDbEntity
  8
LAY-9
  6
CONTINUOUS
 62
     4
100
AcDbVertex
100
AcDb2dVertex
 10
99.599024
 20
95.880903
 30
0.0
  0
VERTEX
  5
580
100
AcDbEntity
  8
LAY-9
  6
CONTINUOUS
 62
     4
100
AcDbVertex
100
AcDb2dVertex
 10
100.269169
 20
95.86384
 30
0.0
  0
VERTEX
  5
581
100
AcDbEntity
  8
LAY-9
  6
CONTINUOUS
 62
     4
100
AcDbVertex
100
AcDb2dVertex
 10
100.936857
 20
95.837982
 30
0.0
  0
VERTEX
  5
582
100
AcDbEntity
  8
LAY-9
  6
CONTINUOUS
 62
     4
100
AcDbVertex
100
AcDb2dVertex
 10
101.6
 20
95.8
 30
0.0
  0
VERTEX
  5
583
100
AcDbEntity
  8
LAY-9
  6
CONTINUOUS
 62
     4
100
AcDbVertex
100
AcDb2dVertex
 10
102.02055
 20
95.768371
 30
0.0
  0
VERTEX
  5
584
100
AcDbEntity
  8
LAY-9
  6
CONTINUOUS
 62
     4
100
AcDbVertex
100
AcDb2dVertex
 10
102.43895
 20
95.732684
 30
0.0
  0
VERTEX
  5
585
100
AcDbEntity
  8
LAY-9
  6
CONTINUOUS
 62
     4
100
AcDbVertex
100
AcDb2dVertex
 10
102.855759
 20
95.695188
 30
0.0
  0
VERTEX
  5
586
100
AcDbEntity
  8
LAY-9
  6
CONTINUOUS
 62
     4
100
AcDbVertex
100
AcDb2dVertex
 10
103.271536
 20
95.658132
 30
0.0
  0
VERTEX
  5
587
100
AcDbEntity
  8
LAY-9
  6
CONTINUOUS
 62
     4
100
AcDbVertex
100
AcDb2dVertex
 10
103.68684
 20
95.623766
 30
0.0
  0
VERTEX
  5
588
100
AcDbEntity
  8
LAY-9
  6
CONTINUOUS
 62
     4
100
AcDbVertex
100
AcDb2dVertex
 10
104.102229
 20
95.594338
 30
0.0
  0
VERTEX
  5
589
100
AcDbEntity
  8
LAY-9
  6
CONTINUOUS
 62
     4
100
AcDbVertex
100
AcDb2dVertex
 10
104.518261
 20
95.572098
 30
0.0
  0
VERTEX
  5
58A
100
AcDbEntity
  8
LAY-9
  6
CONTINUOUS
 62
     4
100
AcDbVertex
100
AcDb2dVertex
 10
104.935496
 20
95.559295
 30
0.0
  0
VERTEX
  5
58B
100
AcDbEntity
  8
LAY-9
  6
CONTINUOUS
 62
     4
100
AcDbVertex
100
AcDb2dVertex
 10
105.354491
 20
95.558178
 30
0.0
  0
VERTEX
  5
58C
100
AcDbEntity
  8
LAY-9
  6
CONTINUOUS
 62
     4
100
AcDbVertex
100
AcDb2dVertex
 10
105.775807
 20
95.570997
 30
0.0
  0
VERTEX
  5
58D
100
AcDbEntity
  8
LAY-9
  6
CONTINUOUS
 62
     4
100
AcDbVertex
100
AcDb2dVertex
 10
106.2
 20
95.6
 30
0.0
  0
VERTEX
  5
58E
100
AcDbEntity
  8
LAY-9
  6
CONTINUOUS
 62
     4
100
AcDbVertex
100
AcDb2dVertex
 10
106.785773
 20
95.667234
 30
0.0
  0
VERTEX
  5
58F
100
AcDbEntity
  8
LAY-9
  6
CONTINUOUS
 62
     4
100
AcDbVertex
100
AcDb2dVertex
 10
107.375724
 20
95.757925
 30
0.0
  0
VERTEX
  5
590
100
AcDbEntity
  8
LAY-9
  6
CONTINUOUS
 62
     4
100
AcDbVertex
100
AcDb2dVertex
 10
107.967591
 20
95.860984
 30
0.0
  0
VERTEX
  5
591
100
AcDbEntity
  8
LAY-9
  6
CONTINUOUS
 62
     4
100
AcDbVertex
100
AcDb2dVertex
 10
108.559112
 20
95.965322
 30
0.0
  0
VERTEX
  5
592
100
AcDbEntity
  8
LAY-9
  6
CONTINUOUS
 62
     4
100
AcDbVertex
100
AcDb2dVertex
 10
109.148023
 20
96.059849
 30
0.0
  0
VERTEX
  5
593
100
AcDbEntity
  8
LAY-9
  6
CONTINUOUS
 62
     4
100
AcDbVertex
100
AcDb2dVertex
 10
109.732063
 20
96.133477
 30
0.0
  0
VERTEX
  5
594
100
AcDbEntity
  8
LAY-9
  6
CONTINUOUS
 62
     4
100
AcDbVertex
100
AcDb2dVertex
 10
110.308969
 20
96.175116
 30
0.0
  0
VERTEX
  5
595
100
AcDbEntity
  8
LAY-9
  6
CONTINUOUS
 62
     4
100
AcDbVertex
100
AcDb2dVertex
 10
110.876478
 20
96.173677
 30
0.0
  0
VERTEX
  5
596
100
AcDbEntity
  8
LAY-9
  6
CONTINUOUS
 62
     4
100
AcDbVertex
100
AcDb2dVertex
 10
111.432327
 20
96.118071
 30
0.0
  0
VERTEX
  5
597
100
AcDbEntity
  8
LAY-9
  6
CONTINUOUS
 62
     4
100
AcDbVertex
100
AcDb2dVertex
 10
111.974256
 20
95.997208
 30
0.0
  0
VERTEX
  5
598
100
AcDbEntity
  8
LAY-9
  6
CONTINUOUS
 62
     4
100
AcDbVertex
100
AcDb2dVertex
 10
112.5
 20
95.8
 30
0.0
  0
VERTEX
  5
599
100
AcDbEntity
  8
LAY-9
  6
CONTINUOUS
 62
     4
100
AcDbVertex
100
AcDb2dVertex
 10
112.841334
 20
95.623116
 30
0.0
  0
VERTEX
  5
59A
100
AcDbEntity
  8
LAY-9
  6
CONTINUOUS
 62
     4
100
AcDbVertex
100
AcDb2dVertex
 10
113.177624
 20
95.419969
 30
0.0
  0
VERTEX
  5
59B
100
AcDbEntity
  8
LAY-9
  6
CONTINUOUS
 62
     4
100
AcDbVertex
100
AcDb2dVertex
 10
113.512037
 20
95.203226
 30
0.0
  0
VERTEX
  5
59C
100
AcDbEntity
  8
LAY-9
  6
CONTINUOUS
 62
     4
100
AcDbVertex
100
AcDb2dVertex
 10
113.847741
 20
94.985557
 30
0.0
  0
SEQEND
  5
59D
100
AcDbEntity
  8
LAY-9
  6
CONTINUOUS
 62
     4
  0
POLYLINE
  5
59E
100
AcDbEntity
  8
LAY-9
  6
CONTINUOUS
 62
     4
100
AcDb2dPolyline
 66
     1
 10
0.0
 20
0.0
 30
0.0
 70
   128
  0
VERTEX
  5
59F
100
AcDbEntity
  8
LAY-9
  6
CONTINUOUS
 62
     4
100
AcDbVertex
100
AcDb2dVertex
 10
113.847741
 20
94.985557
 30
0.0
  0
VERTEX
  5
5A0
100
AcDbEntity
  8
LAY-9
  6
CONTINUOUS
 62
     4
100
AcDbVertex
100
AcDb2dVertex
 10
114.187906
 20
94.779627
 30
0.0
  0
VERTEX
  5
5A1
100
AcDbEntity
  8
LAY-9
  6
CONTINUOUS
 62
     4
100
AcDbVertex
100
AcDb2dVertex
 10
114.535701
 20
94.598106
 30
0.0
  0
VERTEX
  5
5A2
100
AcDbEntity
  8
LAY-9
  6
CONTINUOUS
 62
     4
100
AcDbVertex
100
AcDb2dVertex
 10
114.894292
 20
94.453662
 30
0.0
  0
VERTEX
  5
5A3
100
AcDbEntity
  8
LAY-9
  6
CONTINUOUS
 62
     4
100
AcDbVertex
100
AcDb2dVertex
 10
115.266849
 20
94.358961
 30
0.0
  0
VERTEX
  5
5A4
100
AcDbEntity
  8
LAY-9
  6
CONTINUOUS
 62
     4
100
AcDbVertex
100
AcDb2dVertex
 10
115.656541
 20
94.326672
 30
0.0
  0
VERTEX
  5
5A5
100
AcDbEntity
  8
LAY-9
  6
CONTINUOUS
 62
     4
100
AcDbVertex
100
AcDb2dVertex
 10
116.066535
 20
94.369462
 30
0.0
  0
VERTEX
  5
5A6
100
AcDbEntity
  8
LAY-9
  6
CONTINUOUS
 62
     4
100
AcDbVertex
100
AcDb2dVertex
 10
116.5
 20
94.5
 30
0.0
  0
VERTEX
  5
5A7
100
AcDbEntity
  8
LAY-9
  6
CONTINUOUS
 62
     4
100
AcDbVertex
100
AcDb2dVertex
 10
116.717147
 20
94.596693
 30
0.0
  0
VERTEX
  5
5A8
100
AcDbEntity
  8
LAY-9
  6
CONTINUOUS
 62
     4
100
AcDbVertex
100
AcDb2dVertex
 10
116.935795
 20
94.711007
 30
0.0
  0
VERTEX
  5
5A9
100
AcDbEntity
  8
LAY-9
  6
CONTINUOUS
 62
     4
100
AcDbVertex
100
AcDb2dVertex
 10
117.15127
 20
94.837287
 30
0.0
  0
VERTEX
  5
5AA
100
AcDbEntity
  8
LAY-9
  6
CONTINUOUS
 62
     4
100
AcDbVertex
100
AcDb2dVertex
 10
117.358898
 20
94.969882
 30
0.0
  0
VERTEX
  5
5AB
100
AcDbEntity
  8
LAY-9
  6
CONTINUOUS
 62
     4
100
AcDbVertex
100
AcDb2dVertex
 10
117.554005
 20
95.103139
 30
0.0
  0
VERTEX
  5
5AC
100
AcDbEntity
  8
LAY-9
  6
CONTINUOUS
 62
     4
100
AcDbVertex
100
AcDb2dVertex
 10
117.731919
 20
95.231403
 30
0.0
  0
VERTEX
  5
5AD
100
AcDbEntity
  8
LAY-9
  6
CONTINUOUS
 62
     4
100
AcDbVertex
100
AcDb2dVertex
 10
117.887965
 20
95.349024
 30
0.0
  0
VERTEX
  5
5AE
100
AcDbEntity
  8
LAY-9
  6
CONTINUOUS
 62
     4
100
AcDbVertex
100
AcDb2dVertex
 10
118.01747
 20
95.450346
 30
0.0
  0
VERTEX
  5
5AF
100
AcDbEntity
  8
LAY-9
  6
CONTINUOUS
 62
     4
100
AcDbVertex
100
AcDb2dVertex
 10
118.11576
 20
95.529719
 30
0.0
  0
VERTEX
  5
5B0
100
AcDbEntity
  8
LAY-9
  6
CONTINUOUS
 62
     4
100
AcDbVertex
100
AcDb2dVertex
 10
118.178161
 20
95.581488
 30
0.0
  0
VERTEX
  5
5B1
100
AcDbEntity
  8
LAY-9
  6
CONTINUOUS
 62
     4
100
AcDbVertex
100
AcDb2dVertex
 10
121.2
 20
98.143042
 30
0.0
  0
SEQEND
  5
5B2
100
AcDbEntity
  8
LAY-9
  6
CONTINUOUS
 62
     4
  0
LINE
  5
5B3
100
AcDbEntity
  8
LAY-9
  6
CONTINUOUS
 62
     4
100
AcDbLine
 10
657.6
 20
247.4
 30
0.0
 11
657.6
 21
233.9
 31
0.0
  0
LINE
  5
5B4
100
AcDbEntity
  8
LAY-9
  6
DASHED2
 62
     4
100
AcDbLine
 10
106.2
 20
247.4
 30
0.0
 11
490.642188
 21
247.4
 31
0.0
  0
POLYLINE
  5
5B5
100
AcDbEntity
  8
LAY-9
  6
CONTINUOUS
 62
     4
100
AcDb2dPolyline
 66
     1
 10
0.0
 20
0.0
 30
0.0
 70
   128
  0
VERTEX
  5
5B6
100
AcDbEntity
  8
LAY-9
  6
CONTINUOUS
 62
     4
100
AcDbVertex
100
AcDb2dVertex
 10
492.986046
 20
272.4
 30
0.0
  0
VERTEX
  5
5B7
100
AcDbEntity
  8
LAY-9
  6
CONTINUOUS
 62
     4
100
AcDbVertex
100
AcDb2dVertex
 10
490.939115
 20
269.308031
 30
0.0
  0
VERTEX
  5
5B8
100
AcDbEntity
  8
LAY-9
  6
CONTINUOUS
 62
     4
100
AcDbVertex
100
AcDb2dVertex
 10
490.769574
 20
269.0461
 30
0.0
  0
VERTEX
  5
5B9
100
AcDbEntity
  8
LAY-9
  6
CONTINUOUS
 62
     4
100
AcDbVertex
100
AcDb2dVertex
 10
490.511048
 20
268.635175
 30
0.0
  0
VERTEX
  5
5BA
100
AcDbEntity
  8
LAY-9
  6
CONTINUOUS
 62
     4
100
AcDbVertex
100
AcDb2dVertex
 10
490.18321
 20
268.096223
 30
0.0
  0
VERTEX
  5
5BB
100
AcDbEntity
  8
LAY-9
  6
CONTINUOUS
 62
     4
100
AcDbVertex
100
AcDb2dVertex
 10
489.80573
 20
267.45021
 30
0.0
  0
VERTEX
  5
5BC
100
AcDbEntity
  8
LAY-9
  6
CONTINUOUS
 62
     4
100
AcDbVertex
100
AcDb2dVertex
 10
489.398281
 20
266.718103
 30
0.0
  0
VERTEX
  5
5BD
100
AcDbEntity
  8
LAY-9
  6
CONTINUOUS
 62
     4
100
AcDbVertex
100
AcDb2dVertex
 10
488.980534
 20
265.920869
 30
0.0
  0
VERTEX
  5
5BE
100
AcDbEntity
  8
LAY-9
  6
CONTINUOUS
 62
     4
100
AcDbVertex
100
AcDb2dVertex
 10
488.572161
 20
265.079475
 30
0.0
  0
VERTEX
  5
5BF
100
AcDbEntity
  8
LAY-9
  6
CONTINUOUS
 62
     4
100
AcDbVertex
100
AcDb2dVertex
 10
488.192833
 20
264.214888
 30
0.0
  0
VERTEX
  5
5C0
100
AcDbEntity
  8
LAY-9
  6
CONTINUOUS
 62
     4
100
AcDbVertex
100
AcDb2dVertex
 10
487.862222
 20
263.348074
 30
0.0
  0
VERTEX
  5
5C1
100
AcDbEntity
  8
LAY-9
  6
CONTINUOUS
 62
     4
100
AcDbVertex
100
AcDb2dVertex
 10
487.6
 20
262.5
 30
0.0
  0
VERTEX
  5
5C2
100
AcDbEntity
  8
LAY-9
  6
CONTINUOUS
 62
     4
100
AcDbVertex
100
AcDb2dVertex
 10
487.396717
 20
261.538517
 30
0.0
  0
VERTEX
  5
5C3
100
AcDbEntity
  8
LAY-9
  6
CONTINUOUS
 62
     4
100
AcDbVertex
100
AcDb2dVertex
 10
487.304139
 20
260.626255
 30
0.0
  0
VERTEX
  5
5C4
100
AcDbEntity
  8
LAY-9
  6
CONTINUOUS
 62
     4
100
AcDbVertex
100
AcDb2dVertex
 10
487.308615
 20
259.756361
 30
0.0
  0
VERTEX
  5
5C5
100
AcDbEntity
  8
LAY-9
  6
CONTINUOUS
 62
     4
100
AcDbVertex
100
AcDb2dVertex
 10
487.396491
 20
258.92198
 30
0.0
  0
VERTEX
  5
5C6
100
AcDbEntity
  8
LAY-9
  6
CONTINUOUS
 62
     4
100
AcDbVertex
100
AcDb2dVertex
 10
487.554115
 20
258.116259
 30
0.0
  0
VERTEX
  5
5C7
100
AcDbEntity
  8
LAY-9
  6
CONTINUOUS
 62
     4
100
AcDbVertex
100
AcDb2dVertex
 10
487.767833
 20
257.332345
 30
0.0
  0
VERTEX
  5
5C8
100
AcDbEntity
  8
LAY-9
  6
CONTINUOUS
 62
     4
100
AcDbVertex
100
AcDb2dVertex
 10
488.023994
 20
256.563384
 30
0.0
  0
VERTEX
  5
5C9
100
AcDbEntity
  8
LAY-9
  6
CONTINUOUS
 62
     4
100
AcDbVertex
100
AcDb2dVertex
 10
488.308943
 20
255.802522
 30
0.0
  0
VERTEX
  5
5CA
100
AcDbEntity
  8
LAY-9
  6
CONTINUOUS
 62
     4
100
AcDbVertex
100
AcDb2dVertex
 10
488.609029
 20
255.042907
 30
0.0
  0
VERTEX
  5
5CB
100
AcDbEntity
  8
LAY-9
  6
CONTINUOUS
 62
     4
100
AcDbVertex
100
AcDb2dVertex
 10
488.910599
 20
254.277684
 30
0.0
  0
VERTEX
  5
5CC
100
AcDbEntity
  8
LAY-9
  6
CONTINUOUS
 62
     4
100
AcDbVertex
100
AcDb2dVertex
 10
489.2
 20
253.5
 30
0.0
  0
VERTEX
  5
5CD
100
AcDbEntity
  8
LAY-9
  6
CONTINUOUS
 62
     4
100
AcDbVertex
100
AcDb2dVertex
 10
489.469816
 20
252.692889
 30
0.0
  0
VERTEX
  5
5CE
100
AcDbEntity
  8
LAY-9
  6
CONTINUOUS
 62
     4
100
AcDbVertex
100
AcDb2dVertex
 10
489.714379
 20
251.869852
 30
0.0
  0
VERTEX
  5
5CF
100
AcDbEntity
  8
LAY-9
  6
CONTINUOUS
 62
     4
100
AcDbVertex
100
AcDb2dVertex
 10
489.935028
 20
251.034854
 30
0.0
  0
VERTEX
  5
5D0
100
AcDbEntity
  8
LAY-9
  6
CONTINUOUS
 62
     4
100
AcDbVertex
100
AcDb2dVertex
 10
490.133103
 20
250.19186
 30
0.0
  0
VERTEX
  5
5D1
100
AcDbEntity
  8
LAY-9
  6
CONTINUOUS
 62
     4
100
AcDbVertex
100
AcDb2dVertex
 10
490.309942
 20
249.344833
 30
0.0
  0
VERTEX
  5
5D2
100
AcDbEntity
  8
LAY-9
  6
CONTINUOUS
 62
     4
100
AcDbVertex
100
AcDb2dVertex
 10
490.466884
 20
248.497738
 30
0.0
  0
VERTEX
  5
5D3
100
AcDbEntity
  8
LAY-9
  6
CONTINUOUS
 62
     4
100
AcDbVertex
100
AcDb2dVertex
 10
490.605267
 20
247.654539
 30
0.0
  0
VERTEX
  5
5D4
100
AcDbEntity
  8
LAY-9
  6
CONTINUOUS
 62
     4
100
AcDbVertex
100
AcDb2dVertex
 10
490.726432
 20
246.819202
 30
0.0
  0
VERTEX
  5
5D5
100
AcDbEntity
  8
LAY-9
  6
CONTINUOUS
 62
     4
100
AcDbVertex
100
AcDb2dVertex
 10
490.831717
 20
245.99569
 30
0.0
  0
VERTEX
  5
5D6
100
AcDbEntity
  8
LAY-9
  6
CONTINUOUS
 62
     4
100
AcDbVertex
100
AcDb2dVertex
 10
490.92246
 20
245.187968
 30
0.0
  0
VERTEX
  5
5D7
100
AcDbEntity
  8
LAY-9
  6
CONTINUOUS
 62
     4
100
AcDbVertex
100
AcDb2dVertex
 10
491.0
 20
244.4
 30
0.0
  0
VERTEX
  5
5D8
100
AcDbEntity
  8
LAY-9
  6
CONTINUOUS
 62
     4
100
AcDbVertex
100
AcDb2dVertex
 10
491.039561
 20
243.950852
 30
0.0
  0
VERTEX
  5
5D9
100
AcDbEntity
  8
LAY-9
  6
CONTINUOUS
 62
     4
100
AcDbVertex
100
AcDb2dVertex
 10
491.075033
 20
243.505652
 30
0.0
  0
VERTEX
  5
5DA
100
AcDbEntity
  8
LAY-9
  6
CONTINUOUS
 62
     4
100
AcDbVertex
100
AcDb2dVertex
 10
491.106355
 20
243.060301
 30
0.0
  0
VERTEX
  5
5DB
100
AcDbEntity
  8
LAY-9
  6
CONTINUOUS
 62
     4
100
AcDbVertex
100
AcDb2dVertex
 10
491.133463
 20
242.610698
 30
0.0
  0
VERTEX
  5
5DC
100
AcDbEntity
  8
LAY-9
  6
CONTINUOUS
 62
     4
100
AcDbVertex
100
AcDb2dVertex
 10
491.156296
 20
242.152742
 30
0.0
  0
VERTEX
  5
5DD
100
AcDbEntity
  8
LAY-9
  6
CONTINUOUS
 62
     4
100
AcDbVertex
100
AcDb2dVertex
 10
491.17479
 20
241.682334
 30
0.0
  0
VERTEX
  5
5DE
100
AcDbEntity
  8
LAY-9
  6
CONTINUOUS
 62
     4
100
AcDbVertex
100
AcDb2dVertex
 10
491.188884
 20
241.195373
 30
0.0
  0
VERTEX
  5
5DF
100
AcDbEntity
  8
LAY-9
  6
CONTINUOUS
 62
     4
100
AcDbVertex
100
AcDb2dVertex
 10
491.198514
 20
240.68776
 30
0.0
  0
VERTEX
  5
5E0
100
AcDbEntity
  8
LAY-9
  6
CONTINUOUS
 62
     4
100
AcDbVertex
100
AcDb2dVertex
 10
491.203618
 20
240.155393
 30
0.0
  0
VERTEX
  5
5E1
100
AcDbEntity
  8
LAY-9
  6
CONTINUOUS
 62
     4
100
AcDbVertex
100
AcDb2dVertex
 10
491.204135
 20
239.594173
 30
0.0
  0
VERTEX
  5
5E2
100
AcDbEntity
  8
LAY-9
  6
CONTINUOUS
 62
     4
100
AcDbVertex
100
AcDb2dVertex
 10
491.2
 20
239.0
 30
0.0
  0
VERTEX
  5
5E3
100
AcDbEntity
  8
LAY-9
  6
CONTINUOUS
 62
     4
100
AcDbVertex
100
AcDb2dVertex
 10
491.188797
 20
238.228222
 30
0.0
  0
VERTEX
  5
5E4
100
AcDbEntity
  8
LAY-9
  6
CONTINUOUS
 62
     4
100
AcDbVertex
100
AcDb2dVertex
 10
491.171967
 20
237.423538
 30
0.0
  0
VERTEX
  5
5E5
100
AcDbEntity
  8
LAY-9
  6
CONTINUOUS
 62
     4
100
AcDbVertex
100
AcDb2dVertex
 10
491.15092
 20
236.608368
 30
0.0
  0
VERTEX
  5
5E6
100
AcDbEntity
  8
LAY-9
  6
CONTINUOUS
 62
     4
100
AcDbVertex
100
AcDb2dVertex
 10
491.127067
 20
235.805133
 30
0.0
  0
VERTEX
  5
5E7
100
AcDbEntity
  8
LAY-9
  6
CONTINUOUS
 62
     4
100
AcDbVertex
100
AcDb2dVertex
 10
491.101818
 20
235.036254
 30
0.0
  0
VERTEX
  5
5E8
100
AcDbEntity
  8
LAY-9
  6
CONTINUOUS
 62
     4
100
AcDbVertex
100
AcDb2dVertex
 10
491.076584
 20
234.324151
 30
0.0
  0
VERTEX
  5
5E9
100
AcDbEntity
  8
LAY-9
  6
CONTINUOUS
 62
     4
100
AcDbVertex
100
AcDb2dVertex
 10
491.052775
 20
233.691245
 30
0.0
  0
VERTEX
  5
5EA
100
AcDbEntity
  8
LAY-9
  6
CONTINUOUS
 62
     4
100
AcDbVertex
100
AcDb2dVertex
 10
491.031802
 20
233.159956
 30
0.0
  0
VERTEX
  5
5EB
100
AcDbEntity
  8
LAY-9
  6
CONTINUOUS
 62
     4
100
AcDbVertex
100
AcDb2dVertex
 10
491.015074
 20
232.752705
 30
0.0
  0
VERTEX
  5
5EC
100
AcDbEntity
  8
LAY-9
  6
CONTINUOUS
 62
     4
100
AcDbVertex
100
AcDb2dVertex
 10
491.004004
 20
232.491913
 30
0.0
  0
VERTEX
  5
5ED
100
AcDbEntity
  8
LAY-9
  6
CONTINUOUS
 62
     4
100
AcDbVertex
100
AcDb2dVertex
 10
491.0
 20
232.4
 30
0.0
  0
SEQEND
  5
5EE
100
AcDbEntity
  8
LAY-9
  6
CONTINUOUS
 62
     4
  0
ARC
  5
5EF
100
AcDbEntity
  8
LAY-9
  6
CONTINUOUS
 62
     4
100
AcDbCircle
 10
656.1
 20
233.9
 30
0.0
 40
1.5
100
AcDbArc
 50
270.0
 51
0.0
  0
LINE
  5
5F0
100
AcDbEntity
  8
LAY-9
  6
DIVIDE
 62
     4
100
AcDbLine
 10
491.0
 20
473.7
 30
0.0
 11
491.0
 21
416.9
 31
0.0
  0
LINE
  5
5F1
100
AcDbEntity
  8
LAY-9
  6
DIVIDE
 62
     4
100
AcDbLine
 10
648.7
 20
89.0
 30
0.0
 11
706.6
 21
89.0
 31
0.0
  0
LINE
  5
5F2
100
AcDbEntity
  8
LAY-9
  6
DASHED2
 62
     4
100
AcDbLine
 10
152.7
 20
237.2
 30
0.0
 11
242.7
 21
237.2
 31
0.0
  0
LINE
  5
5F3
100
AcDbEntity
  8
LAY-9
  6
DASHED2
 62
     4
100
AcDbLine
 10
152.7
 20
237.2
 30
0.0
 11
152.7
 21
232.4
 31
0.0
  0
LINE
  5
5F4
100
AcDbEntity
  8
LAY-9
  6
DASHED2
 62
     4
100
AcDbLine
 10
242.7
 20
237.2
 30
0.0
 11
242.7
 21
232.4
 31
0.0
  0
LINE
  5
5F5
100
AcDbEntity
  8
LAY-9
  6
CONTINUOUS
 62
     4
100
AcDbLine
 10
699.6
 20
160.2
 30
0.0
 11
699.6
 21
242.9
 31
0.0
  0
LINE
  5
5F6
100
AcDbEntity
  8
LAY-9
  6
CONTINUOUS
 62
     4
100
AcDbLine
 10
699.6
 20
134.3
 30
0.0
 11
699.6
 21
152.7
 31
0.0
  0
LINE
  5
5F7
100
AcDbEntity
  8
LAY-9
  6
CONTINUOUS
 62
     4
100
AcDbLine
 10
699.6
 20
89.0
 30
0.0
 11
699.6
 21
125.8
 31
0.0
  0
LINE
  5
5F8
100
AcDbEntity
  8
LAY-10
  6
CONTINUOUS
 62
     5
100
AcDbLine
 10
15.0
 20
15.0
 30
0.0
 11
826.0
 21
15.0
 31
0.0
  0
LINE
  5
5F9
100
AcDbEntity
  8
LAY-10
  6
CONTINUOUS
 62
     5
100
AcDbLine
 10
826.0
 20
15.0
 30
0.0
 11
826.0
 21
579.0
 31
0.0
  0
LINE
  5
5FA
100
AcDbEntity
  8
LAY-10
  6
CONTINUOUS
 62
     5
100
AcDbLine
 10
15.0
 20
15.0
 30
0.0
 11
15.0
 21
579.0
 31
0.0
  0
LINE
  5
5FB
100
AcDbEntity
  8
LAY-10
  6
CONTINUOUS
 62
     5
100
AcDbLine
 10
15.0
 20
579.0
 30
0.0
 11
826.0
 21
579.0
 31
0.0
  0
LINE
  5
5FC
100
AcDbEntity
  8
LAY-10
  6
CONTINUOUS
 62
     5
100
AcDbLine
 10
15.0
 20
40.0
 30
0.0
 11
826.0
 21
40.0
 31
0.0
  0
LINE
  5
5FD
100
AcDbEntity
  8
LAY-10
  6
CONTINUOUS
 62
     1
100
AcDbLine
 10
224.0
 20
40.0
 30
0.0
 11
224.0
 21
15.0
 31
0.0
  0
LINE
  5
5FE
100
AcDbEntity
  8
LAY-10
  6
CONTINUOUS
 62
     1
100
AcDbLine
 10
249.5
 20
40.0
 30
0.0
 11
249.5
 21
15.0
 31
0.0
  0
LINE
  5
5FF
100
AcDbEntity
  8
LAY-10
  6
CONTINUOUS
 62
     1
100
AcDbLine
 10
275.0
 20
40.0
 30
0.0
 11
275.0
 21
15.0
 31
0.0
  0
LINE
  5
600
100
AcDbEntity
  8
LAY-10
  6
CONTINUOUS
 62
     1
100
AcDbLine
 10
300.5
 20
40.0
 30
0.0
 11
300.5
 21
15.0
 31
0.0
  0
LINE
  5
601
100
AcDbEntity
  8
LAY-10
  6
CONTINUOUS
 62
     1
100
AcDbLine
 10
326.0
 20
40.0
 30
0.0
 11
326.0
 21
15.0
 31
0.0
  0
LINE
  5
602
100
AcDbEntity
  8
LAY-10
  6
CONTINUOUS
 62
     1
100
AcDbLine
 10
377.0
 20
40.0
 30
0.0
 11
377.0
 21
15.0
 31
0.0
  0
LINE
  5
603
100
AcDbEntity
  8
LAY-10
  6
CONTINUOUS
 62
     1
100
AcDbLine
 10
738.0
 20
40.0
 30
0.0
 11
738.0
 21
15.0
 31
0.0
  0
LINE
  5
604
100
AcDbEntity
  8
LAY-10
  6
CONTINUOUS
 62
     1
100
AcDbLine
 10
224.0
 20
32.0
 30
0.0
 11
377.0
 21
32.0
 31
0.0
  0
TEXT
  5
605
100
AcDbEntity
  8
LAY-10
  6
CONTINUOUS
 62
     4
100
AcDbText
 10
227.5
 20
33.0
 30
0.0
 40
6.0
  1
検　  図
 41
0.57856
  7
EXCADSTD
 72
     5
 11
246.700001
 21
33.0
 31
0.0
100
AcDbText
  0
TEXT
  5
606
100
AcDbEntity
  8
LAY-10
  6
CONTINUOUS
 62
     4
100
AcDbText
 10
253.2
 20
33.0
 30
0.0
 40
6.0
  1
担　　当
 41
0.672
  7
EXCADSTD
 72
     5
 11
272.400001
 21
33.0
 31
0.0
100
AcDbText
  0
TEXT
  5
607
100
AcDbEntity
  8
LAY-10
  6
CONTINUOUS
 62
     4
100
AcDbText
 10
278.4
 20
33.0
 30
0.0
 40
6.0
  1
製　　図
 41
0.672
  7
EXCADSTD
 72
     5
 11
297.600001
 21
33.0
 31
0.0
100
AcDbText
  0
TEXT
  5
608
100
AcDbEntity
  8
LAY-10
  6
CONTINUOUS
 62
     4
100
AcDbText
 10
303.9
 20
33.0
 30
0.0
 40
6.0
  1
尺　　度
 41
0.672
  7
EXCADSTD
 72
     5
 11
323.100001
 21
33.0
 31
0.0
100
AcDbText
  0
TEXT
  5
609
100
AcDbEntity
  8
LAY-10
  6
CONTINUOUS
 62
     4
100
AcDbText
 10
339.5
 20
33.0
 30
0.0
 40
6.0
  1
作成年月日
 41
0.672
  7
EXCADSTD
 72
     5
 11
363.500001
 21
33.0
 31
0.0
100
AcDbText
  0
TEXT
  5
60A
100
AcDbEntity
  8
LAY-10
  6
CONTINUOUS
 62
   134
100
AcDbText
 10
42.98
 20
20.91
 30
0.0
 40
13.0
  1
日本ドアーチエック製造株式会社
 41
0.653908
  7
EXCADSTD
 72
     5
 11
194.779994
 21
20.91
 31
0.0
100
AcDbText
  0
LINE
  5
60B
100
AcDbEntity
  8
LAY-10
  6
CONTINUOUS
 62
     1
100
AcDbLine
 10
841.0
 20
0.0
 30
0.0
 11
841.0
 21
2.0
 31
0.0
  0
LINE
  5
60C
100
AcDbEntity
  8
LAY-10
  6
CONTINUOUS
 62
     1
100
AcDbLine
 10
841.0
 20
592.0
 30
0.0
 11
841.0
 21
594.0
 31
0.0
  0
LINE
  5
60D
100
AcDbEntity
  8
LAY-10
  6
CONTINUOUS
 62
     1
100
AcDbLine
 10
841.0
 20
594.0
 30
0.0
 11
839.0
 21
594.0
 31
0.0
  0
LINE
  5
60E
100
AcDbEntity
  8
LAY-10
  6
CONTINUOUS
 62
     1
100
AcDbLine
 10
2.0
 20
594.0
 30
0.0
 11
0.0
 21
594.0
 31
0.0
  0
LINE
  5
60F
100
AcDbEntity
  8
LAY-10
  6
CONTINUOUS
 62
     1
100
AcDbLine
 10
0.0
 20
594.0
 30
0.0
 11
0.0
 21
592.0
 31
0.0
  0
LINE
  5
610
100
AcDbEntity
  8
LAY-10
  6
CONTINUOUS
 62
     1
100
AcDbLine
 10
0.0
 20
2.0
 30
0.0
 11
0.0
 21
0.0
 31
0.0
  0
LINE
  5
611
100
AcDbEntity
  8
LAY-10
  6
CONTINUOUS
 62
     1
100
AcDbLine
 10
0.0
 20
0.0
 30
0.0
 11
2.0
 21
0.0
 31
0.0
  0
LINE
  5
612
100
AcDbEntity
  8
LAY-10
  6
CONTINUOUS
 62
     1
100
AcDbLine
 10
839.0
 20
0.0
 30
0.0
 11
841.0
 21
0.0
 31
0.0
  0
TEXT
  5
613
100
AcDbEntity
  8
LAY-10
  6
CONTINUOUS
 62
     4
100
AcDbText
 10
383.0
 20
33.0
 30
0.0
 40
6.0
  1
図 面 名
 41
0.57856
  7
EXCADSTD
 72
     5
 11
402.200001
 21
33.0
 31
0.0
100
AcDbText
  0
TEXT
  5
614
100
AcDbEntity
  8
LAY-10
  6
CONTINUOUS
 62
     4
100
AcDbText
 10
744.0
 20
33.0
 30
0.0
 40
6.0
  1
図面番号
 41
0.672
  7
EXCADSTD
 72
     5
 11
763.200001
 21
33.0
 31
0.0
100
AcDbText
  0
TEXT
  5
615
100
AcDbEntity
  8
LAY-10
  6
CONTINUOUS
 62
     2
100
AcDbText
 10
306.5
 20
20.2
 30
0.0
 40
6.0
  1
１／１
 41
0.672
  7
EXCADSTD
 72
     5
 11
320.900001
 21
20.2
 31
0.0
100
AcDbText
  0
TEXT
  5
616
100
AcDbEntity
  8
LAY-10
  6
CONTINUOUS
 62
     2
100
AcDbText
 10
332.6
 20
20.2
 30
0.0
 40
6.0
  1
Ｈ１４.　６.　１
 41
0.622617
  7
EXCADSTD
 72
     5
 11
371.000002
 21
20.2
 31
0.0
100
AcDbText
  0
TEXT
  5
617
100
AcDbEntity
  8
LAY-10
  6
CONTINUOUS
 62
     2
100
AcDbText
 10
406.828367
 20
19.274519
 30
0.0
 40
10.0
  1
ドアクローザ　ＰＳ－２００１/ＰＳ－２００２　納まり図
 41
0.664209
  7
EXCADSTD
 72
     5
 11
618.828367
 21
19.274519
 31
0.0
100
AcDbText
  0
ENDSEC
  0
SECTION
  2
OBJECTS
  0
DICTIONARY
  5
19
100
AcDbDictionary
  3
ACAD_GROUP
350
1A
  3
ACAD_MLINESTYLE
350
1B
  0
DICTIONARY
  5
1A
102
{ACAD_REACTORS
330
19
102
}
100
AcDbDictionary
  0
DICTIONARY
  5
1B
102
{ACAD_REACTORS
330
19
102
}
100
AcDbDictionary
  3
STANDARD
350
1C
  0
MLINESTYLE
  5
1C
102
{ACAD_REACTORS
330
1B
102
}
100
AcDbMlineStyle
  2
Standard
 70
     0
  3

 62
     0
 51
90.0
 52
90.0
 71
     2
 49
0.5
 62
   256
  6
ByLayer
 49
-0.5
 62
   256
  6
ByLayer
  0
ENDSEC
  0
EOF
