  0
SECTION
  2
HEADER
  9
$ACADVER
  1
AC1014
  9
$ACADMAINTVER
 70
     0
  9
$DWGCODEPAGE
  3
ANSI_932
  9
$INSBASE
 10
0.0
 20
0.0
 30
0.0
  9
$EXTMIN
 10
0.0
 20
0.0
 30
0.0
  9
$EXTMAX
 10
841.0
 20
594.0
 30
0.0
  9
$LIMMIN
 10
0.0
 20
0.0
  9
$LIMMAX
 10
841.0
 20
594.0
  9
$ORTHOMODE
 70
     0
  9
$REGENMODE
 70
     1
  9
$FILLMODE
 70
     1
  9
$QTEXTMODE
 70
     0
  9
$MIRRTEXT
 70
     1
  9
$DRAGMODE
 70
     2
  9
$LTSCALE
 40
1.0
  9
$OSMODE
 70
     0
  9
$ATTMODE
 70
     1
  9
$TEXTSIZE
 40
0.2
  9
$TRACEWID
 40
0.05
  9
$TEXTSTYLE
  7
STANDARD
  9
$CLAYER
  8
LAY-6
  9
$CELTYPE
  6
CONTINUOUS
  9
$CECOLOR
 62
   256
  9
$CELTSCALE
 40
1.0
  9
$DELOBJ
 70
     1
  9
$DISPSILH
 70
     0
  9
$DIMSCALE
 40
1.0
  9
$DIMASZ
 40
0.18
  9
$DIMEXO
 40
0.0625
  9
$DIMDLI
 40
0.38
  9
$DIMRND
 40
0.0
  9
$DIMDLE
 40
0.0
  9
$DIMEXE
 40
0.18
  9
$DIMTP
 40
0.0
  9
$DIMTM
 40
0.0
  9
$DIMTXT
 40
0.18
  9
$DIMCEN
 40
0.09
  9
$DIMTSZ
 40
0.0
  9
$DIMTOL
 70
     0
  9
$DIMLIM
 70
     0
  9
$DIMTIH
 70
     1
  9
$DIMTOH
 70
     1
  9
$DIMSE1
 70
     0
  9
$DIMSE2
 70
     0
  9
$DIMTAD
 70
     0
  9
$DIMZIN
 70
     0
  9
$DIMBLK
  1

  9
$DIMASO
 70
     1
  9
$DIMSHO
 70
     1
  9
$DIMPOST
  1

  9
$DIMAPOST
  1

  9
$DIMALT
 70
     0
  9
$DIMALTD
 70
     2
  9
$DIMALTF
 40
25.4
  9
$DIMLFAC
 40
1.0
  9
$DIMTOFL
 70
     0
  9
$DIMTVP
 40
0.0
  9
$DIMTIX
 70
     0
  9
$DIMSOXD
 70
     0
  9
$DIMSAH
 70
     0
  9
$DIMBLK1
  1

  9
$DIMBLK2
  1

  9
$DIMSTYLE
  2
STANDARD
  9
$DIMCLRD
 70
     0
  9
$DIMCLRE
 70
     0
  9
$DIMCLRT
 70
     0
  9
$DIMTFAC
 40
1.0
  9
$DIMGAP
 40
0.09
  9
$DIMJUST
 70
     0
  9
$DIMSD1
 70
     0
  9
$DIMSD2
 70
     0
  9
$DIMTOLJ
 70
     1
  9
$DIMTZIN
 70
     0
  9
$DIMALTZ
 70
     0
  9
$DIMALTTZ
 70
     0
  9
$DIMFIT
 70
     3
  9
$DIMUPT
 70
     0
  9
$DIMUNIT
 70
     2
  9
$DIMDEC
 70
     4
  9
$DIMTDEC
 70
     4
  9
$DIMALTU
 70
     2
  9
$DIMALTTD
 70
     2
  9
$DIMTXSTY
  7
STANDARD
  9
$DIMAUNIT
 70
     0
  9
$LUNITS
 70
     2
  9
$LUPREC
 70
     4
  9
$SKETCHINC
 40
0.1
  9
$FILLETRAD
 40
0.0
  9
$AUNITS
 70
     0
  9
$AUPREC
 70
     0
  9
$MENU
  1
acad
  9
$ELEVATION
 40
0.0
  9
$PELEVATION
 40
0.0
  9
$THICKNESS
 40
0.0
  9
$LIMCHECK
 70
     0
  9
$BLIPMODE
 70
     1
  9
$CHAMFERA
 40
0.0
  9
$CHAMFERB
 40
0.0
  9
$CHAMFERC
 40
0.0
  9
$CHAMFERD
 40
0.0
  9
$SKPOLY
 70
     0
  9
$TDCREATE
 40
2454541.712790475
  9
$TDUPDATE
 40
2454541.712790475
  9
$TDINDWG
 40
0.0000000000
  9
$TDUSRTIMER
 40
0.0000000000
  9
$USRTIMER
 70
     1
  9
$ANGBASE
 50
0.0
  9
$ANGDIR
 70
     0
  9
$PDMODE
 70
     0
  9
$PDSIZE
 40
0.0
  9
$PLINEWID
 40
0.0
  9
$COORDS
 70
     1
  9
$SPLFRAME
 70
     0
  9
$SPLINETYPE
 70
     6
  9
$SPLINESEGS
 70
     8
  9
$ATTDIA
 70
     0
  9
$ATTREQ
 70
     1
  9
$HANDLING
 70
     1
  9
$HANDSEED
  5
588
  9
$SURFTAB1
 70
     6
  9
$SURFTAB2
 70
     6
  9
$SURFTYPE
 70
     6
  9
$SURFU
 70
     6
  9
$SURFV
 70
     6
  9
$UCSNAME
  2

  9
$UCSORG
 10
0.0
 20
0.0
 30
0.0
  9
$UCSXDIR
 10
1.0
 20
0.0
 30
0.0
  9
$UCSYDIR
 10
0.0
 20
1.0
 30
0.0
  9
$PUCSNAME
  2

  9
$PUCSORG
 10
0.0
 20
0.0
 30
0.0
  9
$PUCSXDIR
 10
1.0
 20
0.0
 30
0.0
  9
$PUCSYDIR
 10
0.0
 20
1.0
 30
0.0
  9
$USERI1
 70
     0
  9
$USERI2
 70
     0
  9
$USERI3
 70
     0
  9
$USERI4
 70
     0
  9
$USERI5
 70
     0
  9
$USERR1
 40
0.0
  9
$USERR2
 40
0.0
  9
$USERR3
 40
0.0
  9
$USERR4
 40
0.0
  9
$USERR5
 40
0.0
  9
$WORLDVIEW
 70
     1
  9
$SHADEDGE
 70
     3
  9
$SHADEDIF
 70
    70
  9
$TILEMODE
 70
     1
  9
$MAXACTVP
 70
    16
  9
$PINSBASE
 10
0.0
 20
0.0
 30
0.0
  9
$PLIMCHECK
 70
     0
  9
$PEXTMIN
 10
1.000000E+20
 20
1.000000E+20
 30
1.000000E+20
  9
$PEXTMAX
 10
-1.000000E+20
 20
-1.000000E+20
 30
-1.000000E+20
  9
$PLIMMIN
 10
0.0
 20
0.0
  9
$PLIMMAX
 10
12.0
 20
9.0
  9
$UNITMODE
 70
     0
  9
$VISRETAIN
 70
     0
  9
$PLINEGEN
 70
     1
  9
$PSLTSCALE
 70
     0
  9
$TREEDEPTH
 70
  3020
  9
$PICKSTYLE
 70
     1
  9
$CMLSTYLE
  2
Standard
  9
$CMLJUST
 70
     0
  9
$CMLSCALE
 40
1.0
  9
$PROXYGRAPHICS
 70
     0
  9
$MEASUREMENT
 70
     0
  0
ENDSEC
  0
SECTION
  2
CLASSES
  0
CLASS
  1
LWPOLYLINE
  2
AcDbPolyline
  3
"AutoCAD"
 90
        0
280
     0
281
     1
  0
CLASS
  1
IMAGE
  2
AcDbRasterImage
  3
ISM
 90
      127
280
     0
281
     1
  0
CLASS
  1
OLE2FRAME
  2
AcDbOle2Frame
  3
""
 90
        0
280
     0
281
     1
  0
CLASS
  1
HATCH
  2
AcDbHatch
  3
"ACAD_SEDONA"
 90
        0
280
     0
281
     1
  0
CLASS
  1
DICTIONARYVAR
  2
AcDbDictionaryVar
  3
"AutoCAD"
 90
        0
280
     0
281
     0
  0
CLASS
  1
RASTERVARIABLES
  2
AcDbRasterVariables
  3
ISM
 90
        0
280
     0
281
     0
  0
CLASS
  1
IMAGEDEF
  2
AcDbRasterImageDef
  3
ISM
 90
        0
280
     0
281
     0
  0
CLASS
  1
IMAGEDEF_REACTOR
  2
AcDbRasterImageDefReactor
  3
ISM
 90
        1
280
     0
281
     0
  0
CLASS
  1
IDBUFFER
  2
AcDbIdBuffer
  3
"Acad"
 90
        0
280
     0
281
     0
  0
CLASS
  1
SPATIAL_FILTER
  2
AcDbSpatialFilter
  3
"Acad"
 90
        0
280
     0
281
     0
  0
CLASS
  1
XRECORD
  2
AcDbXrecord
  3
"<Built In>"
 90
        0
280
     0
281
     0
  0
CLASS
  1
SORTENTSTABLE
  2
AcDbSortentsTable
  3
"AutoCAD"
 90
        0
280
     0
281
     0
  0
CLASS
  1
LAYER_INDEX
  2
AcDbLayerIndex
  3
"Acad"
 90
        0
280
     0
281
     0
  0
CLASS
  1
SPATIAL_INDEX
  2
AcDbSpatialIndex
  3
"Acad"
 90
        0
280
     0
281
     0
  0
CLASS
  1
OBJECT_PTR
  2
CAseDLPNTableRecord
  3
"ASE-LPNTableRecord"
 90
        1
280
     0
281
     0
  0
CLASS
  1
LAYOUT
  2
AcDbLayout
  3
"AutoCAD 2000"
 90
        0
280
     0
281
     0
  0
CLASS
  1
PLOTSETTINGS
  2
AcDbPlotSettings
  3
"AutoCAD 2000"
 90
        0
280
     0
281
     0
  0
CLASS
  1
ACDBDICTIONARYWDFLT
  2
AcDbDictionaryWithDefault
  3
"AutoCAD 2000"
 90
        0
280
     0
281
     0
  0
CLASS
  1
ACDBPLACEHOLDER
  2
AcDbPlaceHolder
  3
"AutoCAD 2000"
 90
        0
280
     0
281
     0
  0
CLASS
  1
VBA_PROJECT
  2
AcDbVbaProject
  3
"acadvba"
 90
        0
280
     0
281
     0
  0
CLASS
  1
WIPEOUT
  2
AcDbWipeout
  3
WipeOut|AutoCAD Express Tool|expresstools@autodesk.com
 90
      127
280
     0
281
     1
  0
CLASS
  1
WIPEOUTVARIABLES
  2
AcDbWipeoutVariables
  3
WipeOut|AutoCAD Express Tool|expresstools@autodesk.com
 90
        0
280
     0
281
     0
  0
CLASS
  1
RTEXT
  2
RText
  3
RText|AutoCAD Express Tool|expresstools@autodesk.com
 90
        0
280
     0
281
     1
  0
CLASS
  1
ARCALIGNEDTEXT
  2
AcDbArcAlignedText
  3
ATEXT|AutoCAD Express Tool|expresstools@autodesk.com
 90
        0
280
     0
281
     1
  0
ENDSEC
  0
SECTION
  2
TABLES
  0
TABLE
  2
VPORT
  5
7
100
AcDbSymbolTable
 70
     1
  0
VPORT
  5
15
100
AcDbSymbolTableRecord
100
AcDbViewportTableRecord
  2
*ACTIVE
 70
     0
 10
0.0
 20
0.0
 11
1.0
 21
1.0
 12
420.5
 22
297.0
 13
0.0
 23
0.0
 14
1.0
 24
1.0
 15
0.0
 25
0.0
 16
0.0
 26
0.0
 36
1.0
 17
0.0
 27
0.0
 37
0.0
 40
594.0
 41
1.722533
 42
50.0
 43
0.0
 44
0.0
 50
0.0
 51
0.0
 71
     0
 72
   100
 73
     1
 74
     1
 75
     0
 76
     0
 77
     0
 78
     0
  0
ENDTAB
  0
TABLE
  2
LTYPE
  5
4
100
AcDbSymbolTable
 70
     9
  0
LTYPE
  5
11
100
AcDbSymbolTableRecord
100
AcDbLinetypeTableRecord
  2
BYBLOCK
 70
    64
  3

 72
    65
 73
     0
 40
0.0
  0
LTYPE
  5
12
100
AcDbSymbolTableRecord
100
AcDbLinetypeTableRecord
  2
BYLAYER
 70
    64
  3

 72
    65
 73
     0
 40
0.0
  0
LTYPE
  5
13
100
AcDbSymbolTableRecord
100
AcDbLinetypeTableRecord
  2
CONTINUOUS
 70
    64
  3
実線
 72
    65
 73
     0
 40
0.0
  0
LTYPE
  5
1D
100
AcDbSymbolTableRecord
100
AcDbLinetypeTableRecord
  2
DASHED
 70
    64
  3
Dashed __ __ __ __ __ __ __ __ __ __ __ __ __ _
 72
    65
 73
     2
 40
19.05
 49
12.7
 74
     0
 49
-6.35
 74
     0
  0
LTYPE
  5
1E
100
AcDbSymbolTableRecord
100
AcDbLinetypeTableRecord
  2
DASHED2
 70
    64
  3
Dashed (.5x) _ _ _ _ _ _ _ _ _ _ _ _ _ _ _ _ _ 
 72
    65
 73
     2
 40
9.525
 49
6.35
 74
     0
 49
-3.175
 74
     0
  0
LTYPE
  5
1F
100
AcDbSymbolTableRecord
100
AcDbLinetypeTableRecord
  2
DASHDOT
 70
    64
  3
Dash dot __ . __ . __ . __ . __ . __ . __ . __
 72
    65
 73
     4
 40
25.4
 49
12.7
 74
     0
 49
-6.35
 74
     0
 49
0.0
 74
     0
 49
-6.35
 74
     0
  0
LTYPE
  5
20
100
AcDbSymbolTableRecord
100
AcDbLinetypeTableRecord
  2
DIVIDE
 70
    64
  3
Divide ____ . . ____ . . ____ . . ____ . . ____
 72
    65
 73
     6
 40
31.75
 49
12.7
 74
     0
 49
-6.35
 74
     0
 49
0.0
 74
     0
 49
-6.35
 74
     0
 49
0.0
 74
     0
 49
-6.35
 74
     0
  0
LTYPE
  5
21
100
AcDbSymbolTableRecord
100
AcDbLinetypeTableRecord
  2
ACAD_ISO06W100
 70
    64
  3
ISO long-dash triple-dot ____ ... ____ ... ____
 72
    65
 73
     8
 40
36.0
 49
24.0
 74
     0
 49
-3.0
 74
     0
 49
0.0
 74
     0
 49
-3.0
 74
     0
 49
0.0
 74
     0
 49
-3.0
 74
     0
 49
0.0
 74
     0
 49
-3.0
 74
     0
  0
LTYPE
  5
22
100
AcDbSymbolTableRecord
100
AcDbLinetypeTableRecord
  2
ACAD_ISO15W100
 70
    64
  3
ISO double-dash triple-dot __ __ . . . __ __ . .
 72
    65
 73
    10
 40
39.0
 49
12.0
 74
     0
 49
-3.0
 74
     0
 49
12.0
 74
     0
 49
-3.0
 74
     0
 49
0.0
 74
     0
 49
-3.0
 74
     0
 49
0.0
 74
     0
 49
-3.0
 74
     0
 49
0.0
 74
     0
 49
-3.0
 74
     0
  0
ENDTAB
  0
TABLE
  2
LAYER
  5
2
100
AcDbSymbolTable
 70
    14
  0
LAYER
  5
14
100
AcDbSymbolTableRecord
100
AcDbLayerTableRecord
  2
0
 70
     0
 62
     7
  6
CONTINUOUS
  0
LAYER
  5
25
100
AcDbSymbolTableRecord
100
AcDbLayerTableRecord
  2
LAY-1
 70
    64
 62
     3
  6
CONTINUOUS
  0
LAYER
  5
26
100
AcDbSymbolTableRecord
100
AcDbLayerTableRecord
  2
LAY-2
 70
    64
 62
     3
  6
CONTINUOUS
  0
LAYER
  5
27
100
AcDbSymbolTableRecord
100
AcDbLayerTableRecord
  2
LAY-3
 70
    64
 62
     3
  6
CONTINUOUS
  0
LAYER
  5
28
100
AcDbSymbolTableRecord
100
AcDbLayerTableRecord
  2
LAY-4
 70
    64
 62
     3
  6
CONTINUOUS
  0
LAYER
  5
29
100
AcDbSymbolTableRecord
100
AcDbLayerTableRecord
  2
LAY-5
 70
    64
 62
     1
  6
DASHDOT
  0
LAYER
  5
2A
100
AcDbSymbolTableRecord
100
AcDbLayerTableRecord
  2
LAY-6
 70
    64
 62
     1
  6
CONTINUOUS
  0
LAYER
  5
2B
100
AcDbSymbolTableRecord
100
AcDbLayerTableRecord
  2
LAY-7
 70
    64
 62
     3
  6
CONTINUOUS
  0
LAYER
  5
2C
100
AcDbSymbolTableRecord
100
AcDbLayerTableRecord
  2
LAY-8
 70
    64
 62
     2
  6
CONTINUOUS
  0
LAYER
  5
2D
100
AcDbSymbolTableRecord
100
AcDbLayerTableRecord
  2
LAY-9
 70
    64
 62
     1
  6
CONTINUOUS
  0
LAYER
  5
2E
100
AcDbSymbolTableRecord
100
AcDbLayerTableRecord
  2
LAY-10
 70
    64
 62
     5
  6
CONTINUOUS
  0
LAYER
  5
2F
100
AcDbSymbolTableRecord
100
AcDbLayerTableRecord
  2
LAY-11
 70
    64
 62
     1
  6
CONTINUOUS
  0
LAYER
  5
30
100
AcDbSymbolTableRecord
100
AcDbLayerTableRecord
  2
LAY-12
 70
    64
 62
     3
  6
CONTINUOUS
  0
LAYER
  5
31
100
AcDbSymbolTableRecord
100
AcDbLayerTableRecord
  2
LAY-13
 70
    64
 62
     1
  6
CONTINUOUS
  0
ENDTAB
  0
TABLE
  2
STYLE
  5
3
100
AcDbSymbolTable
 70
     3
  0
STYLE
  5
17
100
AcDbSymbolTableRecord
100
AcDbTextStyleTableRecord
  2
STANDARD
 70
     0
 40
0.0
 41
1.0
 50
0.0
 71
     0
 42
0.0
  3
monotxt
  4
extfont
  0
STYLE
  5
23
100
AcDbSymbolTableRecord
100
AcDbTextStyleTableRecord
  2
EXCADSTD
 70
    64
 40
0.0
 41
1.0
 50
0.0
 71
     0
 42
0.2
  3
monotxt
  4
extfont
  0
STYLE
  5
24
100
AcDbSymbolTableRecord
100
AcDbTextStyleTableRecord
  2
EXCADVERT
 70
    68
 40
0.0
 41
1.0
 50
0.0
 71
     0
 42
0.286885
  3
monotxt
  4
extfont
  0
ENDTAB
  0
TABLE
  2
VIEW
  5
5
100
AcDbSymbolTable
 70
     0
  0
ENDTAB
  0
TABLE
  2
UCS
  5
6
100
AcDbSymbolTable
 70
     0
  0
ENDTAB
  0
TABLE
  2
APPID
  5
8
100
AcDbSymbolTable
 70
     1
  0
APPID
  5
16
100
AcDbSymbolTableRecord
100
AcDbRegAppTableRecord
  2
ACAD
 70
     0
  0
ENDTAB
  0
TABLE
  2
DIMSTYLE
  5
9
100
AcDbSymbolTable
 70
     1
  0
DIMSTYLE
105
18
100
AcDbSymbolTableRecord
100
AcDbDimStyleTableRecord
  2
STANDARD
 70
     0
  3

  4

  5

  6

  7

 40
1.0
 41
0.18
 42
0.0625
 43
0.38
 44
0.18
 45
0.0
 46
0.0
 47
0.0
 48
0.0
 71
     0
 72
     0
 73
     1
 74
     1
 75
     0
 76
     0
 77
     0
 78
     0
140
0.18
141
0.09
142
0.0
143
25.4
144
1.0
145
0.0
146
1.0
147
0.09
170
     0
171
     2
172
     1
173
     0
174
     0
175
     0
176
     0
177
     0
178
     0
270
     2
271
     4
272
     4
273
     2
274
     2
275
     0
280
     0
281
     0
282
     0
283
     1
284
     0
285
     0
286
     0
287
     3
288
     0
340
17
  0
ENDTAB
  0
TABLE
  2
BLOCK_RECORD
  5
1
100
AcDbSymbolTable
 70
    14
  0
BLOCK_RECORD
  5
A
100
AcDbSymbolTableRecord
100
AcDbBlockTableRecord
  2
*MODEL_SPACE
  0
BLOCK_RECORD
  5
B
100
AcDbSymbolTableRecord
100
AcDbBlockTableRecord
  2
*PAPER_SPACE
  0
BLOCK_RECORD
  5
32
100
AcDbSymbolTableRecord
100
AcDbBlockTableRecord
  2
_EX_NORM
  0
BLOCK_RECORD
  5
33
100
AcDbSymbolTableRecord
100
AcDbBlockTableRecord
  2
_EX_BNORM
  0
BLOCK_RECORD
  5
34
100
AcDbSymbolTableRecord
100
AcDbBlockTableRecord
  2
_EX_BCIR
  0
BLOCK_RECORD
  5
35
100
AcDbSymbolTableRecord
100
AcDbBlockTableRecord
  2
_EX_RCIVIL
  0
BLOCK_RECORD
  5
36
100
AcDbSymbolTableRecord
100
AcDbBlockTableRecord
  2
_EX_SLANT
  0
BLOCK_RECORD
  5
37
100
AcDbSymbolTableRecord
100
AcDbBlockTableRecord
  2
_EX_NONE
  0
BLOCK_RECORD
  5
38
100
AcDbSymbolTableRecord
100
AcDbBlockTableRecord
  2
_EX_CIVIL
  0
BLOCK_RECORD
  5
39
100
AcDbSymbolTableRecord
100
AcDbBlockTableRecord
  2
_EX_WCIR
  0
BLOCK_RECORD
  5
3A
100
AcDbSymbolTableRecord
100
AcDbBlockTableRecord
  2
_EX_WCIR2
  0
BLOCK_RECORD
  5
3B
100
AcDbSymbolTableRecord
100
AcDbBlockTableRecord
  2
_EX_WNORM
  0
BLOCK_RECORD
  5
3C
100
AcDbSymbolTableRecord
100
AcDbBlockTableRecord
  2
_EX_NNORM
  0
BLOCK_RECORD
  5
3D
100
AcDbSymbolTableRecord
100
AcDbBlockTableRecord
  2
_EX_BBOX
  0
BLOCK_RECORD
  5
3E
100
AcDbSymbolTableRecord
100
AcDbBlockTableRecord
  2
_EX_WBOX
  0
BLOCK_RECORD
  5
3F
100
AcDbSymbolTableRecord
100
AcDbBlockTableRecord
  2
_EX_INTEGRAL
  0
ENDTAB
  0
ENDSEC
  0
SECTION
  2
BLOCKS
  0
BLOCK
  5
D
100
AcDbEntity
  8
0
100
AcDbBlockBegin
  2
*MODEL_SPACE
 70
     0
 10
0.0
 20
0.0
 30
0.0
  3
*MODEL_SPACE
  1

  0
ENDBLK
  5
E
100
AcDbEntity
  8
0
100
AcDbBlockEnd
  0
BLOCK
  5
F
100
AcDbEntity
 67
     1
  8
0
100
AcDbBlockBegin
  2
*PAPER_SPACE
 70
     0
 10
0.0
 20
0.0
 30
0.0
  3
*PAPER_SPACE
  1

  0
ENDBLK
  5
10
100
AcDbEntity
 67
     1
  8
0
100
AcDbBlockEnd
  0
BLOCK
  5
40
100
AcDbEntity
  8
0
100
AcDbBlockBegin
  2
_EX_NORM
 70
     0
 10
0.0
 20
0.0
 30
0.0
  3
_EX_NORM
  1

  0
LINE
  5
41
100
AcDbEntity
  8
0
  6
CONTINUOUS
 62
     0
100
AcDbLine
 10
0.0
 20
0.0
 30
0.0
 11
-1.0
 21
0.0
 31
0.0
  0
LINE
  5
42
100
AcDbEntity
  8
0
  6
CONTINUOUS
 62
     0
100
AcDbLine
 10
0.0
 20
0.0
 30
0.0
 11
-1.0
 21
0.166667
 31
0.0
  0
LINE
  5
43
100
AcDbEntity
  8
0
  6
CONTINUOUS
 62
     0
100
AcDbLine
 10
0.0
 20
0.0
 30
0.0
 11
-1.0
 21
-0.166667
 31
0.0
  0
ENDBLK
  5
44
100
AcDbEntity
  8
0
100
AcDbBlockEnd
  0
BLOCK
  5
45
100
AcDbEntity
  8
0
100
AcDbBlockBegin
  2
_EX_BNORM
 70
     0
 10
0.0
 20
0.0
 30
0.0
  3
_EX_BNORM
  1

  0
LINE
  5
46
100
AcDbEntity
  8
0
  6
CONTINUOUS
 62
     0
100
AcDbLine
 10
0.0
 20
0.0
 30
0.0
 11
-1.0
 21
0.0
 31
0.0
  0
LINE
  5
47
100
AcDbEntity
  8
0
  6
CONTINUOUS
 62
     0
100
AcDbLine
 10
0.0
 20
0.0
 30
0.0
 11
-1.0
 21
0.166667
 31
0.0
  0
LINE
  5
48
100
AcDbEntity
  8
0
  6
CONTINUOUS
 62
     0
100
AcDbLine
 10
0.0
 20
0.0
 30
0.0
 11
-1.0
 21
-0.166667
 31
0.0
  0
LINE
  5
49
100
AcDbEntity
  8
0
  6
CONTINUOUS
 62
     0
100
AcDbLine
 10
0.0
 20
0.0
 30
0.0
 11
-1.0
 21
0.083333
 31
0.0
  0
LINE
  5
4A
100
AcDbEntity
  8
0
  6
CONTINUOUS
 62
     0
100
AcDbLine
 10
0.0
 20
0.0
 30
0.0
 11
-1.0
 21
-0.083333
 31
0.0
  0
LINE
  5
4B
100
AcDbEntity
  8
0
  6
CONTINUOUS
 62
     0
100
AcDbLine
 10
-1.0
 20
0.166667
 30
0.0
 11
-1.0
 21
-0.166667
 31
0.0
  0
ENDBLK
  5
4C
100
AcDbEntity
  8
0
100
AcDbBlockEnd
  0
BLOCK
  5
4D
100
AcDbEntity
  8
0
100
AcDbBlockBegin
  2
_EX_BCIR
 70
     0
 10
0.0
 20
0.0
 30
0.0
  3
_EX_BCIR
  1

  0
LINE
  5
4E
100
AcDbEntity
  8
0
  6
CONTINUOUS
 62
     0
100
AcDbLine
 10
0.0
 20
0.0
 30
0.0
 11
-1.0
 21
0.0
 31
0.0
  0
CIRCLE
  5
4F
100
AcDbEntity
  8
0
  6
CONTINUOUS
 62
     0
100
AcDbCircle
 10
0.0
 20
0.0
 30
0.0
 40
0.5
  0
CIRCLE
  5
50
100
AcDbEntity
  8
0
  6
CONTINUOUS
 62
     0
100
AcDbCircle
 10
0.0
 20
0.0
 30
0.0
 40
0.25
  0
ENDBLK
  5
51
100
AcDbEntity
  8
0
100
AcDbBlockEnd
  0
BLOCK
  5
52
100
AcDbEntity
  8
0
100
AcDbBlockBegin
  2
_EX_RCIVIL
 70
     0
 10
0.0
 20
0.0
 30
0.0
  3
_EX_RCIVIL
  1

  0
LINE
  5
53
100
AcDbEntity
  8
0
  6
CONTINUOUS
 62
     0
100
AcDbLine
 10
0.0
 20
0.0
 30
0.0
 11
-1.0
 21
0.0
 31
0.0
  0
LINE
  5
54
100
AcDbEntity
  8
0
  6
CONTINUOUS
 62
     0
100
AcDbLine
 10
-1.0
 20
-0.25
 30
0.0
 11
0.0
 21
-0.25
 31
0.0
  0
LINE
  5
55
100
AcDbEntity
  8
0
  6
CONTINUOUS
 62
     0
100
AcDbLine
 10
-1.0
 20
-0.125
 30
0.0
 11
0.0
 21
-0.125
 31
0.0
  0
ENDBLK
  5
56
100
AcDbEntity
  8
0
100
AcDbBlockEnd
  0
BLOCK
  5
57
100
AcDbEntity
  8
0
100
AcDbBlockBegin
  2
_EX_SLANT
 70
     0
 10
0.0
 20
0.0
 30
0.0
  3
_EX_SLANT
  1

  0
LINE
  5
58
100
AcDbEntity
  8
0
  6
CONTINUOUS
 62
     0
100
AcDbLine
 10
0.0
 20
0.0
 30
0.0
 11
-1.0
 21
0.0
 31
0.0
  0
LINE
  5
59
100
AcDbEntity
  8
0
  6
CONTINUOUS
 62
     0
100
AcDbLine
 10
0.707107
 20
0.707107
 30
0.0
 11
-0.707107
 21
-0.707107
 31
0.0
  0
ENDBLK
  5
5A
100
AcDbEntity
  8
0
100
AcDbBlockEnd
  0
BLOCK
  5
5B
100
AcDbEntity
  8
0
100
AcDbBlockBegin
  2
_EX_NONE
 70
     0
 10
0.0
 20
0.0
 30
0.0
  3
_EX_NONE
  1

  0
LINE
  5
5C
100
AcDbEntity
  8
0
  6
CONTINUOUS
 62
     0
100
AcDbLine
 10
0.0
 20
0.0
 30
0.0
 11
-1.0
 21
0.0
 31
0.0
  0
ENDBLK
  5
5D
100
AcDbEntity
  8
0
100
AcDbBlockEnd
  0
BLOCK
  5
5E
100
AcDbEntity
  8
0
100
AcDbBlockBegin
  2
_EX_CIVIL
 70
     0
 10
0.0
 20
0.0
 30
0.0
  3
_EX_CIVIL
  1

  0
LINE
  5
5F
100
AcDbEntity
  8
0
  6
CONTINUOUS
 62
     0
100
AcDbLine
 10
0.0
 20
0.0
 30
0.0
 11
-1.0
 21
0.0
 31
0.0
  0
LINE
  5
60
100
AcDbEntity
  8
0
  6
CONTINUOUS
 62
     0
100
AcDbLine
 10
-1.0
 20
0.25
 30
0.0
 11
0.0
 21
0.25
 31
0.0
  0
LINE
  5
61
100
AcDbEntity
  8
0
  6
CONTINUOUS
 62
     0
100
AcDbLine
 10
-1.0
 20
0.125
 30
0.0
 11
0.0
 21
0.125
 31
0.0
  0
ENDBLK
  5
62
100
AcDbEntity
  8
0
100
AcDbBlockEnd
  0
BLOCK
  5
63
100
AcDbEntity
  8
0
100
AcDbBlockBegin
  2
_EX_WCIR
 70
     0
 10
0.0
 20
0.0
 30
0.0
  3
_EX_WCIR
  1

  0
LINE
  5
64
100
AcDbEntity
  8
0
  6
CONTINUOUS
 62
     0
100
AcDbLine
 10
0.0
 20
0.0
 30
0.0
 11
-1.0
 21
0.0
 31
0.0
  0
CIRCLE
  5
65
100
AcDbEntity
  8
0
  6
CONTINUOUS
 62
     0
100
AcDbCircle
 10
0.0
 20
0.0
 30
0.0
 40
0.5
  0
ENDBLK
  5
66
100
AcDbEntity
  8
0
100
AcDbBlockEnd
  0
BLOCK
  5
67
100
AcDbEntity
  8
0
100
AcDbBlockBegin
  2
_EX_WCIR2
 70
     0
 10
0.0
 20
0.0
 30
0.0
  3
_EX_WCIR2
  1

  0
LINE
  5
68
100
AcDbEntity
  8
0
  6
CONTINUOUS
 62
     0
100
AcDbLine
 10
-0.5
 20
0.0
 30
0.0
 11
-1.0
 21
0.0
 31
0.0
  0
CIRCLE
  5
69
100
AcDbEntity
  8
0
  6
CONTINUOUS
 62
     0
100
AcDbCircle
 10
0.0
 20
0.0
 30
0.0
 40
0.5
  0
ENDBLK
  5
6A
100
AcDbEntity
  8
0
100
AcDbBlockEnd
  0
BLOCK
  5
6B
100
AcDbEntity
  8
0
100
AcDbBlockBegin
  2
_EX_WNORM
 70
     0
 10
0.0
 20
0.0
 30
0.0
  3
_EX_WNORM
  1

  0
LINE
  5
6C
100
AcDbEntity
  8
0
  6
CONTINUOUS
 62
     0
100
AcDbLine
 10
-1.0
 20
0.0
 30
0.0
 11
-1.0
 21
0.0
 31
0.0
  0
LINE
  5
6D
100
AcDbEntity
  8
0
  6
CONTINUOUS
 62
     0
100
AcDbLine
 10
0.0
 20
0.0
 30
0.0
 11
-1.0
 21
0.166667
 31
0.0
  0
LINE
  5
6E
100
AcDbEntity
  8
0
  6
CONTINUOUS
 62
     0
100
AcDbLine
 10
0.0
 20
0.0
 30
0.0
 11
-1.0
 21
-0.166667
 31
0.0
  0
LINE
  5
6F
100
AcDbEntity
  8
0
  6
CONTINUOUS
 62
     0
100
AcDbLine
 10
-1.0
 20
0.166667
 30
0.0
 11
-1.0
 21
-0.166667
 31
0.0
  0
ENDBLK
  5
70
100
AcDbEntity
  8
0
100
AcDbBlockEnd
  0
BLOCK
  5
71
100
AcDbEntity
  8
0
100
AcDbBlockBegin
  2
_EX_NNORM
 70
     0
 10
0.0
 20
0.0
 30
0.0
  3
_EX_NNORM
  1

  0
LINE
  5
72
100
AcDbEntity
  8
0
  6
CONTINUOUS
 62
     0
100
AcDbLine
 10
0.0
 20
0.0
 30
0.0
 11
-1.0
 21
0.0
 31
0.0
  0
LINE
  5
73
100
AcDbEntity
  8
0
  6
CONTINUOUS
 62
     0
100
AcDbLine
 10
0.0
 20
0.0
 30
0.0
 11
-1.0
 21
0.166667
 31
0.0
  0
LINE
  5
74
100
AcDbEntity
  8
0
  6
CONTINUOUS
 62
     0
100
AcDbLine
 10
0.0
 20
0.0
 30
0.0
 11
-1.0
 21
-0.166667
 31
0.0
  0
LINE
  5
75
100
AcDbEntity
  8
0
  6
CONTINUOUS
 62
     0
100
AcDbLine
 10
-1.0
 20
0.166667
 30
0.0
 11
-1.0
 21
-0.166667
 31
0.0
  0
ENDBLK
  5
76
100
AcDbEntity
  8
0
100
AcDbBlockEnd
  0
BLOCK
  5
77
100
AcDbEntity
  8
0
100
AcDbBlockBegin
  2
_EX_BBOX
 70
     0
 10
0.0
 20
0.0
 30
0.0
  3
_EX_BBOX
  1

  0
LINE
  5
78
100
AcDbEntity
  8
0
  6
CONTINUOUS
 62
     0
100
AcDbLine
 10
0.0
 20
0.0
 30
0.0
 11
-1.0
 21
0.0
 31
0.0
  0
LINE
  5
79
100
AcDbEntity
  8
0
  6
CONTINUOUS
 62
     0
100
AcDbLine
 10
-0.5
 20
0.5
 30
0.0
 11
0.5
 21
0.5
 31
0.0
  0
LINE
  5
7A
100
AcDbEntity
  8
0
  6
CONTINUOUS
 62
     0
100
AcDbLine
 10
0.5
 20
0.5
 30
0.0
 11
0.5
 21
-0.5
 31
0.0
  0
LINE
  5
7B
100
AcDbEntity
  8
0
  6
CONTINUOUS
 62
     0
100
AcDbLine
 10
0.5
 20
-0.5
 30
0.0
 11
-0.5
 21
-0.5
 31
0.0
  0
LINE
  5
7C
100
AcDbEntity
  8
0
  6
CONTINUOUS
 62
     0
100
AcDbLine
 10
-0.5
 20
-0.5
 30
0.0
 11
-0.5
 21
0.5
 31
0.0
  0
LINE
  5
7D
100
AcDbEntity
  8
0
  6
CONTINUOUS
 62
     0
100
AcDbLine
 10
-0.25
 20
0.25
 30
0.0
 11
0.25
 21
0.25
 31
0.0
  0
LINE
  5
7E
100
AcDbEntity
  8
0
  6
CONTINUOUS
 62
     0
100
AcDbLine
 10
0.25
 20
0.25
 30
0.0
 11
0.25
 21
-0.25
 31
0.0
  0
LINE
  5
7F
100
AcDbEntity
  8
0
  6
CONTINUOUS
 62
     0
100
AcDbLine
 10
0.25
 20
-0.25
 30
0.0
 11
-0.25
 21
-0.25
 31
0.0
  0
LINE
  5
80
100
AcDbEntity
  8
0
  6
CONTINUOUS
 62
     0
100
AcDbLine
 10
-0.25
 20
-0.25
 30
0.0
 11
-0.25
 21
0.25
 31
0.0
  0
ENDBLK
  5
81
100
AcDbEntity
  8
0
100
AcDbBlockEnd
  0
BLOCK
  5
82
100
AcDbEntity
  8
0
100
AcDbBlockBegin
  2
_EX_WBOX
 70
     0
 10
0.0
 20
0.0
 30
0.0
  3
_EX_WBOX
  1

  0
LINE
  5
83
100
AcDbEntity
  8
0
  6
CONTINUOUS
 62
     0
100
AcDbLine
 10
-0.5
 20
0.0
 30
0.0
 11
-1.0
 21
0.0
 31
0.0
  0
LINE
  5
84
100
AcDbEntity
  8
0
  6
CONTINUOUS
 62
     0
100
AcDbLine
 10
-0.5
 20
0.5
 30
0.0
 11
0.5
 21
0.5
 31
0.0
  0
LINE
  5
85
100
AcDbEntity
  8
0
  6
CONTINUOUS
 62
     0
100
AcDbLine
 10
0.5
 20
0.5
 30
0.0
 11
0.5
 21
-0.5
 31
0.0
  0
LINE
  5
86
100
AcDbEntity
  8
0
  6
CONTINUOUS
 62
     0
100
AcDbLine
 10
0.5
 20
-0.5
 30
0.0
 11
-0.5
 21
-0.5
 31
0.0
  0
LINE
  5
87
100
AcDbEntity
  8
0
  6
CONTINUOUS
 62
     0
100
AcDbLine
 10
-0.5
 20
-0.5
 30
0.0
 11
-0.5
 21
0.5
 31
0.0
  0
ENDBLK
  5
88
100
AcDbEntity
  8
0
100
AcDbBlockEnd
  0
BLOCK
  5
89
100
AcDbEntity
  8
0
100
AcDbBlockBegin
  2
_EX_INTEGRAL
 70
     0
 10
0.0
 20
0.0
 30
0.0
  3
_EX_INTEGRAL
  1

  0
LINE
  5
8A
100
AcDbEntity
  8
0
  6
CONTINUOUS
 62
     0
100
AcDbLine
 10
0.0
 20
0.0
 30
0.0
 11
-1.0
 21
0.0
 31
0.0
  0
ARC
  5
8B
100
AcDbEntity
  8
0
  6
CONTINUOUS
 62
     0
100
AcDbCircle
 10
0.542115
 20
0.164992
 30
0.0
 40
0.56667
100
AcDbArc
 50
73.07249
 51
196.927513
  0
ARC
  5
8C
100
AcDbEntity
  8
0
  6
CONTINUOUS
 62
     0
100
AcDbCircle
 10
-0.542115
 20
-0.164992
 30
0.0
 40
0.56667
100
AcDbArc
 50
253.072487
 51
16.927513
  0
ENDBLK
  5
8D
100
AcDbEntity
  8
0
100
AcDbBlockEnd
  0
ENDSEC
  0
SECTION
  2
ENTITIES
  0
LINE
  5
8E
100
AcDbEntity
  8
LAY-3
  6
CONTINUOUS
 62
     3
100
AcDbLine
 10
190.937511
 20
199.175
 30
0.0
 11
190.937511
 21
198.175
 31
0.0
  0
LINE
  5
8F
100
AcDbEntity
  8
LAY-3
  6
CONTINUOUS
 62
     3
100
AcDbLine
 10
172.937511
 20
199.175
 30
0.0
 11
172.937511
 21
198.175
 31
0.0
  0
ARC
  5
90
100
AcDbEntity
  8
LAY-3
  6
CONTINUOUS
 62
     3
100
AcDbCircle
 10
289.937511
 20
205.175
 30
0.0
 40
2.0
100
AcDbArc
 50
0.0
 51
90.0
  0
LINE
  5
91
100
AcDbEntity
  8
LAY-3
  6
CONTINUOUS
 62
     3
100
AcDbLine
 10
291.937511
 20
205.175
 30
0.0
 11
291.937511
 21
201.175
 31
0.0
  0
ARC
  5
92
100
AcDbEntity
  8
LAY-3
  6
CONTINUOUS
 62
     3
100
AcDbCircle
 10
289.937511
 20
201.175
 30
0.0
 40
2.0
100
AcDbArc
 50
270.0
 51
0.0
  0
LINE
  5
93
100
AcDbEntity
  8
LAY-3
  6
CONTINUOUS
 62
     3
100
AcDbLine
 10
289.937511
 20
199.175
 30
0.0
 11
170.037511
 21
199.175
 31
0.0
  0
LINE
  5
94
100
AcDbEntity
  8
LAY-3
  6
CONTINUOUS
 62
     3
100
AcDbLine
 10
168.037511
 20
209.675
 30
0.0
 11
168.037511
 21
201.175
 31
0.0
  0
ARC
  5
95
100
AcDbEntity
  8
LAY-3
  6
CONTINUOUS
 62
     3
100
AcDbCircle
 10
170.037511
 20
201.175
 30
0.0
 40
2.0
100
AcDbArc
 50
180.0
 51
270.0
  0
LINE
  5
96
100
AcDbEntity
  8
LAY-3
  6
CONTINUOUS
 62
     3
100
AcDbLine
 10
289.937511
 20
207.175
 30
0.0
 11
197.837511
 21
207.175
 31
0.0
  0
ARC
  5
97
100
AcDbEntity
  8
LAY-3
  6
CONTINUOUS
 62
     3
100
AcDbCircle
 10
197.837511
 20
209.175
 30
0.0
 40
2.0
100
AcDbArc
 50
180.0
 51
270.0
  0
LINE
  5
98
100
AcDbEntity
  8
LAY-3
  6
CONTINUOUS
 62
     3
100
AcDbLine
 10
195.839698
 20
209.0815
 30
0.0
 11
195.811922
 21
209.675
 31
0.0
  0
LINE
  5
99
100
AcDbEntity
  8
LAY-3
  6
CONTINUOUS
 62
     3
100
AcDbLine
 10
167.937511
 20
209.675
 30
0.0
 11
195.937511
 21
209.675
 31
0.0
  0
LINE
  5
9A
100
AcDbEntity
  8
LAY-3
  6
CONTINUOUS
 62
     3
100
AcDbLine
 10
171.437511
 20
198.175
 30
0.0
 11
192.437511
 21
198.175
 31
0.0
  0
LINE
  5
9B
100
AcDbEntity
  8
LAY-3
  6
CONTINUOUS
 62
     3
100
AcDbLine
 10
175.514895
 20
185.175
 30
0.0
 11
188.360128
 21
185.175
 31
0.0
  0
ARC
  5
9C
100
AcDbEntity
  8
LAY-3
  6
CONTINUOUS
 62
     3
100
AcDbCircle
 10
190.437511
 20
184.760786
 30
0.0
 40
1.0
100
AcDbArc
 50
135.0
 51
180.0
  0
LINE
  5
9D
100
AcDbEntity
  8
LAY-3
  6
CONTINUOUS
 62
     3
100
AcDbLine
 10
192.144618
 20
187.882107
 30
0.0
 11
189.730405
 21
185.467893
 31
0.0
  0
LINE
  5
9E
100
AcDbEntity
  8
LAY-3
  6
CONTINUOUS
 62
     3
100
AcDbLine
 10
192.437511
 20
188.589214
 30
0.0
 11
192.437511
 21
198.175
 31
0.0
  0
ARC
  5
9F
100
AcDbEntity
  8
LAY-3
  6
CONTINUOUS
 62
     3
100
AcDbCircle
 10
191.437511
 20
188.589214
 30
0.0
 40
1.0
100
AcDbArc
 50
315.0
 51
0.0
  0
ARC
  5
A0
100
AcDbEntity
  8
LAY-3
  6
CONTINUOUS
 62
     3
100
AcDbCircle
 10
171.437511
 20
184.760786
 30
0.0
 40
1.0
100
AcDbArc
 50
0.0
 51
45.0
  0
LINE
  5
A1
100
AcDbEntity
  8
LAY-3
  6
CONTINUOUS
 62
     3
100
AcDbLine
 10
171.730405
 20
185.882107
 30
0.0
 11
172.144618
 21
185.467893
 31
0.0
  0
LINE
  5
A2
100
AcDbEntity
  8
LAY-3
  6
CONTINUOUS
 62
     3
100
AcDbLine
 10
171.437511
 20
186.589214
 30
0.0
 11
171.437511
 21
198.175
 31
0.0
  0
ARC
  5
A3
100
AcDbEntity
  8
LAY-3
  6
CONTINUOUS
 62
     3
100
AcDbCircle
 10
172.437511
 20
186.589214
 30
0.0
 40
1.0
100
AcDbArc
 50
180.0
 51
225.0
  0
ARC
  5
A4
100
AcDbEntity
  8
LAY-3
  6
CONTINUOUS
 62
     3
100
AcDbCircle
 10
181.937511
 20
181.032143
 30
0.0
 40
7.642857
100
AcDbArc
 50
32.823715
 51
147.176285
  0
LINE
  5
A5
100
AcDbEntity
  8
LAY-3
  6
CONTINUOUS
 62
     3
100
AcDbLine
 10
188.528549
 20
183.175
 30
0.0
 11
188.360128
 21
185.175
 31
0.0
  0
LINE
  5
A6
100
AcDbEntity
  8
LAY-3
  6
CONTINUOUS
 62
     3
100
AcDbLine
 10
189.437511
 20
183.175
 30
0.0
 11
189.437511
 21
184.760786
 31
0.0
  0
LINE
  5
A7
100
AcDbEntity
  8
LAY-3
  6
CONTINUOUS
 62
     3
100
AcDbLine
 10
175.352951
 20
183.175
 30
0.0
 11
175.514895
 21
185.175
 31
0.0
  0
LINE
  5
A8
100
AcDbEntity
  8
LAY-3
  6
CONTINUOUS
 62
     3
100
AcDbLine
 10
172.437511
 20
183.175
 30
0.0
 11
172.437511
 21
184.760786
 31
0.0
  0
LINE
  5
A9
100
AcDbEntity
  8
LAY-3
  6
CONTINUOUS
 62
     3
100
AcDbLine
 10
501.537541
 20
209.675
 30
0.0
 11
473.537541
 21
209.675
 31
0.0
  0
LINE
  5
AA
100
AcDbEntity
  8
LAY-3
  6
CONTINUOUS
 62
     3
100
AcDbLine
 10
501.437541
 20
207.175
 30
0.0
 11
473.637541
 21
207.175
 31
0.0
  0
LINE
  5
AB
100
AcDbEntity
  8
LAY-3
  6
CONTINUOUS
 62
     3
100
AcDbLine
 10
496.537541
 20
199.175
 30
0.0
 11
496.537541
 21
198.175
 31
0.0
  0
LINE
  5
AC
100
AcDbEntity
  8
LAY-3
  6
CONTINUOUS
 62
     3
100
AcDbLine
 10
478.537541
 20
199.175
 30
0.0
 11
478.537541
 21
198.175
 31
0.0
  0
LINE
  5
AD
100
AcDbEntity
  8
LAY-3
  6
CONTINUOUS
 62
     3
100
AcDbLine
 10
473.637541
 20
209.675
 30
0.0
 11
473.637541
 21
201.175
 31
0.0
  0
ARC
  5
AE
100
AcDbEntity
  8
LAY-3
  6
CONTINUOUS
 62
     3
100
AcDbCircle
 10
475.637541
 20
201.175
 30
0.0
 40
2.0
100
AcDbArc
 50
180.0
 51
270.0
  0
LINE
  5
AF
100
AcDbEntity
  8
LAY-3
  6
CONTINUOUS
 62
     3
100
AcDbLine
 10
501.437541
 20
209.675
 30
0.0
 11
501.437541
 21
201.175
 31
0.0
  0
ARC
  5
B0
100
AcDbEntity
  8
LAY-3
  6
CONTINUOUS
 62
     3
100
AcDbCircle
 10
499.437541
 20
201.175
 30
0.0
 40
2.0
100
AcDbArc
 50
270.0
 51
0.0
  0
LINE
  5
B1
100
AcDbEntity
  8
LAY-3
  6
CONTINUOUS
 62
     3
100
AcDbLine
 10
499.437541
 20
199.175
 30
0.0
 11
475.637541
 21
199.175
 31
0.0
  0
LINE
  5
B2
100
AcDbEntity
  8
LAY-3
  6
CONTINUOUS
 62
     3
100
AcDbLine
 10
478.537511
 20
198.175
 30
0.0
 11
477.037511
 21
198.175
 31
0.0
  0
LINE
  5
B3
100
AcDbEntity
  8
LAY-3
  6
CONTINUOUS
 62
     3
100
AcDbLine
 10
498.037511
 20
198.175
 30
0.0
 11
496.537511
 21
198.175
 31
0.0
  0
ARC
  5
B4
100
AcDbEntity
  8
LAY-3
  6
CONTINUOUS
 62
     3
100
AcDbCircle
 10
497.037511
 20
189.089214
 30
0.0
 40
1.0
100
AcDbArc
 50
315.0
 51
0.0
  0
ARC
  5
B5
100
AcDbEntity
  8
LAY-3
  6
CONTINUOUS
 62
     3
100
AcDbCircle
 10
495.501984
 20
184.725259
 30
0.0
 40
1.0
100
AcDbArc
 50
135.0
 51
175.0
  0
ARC
  5
B6
100
AcDbEntity
  8
LAY-3
  6
CONTINUOUS
 62
     3
100
AcDbCircle
 10
479.573039
 20
184.725259
 30
0.0
 40
1.0
100
AcDbArc
 50
5.0
 51
45.0
  0
LINE
  5
B7
100
AcDbEntity
  8
LAY-3
  6
CONTINUOUS
 62
     3
100
AcDbLine
 10
477.330405
 20
188.382107
 30
0.0
 11
480.280146
 21
185.432366
 31
0.0
  0
LINE
  5
B8
100
AcDbEntity
  8
LAY-3
  6
CONTINUOUS
 62
     3
100
AcDbLine
 10
477.037511
 20
189.089214
 30
0.0
 11
477.037511
 21
198.175
 31
0.0
  0
ARC
  5
B9
100
AcDbEntity
  8
LAY-3
  6
CONTINUOUS
 62
     3
100
AcDbCircle
 10
478.037511
 20
189.089214
 30
0.0
 40
1.0
100
AcDbArc
 50
180.0
 51
225.0
  0
LINE
  5
BA
100
AcDbEntity
  8
LAY-3
  6
CONTINUOUS
 62
     3
100
AcDbLine
 10
498.037511
 20
189.089214
 30
0.0
 11
498.037511
 21
198.175
 31
0.0
  0
LINE
  5
BB
100
AcDbEntity
  8
LAY-3
  6
CONTINUOUS
 62
     3
100
AcDbLine
 10
497.744618
 20
188.382107
 30
0.0
 11
494.794877
 21
185.432366
 31
0.0
  0
LINE
  5
BC
100
AcDbEntity
  8
LAY-3
  6
DASHED2
 62
     3
100
AcDbLine
 10
494.450023
 20
184.175
 30
0.0
 11
494.505789
 21
184.812415
 31
0.0
  0
LINE
  5
BD
100
AcDbEntity
  8
LAY-3
  6
DASHED2
 62
     3
100
AcDbLine
 10
480.625
 20
184.175
 30
0.0
 11
480.569233
 21
184.812415
 31
0.0
  0
LINE
  5
BE
100
AcDbEntity
  8
LAY-3
  6
DASHED2
 62
     3
100
AcDbLine
 10
493.662625
 20
175.175
 30
0.0
 11
481.412398
 21
175.175
 31
0.0
  0
LINE
  5
BF
100
AcDbEntity
  8
LAY-3
  6
DASHED2
 62
     3
100
AcDbLine
 10
493.662625
 20
175.175
 30
0.0
 11
494.450023
 21
184.175
 31
0.0
  0
LINE
  5
C0
100
AcDbEntity
  8
LAY-3
  6
DASHED2
 62
     3
100
AcDbLine
 10
481.412398
 20
175.175
 30
0.0
 11
480.625
 21
184.175
 31
0.0
  0
LINE
  5
C1
100
AcDbEntity
  8
LAY-3
  6
CONTINUOUS
 62
     3
100
AcDbLine
 10
167.937511
 20
323.175
 30
0.0
 11
167.937511
 21
209.675
 31
0.0
  0
LINE
  5
C2
100
AcDbEntity
  8
LAY-3
  6
CONTINUOUS
 62
     3
100
AcDbLine
 10
195.937511
 20
323.175
 30
0.0
 11
195.937511
 21
209.675
 31
0.0
  0
ARC
  5
C3
100
AcDbEntity
  8
LAY-3
  6
CONTINUOUS
 62
     3
100
AcDbCircle
 10
175.937511
 20
477.175
 30
0.0
 40
1.0
100
AcDbArc
 50
0.0
 51
90.0
  0
ARC
  5
C4
100
AcDbEntity
  8
LAY-3
  6
CONTINUOUS
 62
     3
100
AcDbCircle
 10
187.937511
 20
477.175
 30
0.0
 40
1.0
100
AcDbArc
 50
90.0
 51
180.0
  0
LINE
  5
C5
100
AcDbEntity
  8
LAY-3
  6
CONTINUOUS
 62
     3
100
AcDbLine
 10
186.360079
 20
357.425
 30
0.0
 11
186.360081
 21
357.425
 31
0.0
  0
CIRCLE
  5
C6
100
AcDbEntity
  8
LAY-3
  6
CONTINUOUS
 62
     3
100
AcDbCircle
 10
188.686538
 20
355.175
 30
0.0
 40
2.25
  0
ARC
  5
C7
100
AcDbEntity
  8
LAY-3
  6
CONTINUOUS
 62
     3
100
AcDbCircle
 10
187.967796
 20
355.175
 30
0.0
 40
3.03125
100
AcDbArc
 50
132.075022
 51
227.92496
  0
LINE
  5
C8
100
AcDbEntity
  8
LAY-3
  6
CONTINUOUS
 62
     3
100
AcDbLine
 10
188.686538
 20
357.425
 30
0.0
 11
185.936546
 21
357.425
 31
0.0
  0
LINE
  5
C9
100
AcDbEntity
  8
LAY-3
  6
CONTINUOUS
 62
     3
100
AcDbLine
 10
188.686538
 20
352.925
 30
0.0
 11
185.936546
 21
352.925
 31
0.0
  0
ARC
  5
CA
100
AcDbEntity
  8
LAY-3
  6
CONTINUOUS
 62
     3
100
AcDbCircle
 10
176.577511
 20
355.175
 30
0.0
 40
2.437473
100
AcDbArc
 50
292.618255
 51
67.381595
  0
ARC
  5
CB
100
AcDbEntity
  8
LAY-3
  6
CONTINUOUS
 62
     3
100
AcDbCircle
 10
177.780438
 20
355.175
 30
0.0
 40
2.26561
100
AcDbArc
 50
96.729657
 51
263.270153
  0
CIRCLE
  5
CC
100
AcDbEntity
  8
LAY-3
  6
CONTINUOUS
 62
     3
100
AcDbCircle
 10
181.937511
 20
472.675
 30
0.0
 40
2.75
  0
LINE
  5
CD
100
AcDbEntity
  8
LAY-3
  6
CONTINUOUS
 62
     3
100
AcDbLine
 10
184.583263
 20
473.425
 30
0.0
 11
179.29176
 21
473.425
 31
0.0
  0
LINE
  5
CE
100
AcDbEntity
  8
LAY-3
  6
CONTINUOUS
 62
     3
100
AcDbLine
 10
184.583263
 20
471.925
 30
0.0
 11
179.29176
 21
471.925
 31
0.0
  0
LINE
  5
CF
100
AcDbEntity
  8
LAY-3
  6
CONTINUOUS
 62
     3
100
AcDbLine
 10
195.937511
 20
478.175
 30
0.0
 11
167.937511
 21
478.175
 31
0.0
  0
LINE
  5
D0
100
AcDbEntity
  8
LAY-3
  6
CONTINUOUS
 62
     3
100
AcDbLine
 10
172.938485
 20
350.175
 30
0.0
 11
190.936538
 21
350.175
 31
0.0
  0
LINE
  5
D1
100
AcDbEntity
  8
LAY-3
  6
CONTINUOUS
 62
     3
100
AcDbLine
 10
172.938485
 20
360.175
 30
0.0
 11
190.936538
 21
360.175
 31
0.0
  0
LINE
  5
D2
100
AcDbEntity
  8
LAY-3
  6
CONTINUOUS
 62
     3
100
AcDbLine
 10
172.938485
 20
350.175
 30
0.0
 11
172.938485
 21
360.175
 31
0.0
  0
LINE
  5
D3
100
AcDbEntity
  8
LAY-3
  6
CONTINUOUS
 62
     3
100
AcDbLine
 10
190.936538
 20
350.175
 30
0.0
 11
190.936538
 21
360.175
 31
0.0
  0
ARC
  5
D4
100
AcDbEntity
  8
LAY-3
  6
CONTINUOUS
 62
     3
100
AcDbCircle
 10
181.937511
 20
472.675
 30
0.0
 40
5.0
100
AcDbArc
 50
180.0
 51
0.0
  0
LINE
  5
D5
100
AcDbEntity
  8
LAY-3
  6
CONTINUOUS
 62
     3
100
AcDbLine
 10
176.937511
 20
477.175
 30
0.0
 11
176.937511
 21
472.675
 31
0.0
  0
LINE
  5
D6
100
AcDbEntity
  8
LAY-3
  6
CONTINUOUS
 62
     3
100
AcDbLine
 10
186.937511
 20
477.175
 30
0.0
 11
186.937511
 21
472.675
 31
0.0
  0
LINE
  5
D7
100
AcDbEntity
  8
LAY-3
  6
CONTINUOUS
 62
     3
100
AcDbLine
 10
189.908078
 20
350.175
 30
0.0
 11
189.908078
 21
353.285466
 31
0.0
  0
LINE
  5
D8
100
AcDbEntity
  8
LAY-3
  6
CONTINUOUS
 62
     3
100
AcDbLine
 10
189.908078
 20
357.064534
 30
0.0
 11
189.908078
 21
360.175
 31
0.0
  0
LINE
  5
D9
100
AcDbEntity
  8
LAY-3
  6
CONTINUOUS
 62
     3
100
AcDbLine
 10
173.966945
 20
350.175
 30
0.0
 11
173.966945
 21
360.175
 31
0.0
  0
CIRCLE
  5
DA
100
AcDbEntity
  8
LAY-3
  6
CONTINUOUS
 62
     3
100
AcDbCircle
 10
181.937511
 20
472.675
 30
0.0
 40
2.75
  0
LINE
  5
DB
100
AcDbEntity
  8
LAY-3
  6
CONTINUOUS
 62
     3
100
AcDbLine
 10
167.937511
 20
478.175
 30
0.0
 11
167.937511
 21
328.175
 31
0.0
  0
LINE
  5
DC
100
AcDbEntity
  8
LAY-3
  6
CONTINUOUS
 62
     3
100
AcDbLine
 10
195.937511
 20
478.175
 30
0.0
 11
195.937511
 21
328.175
 31
0.0
  0
ARC
  5
DD
100
AcDbEntity
  8
LAY-3
  6
CONTINUOUS
 62
     3
100
AcDbCircle
 10
181.937511
 20
472.675
 30
0.0
 40
2.25
100
AcDbArc
 50
199.471221
 51
340.528779
  0
ARC
  5
DE
100
AcDbEntity
  8
LAY-3
  6
CONTINUOUS
 62
     3
100
AcDbCircle
 10
181.937511
 20
472.675
 30
0.0
 40
2.25
100
AcDbArc
 50
19.471221
 51
160.528779
  0
LINE
  5
DF
100
AcDbEntity
  8
LAY-3
  6
CONTINUOUS
 62
     3
100
AcDbLine
 10
473.537541
 20
323.175
 30
0.0
 11
473.537541
 21
209.675
 31
0.0
  0
LINE
  5
E0
100
AcDbEntity
  8
LAY-3
  6
CONTINUOUS
 62
     3
100
AcDbLine
 10
501.537541
 20
323.175
 30
0.0
 11
501.537541
 21
209.675
 31
0.0
  0
LINE
  5
E1
100
AcDbEntity
  8
LAY-3
  6
CONTINUOUS
 62
     3
100
AcDbLine
 10
500.614238
 20
478.175
 30
0.0
 11
500.614238
 21
467.675
 31
0.0
  0
LINE
  5
E2
100
AcDbEntity
  8
LAY-3
  6
CONTINUOUS
 62
     3
100
AcDbLine
 10
474.460845
 20
478.175
 30
0.0
 11
474.460845
 21
467.675
 31
0.0
  0
LINE
  5
E3
100
AcDbEntity
  8
LAY-3
  6
CONTINUOUS
 62
     3
100
AcDbLine
 10
475.137541
 20
360.175
 30
0.0
 11
475.137541
 21
350.175
 31
0.0
  0
LINE
  5
E4
100
AcDbEntity
  8
LAY-3
  6
CONTINUOUS
 62
     3
100
AcDbLine
 10
476.812919
 20
350.175
 30
0.0
 11
476.812919
 21
360.175
 31
0.0
  0
LINE
  5
E5
100
AcDbEntity
  8
LAY-3
  6
CONTINUOUS
 62
     3
100
AcDbLine
 10
473.537541
 20
360.175
 30
0.0
 11
476.812919
 21
360.175
 31
0.0
  0
LINE
  5
E6
100
AcDbEntity
  8
LAY-3
  6
CONTINUOUS
 62
     3
100
AcDbLine
 10
473.537541
 20
350.175
 30
0.0
 11
476.812919
 21
350.175
 31
0.0
  0
LINE
  5
E7
100
AcDbEntity
  8
LAY-3
  6
CONTINUOUS
 62
     3
100
AcDbLine
 10
474.037541
 20
469.925
 30
0.0
 11
473.537541
 21
470.425
 31
0.0
  0
LINE
  5
E8
100
AcDbEntity
  8
LAY-3
  6
CONTINUOUS
 62
     3
100
AcDbLine
 10
501.537541
 20
474.675
 30
0.0
 11
501.037541
 21
475.175
 31
0.0
  0
LINE
  5
E9
100
AcDbEntity
  8
LAY-3
  6
CONTINUOUS
 62
     3
100
AcDbLine
 10
501.537541
 20
470.675
 30
0.0
 11
501.537541
 21
474.675
 31
0.0
  0
LINE
  5
EA
100
AcDbEntity
  8
LAY-3
  6
CONTINUOUS
 62
     3
100
AcDbLine
 10
501.037541
 20
470.175
 30
0.0
 11
501.537541
 21
470.675
 31
0.0
  0
LINE
  5
EB
100
AcDbEntity
  8
LAY-3
  6
CONTINUOUS
 62
     3
100
AcDbLine
 10
501.037541
 20
470.175
 30
0.0
 11
501.037541
 21
475.175
 31
0.0
  0
LINE
  5
EC
100
AcDbEntity
  8
LAY-3
  6
CONTINUOUS
 62
     3
100
AcDbLine
 10
473.537541
 20
474.925
 30
0.0
 11
473.537541
 21
473.425
 31
0.0
  0
LINE
  5
ED
100
AcDbEntity
  8
LAY-3
  6
CONTINUOUS
 62
     3
100
AcDbLine
 10
474.037541
 20
475.425
 30
0.0
 11
473.537541
 21
474.925
 31
0.0
  0
LINE
  5
EE
100
AcDbEntity
  8
LAY-3
  6
CONTINUOUS
 62
     3
100
AcDbLine
 10
474.037541
 20
475.425
 30
0.0
 11
474.037541
 21
473.425
 31
0.0
  0
LINE
  5
EF
100
AcDbEntity
  8
LAY-3
  6
CONTINUOUS
 62
     3
100
AcDbLine
 10
473.537541
 20
470.425
 30
0.0
 11
473.537541
 21
471.925
 31
0.0
  0
LINE
  5
F0
100
AcDbEntity
  8
LAY-3
  6
CONTINUOUS
 62
     3
100
AcDbLine
 10
474.037541
 20
471.925
 30
0.0
 11
474.037541
 21
469.925
 31
0.0
  0
LINE
  5
F1
100
AcDbEntity
  8
LAY-3
  6
CONTINUOUS
 62
     3
100
AcDbLine
 10
501.037541
 20
475.175
 30
0.0
 11
500.614238
 21
475.175
 31
0.0
  0
LINE
  5
F2
100
AcDbEntity
  8
LAY-3
  6
CONTINUOUS
 62
     3
100
AcDbLine
 10
501.037541
 20
470.175
 30
0.0
 11
500.614238
 21
470.175
 31
0.0
  0
LINE
  5
F3
100
AcDbEntity
  8
LAY-3
  6
CONTINUOUS
 62
     3
100
AcDbLine
 10
474.037541
 20
475.425
 30
0.0
 11
474.460845
 21
475.425
 31
0.0
  0
LINE
  5
F4
100
AcDbEntity
  8
LAY-3
  6
CONTINUOUS
 62
     3
100
AcDbLine
 10
474.460845
 20
473.425
 30
0.0
 11
473.537541
 21
473.425
 31
0.0
  0
LINE
  5
F5
100
AcDbEntity
  8
LAY-3
  6
CONTINUOUS
 62
     3
100
AcDbLine
 10
474.460845
 20
471.925
 30
0.0
 11
473.537541
 21
471.925
 31
0.0
  0
LINE
  5
F6
100
AcDbEntity
  8
LAY-3
  6
CONTINUOUS
 62
     3
100
AcDbLine
 10
474.037541
 20
469.925
 30
0.0
 11
474.460845
 21
469.925
 31
0.0
  0
LINE
  5
F7
100
AcDbEntity
  8
LAY-3
  6
CONTINUOUS
 62
     3
100
AcDbLine
 10
500.614238
 20
478.175
 30
0.0
 11
474.460845
 21
478.175
 31
0.0
  0
LINE
  5
F8
100
AcDbEntity
  8
LAY-3
  6
CONTINUOUS
 62
     3
100
AcDbLine
 10
501.537541
 20
467.675
 30
0.0
 11
500.614238
 21
467.675
 31
0.0
  0
LINE
  5
F9
100
AcDbEntity
  8
LAY-3
  6
CONTINUOUS
 62
     3
100
AcDbLine
 10
473.537541
 20
467.675
 30
0.0
 11
474.460845
 21
467.675
 31
0.0
  0
LINE
  5
FA
100
AcDbEntity
  8
LAY-3
  6
CONTINUOUS
 62
     3
100
AcDbLine
 10
501.537541
 20
470.675
 30
0.0
 11
501.537541
 21
474.675
 31
0.0
  0
LINE
  5
FB
100
AcDbEntity
  8
LAY-3
  6
CONTINUOUS
 62
     3
100
AcDbLine
 10
473.537541
 20
467.675
 30
0.0
 11
473.537541
 21
360.175
 31
0.0
  0
LINE
  5
FC
100
AcDbEntity
  8
LAY-3
  6
CONTINUOUS
 62
     3
100
AcDbLine
 10
501.537541
 20
467.675
 30
0.0
 11
501.537541
 21
328.175
 31
0.0
  0
LINE
  5
FD
100
AcDbEntity
  8
LAY-3
  6
CONTINUOUS
 62
     3
100
AcDbLine
 10
473.537541
 20
350.175
 30
0.0
 11
473.537541
 21
328.175
 31
0.0
  0
LINE
  5
FE
100
AcDbEntity
  8
LAY-3
  6
DASHED2
 62
     3
100
AcDbLine
 10
172.937511
 20
175.175
 30
0.0
 11
172.437511
 21
175.675
 31
0.0
  0
LINE
  5
FF
100
AcDbEntity
  8
LAY-3
  6
DASHED2
 62
     3
100
AcDbLine
 10
188.937511
 20
175.175
 30
0.0
 11
172.937511
 21
175.175
 31
0.0
  0
LINE
  5
100
100
AcDbEntity
  8
LAY-3
  6
DASHED2
 62
     3
100
AcDbLine
 10
188.937511
 20
175.175
 30
0.0
 11
189.437511
 21
175.675
 31
0.0
  0
LINE
  5
101
100
AcDbEntity
  8
LAY-3
  6
DASHED2
 62
     3
100
AcDbLine
 10
189.437511
 20
175.675
 30
0.0
 11
189.412762
 21
175.675
 31
0.0
  0
LINE
  5
102
100
AcDbEntity
  8
LAY-3
  6
DASHED2
 62
     3
100
AcDbLine
 10
188.912762
 20
175.175
 30
0.0
 11
189.412762
 21
175.675
 31
0.0
  0
LINE
  5
103
100
AcDbEntity
  8
LAY-3
  6
DASHED2
 62
     3
100
AcDbLine
 10
172.437511
 20
175.675
 30
0.0
 11
174.745663
 21
175.675
 31
0.0
  0
LINE
  5
104
100
AcDbEntity
  8
LAY-3
  6
DASHED2
 62
     3
100
AcDbLine
 10
174.745663
 20
175.675
 30
0.0
 11
175.351857
 21
175.175
 31
0.0
  0
LINE
  5
105
100
AcDbEntity
  8
LAY-3
  6
DASHED2
 62
     3
100
AcDbLine
 10
178.937511
 20
175.175
 30
0.0
 11
174.937511
 21
175.175
 31
0.0
  0
LINE
  5
106
100
AcDbEntity
  8
LAY-3
  6
DASHED2
 62
     3
100
AcDbLine
 10
189.437511
 20
175.675
 30
0.0
 11
189.437511
 21
183.175
 31
0.0
  0
LINE
  5
107
100
AcDbEntity
  8
LAY-3
  6
DASHED2
 62
     3
100
AcDbLine
 10
189.181674
 20
175.419162
 30
0.0
 11
188.528549
 21
183.175
 31
0.0
  0
LINE
  5
108
100
AcDbEntity
  8
LAY-3
  6
DASHED2
 62
     3
100
AcDbLine
 10
174.745663
 20
175.675
 30
0.0
 11
175.352951
 21
183.175
 31
0.0
  0
LINE
  5
109
100
AcDbEntity
  8
LAY-3
  6
DASHED2
 62
     3
100
AcDbLine
 10
172.437511
 20
175.675
 30
0.0
 11
172.437511
 21
183.175
 31
0.0
  0
LINE
  5
10A
100
AcDbEntity
  8
LAY-3
  6
CONTINUOUS
 62
     3
100
AcDbLine
 10
169.937511
 20
478.175
 30
0.0
 11
193.937511
 21
478.175
 31
0.0
  0
LINE
  5
10B
100
AcDbEntity
  8
LAY-3
  6
DASHED2
 62
     3
100
AcDbLine
 10
187.937511
 20
478.175
 30
0.0
 11
175.937511
 21
478.175
 31
0.0
  0
LINE
  5
10C
100
AcDbEntity
  8
LAY-3
  6
CONTINUOUS
 62
     3
100
AcDbLine
 10
169.937511
 20
479.675
 30
0.0
 11
193.937511
 21
479.675
 31
0.0
  0
LINE
  5
10D
100
AcDbEntity
  8
LAY-3
  6
CONTINUOUS
 62
     3
100
AcDbLine
 10
193.937511
 20
479.675
 30
0.0
 11
193.937511
 21
478.175
 31
0.0
  0
LINE
  5
10E
100
AcDbEntity
  8
LAY-3
  6
CONTINUOUS
 62
     3
100
AcDbLine
 10
169.937511
 20
478.175
 30
0.0
 11
169.937511
 21
479.675
 31
0.0
  0
LINE
  5
10F
100
AcDbEntity
  8
LAY-3
  6
CONTINUOUS
 62
     3
100
AcDbLine
 10
475.537511
 20
478.175
 30
0.0
 11
499.537511
 21
478.175
 31
0.0
  0
LINE
  5
110
100
AcDbEntity
  8
LAY-3
  6
DASHED2
 62
     3
100
AcDbLine
 10
493.537511
 20
478.175
 30
0.0
 11
481.537511
 21
478.175
 31
0.0
  0
LINE
  5
111
100
AcDbEntity
  8
LAY-3
  6
CONTINUOUS
 62
     3
100
AcDbLine
 10
475.537511
 20
479.675
 30
0.0
 11
499.537511
 21
479.675
 31
0.0
  0
LINE
  5
112
100
AcDbEntity
  8
LAY-3
  6
CONTINUOUS
 62
     3
100
AcDbLine
 10
499.537511
 20
479.675
 30
0.0
 11
499.537511
 21
478.175
 31
0.0
  0
LINE
  5
113
100
AcDbEntity
  8
LAY-3
  6
CONTINUOUS
 62
     3
100
AcDbLine
 10
475.537511
 20
478.175
 30
0.0
 11
475.537511
 21
479.675
 31
0.0
  0
LINE
  5
114
100
AcDbEntity
  8
LAY-4
  6
CONTINUOUS
 62
     3
100
AcDbLine
 10
196.937511
 20
174.175
 30
0.0
 11
196.937511
 21
183.175
 31
0.0
  0
LINE
  5
115
100
AcDbEntity
  8
LAY-4
  6
CONTINUOUS
 62
     3
100
AcDbLine
 10
141.937511
 20
274.175
 30
0.0
 11
132.937511
 21
274.175
 31
0.0
  0
LINE
  5
116
100
AcDbEntity
  8
LAY-4
  6
CONTINUOUS
 62
     3
100
AcDbLine
 10
141.937511
 20
185.175
 30
0.0
 11
141.937511
 21
274.175
 31
0.0
  0
LINE
  5
117
100
AcDbEntity
  8
LAY-4
  6
CONTINUOUS
 62
     3
100
AcDbLine
 10
196.937511
 20
183.175
 30
0.0
 11
143.937511
 21
183.175
 31
0.0
  0
ARC
  5
118
100
AcDbEntity
  8
LAY-4
  6
CONTINUOUS
 62
     3
100
AcDbCircle
 10
143.937511
 20
185.175
 30
0.0
 40
2.0
100
AcDbArc
 50
180.0
 51
270.0
  0
LINE
  5
119
100
AcDbEntity
  8
LAY-4
  6
CONTINUOUS
 62
     3
100
AcDbLine
 10
142.937511
 20
174.175
 30
0.0
 11
196.937511
 21
174.175
 31
0.0
  0
LINE
  5
11A
100
AcDbEntity
  8
LAY-4
  6
CONTINUOUS
 62
     3
100
AcDbLine
 10
132.937511
 20
274.175
 30
0.0
 11
132.937511
 21
184.175
 31
0.0
  0
ARC
  5
11B
100
AcDbEntity
  8
LAY-4
  6
CONTINUOUS
 62
     3
100
AcDbCircle
 10
142.937511
 20
184.175
 30
0.0
 40
10.0
100
AcDbArc
 50
180.0
 51
270.0
  0
LINE
  5
11C
100
AcDbEntity
  8
LAY-4
  6
CONTINUOUS
 62
     3
100
AcDbLine
 10
503.537511
 20
274.175
 30
0.0
 11
503.537511
 21
174.175
 31
0.0
  0
LINE
  5
11D
100
AcDbEntity
  8
LAY-4
  6
CONTINUOUS
 62
     3
100
AcDbLine
 10
471.537511
 20
274.175
 30
0.0
 11
471.537511
 21
174.175
 31
0.0
  0
LINE
  5
11E
100
AcDbEntity
  8
LAY-4
  6
CONTINUOUS
 62
     3
100
AcDbLine
 10
471.537511
 20
174.175
 30
0.0
 11
503.537511
 21
174.175
 31
0.0
  0
LINE
  5
11F
100
AcDbEntity
  8
LAY-4
  6
CONTINUOUS
 62
     3
100
AcDbLine
 10
471.537511
 20
183.175
 30
0.0
 11
503.537511
 21
183.175
 31
0.0
  0
LINE
  5
120
100
AcDbEntity
  8
LAY-4
  6
DASHED2
 62
     3
100
AcDbLine
 10
481.237421
 20
177.175
 30
0.0
 11
493.837602
 21
177.175
 31
0.0
  0
LINE
  5
121
100
AcDbEntity
  8
LAY-4
  6
DASHED2
 62
     3
100
AcDbLine
 10
494.362534
 20
183.175
 30
0.0
 11
493.837602
 21
177.175
 31
0.0
  0
LINE
  5
122
100
AcDbEntity
  8
LAY-4
  6
DASHED2
 62
     3
100
AcDbLine
 10
480.712489
 20
183.175
 30
0.0
 11
481.237421
 21
177.175
 31
0.0
  0
LINE
  5
123
100
AcDbEntity
  8
LAY-4
  6
DASHED2
 62
     3
100
AcDbLine
 10
493.837602
 20
177.175
 30
0.0
 11
493.837602
 21
174.175
 31
0.0
  0
LINE
  5
124
100
AcDbEntity
  8
LAY-4
  6
DASHED2
 62
     3
100
AcDbLine
 10
481.237421
 20
177.175
 30
0.0
 11
481.237421
 21
174.175
 31
0.0
  0
LINE
  5
125
100
AcDbEntity
  8
LAY-4
  6
CONTINUOUS
 62
     3
100
AcDbLine
 10
501.537541
 20
274.175
 30
0.0
 11
503.537511
 21
274.175
 31
0.0
  0
LINE
  5
126
100
AcDbEntity
  8
LAY-4
  6
CONTINUOUS
 62
     3
100
AcDbLine
 10
471.537511
 20
274.175
 30
0.0
 11
473.537541
 21
274.175
 31
0.0
  0
LINE
  5
127
100
AcDbEntity
  8
LAY-4
  6
DASHED2
 62
     3
100
AcDbLine
 10
473.537541
 20
274.175
 30
0.0
 11
501.537541
 21
274.175
 31
0.0
  0
LINE
  5
128
100
AcDbEntity
  8
LAY-4
  6
CONTINUOUS
 62
     3
100
AcDbLine
 10
631.686292
 20
185.0
 30
0.0
 11
631.686292
 21
217.0
 31
0.0
  0
LINE
  5
129
100
AcDbEntity
  8
LAY-4
  6
CONTINUOUS
 62
     3
100
AcDbLine
 10
622.686292
 20
185.0
 30
0.0
 11
622.686292
 21
217.0
 31
0.0
  0
LINE
  5
12A
100
AcDbEntity
  8
LAY-4
  6
CONTINUOUS
 62
     3
100
AcDbLine
 10
686.686292
 20
185.0
 30
0.0
 11
686.686292
 21
217.0
 31
0.0
  0
LINE
  5
12B
100
AcDbEntity
  8
LAY-4
  6
CONTINUOUS
 62
     3
100
AcDbLine
 10
679.286292
 20
195.134849
 30
0.0
 11
679.286292
 21
206.865151
 31
0.0
  0
LINE
  5
12C
100
AcDbEntity
  8
LAY-4
  6
CONTINUOUS
 62
     3
100
AcDbLine
 10
664.935042
 20
194.175
 30
0.0
 11
678.437541
 21
194.175
 31
0.0
  0
LINE
  5
12D
100
AcDbEntity
  8
LAY-4
  6
CONTINUOUS
 62
     3
100
AcDbLine
 10
664.935042
 20
207.825
 30
0.0
 11
678.437541
 21
207.825
 31
0.0
  0
ARC
  5
12E
100
AcDbEntity
  8
LAY-4
  6
CONTINUOUS
 62
     3
100
AcDbCircle
 10
671.686292
 20
201.0
 30
0.0
 40
9.6
100
AcDbArc
 50
134.688756
 51
225.311244
  0
ARC
  5
12F
100
AcDbEntity
  8
LAY-4
  6
CONTINUOUS
 62
     3
100
AcDbCircle
 10
671.686292
 20
201.0
 30
0.0
 40
9.6
100
AcDbArc
 50
37.658462
 51
45.311244
  0
ARC
  5
130
100
AcDbEntity
  8
LAY-4
  6
CONTINUOUS
 62
     3
100
AcDbCircle
 10
671.686292
 20
201.0
 30
0.0
 40
9.6
100
AcDbArc
 50
314.688756
 51
322.341538
  0
LINE
  5
131
100
AcDbEntity
  8
LAY-4
  6
CONTINUOUS
 62
     3
100
AcDbLine
 10
664.222553
 20
194.9624
 30
0.0
 11
679.15003
 21
194.9624
 31
0.0
  0
LINE
  5
132
100
AcDbEntity
  8
LAY-4
  6
CONTINUOUS
 62
     3
100
AcDbLine
 10
664.222553
 20
207.0376
 30
0.0
 11
679.15003
 21
207.0376
 31
0.0
  0
LINE
  5
133
100
AcDbEntity
  8
LAY-4
  6
CONTINUOUS
 62
     3
100
AcDbLine
 10
622.686292
 20
217.0
 30
0.0
 11
686.686292
 21
217.0
 31
0.0
  0
LINE
  5
134
100
AcDbEntity
  8
LAY-4
  6
CONTINUOUS
 62
     3
100
AcDbLine
 10
686.686292
 20
185.0
 30
0.0
 11
622.686292
 21
185.0
 31
0.0
  0
LINE
  5
135
100
AcDbEntity
  8
LAY-4
  6
DASHED2
 62
     3
100
AcDbLine
 10
189.537511
 20
183.175
 30
0.0
 11
189.537511
 21
174.175
 31
0.0
  0
LINE
  5
136
100
AcDbEntity
  8
LAY-4
  6
DASHED2
 62
     3
100
AcDbLine
 10
172.337511
 20
183.175
 30
0.0
 11
172.337511
 21
174.175
 31
0.0
  0
LINE
  5
137
100
AcDbEntity
  8
LAY-5
  6
DASHDOT
 62
     1
100
AcDbLine
 10
188.137511
 20
472.675
 30
0.0
 11
171.637511
 21
472.675
 31
0.0
  0
LINE
  5
138
100
AcDbEntity
  8
LAY-5
  6
DASHDOT
 62
     1
100
AcDbLine
 10
181.937511
 20
485.875
 30
0.0
 11
181.937511
 21
168.975
 31
0.0
  0
LINE
  5
139
100
AcDbEntity
  8
LAY-5
  6
DASHDOT
 62
     1
100
AcDbLine
 10
487.537511
 20
167.175
 30
0.0
 11
487.537511
 21
509.175
 31
0.0
  0
LINE
  5
13A
100
AcDbEntity
  8
LAY-5
  6
DASHDOT
 62
     1
100
AcDbLine
 10
671.686292
 20
222.7
 30
0.0
 11
671.686292
 21
181.2
 31
0.0
  0
LINE
  5
13B
100
AcDbEntity
  8
LAY-5
  6
DASHDOT
 62
     1
100
AcDbLine
 10
650.786292
 20
201.0
 30
0.0
 11
754.986322
 21
201.0
 31
0.0
  0
TEXT
  5
13C
100
AcDbEntity
  8
LAY-6
  6
CONTINUOUS
 62
     2
100
AcDbText
 10
306.0
 20
20.2
 30
0.0
 40
6.0
  1
１／１
 41
0.672
  7
EXCADSTD
 72
     5
 11
320.400001
 21
20.2
 31
0.0
100
AcDbText
  0
TEXT
  5
13D
100
AcDbEntity
  8
LAY-6
  6
CONTINUOUS
 62
     2
100
AcDbText
 10
233.637511
 20
377.875
 30
0.0
 40
5.0
  1
スプリング調整窓
 41
0.672
  7
EXCADSTD
 72
     5
 11
265.637511
 21
377.875
 31
0.0
100
AcDbText
  0
POLYLINE
  5
13E
100
AcDbEntity
  8
LAY-6
  6
CONTINUOUS
 62
     1
100
AcDb2dPolyline
 66
     1
 10
0.0
 20
0.0
 30
0.0
 70
   128
  0
VERTEX
  5
13F
100
AcDbEntity
  8
LAY-6
  6
CONTINUOUS
 62
     1
100
AcDbVertex
100
AcDb2dVertex
 10
219.937511
 20
363.675
 30
0.0
  0
VERTEX
  5
140
100
AcDbEntity
  8
LAY-6
  6
CONTINUOUS
 62
     1
100
AcDbVertex
100
AcDb2dVertex
 10
233.537511
 20
377.875
 30
0.0
  0
VERTEX
  5
141
100
AcDbEntity
  8
LAY-6
  6
CONTINUOUS
 62
     1
100
AcDbVertex
100
AcDb2dVertex
 10
265.637511
 20
377.875
 30
0.0
  0
SEQEND
  5
142
100
AcDbEntity
  8
LAY-6
  6
CONTINUOUS
 62
     1
  0
LINE
  5
143
100
AcDbEntity
  8
LAY-6
  6
CONTINUOUS
 62
     1
100
AcDbLine
 10
221.651465
 20
366.187442
 30
0.0
 11
219.937511
 21
363.675
 31
0.0
  0
LINE
  5
144
100
AcDbEntity
  8
LAY-6
  6
CONTINUOUS
 62
     1
100
AcDbLine
 10
219.937511
 20
363.675
 30
0.0
 11
222.373665
 21
365.495757
 31
0.0
  0
TEXT
  5
145
100
AcDbEntity
  8
LAY-6
  6
CONTINUOUS
 62
     2
100
AcDbText
 10
169.937511
 20
370.175
 30
0.0
 40
5.0
  1
※
 41
0.672
  7
EXCADSTD
 72
     5
 11
173.137511
 21
370.175
 31
0.0
100
AcDbText
  0
TEXT
  5
146
100
AcDbEntity
  8
LAY-6
  6
CONTINUOUS
 62
     2
100
AcDbText
 10
173.937511
 20
370.175
 30
0.0
 40
5.0
  1
１２
 41
0.672
  7
EXCADSTD
 72
     5
 11
181.270311
 21
370.175
 31
0.0
100
AcDbText
  0
LINE
  5
147
100
AcDbEntity
  8
LAY-6
  6
CONTINUOUS
 62
     1
100
AcDbLine
 10
169.937511
 20
364.175
 30
0.0
 11
169.937511
 21
370.675
 31
0.0
  0
LINE
  5
148
100
AcDbEntity
  8
LAY-6
  6
CONTINUOUS
 62
     1
100
AcDbLine
 10
169.937511
 20
369.675
 30
0.0
 11
181.937511
 21
369.675
 31
0.0
  0
LINE
  5
149
100
AcDbEntity
  8
LAY-6
  6
CONTINUOUS
 62
     1
100
AcDbLine
 10
171.937511
 20
370.008333
 30
0.0
 11
169.937511
 21
369.675
 31
0.0
  0
LINE
  5
14A
100
AcDbEntity
  8
LAY-6
  6
CONTINUOUS
 62
     1
100
AcDbLine
 10
169.937511
 20
369.675
 30
0.0
 11
171.937511
 21
369.341667
 31
0.0
  0
LINE
  5
14B
100
AcDbEntity
  8
LAY-6
  6
CONTINUOUS
 62
     1
100
AcDbLine
 10
179.937511
 20
369.341667
 30
0.0
 11
181.937511
 21
369.675
 31
0.0
  0
LINE
  5
14C
100
AcDbEntity
  8
LAY-6
  6
CONTINUOUS
 62
     1
100
AcDbLine
 10
181.937511
 20
369.675
 30
0.0
 11
179.937511
 21
370.008333
 31
0.0
  0
LINE
  5
14D
100
AcDbEntity
  8
LAY-6
  6
CONTINUOUS
 62
     1
100
AcDbLine
 10
219.937511
 20
364.175
 30
0.0
 11
219.937511
 21
370.675
 31
0.0
  0
TEXT
  5
14E
100
AcDbEntity
  8
LAY-6
  6
CONTINUOUS
 62
     2
100
AcDbText
 10
196.937511
 20
370.175
 30
0.0
 40
5.0
  1
３８
 41
0.672
  7
EXCADSTD
 72
     5
 11
204.270311
 21
370.175
 31
0.0
100
AcDbText
  0
LINE
  5
14F
100
AcDbEntity
  8
LAY-6
  6
CONTINUOUS
 62
     1
100
AcDbLine
 10
219.937511
 20
369.675
 30
0.0
 11
181.937511
 21
369.675
 31
0.0
  0
LINE
  5
150
100
AcDbEntity
  8
LAY-6
  6
CONTINUOUS
 62
     1
100
AcDbLine
 10
217.937511
 20
369.341667
 30
0.0
 11
219.937511
 21
369.675
 31
0.0
  0
LINE
  5
151
100
AcDbEntity
  8
LAY-6
  6
CONTINUOUS
 62
     1
100
AcDbLine
 10
219.937511
 20
369.675
 30
0.0
 11
217.937511
 21
370.008333
 31
0.0
  0
LINE
  5
152
100
AcDbEntity
  8
LAY-6
  6
CONTINUOUS
 62
     1
100
AcDbLine
 10
183.937511
 20
370.008333
 30
0.0
 11
181.937511
 21
369.675
 31
0.0
  0
LINE
  5
153
100
AcDbEntity
  8
LAY-6
  6
CONTINUOUS
 62
     1
100
AcDbLine
 10
181.937511
 20
369.675
 30
0.0
 11
183.937511
 21
369.341667
 31
0.0
  0
TEXT
  5
154
100
AcDbEntity
  8
LAY-6
  6
CONTINUOUS
 62
     2
100
AcDbText
 10
195.412293
 20
485.125437
 30
0.0
 40
5.0
  1
閉扉速度調整穴　φ１５
 41
0.672
  7
EXCADSTD
 72
     5
 11
239.412293
 21
485.125437
 31
0.0
100
AcDbText
  0
POLYLINE
  5
155
100
AcDbEntity
  8
LAY-6
  6
CONTINUOUS
 62
     1
100
AcDb2dPolyline
 66
     1
 10
0.0
 20
0.0
 30
0.0
 70
   128
  0
VERTEX
  5
156
100
AcDbEntity
  8
LAY-6
  6
CONTINUOUS
 62
     1
100
AcDbVertex
100
AcDb2dVertex
 10
188.145325
 20
476.883687
 30
0.0
  0
VERTEX
  5
157
100
AcDbEntity
  8
LAY-6
  6
CONTINUOUS
 62
     1
100
AcDbVertex
100
AcDb2dVertex
 10
195.887075
 20
484.625437
 30
0.0
  0
VERTEX
  5
158
100
AcDbEntity
  8
LAY-6
  6
CONTINUOUS
 62
     1
100
AcDbVertex
100
AcDb2dVertex
 10
238.937511
 20
484.625437
 30
0.0
  0
SEQEND
  5
159
100
AcDbEntity
  8
LAY-6
  6
CONTINUOUS
 62
     1
  0
LINE
  5
15A
100
AcDbEntity
  8
LAY-6
  6
CONTINUOUS
 62
     1
100
AcDbLine
 10
189.323836
 20
478.533603
 30
0.0
 11
188.145325
 21
476.883687
 31
0.0
  0
LINE
  5
15B
100
AcDbEntity
  8
LAY-6
  6
CONTINUOUS
 62
     1
100
AcDbLine
 10
188.145325
 20
476.883687
 30
0.0
 11
189.795241
 21
478.062199
 31
0.0
  0
TEXT
  5
15C
100
AcDbEntity
  8
LAY-6
  6
CONTINUOUS
 62
     2
100
AcDbText
 10
304.262511
 20
227.825
 30
0.0
 40
5.0
  1
裏板４.５ｔ以上(別途)
 41
0.616
  7
EXCADSTD
 72
     5
 11
346.262511
 21
227.825
 31
0.0
100
AcDbText
  0
POLYLINE
  5
15D
100
AcDbEntity
  8
LAY-6
  6
CONTINUOUS
 62
     1
100
AcDb2dPolyline
 66
     1
 10
0.0
 20
0.0
 30
0.0
 70
   128
  0
VERTEX
  5
15E
100
AcDbEntity
  8
LAY-6
  6
CONTINUOUS
 62
     1
100
AcDbVertex
100
AcDb2dVertex
 10
291.937511
 20
214.175
 30
0.0
  0
VERTEX
  5
15F
100
AcDbEntity
  8
LAY-6
  6
CONTINUOUS
 62
     1
100
AcDbVertex
100
AcDb2dVertex
 10
305.087511
 20
227.325
 30
0.0
  0
VERTEX
  5
160
100
AcDbEntity
  8
LAY-6
  6
CONTINUOUS
 62
     1
100
AcDbVertex
100
AcDb2dVertex
 10
345.437511
 20
227.325
 30
0.0
  0
SEQEND
  5
161
100
AcDbEntity
  8
LAY-6
  6
CONTINUOUS
 62
     1
  0
LINE
  5
162
100
AcDbEntity
  8
LAY-6
  6
CONTINUOUS
 62
     1
100
AcDbLine
 10
293.116023
 20
215.824916
 30
0.0
 11
291.937511
 21
214.175
 31
0.0
  0
LINE
  5
163
100
AcDbEntity
  8
LAY-6
  6
CONTINUOUS
 62
     1
100
AcDbLine
 10
291.937511
 20
214.175
 30
0.0
 11
293.587427
 21
215.353511
 31
0.0
  0
POLYLINE
  5
164
100
AcDbEntity
  8
LAY-6
  6
CONTINUOUS
 62
     1
100
AcDb2dPolyline
 66
     1
 10
0.0
 20
0.0
 30
0.0
 70
   128
  0
VERTEX
  5
165
100
AcDbEntity
  8
LAY-6
  6
CONTINUOUS
 62
     1
100
AcDbVertex
100
AcDb2dVertex
 10
281.937511
 20
215.175037
 30
0.0
  0
VERTEX
  5
166
100
AcDbEntity
  8
LAY-6
  6
CONTINUOUS
 62
     1
100
AcDbVertex
100
AcDb2dVertex
 10
303.687493
 20
236.925019
 30
0.0
  0
VERTEX
  5
167
100
AcDbEntity
  8
LAY-6
  6
CONTINUOUS
 62
     1
100
AcDbVertex
100
AcDb2dVertex
 10
352.737511
 20
236.925019
 30
0.0
  0
SEQEND
  5
168
100
AcDbEntity
  8
LAY-6
  6
CONTINUOUS
 62
     1
  0
LINE
  5
169
100
AcDbEntity
  8
LAY-6
  6
CONTINUOUS
 62
     1
100
AcDbLine
 10
283.116023
 20
216.824953
 30
0.0
 11
281.937511
 21
215.175037
 31
0.0
  0
LINE
  5
16A
100
AcDbEntity
  8
LAY-6
  6
CONTINUOUS
 62
     1
100
AcDbLine
 10
281.937511
 20
215.175037
 30
0.0
 11
283.587427
 21
216.353548
 31
0.0
  0
TEXT
  5
16B
100
AcDbEntity
  8
LAY-6
  6
CONTINUOUS
 62
     2
100
AcDbText
 10
304.212502
 20
237.425019
 30
0.0
 40
5.0
  1
４－Ｍ６×１６サラ小ネジ
 41
0.672
  7
EXCADSTD
 72
     5
 11
352.212502
 21
237.425019
 31
0.0
100
AcDbText
  0
LINE
  5
16C
100
AcDbEntity
  8
LAY-6
  6
CONTINUOUS
 62
     1
100
AcDbLine
 10
198.937511
 20
214.675
 30
0.0
 11
198.937511
 21
222.775
 31
0.0
  0
TEXT
  5
16D
100
AcDbEntity
  8
LAY-6
  6
CONTINUOUS
 62
     2
100
AcDbText
 10
186.437511
 20
222.275
 30
0.0
 40
5.0
  1
１７
 41
0.672
  7
EXCADSTD
 72
     5
 11
193.770311
 21
222.275
 31
0.0
100
AcDbText
  0
LINE
  5
16E
100
AcDbEntity
  8
LAY-6
  6
CONTINUOUS
 62
     1
100
AcDbLine
 10
198.937511
 20
221.775
 30
0.0
 11
181.937511
 21
221.775
 31
0.0
  0
LINE
  5
16F
100
AcDbEntity
  8
LAY-6
  6
CONTINUOUS
 62
     1
100
AcDbLine
 10
196.937511
 20
221.441667
 30
0.0
 11
198.937511
 21
221.775
 31
0.0
  0
LINE
  5
170
100
AcDbEntity
  8
LAY-6
  6
CONTINUOUS
 62
     1
100
AcDbLine
 10
198.937511
 20
221.775
 30
0.0
 11
196.937511
 21
222.108333
 31
0.0
  0
LINE
  5
171
100
AcDbEntity
  8
LAY-6
  6
CONTINUOUS
 62
     1
100
AcDbLine
 10
183.937511
 20
222.108333
 30
0.0
 11
181.937511
 21
221.775
 31
0.0
  0
LINE
  5
172
100
AcDbEntity
  8
LAY-6
  6
CONTINUOUS
 62
     1
100
AcDbLine
 10
181.937511
 20
221.775
 30
0.0
 11
183.937511
 21
221.441667
 31
0.0
  0
LINE
  5
173
100
AcDbEntity
  8
LAY-6
  6
CONTINUOUS
 62
     1
100
AcDbLine
 10
291.937511
 20
214.675
 30
0.0
 11
291.937511
 21
222.775
 31
0.0
  0
TEXT
  5
174
100
AcDbEntity
  8
LAY-6
  6
CONTINUOUS
 62
     2
100
AcDbText
 10
241.437511
 20
222.275
 30
0.0
 40
5.0
  1
９３
 41
0.672
  7
EXCADSTD
 72
     5
 11
248.770311
 21
222.275
 31
0.0
100
AcDbText
  0
LINE
  5
175
100
AcDbEntity
  8
LAY-6
  6
CONTINUOUS
 62
     1
100
AcDbLine
 10
291.937511
 20
221.775
 30
0.0
 11
198.937511
 21
221.775
 31
0.0
  0
LINE
  5
176
100
AcDbEntity
  8
LAY-6
  6
CONTINUOUS
 62
     1
100
AcDbLine
 10
289.937511
 20
221.441667
 30
0.0
 11
291.937511
 21
221.775
 31
0.0
  0
LINE
  5
177
100
AcDbEntity
  8
LAY-6
  6
CONTINUOUS
 62
     1
100
AcDbLine
 10
291.937511
 20
221.775
 30
0.0
 11
289.937511
 21
222.108333
 31
0.0
  0
LINE
  5
178
100
AcDbEntity
  8
LAY-6
  6
CONTINUOUS
 62
     1
100
AcDbLine
 10
200.937511
 20
222.108333
 30
0.0
 11
198.937511
 21
221.775
 31
0.0
  0
LINE
  5
179
100
AcDbEntity
  8
LAY-6
  6
CONTINUOUS
 62
     1
100
AcDbLine
 10
198.937511
 20
221.775
 30
0.0
 11
200.937511
 21
221.441667
 31
0.0
  0
LINE
  5
17A
100
AcDbEntity
  8
LAY-6
  6
CONTINUOUS
 62
     1
100
AcDbLine
 10
132.437511
 20
274.175
 30
0.0
 11
117.337541
 21
274.175
 31
0.0
  0
LINE
  5
17B
100
AcDbEntity
  8
LAY-6
  6
CONTINUOUS
 62
     1
100
AcDbLine
 10
142.437511
 20
174.175
 30
0.0
 11
117.337541
 21
174.175
 31
0.0
  0
TEXT
  5
17C
100
AcDbEntity
  8
LAY-6
  6
CONTINUOUS
 62
     2
100
AcDbText
 10
117.837541
 20
218.175
 30
0.0
 40
5.0
  1
１００
 50
90.0
 41
0.672
  7
EXCADSTD
 72
     5
 11
117.837541
 21
230.175
 31
0.0
100
AcDbText
  0
LINE
  5
17D
100
AcDbEntity
  8
LAY-6
  6
CONTINUOUS
 62
     1
100
AcDbLine
 10
118.337541
 20
274.175
 30
0.0
 11
118.337541
 21
174.175
 31
0.0
  0
LINE
  5
17E
100
AcDbEntity
  8
LAY-6
  6
CONTINUOUS
 62
     1
100
AcDbLine
 10
118.670875
 20
272.175
 30
0.0
 11
118.337541
 21
274.175
 31
0.0
  0
LINE
  5
17F
100
AcDbEntity
  8
LAY-6
  6
CONTINUOUS
 62
     1
100
AcDbLine
 10
118.337541
 20
274.175
 30
0.0
 11
118.004208
 21
272.175
 31
0.0
  0
LINE
  5
180
100
AcDbEntity
  8
LAY-6
  6
CONTINUOUS
 62
     1
100
AcDbLine
 10
118.004208
 20
176.175
 30
0.0
 11
118.337541
 21
174.175
 31
0.0
  0
LINE
  5
181
100
AcDbEntity
  8
LAY-6
  6
CONTINUOUS
 62
     1
100
AcDbLine
 10
118.337541
 20
174.175
 30
0.0
 11
118.670875
 21
176.175
 31
0.0
  0
TEXT
  5
182
100
AcDbEntity
  8
LAY-6
  6
CONTINUOUS
 62
     2
100
AcDbText
 10
117.837541
 20
165.175
 30
0.0
 40
5.0
  1
３
 50
90.0
 41
0.672
  7
EXCADSTD
 72
     5
 11
117.837541
 21
168.375
 31
0.0
100
AcDbText
  0
LINE
  5
183
100
AcDbEntity
  8
LAY-6
  6
CONTINUOUS
 62
     1
100
AcDbLine
 10
118.337541
 20
177.175
 30
0.0
 11
118.337541
 21
164.675
 31
0.0
  0
LINE
  5
184
100
AcDbEntity
  8
LAY-6
  6
CONTINUOUS
 62
     1
100
AcDbLine
 10
118.670875
 20
169.175
 30
0.0
 11
118.337541
 21
171.175
 31
0.0
  0
LINE
  5
185
100
AcDbEntity
  8
LAY-6
  6
CONTINUOUS
 62
     1
100
AcDbLine
 10
118.337541
 20
171.175
 30
0.0
 11
118.004208
 21
169.175
 31
0.0
  0
LINE
  5
186
100
AcDbEntity
  8
LAY-6
  6
CONTINUOUS
 62
     1
100
AcDbLine
 10
203.937511
 20
189.675
 30
0.0
 11
203.937511
 21
204.275
 31
0.0
  0
TEXT
  5
187
100
AcDbEntity
  8
LAY-6
  6
CONTINUOUS
 62
     2
100
AcDbText
 10
188.937511
 20
203.775
 30
0.0
 40
5.0
  1
２２
 41
0.672
  7
EXCADSTD
 72
     5
 11
196.270311
 21
203.775
 31
0.0
100
AcDbText
  0
LINE
  5
188
100
AcDbEntity
  8
LAY-6
  6
CONTINUOUS
 62
     1
100
AcDbLine
 10
181.937511
 20
203.275
 30
0.0
 11
203.937511
 21
203.275
 31
0.0
  0
LINE
  5
189
100
AcDbEntity
  8
LAY-6
  6
CONTINUOUS
 62
     1
100
AcDbLine
 10
183.937511
 20
203.608333
 30
0.0
 11
181.937511
 21
203.275
 31
0.0
  0
LINE
  5
18A
100
AcDbEntity
  8
LAY-6
  6
CONTINUOUS
 62
     1
100
AcDbLine
 10
181.937511
 20
203.275
 30
0.0
 11
183.937511
 21
202.941667
 31
0.0
  0
LINE
  5
18B
100
AcDbEntity
  8
LAY-6
  6
CONTINUOUS
 62
     1
100
AcDbLine
 10
201.937511
 20
202.941667
 30
0.0
 11
203.937511
 21
203.275
 31
0.0
  0
LINE
  5
18C
100
AcDbEntity
  8
LAY-6
  6
CONTINUOUS
 62
     1
100
AcDbLine
 10
203.937511
 20
203.275
 30
0.0
 11
201.937511
 21
203.608333
 31
0.0
  0
LINE
  5
18D
100
AcDbEntity
  8
LAY-6
  6
CONTINUOUS
 62
     1
100
AcDbLine
 10
204.437511
 20
189.175
 30
0.0
 11
216.337511
 21
189.175
 31
0.0
  0
TEXT
  5
18E
100
AcDbEntity
  8
LAY-6
  6
CONTINUOUS
 62
     2
100
AcDbText
 10
214.837511
 20
176.175
 30
0.0
 40
5.0
  1
１８
 50
90.0
 41
0.672
  7
EXCADSTD
 72
     5
 11
214.837511
 21
183.5078
 31
0.0
100
AcDbText
  0
LINE
  5
18F
100
AcDbEntity
  8
LAY-6
  6
CONTINUOUS
 62
     1
100
AcDbLine
 10
215.337511
 20
189.175
 30
0.0
 11
215.337511
 21
171.175
 31
0.0
  0
LINE
  5
190
100
AcDbEntity
  8
LAY-6
  6
CONTINUOUS
 62
     1
100
AcDbLine
 10
215.670845
 20
187.175
 30
0.0
 11
215.337511
 21
189.175
 31
0.0
  0
LINE
  5
191
100
AcDbEntity
  8
LAY-6
  6
CONTINUOUS
 62
     1
100
AcDbLine
 10
215.337511
 20
189.175
 30
0.0
 11
215.004178
 21
187.175
 31
0.0
  0
LINE
  5
192
100
AcDbEntity
  8
LAY-6
  6
CONTINUOUS
 62
     1
100
AcDbLine
 10
215.004178
 20
173.175
 30
0.0
 11
215.337511
 21
171.175
 31
0.0
  0
LINE
  5
193
100
AcDbEntity
  8
LAY-6
  6
CONTINUOUS
 62
     1
100
AcDbLine
 10
215.337511
 20
171.175
 30
0.0
 11
215.670845
 21
173.175
 31
0.0
  0
LINE
  5
194
100
AcDbEntity
  8
LAY-6
  6
CONTINUOUS
 62
     1
100
AcDbLine
 10
197.437511
 20
183.175
 30
0.0
 11
201.437511
 21
183.175
 31
0.0
  0
TEXT
  5
195
100
AcDbEntity
  8
LAY-6
  6
CONTINUOUS
 62
     2
100
AcDbText
 10
199.937511
 20
184.175
 30
0.0
 40
5.0
  1
６
 50
90.0
 41
0.672
  7
EXCADSTD
 72
     5
 11
199.937511
 21
187.375
 31
0.0
100
AcDbText
  0
LINE
  5
196
100
AcDbEntity
  8
LAY-6
  6
CONTINUOUS
 62
     1
100
AcDbLine
 10
200.437511
 20
183.175
 30
0.0
 11
200.437511
 21
189.175
 31
0.0
  0
LINE
  5
197
100
AcDbEntity
  8
LAY-6
  6
CONTINUOUS
 62
     1
100
AcDbLine
 10
200.104178
 20
185.175
 30
0.0
 11
200.437511
 21
183.175
 31
0.0
  0
LINE
  5
198
100
AcDbEntity
  8
LAY-6
  6
CONTINUOUS
 62
     1
100
AcDbLine
 10
200.437511
 20
183.175
 30
0.0
 11
200.770845
 21
185.175
 31
0.0
  0
LINE
  5
199
100
AcDbEntity
  8
LAY-6
  6
CONTINUOUS
 62
     1
100
AcDbLine
 10
200.770845
 20
187.175
 30
0.0
 11
200.437511
 21
189.175
 31
0.0
  0
LINE
  5
19A
100
AcDbEntity
  8
LAY-6
  6
CONTINUOUS
 62
     1
100
AcDbLine
 10
200.437511
 20
189.175
 30
0.0
 11
200.104178
 21
187.175
 31
0.0
  0
TEXT
  5
19B
100
AcDbEntity
  8
LAY-6
  6
CONTINUOUS
 62
     2
100
AcDbText
 10
170.037541
 20
176.675
 30
0.0
 40
5.0
  1
９
 50
90.0
 41
0.672
  7
EXCADSTD
 72
     5
 11
170.037541
 21
179.875
 31
0.0
100
AcDbText
  0
LINE
  5
19C
100
AcDbEntity
  8
LAY-6
  6
CONTINUOUS
 62
     1
100
AcDbLine
 10
170.537541
 20
174.175
 30
0.0
 11
170.537541
 21
183.175
 31
0.0
  0
LINE
  5
19D
100
AcDbEntity
  8
LAY-6
  6
CONTINUOUS
 62
     1
100
AcDbLine
 10
170.204208
 20
176.175
 30
0.0
 11
170.537541
 21
174.175
 31
0.0
  0
LINE
  5
19E
100
AcDbEntity
  8
LAY-6
  6
CONTINUOUS
 62
     1
100
AcDbLine
 10
170.537541
 20
174.175
 30
0.0
 11
170.870875
 21
176.175
 31
0.0
  0
LINE
  5
19F
100
AcDbEntity
  8
LAY-6
  6
CONTINUOUS
 62
     1
100
AcDbLine
 10
170.870875
 20
181.175
 30
0.0
 11
170.537541
 21
183.175
 31
0.0
  0
LINE
  5
1A0
100
AcDbEntity
  8
LAY-6
  6
CONTINUOUS
 62
     1
100
AcDbLine
 10
170.537541
 20
183.175
 30
0.0
 11
170.204208
 21
181.175
 31
0.0
  0
LINE
  5
1A1
100
AcDbEntity
  8
LAY-6
  6
CONTINUOUS
 62
     1
100
AcDbLine
 10
141.937511
 20
274.675
 30
0.0
 11
141.937511
 21
292.775
 31
0.0
  0
TEXT
  5
1A2
100
AcDbEntity
  8
LAY-6
  6
CONTINUOUS
 62
     2
100
AcDbText
 10
157.937511
 20
292.275
 30
0.0
 40
5.0
  1
４０
 41
0.672
  7
EXCADSTD
 72
     5
 11
165.270311
 21
292.275
 31
0.0
100
AcDbText
  0
LINE
  5
1A3
100
AcDbEntity
  8
LAY-6
  6
CONTINUOUS
 62
     1
100
AcDbLine
 10
181.937511
 20
291.775
 30
0.0
 11
141.937511
 21
291.775
 31
0.0
  0
LINE
  5
1A4
100
AcDbEntity
  8
LAY-6
  6
CONTINUOUS
 62
     1
100
AcDbLine
 10
179.937511
 20
291.441667
 30
0.0
 11
181.937511
 21
291.775
 31
0.0
  0
LINE
  5
1A5
100
AcDbEntity
  8
LAY-6
  6
CONTINUOUS
 62
     1
100
AcDbLine
 10
181.937511
 20
291.775
 30
0.0
 11
179.937511
 21
292.108333
 31
0.0
  0
LINE
  5
1A6
100
AcDbEntity
  8
LAY-6
  6
CONTINUOUS
 62
     1
100
AcDbLine
 10
143.937511
 20
292.108333
 30
0.0
 11
141.937511
 21
291.775
 31
0.0
  0
LINE
  5
1A7
100
AcDbEntity
  8
LAY-6
  6
CONTINUOUS
 62
     1
100
AcDbLine
 10
141.937511
 20
291.775
 30
0.0
 11
143.937511
 21
291.441667
 31
0.0
  0
LINE
  5
1A8
100
AcDbEntity
  8
LAY-6
  6
CONTINUOUS
 62
     1
100
AcDbLine
 10
132.937511
 20
274.675
 30
0.0
 11
132.937511
 21
292.775
 31
0.0
  0
TEXT
  5
1A9
100
AcDbEntity
  8
LAY-6
  6
CONTINUOUS
 62
     2
100
AcDbText
 10
135.437511
 20
292.275
 30
0.0
 40
5.0
  1
９
 41
0.672
  7
EXCADSTD
 72
     5
 11
138.637511
 21
292.275
 31
0.0
100
AcDbText
  0
LINE
  5
1AA
100
AcDbEntity
  8
LAY-6
  6
CONTINUOUS
 62
     1
100
AcDbLine
 10
141.937511
 20
291.775
 30
0.0
 11
132.937511
 21
291.775
 31
0.0
  0
LINE
  5
1AB
100
AcDbEntity
  8
LAY-6
  6
CONTINUOUS
 62
     1
100
AcDbLine
 10
139.937511
 20
291.441667
 30
0.0
 11
141.937511
 21
291.775
 31
0.0
  0
LINE
  5
1AC
100
AcDbEntity
  8
LAY-6
  6
CONTINUOUS
 62
     1
100
AcDbLine
 10
141.937511
 20
291.775
 30
0.0
 11
139.937511
 21
292.108333
 31
0.0
  0
LINE
  5
1AD
100
AcDbEntity
  8
LAY-6
  6
CONTINUOUS
 62
     1
100
AcDbLine
 10
134.937511
 20
292.108333
 30
0.0
 11
132.937511
 21
291.775
 31
0.0
  0
LINE
  5
1AE
100
AcDbEntity
  8
LAY-6
  6
CONTINUOUS
 62
     1
100
AcDbLine
 10
132.937511
 20
291.775
 30
0.0
 11
134.937511
 21
291.441667
 31
0.0
  0
LINE
  5
1AF
100
AcDbEntity
  8
LAY-6
  6
CONTINUOUS
 62
     1
100
AcDbLine
 10
622.186292
 20
185.0
 30
0.0
 11
607.086322
 21
185.0
 31
0.0
  0
LINE
  5
1B0
100
AcDbEntity
  8
LAY-6
  6
CONTINUOUS
 62
     1
100
AcDbLine
 10
622.186292
 20
217.0
 30
0.0
 11
607.086322
 21
217.0
 31
0.0
  0
TEXT
  5
1B1
100
AcDbEntity
  8
LAY-6
  6
CONTINUOUS
 62
     2
100
AcDbText
 10
607.586322
 20
197.0
 30
0.0
 40
5.0
  1
３２
 50
90.0
 41
0.672
  7
EXCADSTD
 72
     5
 11
607.586322
 21
204.3328
 31
0.0
100
AcDbText
  0
LINE
  5
1B2
100
AcDbEntity
  8
LAY-6
  6
CONTINUOUS
 62
     1
100
AcDbLine
 10
608.086322
 20
185.0
 30
0.0
 11
608.086322
 21
217.0
 31
0.0
  0
LINE
  5
1B3
100
AcDbEntity
  8
LAY-6
  6
CONTINUOUS
 62
     1
100
AcDbLine
 10
607.752988
 20
187.0
 30
0.0
 11
608.086322
 21
185.0
 31
0.0
  0
LINE
  5
1B4
100
AcDbEntity
  8
LAY-6
  6
CONTINUOUS
 62
     1
100
AcDbLine
 10
608.086322
 20
185.0
 30
0.0
 11
608.419655
 21
187.0
 31
0.0
  0
LINE
  5
1B5
100
AcDbEntity
  8
LAY-6
  6
CONTINUOUS
 62
     1
100
AcDbLine
 10
608.419655
 20
215.0
 30
0.0
 11
608.086322
 21
217.0
 31
0.0
  0
LINE
  5
1B6
100
AcDbEntity
  8
LAY-6
  6
CONTINUOUS
 62
     1
100
AcDbLine
 10
608.086322
 20
217.0
 30
0.0
 11
607.752988
 21
215.0
 31
0.0
  0
POLYLINE
  5
1B7
100
AcDbEntity
  8
LAY-6
  6
CONTINUOUS
 62
     1
100
AcDb2dPolyline
 66
     1
 10
0.0
 20
0.0
 30
0.0
 70
   128
  0
VERTEX
  5
1B8
100
AcDbEntity
  8
LAY-6
  6
CONTINUOUS
 62
     1
100
AcDbVertex
100
AcDb2dVertex
 10
467.787541
 20
355.967983
 30
0.0
  0
VERTEX
  5
1B9
100
AcDbEntity
  8
LAY-6
  6
CONTINUOUS
 62
     1
100
AcDbVertex
100
AcDb2dVertex
 10
455.993215
 20
365.705984
 30
0.0
  0
VERTEX
  5
1BA
100
AcDbEntity
  8
LAY-6
  6
CONTINUOUS
 62
     1
100
AcDbVertex
100
AcDb2dVertex
 10
438.793215
 20
365.705984
 30
0.0
  0
SEQEND
  5
1BB
100
AcDbEntity
  8
LAY-6
  6
CONTINUOUS
 62
     1
  0
LINE
  5
1BC
100
AcDbEntity
  8
LAY-6
  6
CONTINUOUS
 62
     1
100
AcDbLine
 10
466.033061
 20
356.984305
 30
0.0
 11
467.787541
 21
355.967983
 31
0.0
  0
LINE
  5
1BD
100
AcDbEntity
  8
LAY-6
  6
CONTINUOUS
 62
     1
100
AcDbLine
 10
467.787541
 20
355.967983
 30
0.0
 11
466.457515
 21
357.498389
 31
0.0
  0
TEXT
  5
1BE
100
AcDbEntity
  8
LAY-6
  6
CONTINUOUS
 62
     2
100
AcDbText
 10
438.793215
 20
365.705984
 30
0.0
 40
5.0
  1
カクシ蓋
 41
0.672
  7
EXCADSTD
 72
     5
 11
454.793215
 21
365.705984
 31
0.0
100
AcDbText
  0
POLYLINE
  5
1BF
100
AcDbEntity
  8
LAY-6
  6
CONTINUOUS
 62
     1
100
AcDb2dPolyline
 66
     1
 10
0.0
 20
0.0
 30
0.0
 70
   128
  0
VERTEX
  5
1C0
100
AcDbEntity
  8
LAY-6
  6
CONTINUOUS
 62
     1
100
AcDbVertex
100
AcDb2dVertex
 10
467.787541
 20
476.875015
 30
0.0
  0
VERTEX
  5
1C1
100
AcDbEntity
  8
LAY-6
  6
CONTINUOUS
 62
     1
100
AcDbVertex
100
AcDb2dVertex
 10
455.993215
 20
486.613016
 30
0.0
  0
VERTEX
  5
1C2
100
AcDbEntity
  8
LAY-6
  6
CONTINUOUS
 62
     1
100
AcDbVertex
100
AcDb2dVertex
 10
438.793215
 20
486.613016
 30
0.0
  0
SEQEND
  5
1C3
100
AcDbEntity
  8
LAY-6
  6
CONTINUOUS
 62
     1
  0
LINE
  5
1C4
100
AcDbEntity
  8
LAY-6
  6
CONTINUOUS
 62
     1
100
AcDbLine
 10
466.033061
 20
477.891336
 30
0.0
 11
467.787541
 21
476.875015
 31
0.0
  0
LINE
  5
1C5
100
AcDbEntity
  8
LAY-6
  6
CONTINUOUS
 62
     1
100
AcDbLine
 10
467.787541
 20
476.875015
 30
0.0
 11
466.457515
 21
478.405421
 31
0.0
  0
TEXT
  5
1C6
100
AcDbEntity
  8
LAY-6
  6
CONTINUOUS
 62
     2
100
AcDbText
 10
438.793215
 20
486.613016
 30
0.0
 40
5.0
  1
カクシ蓋
 41
0.672
  7
EXCADSTD
 72
     5
 11
454.793215
 21
486.613016
 31
0.0
100
AcDbText
  0
LINE
  5
1C7
100
AcDbEntity
  8
LAY-6
  6
CONTINUOUS
 62
     1
100
AcDbLine
 10
650.683828
 20
181.188751
 30
0.0
 11
650.683828
 21
170.8
 31
0.0
  0
LINE
  5
1C8
100
AcDbEntity
  8
LAY-6
  6
CONTINUOUS
 62
     1
100
AcDbLine
 10
653.686292
 20
184.1
 30
0.0
 11
653.686292
 21
170.8
 31
0.0
  0
TEXT
  5
1C9
100
AcDbEntity
  8
LAY-6
  6
CONTINUOUS
 62
     2
100
AcDbText
 10
650.18506
 20
172.3
 30
0.0
 40
5.0
  1
３
 41
0.672
  7
EXCADSTD
 72
     5
 11
653.38506
 21
172.3
 31
0.0
100
AcDbText
  0
LINE
  5
1CA
100
AcDbEntity
  8
LAY-6
  6
CONTINUOUS
 62
     1
100
AcDbLine
 10
647.683828
 20
171.8
 30
0.0
 11
653.686292
 21
171.8
 31
0.0
  0
LINE
  5
1CB
100
AcDbEntity
  8
LAY-6
  6
CONTINUOUS
 62
     1
100
AcDbLine
 10
648.683828
 20
171.466667
 30
0.0
 11
650.683828
 21
171.8
 31
0.0
  0
LINE
  5
1CC
100
AcDbEntity
  8
LAY-6
  6
CONTINUOUS
 62
     1
100
AcDbLine
 10
650.683828
 20
171.8
 30
0.0
 11
648.683828
 21
172.133333
 31
0.0
  0
LINE
  5
1CD
100
AcDbEntity
  8
LAY-6
  6
CONTINUOUS
 62
     1
100
AcDbLine
 10
671.686292
 20
182.5
 30
0.0
 11
671.686292
 21
170.8
 31
0.0
  0
TEXT
  5
1CE
100
AcDbEntity
  8
LAY-6
  6
CONTINUOUS
 62
     2
100
AcDbText
 10
658.816292
 20
172.41
 30
0.0
 40
5.0
  1
１８
 41
0.672
  7
EXCADSTD
 72
     5
 11
666.149092
 21
172.41
 31
0.0
100
AcDbText
  0
LINE
  5
1CF
100
AcDbEntity
  8
LAY-6
  6
CONTINUOUS
 62
     1
100
AcDbLine
 10
653.686292
 20
171.8
 30
0.0
 11
671.686292
 21
171.8
 31
0.0
  0
LINE
  5
1D0
100
AcDbEntity
  8
LAY-6
  6
CONTINUOUS
 62
     1
100
AcDbLine
 10
655.686292
 20
172.133333
 30
0.0
 11
653.686292
 21
171.8
 31
0.0
  0
LINE
  5
1D1
100
AcDbEntity
  8
LAY-6
  6
CONTINUOUS
 62
     1
100
AcDbLine
 10
653.686292
 20
171.8
 30
0.0
 11
655.686292
 21
171.466667
 31
0.0
  0
LINE
  5
1D2
100
AcDbEntity
  8
LAY-6
  6
CONTINUOUS
 62
     1
100
AcDbLine
 10
669.686292
 20
171.466667
 30
0.0
 11
671.686292
 21
171.8
 31
0.0
  0
LINE
  5
1D3
100
AcDbEntity
  8
LAY-6
  6
CONTINUOUS
 62
     1
100
AcDbLine
 10
671.686292
 20
171.8
 30
0.0
 11
669.686292
 21
172.133333
 31
0.0
  0
LINE
  5
1D4
100
AcDbEntity
  8
LAY-6
  6
CONTINUOUS
 62
     1
100
AcDbLine
 10
693.686292
 20
182.5
 30
0.0
 11
693.686292
 21
170.8
 31
0.0
  0
TEXT
  5
1D5
100
AcDbEntity
  8
LAY-6
  6
CONTINUOUS
 62
     2
100
AcDbText
 10
678.686292
 20
172.3
 30
0.0
 40
5.0
  1
２２
 41
0.672
  7
EXCADSTD
 72
     5
 11
686.019092
 21
172.3
 31
0.0
100
AcDbText
  0
LINE
  5
1D6
100
AcDbEntity
  8
LAY-6
  6
CONTINUOUS
 62
     1
100
AcDbLine
 10
671.686292
 20
171.8
 30
0.0
 11
693.686292
 21
171.8
 31
0.0
  0
LINE
  5
1D7
100
AcDbEntity
  8
LAY-6
  6
CONTINUOUS
 62
     1
100
AcDbLine
 10
673.686292
 20
172.133333
 30
0.0
 11
671.686292
 21
171.8
 31
0.0
  0
LINE
  5
1D8
100
AcDbEntity
  8
LAY-6
  6
CONTINUOUS
 62
     1
100
AcDbLine
 10
671.686292
 20
171.8
 30
0.0
 11
673.686292
 21
171.466667
 31
0.0
  0
LINE
  5
1D9
100
AcDbEntity
  8
LAY-6
  6
CONTINUOUS
 62
     1
100
AcDbLine
 10
691.686292
 20
171.466667
 30
0.0
 11
693.686292
 21
171.8
 31
0.0
  0
LINE
  5
1DA
100
AcDbEntity
  8
LAY-6
  6
CONTINUOUS
 62
     1
100
AcDbLine
 10
693.686292
 20
171.8
 30
0.0
 11
691.686292
 21
172.133333
 31
0.0
  0
TEXT
  5
1DB
100
AcDbEntity
  8
LAY-6
  6
CONTINUOUS
 62
     2
100
AcDbText
 10
625.186292
 20
157.4
 30
0.0
 40
5.0
  1
９
 41
0.672
  7
EXCADSTD
 72
     5
 11
628.386292
 21
157.4
 31
0.0
100
AcDbText
  0
LINE
  5
1DC
100
AcDbEntity
  8
LAY-6
  6
CONTINUOUS
 62
     1
100
AcDbLine
 10
622.686292
 20
156.9
 30
0.0
 11
631.686292
 21
156.9
 31
0.0
  0
LINE
  5
1DD
100
AcDbEntity
  8
LAY-6
  6
CONTINUOUS
 62
     1
100
AcDbLine
 10
624.686292
 20
157.233333
 30
0.0
 11
622.686292
 21
156.9
 31
0.0
  0
LINE
  5
1DE
100
AcDbEntity
  8
LAY-6
  6
CONTINUOUS
 62
     1
100
AcDbLine
 10
622.686292
 20
156.9
 30
0.0
 11
624.686292
 21
156.566667
 31
0.0
  0
LINE
  5
1DF
100
AcDbEntity
  8
LAY-6
  6
CONTINUOUS
 62
     1
100
AcDbLine
 10
629.686292
 20
156.566667
 30
0.0
 11
631.686292
 21
156.9
 31
0.0
  0
LINE
  5
1E0
100
AcDbEntity
  8
LAY-6
  6
CONTINUOUS
 62
     1
100
AcDbLine
 10
631.686292
 20
156.9
 30
0.0
 11
629.686292
 21
157.233333
 31
0.0
  0
LINE
  5
1E1
100
AcDbEntity
  8
LAY-6
  6
CONTINUOUS
 62
     1
100
AcDbLine
 10
631.686292
 20
184.5
 30
0.0
 11
631.686292
 21
155.9
 31
0.0
  0
TEXT
  5
1E2
100
AcDbEntity
  8
LAY-6
  6
CONTINUOUS
 62
     2
100
AcDbText
 10
647.686292
 20
157.4
 30
0.0
 40
5.0
  1
４０
 41
0.672
  7
EXCADSTD
 72
     5
 11
655.019092
 21
157.4
 31
0.0
100
AcDbText
  0
LINE
  5
1E3
100
AcDbEntity
  8
LAY-6
  6
CONTINUOUS
 62
     1
100
AcDbLine
 10
631.686292
 20
156.9
 30
0.0
 11
671.686292
 21
156.9
 31
0.0
  0
LINE
  5
1E4
100
AcDbEntity
  8
LAY-6
  6
CONTINUOUS
 62
     1
100
AcDbLine
 10
633.686292
 20
157.233333
 30
0.0
 11
631.686292
 21
156.9
 31
0.0
  0
LINE
  5
1E5
100
AcDbEntity
  8
LAY-6
  6
CONTINUOUS
 62
     1
100
AcDbLine
 10
631.686292
 20
156.9
 30
0.0
 11
633.686292
 21
156.566667
 31
0.0
  0
LINE
  5
1E6
100
AcDbEntity
  8
LAY-6
  6
CONTINUOUS
 62
     1
100
AcDbLine
 10
669.686292
 20
156.566667
 30
0.0
 11
671.686292
 21
156.9
 31
0.0
  0
LINE
  5
1E7
100
AcDbEntity
  8
LAY-6
  6
CONTINUOUS
 62
     1
100
AcDbLine
 10
671.686292
 20
156.9
 30
0.0
 11
669.686292
 21
157.233333
 31
0.0
  0
LINE
  5
1E8
100
AcDbEntity
  8
LAY-6
  6
CONTINUOUS
 62
     1
100
AcDbLine
 10
671.686292
 20
182.5
 30
0.0
 11
671.686292
 21
155.9
 31
0.0
  0
TEXT
  5
1E9
100
AcDbEntity
  8
LAY-6
  6
CONTINUOUS
 62
     2
100
AcDbText
 10
675.186292
 20
157.4
 30
0.0
 40
5.0
  1
１５
 41
0.672
  7
EXCADSTD
 72
     5
 11
682.519092
 21
157.4
 31
0.0
100
AcDbText
  0
LINE
  5
1EA
100
AcDbEntity
  8
LAY-6
  6
CONTINUOUS
 62
     1
100
AcDbLine
 10
671.686292
 20
156.9
 30
0.0
 11
686.686292
 21
156.9
 31
0.0
  0
LINE
  5
1EB
100
AcDbEntity
  8
LAY-6
  6
CONTINUOUS
 62
     1
100
AcDbLine
 10
673.686292
 20
157.233333
 30
0.0
 11
671.686292
 21
156.9
 31
0.0
  0
LINE
  5
1EC
100
AcDbEntity
  8
LAY-6
  6
CONTINUOUS
 62
     1
100
AcDbLine
 10
671.686292
 20
156.9
 30
0.0
 11
673.686292
 21
156.566667
 31
0.0
  0
LINE
  5
1ED
100
AcDbEntity
  8
LAY-6
  6
CONTINUOUS
 62
     1
100
AcDbLine
 10
684.686292
 20
156.566667
 30
0.0
 11
686.686292
 21
156.9
 31
0.0
  0
LINE
  5
1EE
100
AcDbEntity
  8
LAY-6
  6
CONTINUOUS
 62
     1
100
AcDbLine
 10
686.686292
 20
156.9
 30
0.0
 11
684.686292
 21
157.233333
 31
0.0
  0
LINE
  5
1EF
100
AcDbEntity
  8
LAY-6
  6
CONTINUOUS
 62
     1
100
AcDbLine
 10
622.686292
 20
184.5
 30
0.0
 11
622.686292
 21
146.0
 31
0.0
  0
LINE
  5
1F0
100
AcDbEntity
  8
LAY-6
  6
CONTINUOUS
 62
     1
100
AcDbLine
 10
686.686292
 20
184.5
 30
0.0
 11
686.686292
 21
146.0
 31
0.0
  0
TEXT
  5
1F1
100
AcDbEntity
  8
LAY-6
  6
CONTINUOUS
 62
     2
100
AcDbText
 10
650.686292
 20
147.5
 30
0.0
 40
5.0
  1
６４
 41
0.672
  7
EXCADSTD
 72
     5
 11
658.019092
 21
147.5
 31
0.0
100
AcDbText
  0
LINE
  5
1F2
100
AcDbEntity
  8
LAY-6
  6
CONTINUOUS
 62
     1
100
AcDbLine
 10
622.686292
 20
147.0
 30
0.0
 11
686.686292
 21
147.0
 31
0.0
  0
LINE
  5
1F3
100
AcDbEntity
  8
LAY-6
  6
CONTINUOUS
 62
     1
100
AcDbLine
 10
624.686292
 20
147.333333
 30
0.0
 11
622.686292
 21
147.0
 31
0.0
  0
LINE
  5
1F4
100
AcDbEntity
  8
LAY-6
  6
CONTINUOUS
 62
     1
100
AcDbLine
 10
622.686292
 20
147.0
 30
0.0
 11
624.686292
 21
146.666667
 31
0.0
  0
LINE
  5
1F5
100
AcDbEntity
  8
LAY-6
  6
CONTINUOUS
 62
     1
100
AcDbLine
 10
684.686292
 20
146.666667
 30
0.0
 11
686.686292
 21
147.0
 31
0.0
  0
LINE
  5
1F6
100
AcDbEntity
  8
LAY-6
  6
CONTINUOUS
 62
     1
100
AcDbLine
 10
686.686292
 20
147.0
 30
0.0
 11
684.686292
 21
147.333333
 31
0.0
  0
TEXT
  5
1F7
100
AcDbEntity
  8
LAY-6
  6
CONTINUOUS
 62
     2
100
AcDbText
 10
649.436322
 20
248.05
 30
0.0
 40
5.0
  1
裏板(別途)
 41
0.595556
  7
EXCADSTD
 72
     5
 11
669.436322
 21
248.05
 31
0.0
100
AcDbText
  0
POLYLINE
  5
1F8
100
AcDbEntity
  8
LAY-6
  6
CONTINUOUS
 62
     1
100
AcDb2dPolyline
 66
     1
 10
0.0
 20
0.0
 30
0.0
 70
   128
  0
VERTEX
  5
1F9
100
AcDbEntity
  8
LAY-6
  6
CONTINUOUS
 62
     1
100
AcDbVertex
100
AcDb2dVertex
 10
636.286322
 20
234.4
 30
0.0
  0
VERTEX
  5
1FA
100
AcDbEntity
  8
LAY-6
  6
CONTINUOUS
 62
     1
100
AcDbVertex
100
AcDb2dVertex
 10
649.436322
 20
247.55
 30
0.0
  0
VERTEX
  5
1FB
100
AcDbEntity
  8
LAY-6
  6
CONTINUOUS
 62
     1
100
AcDbVertex
100
AcDb2dVertex
 10
669.086322
 20
247.55
 30
0.0
  0
SEQEND
  5
1FC
100
AcDbEntity
  8
LAY-6
  6
CONTINUOUS
 62
     1
  0
LINE
  5
1FD
100
AcDbEntity
  8
LAY-6
  6
CONTINUOUS
 62
     1
100
AcDbLine
 10
637.464833
 20
236.049916
 30
0.0
 11
636.286322
 21
234.4
 31
0.0
  0
LINE
  5
1FE
100
AcDbEntity
  8
LAY-6
  6
CONTINUOUS
 62
     1
100
AcDbLine
 10
636.286322
 20
234.4
 30
0.0
 11
637.936237
 21
235.578511
 31
0.0
  0
POLYLINE
  5
1FF
100
AcDbEntity
  8
LAY-6
  6
CONTINUOUS
 62
     1
100
AcDb2dPolyline
 66
     1
 10
0.0
 20
0.0
 30
0.0
 70
   128
  0
VERTEX
  5
200
100
AcDbEntity
  8
LAY-6
  6
CONTINUOUS
 62
     1
100
AcDbVertex
100
AcDb2dVertex
 10
679.901515
 20
219.0
 30
0.0
  0
VERTEX
  5
201
100
AcDbEntity
  8
LAY-6
  6
CONTINUOUS
 62
     1
100
AcDbVertex
100
AcDb2dVertex
 10
701.447962
 20
240.546447
 30
0.0
  0
VERTEX
  5
202
100
AcDbEntity
  8
LAY-6
  6
CONTINUOUS
 62
     1
100
AcDbVertex
100
AcDb2dVertex
 10
721.097962
 20
240.546447
 30
0.0
  0
SEQEND
  5
203
100
AcDbEntity
  8
LAY-6
  6
CONTINUOUS
 62
     1
  0
LINE
  5
204
100
AcDbEntity
  8
LAY-6
  6
CONTINUOUS
 62
     1
100
AcDbLine
 10
681.080026
 20
220.649916
 30
0.0
 11
679.901515
 21
219.0
 31
0.0
  0
LINE
  5
205
100
AcDbEntity
  8
LAY-6
  6
CONTINUOUS
 62
     1
100
AcDbLine
 10
679.901515
 20
219.0
 30
0.0
 11
681.551431
 21
220.178511
 31
0.0
  0
TEXT
  5
206
100
AcDbEntity
  8
LAY-6
  6
CONTINUOUS
 62
     2
100
AcDbText
 10
701.447962
 20
241.046447
 30
0.0
 40
5.0
  1
ドア切欠き
 41
0.672
  7
EXCADSTD
 72
     5
 11
721.447962
 21
241.046447
 31
0.0
100
AcDbText
  0
TEXT
  5
207
100
AcDbEntity
  8
LAY-6
  6
CONTINUOUS
 62
     2
100
AcDbText
 10
360.096826
 20
152.971326
 30
0.0
 40
6.0
  1
床面
 41
0.56
  7
EXCADSTD
 72
     5
 11
367.429626
 21
152.971326
 31
0.0
100
AcDbText
  0
LINE
  5
208
100
AcDbEntity
  8
LAY-6
  6
CONTINUOUS
 62
     1
100
AcDbLine
 10
290.437511
 20
199.175
 30
0.0
 11
304.537541
 21
199.175
 31
0.0
  0
TEXT
  5
209
100
AcDbEntity
  8
LAY-6
  6
CONTINUOUS
 62
     2
100
AcDbText
 10
303.037541
 20
201.175
 30
0.0
 40
5.0
  1
８
 50
90.0
 41
0.672
  7
EXCADSTD
 72
     5
 11
303.037541
 21
204.375
 31
0.0
100
AcDbText
  0
LINE
  5
20A
100
AcDbEntity
  8
LAY-6
  6
CONTINUOUS
 62
     1
100
AcDbLine
 10
303.537541
 20
199.175
 30
0.0
 11
303.537541
 21
207.175
 31
0.0
  0
LINE
  5
20B
100
AcDbEntity
  8
LAY-6
  6
CONTINUOUS
 62
     1
100
AcDbLine
 10
303.204208
 20
201.175
 30
0.0
 11
303.537541
 21
199.175
 31
0.0
  0
LINE
  5
20C
100
AcDbEntity
  8
LAY-6
  6
CONTINUOUS
 62
     1
100
AcDbLine
 10
303.537541
 20
199.175
 30
0.0
 11
303.870875
 21
201.175
 31
0.0
  0
LINE
  5
20D
100
AcDbEntity
  8
LAY-6
  6
CONTINUOUS
 62
     1
100
AcDbLine
 10
303.870875
 20
205.175
 30
0.0
 11
303.537541
 21
207.175
 31
0.0
  0
LINE
  5
20E
100
AcDbEntity
  8
LAY-6
  6
CONTINUOUS
 62
     1
100
AcDbLine
 10
303.537541
 20
207.175
 30
0.0
 11
303.204208
 21
205.175
 31
0.0
  0
TEXT
  5
20F
100
AcDbEntity
  8
LAY-6
  6
CONTINUOUS
 62
     2
100
AcDbText
 10
303.037541
 20
181.175
 30
0.0
 40
5.0
  1
２８
 50
90.0
 41
0.672
  7
EXCADSTD
 72
     5
 11
303.037541
 21
188.5078
 31
0.0
100
AcDbText
  0
LINE
  5
210
100
AcDbEntity
  8
LAY-6
  6
CONTINUOUS
 62
     1
100
AcDbLine
 10
303.537541
 20
199.175
 30
0.0
 11
303.537541
 21
171.175
 31
0.0
  0
LINE
  5
211
100
AcDbEntity
  8
LAY-6
  6
CONTINUOUS
 62
     1
100
AcDbLine
 10
303.870875
 20
197.175
 30
0.0
 11
303.537541
 21
199.175
 31
0.0
  0
LINE
  5
212
100
AcDbEntity
  8
LAY-6
  6
CONTINUOUS
 62
     1
100
AcDbLine
 10
303.537541
 20
199.175
 30
0.0
 11
303.204208
 21
197.175
 31
0.0
  0
LINE
  5
213
100
AcDbEntity
  8
LAY-6
  6
CONTINUOUS
 62
     1
100
AcDbLine
 10
303.204208
 20
173.175
 30
0.0
 11
303.537541
 21
171.175
 31
0.0
  0
LINE
  5
214
100
AcDbEntity
  8
LAY-6
  6
CONTINUOUS
 62
     1
100
AcDbLine
 10
303.537541
 20
171.175
 30
0.0
 11
303.870875
 21
173.175
 31
0.0
  0
TEXT
  5
215
100
AcDbEntity
  8
LAY-6
  6
CONTINUOUS
 62
     2
100
AcDbText
 10
303.037541
 20
162.175
 30
0.0
 40
5.0
  1
１０
 50
90.0
 41
0.672
  7
EXCADSTD
 72
     5
 11
303.037541
 21
169.5078
 31
0.0
100
AcDbText
  0
LINE
  5
216
100
AcDbEntity
  8
LAY-6
  6
CONTINUOUS
 62
     1
100
AcDbLine
 10
303.537541
 20
171.175
 30
0.0
 11
303.537541
 21
161.175
 31
0.0
  0
LINE
  5
217
100
AcDbEntity
  8
LAY-6
  6
CONTINUOUS
 62
     1
100
AcDbLine
 10
303.870875
 20
169.175
 30
0.0
 11
303.537541
 21
171.175
 31
0.0
  0
LINE
  5
218
100
AcDbEntity
  8
LAY-6
  6
CONTINUOUS
 62
     1
100
AcDbLine
 10
303.537541
 20
171.175
 30
0.0
 11
303.204208
 21
169.175
 31
0.0
  0
LINE
  5
219
100
AcDbEntity
  8
LAY-6
  6
CONTINUOUS
 62
     1
100
AcDbLine
 10
303.204208
 20
163.175
 30
0.0
 11
303.537541
 21
161.175
 31
0.0
  0
LINE
  5
21A
100
AcDbEntity
  8
LAY-6
  6
CONTINUOUS
 62
     1
100
AcDbLine
 10
303.537541
 20
161.175
 30
0.0
 11
303.870875
 21
163.175
 31
0.0
  0
TEXT
  5
21B
100
AcDbEntity
  8
LAY-6
  6
CONTINUOUS
 62
     2
100
AcDbText
 10
406.828367
 20
19.274519
 30
0.0
 40
10.0
  1
オートパワーヒンジ　ＨＣ－８ＫＬ　納まり図
 41
0.672
  7
EXCADSTD
 72
     5
 11
574.828367
 21
19.274519
 31
0.0
100
AcDbText
  0
TEXT
  5
21C
100
AcDbEntity
  8
LAY-6
  6
CONTINUOUS
 62
     2
100
AcDbText
 10
174.437511
 20
306.675
 30
0.0
 40
5.0
  1
φ
 41
0.672
  7
EXCADSTD
 72
     5
 11
177.637511
 21
306.675
 31
0.0
100
AcDbText
  0
TEXT
  5
21D
100
AcDbEntity
  8
LAY-6
  6
CONTINUOUS
 62
     2
100
AcDbText
 10
178.437511
 20
306.675
 30
0.0
 40
5.0
  1
２８
 41
0.672
  7
EXCADSTD
 72
     5
 11
185.770311
 21
306.675
 31
0.0
100
AcDbText
  0
LINE
  5
21E
100
AcDbEntity
  8
LAY-6
  6
CONTINUOUS
 62
     1
100
AcDbLine
 10
195.937511
 20
306.175
 30
0.0
 11
167.937511
 21
306.175
 31
0.0
  0
LINE
  5
21F
100
AcDbEntity
  8
LAY-6
  6
CONTINUOUS
 62
     1
100
AcDbLine
 10
193.937511
 20
305.841667
 30
0.0
 11
195.937511
 21
306.175
 31
0.0
  0
LINE
  5
220
100
AcDbEntity
  8
LAY-6
  6
CONTINUOUS
 62
     1
100
AcDbLine
 10
195.937511
 20
306.175
 30
0.0
 11
193.937511
 21
306.508333
 31
0.0
  0
LINE
  5
221
100
AcDbEntity
  8
LAY-6
  6
CONTINUOUS
 62
     1
100
AcDbLine
 10
169.937511
 20
306.508333
 30
0.0
 11
167.937511
 21
306.175
 31
0.0
  0
LINE
  5
222
100
AcDbEntity
  8
LAY-6
  6
CONTINUOUS
 62
     1
100
AcDbLine
 10
167.937511
 20
306.175
 30
0.0
 11
169.937511
 21
305.841667
 31
0.0
  0
TEXT
  5
223
100
AcDbEntity
  8
LAY-6
  6
CONTINUOUS
 62
     2
100
AcDbText
 10
355.237541
 20
173.675
 30
0.0
 40
5.0
  1
ドア下面
 41
0.672
  7
EXCADSTD
 72
     5
 11
371.237541
 21
173.675
 31
0.0
100
AcDbText
  0
TEXT
  5
224
100
AcDbEntity
  8
LAY-6
  6
CONTINUOUS
 62
     2
100
AcDbText
 10
244.637511
 20
372.175
 30
0.0
 40
5.0
  1
２０×５０
 41
0.672
  7
EXCADSTD
 72
     5
 11
264.637511
 21
372.175
 31
0.0
100
AcDbText
  0
LINE
  5
225
100
AcDbEntity
  8
LAY-6
  6
CONTINUOUS
 62
     1
100
AcDbLine
 10
181.167638
 20
339.725
 30
0.0
 11
189.737511
 21
339.725
 31
0.0
  0
LINE
  5
226
100
AcDbEntity
  8
LAY-6
  6
CONTINUOUS
 62
     1
100
AcDbLine
 10
171.837511
 20
338.475
 30
0.0
 11
181.167638
 21
340.975
 31
0.0
  0
LINE
  5
227
100
AcDbEntity
  8
LAY-6
  6
CONTINUOUS
 62
     1
100
AcDbLine
 10
181.167638
 20
339.725
 30
0.0
 11
181.167638
 21
340.975
 31
0.0
  0
LINE
  5
228
100
AcDbEntity
  8
LAY-6
  6
CONTINUOUS
 62
     1
100
AcDbLine
 10
181.167638
 20
337.225
 30
0.0
 11
189.737511
 21
337.225
 31
0.0
  0
LINE
  5
229
100
AcDbEntity
  8
LAY-6
  6
CONTINUOUS
 62
     1
100
AcDbLine
 10
171.837511
 20
338.475
 30
0.0
 11
181.167638
 21
335.975
 31
0.0
  0
LINE
  5
22A
100
AcDbEntity
  8
LAY-6
  6
CONTINUOUS
 62
     1
100
AcDbLine
 10
189.737511
 20
339.725
 30
0.0
 11
189.737511
 21
337.225
 31
0.0
  0
LINE
  5
22B
100
AcDbEntity
  8
LAY-6
  6
CONTINUOUS
 62
     1
100
AcDbLine
 10
181.167638
 20
335.975
 30
0.0
 11
181.167638
 21
337.225
 31
0.0
  0
TEXT
  5
22C
100
AcDbEntity
  8
LAY-6
  6
CONTINUOUS
 62
     2
100
AcDbText
 10
191.937511
 20
335.875
 30
0.0
 40
5.0
  1
スプリング巻き方向
 41
0.672
  7
EXCADSTD
 72
     5
 11
227.937511
 21
335.875
 31
0.0
100
AcDbText
  0
TEXT
  5
22D
100
AcDbEntity
  8
LAY-6
  6
CONTINUOUS
 62
     2
100
AcDbText
 10
199.537511
 20
330.375
 30
0.0
 40
5.0
  1
（本体に表示）
 41
0.672
  7
EXCADSTD
 72
     5
 11
227.537511
 21
330.375
 31
0.0
100
AcDbText
  0
TEXT
  5
22E
100
AcDbEntity
  8
LAY-6
  6
CONTINUOUS
 62
     2
100
AcDbText
 10
221.037541
 20
174.175
 30
0.0
 40
5.0
  1
(切欠)
 50
90.0
 41
0.552
  7
EXCADSTD
 72
     5
 11
221.037541
 21
186.175
 31
0.0
100
AcDbText
  0
TEXT
  5
22F
100
AcDbEntity
  8
LAY-6
  6
CONTINUOUS
 62
     2
100
AcDbText
 10
187.337541
 20
198.475
 30
0.0
 40
5.0
  1
(切欠)
 41
0.552
  7
EXCADSTD
 72
     5
 11
199.337541
 21
198.475
 31
0.0
100
AcDbText
  0
TEXT
  5
230
100
AcDbEntity
  8
LAY-6
  6
CONTINUOUS
 62
     2
100
AcDbText
 10
677.086322
 20
166.2
 30
0.0
 40
5.0
  1
(切欠)
 41
0.552
  7
EXCADSTD
 72
     5
 11
689.086322
 21
166.2
 31
0.0
100
AcDbText
  0
TEXT
  5
231
100
AcDbEntity
  8
LAY-6
  6
CONTINUOUS
 62
     2
100
AcDbText
 10
571.757894
 20
243.171573
 30
0.0
 40
5.656854
  1
４
 41
0.84
  7
EXCADSTD
 72
     5
 11
576.283378
 21
243.171573
 31
0.0
100
AcDbText
  0
TEXT
  5
232
100
AcDbEntity
  8
LAY-6
  6
CONTINUOUS
 62
     2
100
AcDbText
 10
581.186322
 20
242.8
 30
0.0
 40
7.0
  1
軸受金具
 41
0.672
  7
EXCADSTD
 72
     5
 11
603.586321
 21
242.8
 31
0.0
100
AcDbText
  0
LINE
  5
233
100
AcDbEntity
  8
LAY-6
  6
CONTINUOUS
 62
     1
100
AcDbLine
 10
578.586322
 20
242.3
 30
0.0
 11
603.886322
 21
242.3
 31
0.0
  0
CIRCLE
  5
234
100
AcDbEntity
  8
LAY-6
  6
CONTINUOUS
 62
     1
100
AcDbCircle
 10
574.586322
 20
246.0
 30
0.0
 40
4.0
  0
TEXT
  5
235
100
AcDbEntity
  8
LAY-6
  6
CONTINUOUS
 62
     2
100
AcDbText
 10
657.386322
 20
166.2
 30
0.0
 40
5.0
  1
(切欠)
 41
0.552
  7
EXCADSTD
 72
     5
 11
669.386322
 21
166.2
 31
0.0
100
AcDbText
  0
LINE
  5
236
100
AcDbEntity
  8
LAY-6
  6
CONTINUOUS
 62
     1
100
AcDbLine
 10
462.037511
 20
161.175
 30
0.0
 11
435.7
 21
161.175
 31
0.0
  0
LINE
  5
237
100
AcDbEntity
  8
LAY-6
  6
CONTINUOUS
 62
     1
100
AcDbLine
 10
466.037541
 20
171.175
 30
0.0
 11
435.7
 21
171.175
 31
0.0
  0
TEXT
  5
238
100
AcDbEntity
  8
LAY-6
  6
CONTINUOUS
 62
     2
100
AcDbText
 10
436.2
 20
162.175
 30
0.0
 40
5.0
  1
１０
 50
90.0
 41
0.672
  7
EXCADSTD
 72
     5
 11
436.2
 21
169.5078
 31
0.0
100
AcDbText
  0
LINE
  5
239
100
AcDbEntity
  8
LAY-6
  6
CONTINUOUS
 62
     1
100
AcDbLine
 10
436.7
 20
161.175
 30
0.0
 11
436.7
 21
171.175
 31
0.0
  0
LINE
  5
23A
100
AcDbEntity
  8
LAY-6
  6
CONTINUOUS
 62
     1
100
AcDbLine
 10
436.366667
 20
163.175
 30
0.0
 11
436.7
 21
161.175
 31
0.0
  0
LINE
  5
23B
100
AcDbEntity
  8
LAY-6
  6
CONTINUOUS
 62
     1
100
AcDbLine
 10
436.7
 20
161.175
 30
0.0
 11
437.033333
 21
163.175
 31
0.0
  0
LINE
  5
23C
100
AcDbEntity
  8
LAY-6
  6
CONTINUOUS
 62
     1
100
AcDbLine
 10
437.033333
 20
169.175
 30
0.0
 11
436.7
 21
171.175
 31
0.0
  0
LINE
  5
23D
100
AcDbEntity
  8
LAY-6
  6
CONTINUOUS
 62
     1
100
AcDbLine
 10
436.7
 20
171.175
 30
0.0
 11
436.366667
 21
169.175
 31
0.0
  0
LINE
  5
23E
100
AcDbEntity
  8
LAY-6
  6
CONTINUOUS
 62
     1
100
AcDbLine
 10
163.437511
 20
189.175
 30
0.0
 11
157.9
 21
189.175
 31
0.0
  0
LINE
  5
23F
100
AcDbEntity
  8
LAY-6
  6
CONTINUOUS
 62
     1
100
AcDbLine
 10
169.437511
 20
343.675
 30
0.0
 11
157.9
 21
343.675
 31
0.0
  0
LINE
  5
240
100
AcDbEntity
  8
LAY-6
  6
CONTINUOUS
 62
     1
100
AcDbLine
 10
158.9
 20
189.175
 30
0.0
 11
158.9
 21
343.675
 31
0.0
  0
LINE
  5
241
100
AcDbEntity
  8
LAY-6
  6
CONTINUOUS
 62
     1
100
AcDbLine
 10
158.566667
 20
191.175
 30
0.0
 11
158.9
 21
189.175
 31
0.0
  0
LINE
  5
242
100
AcDbEntity
  8
LAY-6
  6
CONTINUOUS
 62
     1
100
AcDbLine
 10
158.9
 20
189.175
 30
0.0
 11
159.233333
 21
191.175
 31
0.0
  0
LINE
  5
243
100
AcDbEntity
  8
LAY-6
  6
CONTINUOUS
 62
     1
100
AcDbLine
 10
159.233333
 20
341.675
 30
0.0
 11
158.9
 21
343.675
 31
0.0
  0
LINE
  5
244
100
AcDbEntity
  8
LAY-6
  6
CONTINUOUS
 62
     1
100
AcDbLine
 10
158.9
 20
343.675
 30
0.0
 11
158.566667
 21
341.675
 31
0.0
  0
TEXT
  5
245
100
AcDbEntity
  8
LAY-6
  6
CONTINUOUS
 62
     2
100
AcDbText
 10
158.4
 20
260.425
 30
0.0
 40
5.0
  1
１７６
 50
90.0
 41
0.672
  7
EXCADSTD
 72
     5
 11
158.4
 21
272.425
 31
0.0
100
AcDbText
  0
LINE
  5
246
100
AcDbEntity
  8
LAY-6
  6
CONTINUOUS
 62
     1
100
AcDbLine
 10
169.437511
 20
363.675
 30
0.0
 11
157.9
 21
363.675
 31
0.0
  0
TEXT
  5
247
100
AcDbEntity
  8
LAY-6
  6
CONTINUOUS
 62
     2
100
AcDbText
 10
158.4
 20
349.675
 30
0.0
 40
5.0
  1
２０
 50
90.0
 41
0.672
  7
EXCADSTD
 72
     5
 11
158.4
 21
357.0078
 31
0.0
100
AcDbText
  0
LINE
  5
248
100
AcDbEntity
  8
LAY-6
  6
CONTINUOUS
 62
     1
100
AcDbLine
 10
158.9
 20
343.675
 30
0.0
 11
158.9
 21
363.675
 31
0.0
  0
LINE
  5
249
100
AcDbEntity
  8
LAY-6
  6
CONTINUOUS
 62
     1
100
AcDbLine
 10
158.566667
 20
345.675
 30
0.0
 11
158.9
 21
343.675
 31
0.0
  0
LINE
  5
24A
100
AcDbEntity
  8
LAY-6
  6
CONTINUOUS
 62
     1
100
AcDbLine
 10
158.9
 20
343.675
 30
0.0
 11
159.233333
 21
345.675
 31
0.0
  0
LINE
  5
24B
100
AcDbEntity
  8
LAY-6
  6
CONTINUOUS
 62
     1
100
AcDbLine
 10
159.233333
 20
361.675
 30
0.0
 11
158.9
 21
363.675
 31
0.0
  0
LINE
  5
24C
100
AcDbEntity
  8
LAY-6
  6
CONTINUOUS
 62
     1
100
AcDbLine
 10
158.9
 20
363.675
 30
0.0
 11
158.566667
 21
361.675
 31
0.0
  0
LINE
  5
24D
100
AcDbEntity
  8
LAY-6
  6
CONTINUOUS
 62
     1
100
AcDbLine
 10
171.137511
 20
472.675
 30
0.0
 11
157.9
 21
472.675
 31
0.0
  0
TEXT
  5
24E
100
AcDbEntity
  8
LAY-6
  6
CONTINUOUS
 62
     2
100
AcDbText
 10
158.4
 20
412.175
 30
0.0
 40
5.0
  1
１０９
 50
90.0
 41
0.672
  7
EXCADSTD
 72
     5
 11
158.4
 21
424.175
 31
0.0
100
AcDbText
  0
LINE
  5
24F
100
AcDbEntity
  8
LAY-6
  6
CONTINUOUS
 62
     1
100
AcDbLine
 10
158.9
 20
363.675
 30
0.0
 11
158.9
 21
472.675
 31
0.0
  0
LINE
  5
250
100
AcDbEntity
  8
LAY-6
  6
CONTINUOUS
 62
     1
100
AcDbLine
 10
158.566667
 20
365.675
 30
0.0
 11
158.9
 21
363.675
 31
0.0
  0
LINE
  5
251
100
AcDbEntity
  8
LAY-6
  6
CONTINUOUS
 62
     1
100
AcDbLine
 10
158.9
 20
363.675
 30
0.0
 11
159.233333
 21
365.675
 31
0.0
  0
LINE
  5
252
100
AcDbEntity
  8
LAY-6
  6
CONTINUOUS
 62
     1
100
AcDbLine
 10
159.233333
 20
470.675
 30
0.0
 11
158.9
 21
472.675
 31
0.0
  0
LINE
  5
253
100
AcDbEntity
  8
LAY-6
  6
CONTINUOUS
 62
     1
100
AcDbLine
 10
158.9
 20
472.675
 30
0.0
 11
158.566667
 21
470.675
 31
0.0
  0
LINE
  5
254
100
AcDbEntity
  8
LAY-6
  6
CONTINUOUS
 62
     1
100
AcDbLine
 10
471.037511
 20
183.175
 30
0.0
 11
447.1
 21
183.175
 31
0.0
  0
TEXT
  5
255
100
AcDbEntity
  8
LAY-6
  6
CONTINUOUS
 62
     2
100
AcDbText
 10
447.6
 20
173.175
 30
0.0
 40
5.0
  1
１２
 50
90.0
 41
0.672
  7
EXCADSTD
 72
     5
 11
447.6
 21
180.5078
 31
0.0
100
AcDbText
  0
LINE
  5
256
100
AcDbEntity
  8
LAY-6
  6
CONTINUOUS
 62
     1
100
AcDbLine
 10
448.1
 20
183.175
 30
0.0
 11
448.1
 21
171.175
 31
0.0
  0
LINE
  5
257
100
AcDbEntity
  8
LAY-6
  6
CONTINUOUS
 62
     1
100
AcDbLine
 10
448.433333
 20
181.175
 30
0.0
 11
448.1
 21
183.175
 31
0.0
  0
LINE
  5
258
100
AcDbEntity
  8
LAY-6
  6
CONTINUOUS
 62
     1
100
AcDbLine
 10
448.1
 20
183.175
 30
0.0
 11
447.766667
 21
181.175
 31
0.0
  0
LINE
  5
259
100
AcDbEntity
  8
LAY-6
  6
CONTINUOUS
 62
     1
100
AcDbLine
 10
447.766667
 20
173.175
 30
0.0
 11
448.1
 21
171.175
 31
0.0
  0
LINE
  5
25A
100
AcDbEntity
  8
LAY-6
  6
CONTINUOUS
 62
     1
100
AcDbLine
 10
448.1
 20
171.175
 30
0.0
 11
448.433333
 21
173.175
 31
0.0
  0
TEXT
  5
25B
100
AcDbEntity
  8
LAY-6
  6
CONTINUOUS
 62
     2
100
AcDbText
 10
722.9
 20
197.0
 30
0.0
 40
5.0
  1
３６
 50
90.0
 41
0.672
  7
EXCADSTD
 72
     5
 11
722.9
 21
204.3328
 31
0.0
100
AcDbText
  0
LINE
  5
25C
100
AcDbEntity
  8
LAY-6
  6
CONTINUOUS
 62
     1
100
AcDbLine
 10
723.4
 20
219.0
 30
0.0
 11
723.4
 21
183.0
 31
0.0
  0
LINE
  5
25D
100
AcDbEntity
  8
LAY-6
  6
CONTINUOUS
 62
     1
100
AcDbLine
 10
723.733333
 20
217.0
 30
0.0
 11
723.4
 21
219.0
 31
0.0
  0
LINE
  5
25E
100
AcDbEntity
  8
LAY-6
  6
CONTINUOUS
 62
     1
100
AcDbLine
 10
723.4
 20
219.0
 30
0.0
 11
723.066667
 21
217.0
 31
0.0
  0
LINE
  5
25F
100
AcDbEntity
  8
LAY-6
  6
CONTINUOUS
 62
     1
100
AcDbLine
 10
723.066667
 20
185.0
 30
0.0
 11
723.4
 21
183.0
 31
0.0
  0
LINE
  5
260
100
AcDbEntity
  8
LAY-6
  6
CONTINUOUS
 62
     1
100
AcDbLine
 10
723.4
 20
183.0
 30
0.0
 11
723.733333
 21
185.0
 31
0.0
  0
POLYLINE
  5
261
100
AcDbEntity
  8
LAY-6
  6
CONTINUOUS
 62
     1
100
AcDb2dPolyline
 66
     1
 10
0.0
 20
0.0
 30
0.0
 70
   128
  0
VERTEX
  5
262
100
AcDbEntity
  8
LAY-6
  6
CONTINUOUS
 62
     1
100
AcDbVertex
100
AcDb2dVertex
 10
190.367272
 20
356.670872
 30
0.0
  0
VERTEX
  5
263
100
AcDbEntity
  8
LAY-6
  6
CONTINUOUS
 62
     1
100
AcDbVertex
100
AcDb2dVertex
 10
222.174246
 20
389.881094
 30
0.0
  0
VERTEX
  5
264
100
AcDbEntity
  8
LAY-6
  6
CONTINUOUS
 62
     1
100
AcDbVertex
100
AcDb2dVertex
 10
281.394303
 20
389.881094
 30
0.0
  0
SEQEND
  5
265
100
AcDbEntity
  8
LAY-6
  6
CONTINUOUS
 62
     1
  0
LINE
  5
266
100
AcDbEntity
  8
LAY-6
  6
CONTINUOUS
 62
     1
100
AcDbLine
 10
192.081225
 20
359.183314
 30
0.0
 11
190.367272
 21
356.670872
 31
0.0
  0
LINE
  5
267
100
AcDbEntity
  8
LAY-6
  6
CONTINUOUS
 62
     1
100
AcDbLine
 10
190.367272
 20
356.670872
 30
0.0
 11
192.803425
 21
358.491629
 31
0.0
  0
TEXT
  5
268
100
AcDbEntity
  8
LAY-6
  6
CONTINUOUS
 62
     2
100
AcDbText
 10
226.394303
 20
389.881094
 30
0.0
 40
5.0
  1
スプリングセットピン径 φ６
 41
0.656816
  7
EXCADSTD
 72
     5
 11
280.394303
 21
389.881094
 31
0.0
100
AcDbText
  0
TEXT
  5
269
100
AcDbEntity
  8
LAY-6
  6
CONTINUOUS
 62
     2
100
AcDbText
 10
398.625
 20
96.875
 30
0.0
 40
8.0
  1
必ず戸当りを設置して下さい。
 41
0.63
  7
EXCADSTD
 72
     5
 11
482.625
 21
96.875
 31
0.0
100
AcDbText
  0
POLYLINE
  5
26A
100
AcDbEntity
  8
LAY-6
  6
CONTINUOUS
 62
     1
100
AcDb2dPolyline
 66
     1
 10
0.0
 20
0.0
 30
0.0
 70
   128
  0
VERTEX
  5
26B
100
AcDbEntity
  8
LAY-6
  6
CONTINUOUS
 62
     1
100
AcDbVertex
100
AcDb2dVertex
 10
383.675
 20
78.975
 30
0.0
  0
VERTEX
  5
26C
100
AcDbEntity
  8
LAY-6
  6
CONTINUOUS
 62
     1
100
AcDbVertex
100
AcDb2dVertex
 10
397.475
 20
96.375
 30
0.0
  0
VERTEX
  5
26D
100
AcDbEntity
  8
LAY-6
  6
CONTINUOUS
 62
     1
100
AcDbVertex
100
AcDb2dVertex
 10
479.2
 20
96.375
 30
0.0
  0
SEQEND
  5
26E
100
AcDbEntity
  8
LAY-6
  6
CONTINUOUS
 62
     1
  0
LINE
  5
26F
100
AcDbEntity
  8
LAY-6
  6
CONTINUOUS
 62
     1
100
AcDbLine
 10
384.656624
 20
80.749127
 30
0.0
 11
383.675
 21
78.975
 31
0.0
  0
LINE
  5
270
100
AcDbEntity
  8
LAY-6
  6
CONTINUOUS
 62
     1
100
AcDbLine
 10
383.675
 20
78.975
 30
0.0
 11
385.178955
 21
80.334864
 31
0.0
  0
TEXT
  5
271
100
AcDbEntity
  8
LAY-6
  6
CONTINUOUS
 62
     2
100
AcDbText
 10
372.65
 20
66.5
 30
0.0
 40
8.0
  1
ドア
 41
0.63
  7
EXCADSTD
 72
     5
 11
383.6492
 21
66.5
 31
0.0
100
AcDbText
  0
TEXT
  5
272
100
AcDbEntity
  8
LAY-6
  6
CONTINUOUS
 62
     2
100
AcDbText
 10
585.1
 20
58.3
 30
0.0
 40
8.0
  1
※　本図は右勝手を示す。
 41
0.672
  7
EXCADSTD
 72
     5
 11
661.900001
 21
58.3
 31
0.0
100
AcDbText
  0
TEXT
  5
273
100
AcDbEntity
  8
LAY-6
  6
CONTINUOUS
 62
     2
100
AcDbText
 10
585.1
 20
50.3
 30
0.0
 40
8.0
  1
※　閉扉速度調整穴、スプリング調整窓には付属のカクシ蓋をご使用下さい。
 41
0.672
  7
EXCADSTD
 72
     5
 11
809.100003
 21
50.3
 31
0.0
100
AcDbText
  0
POLYLINE
  5
274
100
AcDbEntity
  8
LAY-6
  6
CONTINUOUS
 62
     1
100
AcDb2dPolyline
 66
     1
 10
0.0
 20
0.0
 30
0.0
 70
   128
  0
VERTEX
  5
275
100
AcDbEntity
  8
LAY-6
  6
CONTINUOUS
 62
     1
100
AcDbVertex
100
AcDb2dVertex
 10
190.0
 20
435.0
 30
0.0
  0
VERTEX
  5
276
100
AcDbEntity
  8
LAY-6
  6
CONTINUOUS
 62
     1
100
AcDbVertex
100
AcDb2dVertex
 10
257.504254
 20
431.884419
 30
0.0
  0
SEQEND
  5
277
100
AcDbEntity
  8
LAY-6
  6
CONTINUOUS
 62
     1
  0
LINE
  5
278
100
AcDbEntity
  8
LAY-6
  6
CONTINUOUS
 62
     1
100
AcDbLine
 10
192.013241
 20
435.240769
 30
0.0
 11
190.0
 21
435.0
 31
0.0
  0
LINE
  5
279
100
AcDbEntity
  8
LAY-6
  6
CONTINUOUS
 62
     1
100
AcDbLine
 10
190.0
 20
435.0
 30
0.0
 11
191.982505
 21
434.574812
 31
0.0
  0
CIRCLE
  5
27A
100
AcDbEntity
  8
LAY-6
  6
CONTINUOUS
 62
     1
100
AcDbCircle
 10
261.5
 20
431.7
 30
0.0
 40
4.0
  0
LINE
  5
27B
100
AcDbEntity
  8
LAY-6
  6
CONTINUOUS
 62
     1
100
AcDbLine
 10
265.5
 20
428.0
 30
0.0
 11
290.8
 21
428.0
 31
0.0
  0
TEXT
  5
27C
100
AcDbEntity
  8
LAY-6
  6
CONTINUOUS
 62
     2
100
AcDbText
 10
268.1
 20
428.5
 30
0.0
 40
7.0
  1
 本 体
 41
0.552
  7
EXCADSTD
 72
     5
 11
284.9
 21
428.5
 31
0.0
100
AcDbText
  0
TEXT
  5
27D
100
AcDbEntity
  8
LAY-6
  6
CONTINUOUS
 62
     2
100
AcDbText
 10
258.671573
 20
428.871573
 30
0.0
 40
5.656854
  1
３
 41
0.84
  7
EXCADSTD
 72
     5
 11
263.197056
 21
428.871573
 31
0.0
100
AcDbText
  0
CIRCLE
  5
27E
100
AcDbEntity
  8
LAY-6
  6
CONTINUOUS
 62
     1
100
AcDbCircle
 10
227.7
 20
137.8
 30
0.0
 40
4.0
  0
LINE
  5
27F
100
AcDbEntity
  8
LAY-6
  6
CONTINUOUS
 62
     1
100
AcDbLine
 10
231.7
 20
134.1
 30
0.0
 11
257.0
 21
134.1
 31
0.0
  0
POLYLINE
  5
280
100
AcDbEntity
  8
LAY-6
  6
CONTINUOUS
 62
     1
100
AcDb2dPolyline
 66
     1
 10
0.0
 20
0.0
 30
0.0
 70
   128
  0
VERTEX
  5
281
100
AcDbEntity
  8
LAY-6
  6
CONTINUOUS
 62
     1
100
AcDbVertex
100
AcDb2dVertex
 10
194.0
 20
178.5
 30
0.0
  0
VERTEX
  5
282
100
AcDbEntity
  8
LAY-6
  6
CONTINUOUS
 62
     1
100
AcDbVertex
100
AcDb2dVertex
 10
225.148955
 20
140.880936
 30
0.0
  0
SEQEND
  5
283
100
AcDbEntity
  8
LAY-6
  6
CONTINUOUS
 62
     1
  0
LINE
  5
284
100
AcDbEntity
  8
LAY-6
  6
CONTINUOUS
 62
     1
100
AcDbLine
 10
195.532267
 20
177.172119
 30
0.0
 11
194.0
 21
178.5
 31
0.0
  0
LINE
  5
285
100
AcDbEntity
  8
LAY-6
  6
CONTINUOUS
 62
     1
100
AcDbLine
 10
194.0
 20
178.5
 30
0.0
 11
195.018778
 21
176.746945
 31
0.0
  0
TEXT
  5
286
100
AcDbEntity
  8
LAY-6
  6
CONTINUOUS
 62
     2
100
AcDbText
 10
224.871573
 20
134.971573
 30
0.0
 40
5.656854
  1
４
 41
0.84
  7
EXCADSTD
 72
     5
 11
229.397056
 21
134.971573
 31
0.0
100
AcDbText
  0
TEXT
  5
287
100
AcDbEntity
  8
LAY-6
  6
CONTINUOUS
 62
     2
100
AcDbText
 10
234.3
 20
134.6
 30
0.0
 40
7.0
  1
軸受金具
 41
0.672
  7
EXCADSTD
 72
     5
 11
256.7
 21
134.6
 31
0.0
100
AcDbText
  0
TEXT
  5
288
100
AcDbEntity
  8
LAY-6
  6
CONTINUOUS
 62
     2
100
AcDbText
 10
233.137511
 20
365.575
 30
0.0
 40
5.0
  1
※部寸法
 41
0.672
  7
EXCADSTD
 72
     5
 11
249.137511
 21
365.575
 31
0.0
100
AcDbText
  0
TEXT
  5
289
100
AcDbEntity
  8
LAY-6
  6
CONTINUOUS
 62
     2
100
AcDbText
 10
233.137511
 20
359.575
 30
0.0
 40
5.0
  1
ドア厚４０～５０㎜の場合　１４
 41
0.672
  7
EXCADSTD
 72
     5
 11
293.137511
 21
359.575
 31
0.0
100
AcDbText
  0
LINE
  5
28A
100
AcDbEntity
  8
LAY-6
  6
CONTINUOUS
 62
     1
100
AcDbLine
 10
232.037511
 20
365.475
 30
0.0
 11
249.837511
 21
365.475
 31
0.0
  0
LINE
  5
28B
100
AcDbEntity
  8
LAY-6
  6
CONTINUOUS
 62
     1
100
AcDbLine
 10
232.037511
 20
359.375
 30
0.0
 11
293.437511
 21
359.375
 31
0.0
  0
TEXT
  5
28C
100
AcDbEntity
  8
LAY-6
  6
CONTINUOUS
 62
     2
100
AcDbText
 10
330.7
 20
20.4
 30
0.0
 40
6.0
  1
Ｈ１６．１２．１４
 41
0.672
  7
EXCADSTD
 72
     5
 11
373.900002
 21
20.4
 31
0.0
100
AcDbText
  0
LINE
  5
28D
100
AcDbEntity
  8
LAY-6
  6
CONTINUOUS
 62
     1
100
AcDbLine
 10
475.037511
 20
479.675
 30
0.0
 11
435.2
 21
479.675
 31
0.0
  0
LINE
  5
28E
100
AcDbEntity
  8
LAY-6
  6
CONTINUOUS
 62
     1
100
AcDbLine
 10
436.7
 20
479.675
 30
0.0
 11
436.7
 21
171.175
 31
0.0
  0
LINE
  5
28F
100
AcDbEntity
  8
LAY-6
  6
CONTINUOUS
 62
     1
100
AcDbLine
 10
437.033333
 20
477.675
 30
0.0
 11
436.7
 21
479.675
 31
0.0
  0
LINE
  5
290
100
AcDbEntity
  8
LAY-6
  6
CONTINUOUS
 62
     1
100
AcDbLine
 10
436.7
 20
479.675
 30
0.0
 11
436.366667
 21
477.675
 31
0.0
  0
LINE
  5
291
100
AcDbEntity
  8
LAY-6
  6
CONTINUOUS
 62
     1
100
AcDbLine
 10
436.366667
 20
173.175
 30
0.0
 11
436.7
 21
171.175
 31
0.0
  0
LINE
  5
292
100
AcDbEntity
  8
LAY-6
  6
CONTINUOUS
 62
     1
100
AcDbLine
 10
436.7
 20
171.175
 30
0.0
 11
437.033333
 21
173.175
 31
0.0
  0
TEXT
  5
293
100
AcDbEntity
  8
LAY-6
  6
CONTINUOUS
 62
     2
100
AcDbText
 10
436.2
 20
319.425
 30
0.0
 40
5.0
  1
３３０
 50
90.0
 41
0.672
  7
EXCADSTD
 72
     5
 11
436.2
 21
331.425
 31
0.0
100
AcDbText
  0
LINE
  5
294
100
AcDbEntity
  8
LAY-7
  6
DASHED2
 62
     3
100
AcDbLine
 10
203.937511
 20
199.575
 30
0.0
 11
215.937511
 21
199.575
 31
0.0
  0
LINE
  5
295
100
AcDbEntity
  8
LAY-7
  6
DASHED2
 62
     3
100
AcDbLine
 10
215.937511
 20
199.175006
 30
0.0
 11
215.937511
 21
199.575
 31
0.0
  0
LINE
  5
296
100
AcDbEntity
  8
LAY-7
  6
DASHED2
 62
     3
100
AcDbLine
 10
203.937511
 20
199.175006
 30
0.0
 11
203.937511
 21
199.575
 31
0.0
  0
LINE
  5
297
100
AcDbEntity
  8
LAY-7
  6
DASHED2
 62
     3
100
AcDbLine
 10
212.937511
 20
202.971273
 30
0.0
 11
215.937511
 21
199.575
 31
0.0
  0
LINE
  5
298
100
AcDbEntity
  8
LAY-7
  6
CONTINUOUS
 62
     3
100
AcDbLine
 10
212.937511
 20
215.175037
 30
0.0
 11
206.937511
 21
215.175037
 31
0.0
  0
LINE
  5
299
100
AcDbEntity
  8
LAY-7
  6
DASHED2
 62
     3
100
AcDbLine
 10
206.937511
 20
202.971273
 30
0.0
 11
212.937511
 21
202.971273
 31
0.0
  0
LINE
  5
29A
100
AcDbEntity
  8
LAY-7
  6
DASHED2
 62
     3
100
AcDbLine
 10
206.93753
 20
202.971256
 30
0.0
 11
203.937511
 21
199.575
 31
0.0
  0
LINE
  5
29B
100
AcDbEntity
  8
LAY-7
  6
CONTINUOUS
 62
     3
100
AcDbLine
 10
212.937511
 20
214.075
 30
0.0
 11
212.937511
 21
215.175037
 31
0.0
  0
LINE
  5
29C
100
AcDbEntity
  8
LAY-7
  6
CONTINUOUS
 62
     1
100
AcDbLine
 10
212.187514
 20
214.075
 30
0.0
 11
212.187511
 21
215.175037
 31
0.0
  0
LINE
  5
29D
100
AcDbEntity
  8
LAY-7
  6
CONTINUOUS
 62
     3
100
AcDbLine
 10
206.937511
 20
214.075
 30
0.0
 11
206.937511
 21
215.175037
 31
0.0
  0
LINE
  5
29E
100
AcDbEntity
  8
LAY-7
  6
CONTINUOUS
 62
     1
100
AcDbLine
 10
207.687508
 20
214.075
 30
0.0
 11
207.687511
 21
215.175037
 31
0.0
  0
LINE
  5
29F
100
AcDbEntity
  8
LAY-7
  6
DASHED2
 62
     3
100
AcDbLine
 10
206.937511
 20
214.075
 30
0.0
 11
206.937511
 21
202.971273
 31
0.0
  0
LINE
  5
2A0
100
AcDbEntity
  8
LAY-7
  6
DASHED2
 62
     1
100
AcDbLine
 10
207.687481
 20
214.075
 30
0.0
 11
207.687481
 21
202.971273
 31
0.0
  0
LINE
  5
2A1
100
AcDbEntity
  8
LAY-7
  6
DASHED2
 62
     1
100
AcDbLine
 10
212.187541
 20
214.075
 30
0.0
 11
212.187541
 21
202.971273
 31
0.0
  0
LINE
  5
2A2
100
AcDbEntity
  8
LAY-7
  6
DASHED2
 62
     3
100
AcDbLine
 10
212.937511
 20
214.075
 30
0.0
 11
212.937511
 21
202.971273
 31
0.0
  0
LINE
  5
2A3
100
AcDbEntity
  8
LAY-7
  6
DASHED2
 62
     3
100
AcDbLine
 10
227.937511
 20
199.575
 30
0.0
 11
239.937511
 21
199.575
 31
0.0
  0
LINE
  5
2A4
100
AcDbEntity
  8
LAY-7
  6
DASHED2
 62
     3
100
AcDbLine
 10
239.937511
 20
199.175006
 30
0.0
 11
239.937511
 21
199.575
 31
0.0
  0
LINE
  5
2A5
100
AcDbEntity
  8
LAY-7
  6
DASHED2
 62
     3
100
AcDbLine
 10
227.937511
 20
199.175006
 30
0.0
 11
227.937511
 21
199.575
 31
0.0
  0
LINE
  5
2A6
100
AcDbEntity
  8
LAY-7
  6
DASHED2
 62
     3
100
AcDbLine
 10
236.937511
 20
202.971273
 30
0.0
 11
239.937511
 21
199.575
 31
0.0
  0
LINE
  5
2A7
100
AcDbEntity
  8
LAY-7
  6
CONTINUOUS
 62
     3
100
AcDbLine
 10
236.937511
 20
215.175037
 30
0.0
 11
230.937511
 21
215.175037
 31
0.0
  0
LINE
  5
2A8
100
AcDbEntity
  8
LAY-7
  6
DASHED2
 62
     3
100
AcDbLine
 10
230.937511
 20
202.971273
 30
0.0
 11
236.937511
 21
202.971273
 31
0.0
  0
LINE
  5
2A9
100
AcDbEntity
  8
LAY-7
  6
DASHED2
 62
     3
100
AcDbLine
 10
230.93753
 20
202.971256
 30
0.0
 11
227.937511
 21
199.575
 31
0.0
  0
LINE
  5
2AA
100
AcDbEntity
  8
LAY-7
  6
CONTINUOUS
 62
     3
100
AcDbLine
 10
236.937511
 20
214.075
 30
0.0
 11
236.937511
 21
215.175037
 31
0.0
  0
LINE
  5
2AB
100
AcDbEntity
  8
LAY-7
  6
CONTINUOUS
 62
     1
100
AcDbLine
 10
236.187514
 20
214.075
 30
0.0
 11
236.187511
 21
215.175037
 31
0.0
  0
LINE
  5
2AC
100
AcDbEntity
  8
LAY-7
  6
CONTINUOUS
 62
     3
100
AcDbLine
 10
230.937511
 20
214.075
 30
0.0
 11
230.937511
 21
215.175037
 31
0.0
  0
LINE
  5
2AD
100
AcDbEntity
  8
LAY-7
  6
CONTINUOUS
 62
     1
100
AcDbLine
 10
231.687508
 20
214.075
 30
0.0
 11
231.687511
 21
215.175037
 31
0.0
  0
LINE
  5
2AE
100
AcDbEntity
  8
LAY-7
  6
DASHED2
 62
     3
100
AcDbLine
 10
230.937511
 20
214.075
 30
0.0
 11
230.937511
 21
202.971273
 31
0.0
  0
LINE
  5
2AF
100
AcDbEntity
  8
LAY-7
  6
DASHED2
 62
     1
100
AcDbLine
 10
231.687481
 20
214.075
 30
0.0
 11
231.687481
 21
202.971273
 31
0.0
  0
LINE
  5
2B0
100
AcDbEntity
  8
LAY-7
  6
DASHED2
 62
     1
100
AcDbLine
 10
236.187541
 20
214.075
 30
0.0
 11
236.187541
 21
202.971273
 31
0.0
  0
LINE
  5
2B1
100
AcDbEntity
  8
LAY-7
  6
DASHED2
 62
     3
100
AcDbLine
 10
236.937511
 20
214.075
 30
0.0
 11
236.937511
 21
202.971273
 31
0.0
  0
LINE
  5
2B2
100
AcDbEntity
  8
LAY-7
  6
DASHED2
 62
     3
100
AcDbLine
 10
251.937511
 20
199.575
 30
0.0
 11
263.937511
 21
199.575
 31
0.0
  0
LINE
  5
2B3
100
AcDbEntity
  8
LAY-7
  6
DASHED2
 62
     3
100
AcDbLine
 10
263.937511
 20
199.175006
 30
0.0
 11
263.937511
 21
199.575
 31
0.0
  0
LINE
  5
2B4
100
AcDbEntity
  8
LAY-7
  6
DASHED2
 62
     3
100
AcDbLine
 10
251.937511
 20
199.175006
 30
0.0
 11
251.937511
 21
199.575
 31
0.0
  0
LINE
  5
2B5
100
AcDbEntity
  8
LAY-7
  6
DASHED2
 62
     3
100
AcDbLine
 10
260.937511
 20
202.971273
 30
0.0
 11
263.937511
 21
199.575
 31
0.0
  0
LINE
  5
2B6
100
AcDbEntity
  8
LAY-7
  6
CONTINUOUS
 62
     3
100
AcDbLine
 10
260.937511
 20
215.175037
 30
0.0
 11
254.937511
 21
215.175037
 31
0.0
  0
LINE
  5
2B7
100
AcDbEntity
  8
LAY-7
  6
DASHED2
 62
     3
100
AcDbLine
 10
254.937511
 20
202.971273
 30
0.0
 11
260.937511
 21
202.971273
 31
0.0
  0
LINE
  5
2B8
100
AcDbEntity
  8
LAY-7
  6
DASHED2
 62
     3
100
AcDbLine
 10
254.93753
 20
202.971256
 30
0.0
 11
251.937511
 21
199.575
 31
0.0
  0
LINE
  5
2B9
100
AcDbEntity
  8
LAY-7
  6
CONTINUOUS
 62
     3
100
AcDbLine
 10
260.937511
 20
214.075
 30
0.0
 11
260.937511
 21
215.175037
 31
0.0
  0
LINE
  5
2BA
100
AcDbEntity
  8
LAY-7
  6
CONTINUOUS
 62
     1
100
AcDbLine
 10
260.187514
 20
214.075
 30
0.0
 11
260.187511
 21
215.175037
 31
0.0
  0
LINE
  5
2BB
100
AcDbEntity
  8
LAY-7
  6
CONTINUOUS
 62
     3
100
AcDbLine
 10
254.937511
 20
214.075
 30
0.0
 11
254.937511
 21
215.175037
 31
0.0
  0
LINE
  5
2BC
100
AcDbEntity
  8
LAY-7
  6
CONTINUOUS
 62
     1
100
AcDbLine
 10
255.687508
 20
214.075
 30
0.0
 11
255.687511
 21
215.175037
 31
0.0
  0
LINE
  5
2BD
100
AcDbEntity
  8
LAY-7
  6
DASHED2
 62
     3
100
AcDbLine
 10
254.937511
 20
214.075
 30
0.0
 11
254.937511
 21
202.971273
 31
0.0
  0
LINE
  5
2BE
100
AcDbEntity
  8
LAY-7
  6
DASHED2
 62
     1
100
AcDbLine
 10
255.687481
 20
214.075
 30
0.0
 11
255.687481
 21
202.971273
 31
0.0
  0
LINE
  5
2BF
100
AcDbEntity
  8
LAY-7
  6
DASHED2
 62
     1
100
AcDbLine
 10
260.187541
 20
214.075
 30
0.0
 11
260.187541
 21
202.971273
 31
0.0
  0
LINE
  5
2C0
100
AcDbEntity
  8
LAY-7
  6
DASHED2
 62
     3
100
AcDbLine
 10
260.937511
 20
214.075
 30
0.0
 11
260.937511
 21
202.971273
 31
0.0
  0
LINE
  5
2C1
100
AcDbEntity
  8
LAY-7
  6
DASHED2
 62
     3
100
AcDbLine
 10
275.937511
 20
199.575
 30
0.0
 11
287.937511
 21
199.575
 31
0.0
  0
LINE
  5
2C2
100
AcDbEntity
  8
LAY-7
  6
DASHED2
 62
     3
100
AcDbLine
 10
287.937511
 20
199.175006
 30
0.0
 11
287.937511
 21
199.575
 31
0.0
  0
LINE
  5
2C3
100
AcDbEntity
  8
LAY-7
  6
DASHED2
 62
     3
100
AcDbLine
 10
275.937511
 20
199.175006
 30
0.0
 11
275.937511
 21
199.575
 31
0.0
  0
LINE
  5
2C4
100
AcDbEntity
  8
LAY-7
  6
DASHED2
 62
     3
100
AcDbLine
 10
284.937511
 20
202.971273
 30
0.0
 11
287.937511
 21
199.575
 31
0.0
  0
LINE
  5
2C5
100
AcDbEntity
  8
LAY-7
  6
CONTINUOUS
 62
     3
100
AcDbLine
 10
284.937511
 20
215.175037
 30
0.0
 11
278.937511
 21
215.175037
 31
0.0
  0
LINE
  5
2C6
100
AcDbEntity
  8
LAY-7
  6
DASHED2
 62
     3
100
AcDbLine
 10
278.937511
 20
202.971273
 30
0.0
 11
284.937511
 21
202.971273
 31
0.0
  0
LINE
  5
2C7
100
AcDbEntity
  8
LAY-7
  6
DASHED2
 62
     3
100
AcDbLine
 10
278.93753
 20
202.971256
 30
0.0
 11
275.937511
 21
199.575
 31
0.0
  0
LINE
  5
2C8
100
AcDbEntity
  8
LAY-7
  6
CONTINUOUS
 62
     3
100
AcDbLine
 10
284.937511
 20
214.075
 30
0.0
 11
284.937511
 21
215.175037
 31
0.0
  0
LINE
  5
2C9
100
AcDbEntity
  8
LAY-7
  6
CONTINUOUS
 62
     1
100
AcDbLine
 10
284.187514
 20
214.075
 30
0.0
 11
284.187511
 21
215.175037
 31
0.0
  0
LINE
  5
2CA
100
AcDbEntity
  8
LAY-7
  6
CONTINUOUS
 62
     3
100
AcDbLine
 10
278.937511
 20
214.075
 30
0.0
 11
278.937511
 21
215.175037
 31
0.0
  0
LINE
  5
2CB
100
AcDbEntity
  8
LAY-7
  6
CONTINUOUS
 62
     1
100
AcDbLine
 10
279.687508
 20
214.075
 30
0.0
 11
279.687511
 21
215.175037
 31
0.0
  0
LINE
  5
2CC
100
AcDbEntity
  8
LAY-7
  6
DASHED2
 62
     3
100
AcDbLine
 10
278.937511
 20
214.075
 30
0.0
 11
278.937511
 21
202.971273
 31
0.0
  0
LINE
  5
2CD
100
AcDbEntity
  8
LAY-7
  6
DASHED2
 62
     1
100
AcDbLine
 10
279.687481
 20
214.075
 30
0.0
 11
279.687481
 21
202.971273
 31
0.0
  0
LINE
  5
2CE
100
AcDbEntity
  8
LAY-7
  6
DASHED2
 62
     1
100
AcDbLine
 10
284.187541
 20
214.075
 30
0.0
 11
284.187541
 21
202.971273
 31
0.0
  0
LINE
  5
2CF
100
AcDbEntity
  8
LAY-7
  6
DASHED2
 62
     3
100
AcDbLine
 10
284.937511
 20
214.075
 30
0.0
 11
284.937511
 21
202.971273
 31
0.0
  0
LINE
  5
2D0
100
AcDbEntity
  8
LAY-9
  6
CONTINUOUS
 62
     2
100
AcDbLine
 10
655.482176
 20
208.837515
 30
0.0
 11
663.848776
 21
217.204115
 31
0.0
  0
LINE
  5
2D1
100
AcDbEntity
  8
LAY-9
  6
CONTINUOUS
 62
     2
100
AcDbLine
 10
654.541631
 20
206.482757
 30
0.0
 11
666.203535
 21
218.14466
 31
0.0
  0
LINE
  5
2D2
100
AcDbEntity
  8
LAY-9
  6
CONTINUOUS
 62
     2
100
AcDbLine
 10
654.044066
 20
204.570978
 30
0.0
 11
668.115313
 21
218.642225
 31
0.0
  0
LINE
  5
2D3
100
AcDbEntity
  8
LAY-9
  6
CONTINUOUS
 62
     2
100
AcDbLine
 10
653.786797
 20
202.899495
 30
0.0
 11
660.60147
 21
209.714168
 31
0.0
  0
LINE
  5
2D4
100
AcDbEntity
  8
LAY-9
  6
CONTINUOUS
 62
     2
100
AcDbLine
 10
662.972124
 20
212.084822
 30
0.0
 11
669.786797
 21
218.899495
 31
0.0
  0
LINE
  5
2D5
100
AcDbEntity
  8
LAY-9
  6
CONTINUOUS
 62
     2
100
AcDbLine
 10
653.690495
 20
201.38898
 30
0.0
 11
658.633204
 21
206.331689
 31
0.0
  0
LINE
  5
2D6
100
AcDbEntity
  8
LAY-9
  6
CONTINUOUS
 62
     2
100
AcDbLine
 10
666.354603
 20
214.053088
 30
0.0
 11
671.297312
 21
218.995797
 31
0.0
  0
LINE
  5
2D7
100
AcDbEntity
  8
LAY-9
  6
CONTINUOUS
 62
     2
100
AcDbLine
 10
653.686292
 20
199.970563
 30
0.0
 11
657.966032
 21
204.250303
 31
0.0
  0
LINE
  5
2D8
100
AcDbEntity
  8
LAY-9
  6
CONTINUOUS
 62
     2
100
AcDbLine
 10
668.435989
 20
214.72026
 30
0.0
 11
670.286292
 21
216.570563
 31
0.0
  0
LINE
  5
2D9
100
AcDbEntity
  8
LAY-9
  6
CONTINUOUS
 62
     2
100
AcDbLine
 10
671.105439
 20
217.389711
 30
0.0
 11
672.715729
 21
219.0
 31
0.0
  0
LINE
  5
2DA
100
AcDbEntity
  8
LAY-9
  6
CONTINUOUS
 62
     2
100
AcDbLine
 10
653.686292
 20
198.556349
 30
0.0
 11
657.67073
 21
202.540787
 31
0.0
  0
LINE
  5
2DB
100
AcDbEntity
  8
LAY-9
  6
CONTINUOUS
 62
     2
100
AcDbLine
 10
670.145504
 20
215.015562
 30
0.0
 11
670.286292
 21
215.156349
 31
0.0
  0
LINE
  5
2DC
100
AcDbEntity
  8
LAY-9
  6
CONTINUOUS
 62
     2
100
AcDbLine
 10
672.529942
 20
217.4
 30
0.0
 11
674.129942
 21
219.0
 31
0.0
  0
LINE
  5
2DD
100
AcDbEntity
  8
LAY-9
  6
CONTINUOUS
 62
     2
100
AcDbLine
 10
653.686292
 20
197.142136
 30
0.0
 11
657.586355
 21
201.042199
 31
0.0
  0
LINE
  5
2DE
100
AcDbEntity
  8
LAY-9
  6
CONTINUOUS
 62
     2
100
AcDbLine
 10
673.944156
 20
217.4
 30
0.0
 11
675.544156
 21
219.0
 31
0.0
  0
LINE
  5
2DF
100
AcDbEntity
  8
LAY-9
  6
CONTINUOUS
 62
     2
100
AcDbLine
 10
653.686292
 20
195.727922
 30
0.0
 11
657.586292
 21
199.627922
 31
0.0
  0
LINE
  5
2E0
100
AcDbEntity
  8
LAY-9
  6
CONTINUOUS
 62
     2
100
AcDbLine
 10
675.358369
 20
217.4
 30
0.0
 11
676.958369
 21
219.0
 31
0.0
  0
LINE
  5
2E1
100
AcDbEntity
  8
LAY-9
  6
CONTINUOUS
 62
     2
100
AcDbLine
 10
653.686292
 20
194.313708
 30
0.0
 11
657.586292
 21
198.213708
 31
0.0
  0
LINE
  5
2E2
100
AcDbEntity
  8
LAY-9
  6
CONTINUOUS
 62
     2
100
AcDbLine
 10
676.772583
 20
217.4
 30
0.0
 11
678.372583
 21
219.0
 31
0.0
  0
LINE
  5
2E3
100
AcDbEntity
  8
LAY-9
  6
CONTINUOUS
 62
     2
100
AcDbLine
 10
653.686292
 20
192.899495
 30
0.0
 11
657.586292
 21
196.799495
 31
0.0
  0
LINE
  5
2E4
100
AcDbEntity
  8
LAY-9
  6
CONTINUOUS
 62
     2
100
AcDbLine
 10
678.186797
 20
217.4
 30
0.0
 11
679.786797
 21
219.0
 31
0.0
  0
LINE
  5
2E5
100
AcDbEntity
  8
LAY-9
  6
CONTINUOUS
 62
     2
100
AcDbLine
 10
653.686292
 20
191.485281
 30
0.0
 11
657.586292
 21
195.385281
 31
0.0
  0
LINE
  5
2E6
100
AcDbEntity
  8
LAY-9
  6
CONTINUOUS
 62
     2
100
AcDbLine
 10
679.60101
 20
217.4
 30
0.0
 11
681.20101
 21
219.0
 31
0.0
  0
LINE
  5
2E7
100
AcDbEntity
  8
LAY-9
  6
CONTINUOUS
 62
     2
100
AcDbLine
 10
653.686292
 20
190.071068
 30
0.0
 11
657.586292
 21
193.971068
 31
0.0
  0
LINE
  5
2E8
100
AcDbEntity
  8
LAY-9
  6
CONTINUOUS
 62
     2
100
AcDbLine
 10
681.015224
 20
217.4
 30
0.0
 11
682.615224
 21
219.0
 31
0.0
  0
LINE
  5
2E9
100
AcDbEntity
  8
LAY-9
  6
CONTINUOUS
 62
     2
100
AcDbLine
 10
653.686292
 20
188.656854
 30
0.0
 11
657.586292
 21
192.556854
 31
0.0
  0
LINE
  5
2EA
100
AcDbEntity
  8
LAY-9
  6
CONTINUOUS
 62
     2
100
AcDbLine
 10
682.429437
 20
217.4
 30
0.0
 11
684.029437
 21
219.0
 31
0.0
  0
LINE
  5
2EB
100
AcDbEntity
  8
LAY-9
  6
CONTINUOUS
 62
     2
100
AcDbLine
 10
653.686292
 20
187.242641
 30
0.0
 11
657.586292
 21
191.142641
 31
0.0
  0
LINE
  5
2EC
100
AcDbEntity
  8
LAY-9
  6
CONTINUOUS
 62
     2
100
AcDbLine
 10
683.843651
 20
217.4
 30
0.0
 11
685.443651
 21
219.0
 31
0.0
  0
LINE
  5
2ED
100
AcDbEntity
  8
LAY-9
  6
CONTINUOUS
 62
     2
100
AcDbLine
 10
653.686292
 20
185.828427
 30
0.0
 11
657.586292
 21
189.728427
 31
0.0
  0
LINE
  5
2EE
100
AcDbEntity
  8
LAY-9
  6
CONTINUOUS
 62
     2
100
AcDbLine
 10
685.257864
 20
217.4
 30
0.0
 11
686.857864
 21
219.0
 31
0.0
  0
LINE
  5
2EF
100
AcDbEntity
  8
LAY-9
  6
CONTINUOUS
 62
     2
100
AcDbLine
 10
653.696009
 20
184.423931
 30
0.0
 11
657.586292
 21
188.314214
 31
0.0
  0
LINE
  5
2F0
100
AcDbEntity
  8
LAY-9
  6
CONTINUOUS
 62
     2
100
AcDbLine
 10
686.672078
 20
217.4
 30
0.0
 11
688.272078
 21
219.0
 31
0.0
  0
LINE
  5
2F1
100
AcDbEntity
  8
LAY-9
  6
CONTINUOUS
 62
     2
100
AcDbLine
 10
654.154921
 20
183.468629
 30
0.0
 11
657.586292
 21
186.9
 31
0.0
  0
LINE
  5
2F2
100
AcDbEntity
  8
LAY-9
  6
CONTINUOUS
 62
     2
100
AcDbLine
 10
688.086292
 20
217.4
 30
0.0
 11
689.686292
 21
219.0
 31
0.0
  0
LINE
  5
2F3
100
AcDbEntity
  8
LAY-9
  6
CONTINUOUS
 62
     2
100
AcDbLine
 10
655.110222
 20
183.009717
 30
0.0
 11
659.000505
 21
186.9
 31
0.0
  0
LINE
  5
2F4
100
AcDbEntity
  8
LAY-9
  6
CONTINUOUS
 62
     2
100
AcDbLine
 10
689.500505
 20
217.4
 30
0.0
 11
691.100505
 21
219.0
 31
0.0
  0
LINE
  5
2F5
100
AcDbEntity
  8
LAY-9
  6
CONTINUOUS
 62
     2
100
AcDbLine
 10
656.514719
 20
183.0
 30
0.0
 11
660.414719
 21
186.9
 31
0.0
  0
LINE
  5
2F6
100
AcDbEntity
  8
LAY-9
  6
CONTINUOUS
 62
     2
100
AcDbLine
 10
690.914719
 20
217.4
 30
0.0
 11
692.514719
 21
219.0
 31
0.0
  0
LINE
  5
2F7
100
AcDbEntity
  8
LAY-9
  6
CONTINUOUS
 62
     2
100
AcDbLine
 10
657.928932
 20
183.0
 30
0.0
 11
661.828932
 21
186.9
 31
0.0
  0
LINE
  5
2F8
100
AcDbEntity
  8
LAY-9
  6
CONTINUOUS
 62
     2
100
AcDbLine
 10
692.328932
 20
217.4
 30
0.0
 11
693.686292
 21
218.757359
 31
0.0
  0
LINE
  5
2F9
100
AcDbEntity
  8
LAY-9
  6
CONTINUOUS
 62
     2
100
AcDbLine
 10
659.343146
 20
183.0
 30
0.0
 11
663.243146
 21
186.9
 31
0.0
  0
LINE
  5
2FA
100
AcDbEntity
  8
LAY-9
  6
CONTINUOUS
 62
     2
100
AcDbLine
 10
660.757359
 20
183.0
 30
0.0
 11
664.657359
 21
186.9
 31
0.0
  0
LINE
  5
2FB
100
AcDbEntity
  8
LAY-9
  6
CONTINUOUS
 62
     2
100
AcDbLine
 10
662.171573
 20
183.0
 30
0.0
 11
666.071573
 21
186.9
 31
0.0
  0
LINE
  5
2FC
100
AcDbEntity
  8
LAY-9
  6
CONTINUOUS
 62
     2
100
AcDbLine
 10
663.585786
 20
183.0
 30
0.0
 11
667.485786
 21
186.9
 31
0.0
  0
LINE
  5
2FD
100
AcDbEntity
  8
LAY-9
  6
CONTINUOUS
 62
     2
100
AcDbLine
 10
665.0
 20
183.0
 30
0.0
 11
668.9
 21
186.9
 31
0.0
  0
LINE
  5
2FE
100
AcDbEntity
  8
LAY-9
  6
CONTINUOUS
 62
     2
100
AcDbLine
 10
666.414214
 20
183.0
 30
0.0
 11
670.286292
 21
186.872078
 31
0.0
  0
LINE
  5
2FF
100
AcDbEntity
  8
LAY-9
  6
CONTINUOUS
 62
     2
100
AcDbLine
 10
667.828427
 20
183.0
 30
0.0
 11
670.286292
 21
185.457864
 31
0.0
  0
LINE
  5
300
100
AcDbEntity
  8
LAY-9
  6
CONTINUOUS
 62
     2
100
AcDbLine
 10
669.242641
 20
183.0
 30
0.0
 11
670.842641
 21
184.6
 31
0.0
  0
LINE
  5
301
100
AcDbEntity
  8
LAY-9
  6
CONTINUOUS
 62
     2
100
AcDbLine
 10
670.656854
 20
183.0
 30
0.0
 11
672.256854
 21
184.6
 31
0.0
  0
LINE
  5
302
100
AcDbEntity
  8
LAY-9
  6
CONTINUOUS
 62
     2
100
AcDbLine
 10
672.071068
 20
183.0
 30
0.0
 11
673.671068
 21
184.6
 31
0.0
  0
LINE
  5
303
100
AcDbEntity
  8
LAY-9
  6
CONTINUOUS
 62
     2
100
AcDbLine
 10
673.485281
 20
183.0
 30
0.0
 11
675.085281
 21
184.6
 31
0.0
  0
LINE
  5
304
100
AcDbEntity
  8
LAY-9
  6
CONTINUOUS
 62
     2
100
AcDbLine
 10
674.899495
 20
183.0
 30
0.0
 11
676.499495
 21
184.6
 31
0.0
  0
LINE
  5
305
100
AcDbEntity
  8
LAY-9
  6
CONTINUOUS
 62
     2
100
AcDbLine
 10
676.313708
 20
183.0
 30
0.0
 11
677.913708
 21
184.6
 31
0.0
  0
LINE
  5
306
100
AcDbEntity
  8
LAY-9
  6
CONTINUOUS
 62
     2
100
AcDbLine
 10
677.727922
 20
183.0
 30
0.0
 11
679.327922
 21
184.6
 31
0.0
  0
LINE
  5
307
100
AcDbEntity
  8
LAY-9
  6
CONTINUOUS
 62
     2
100
AcDbLine
 10
679.142136
 20
183.0
 30
0.0
 11
680.742136
 21
184.6
 31
0.0
  0
LINE
  5
308
100
AcDbEntity
  8
LAY-9
  6
CONTINUOUS
 62
     2
100
AcDbLine
 10
680.556349
 20
183.0
 30
0.0
 11
682.156349
 21
184.6
 31
0.0
  0
LINE
  5
309
100
AcDbEntity
  8
LAY-9
  6
CONTINUOUS
 62
     2
100
AcDbLine
 10
681.970563
 20
183.0
 30
0.0
 11
683.570563
 21
184.6
 31
0.0
  0
LINE
  5
30A
100
AcDbEntity
  8
LAY-9
  6
CONTINUOUS
 62
     2
100
AcDbLine
 10
683.384776
 20
183.0
 30
0.0
 11
684.984776
 21
184.6
 31
0.0
  0
LINE
  5
30B
100
AcDbEntity
  8
LAY-9
  6
CONTINUOUS
 62
     2
100
AcDbLine
 10
684.79899
 20
183.0
 30
0.0
 11
686.39899
 21
184.6
 31
0.0
  0
LINE
  5
30C
100
AcDbEntity
  8
LAY-9
  6
CONTINUOUS
 62
     2
100
AcDbLine
 10
686.213203
 20
183.0
 30
0.0
 11
687.813203
 21
184.6
 31
0.0
  0
LINE
  5
30D
100
AcDbEntity
  8
LAY-9
  6
CONTINUOUS
 62
     2
100
AcDbLine
 10
687.627417
 20
183.0
 30
0.0
 11
689.227417
 21
184.6
 31
0.0
  0
LINE
  5
30E
100
AcDbEntity
  8
LAY-9
  6
CONTINUOUS
 62
     2
100
AcDbLine
 10
689.041631
 20
183.0
 30
0.0
 11
690.641631
 21
184.6
 31
0.0
  0
LINE
  5
30F
100
AcDbEntity
  8
LAY-9
  6
CONTINUOUS
 62
     2
100
AcDbLine
 10
690.455844
 20
183.0
 30
0.0
 11
692.055844
 21
184.6
 31
0.0
  0
LINE
  5
310
100
AcDbEntity
  8
LAY-9
  6
CONTINUOUS
 62
     2
100
AcDbLine
 10
691.870058
 20
183.0
 30
0.0
 11
693.470058
 21
184.6
 31
0.0
  0
LINE
  5
311
100
AcDbEntity
  8
LAY-9
  6
CONTINUOUS
 62
     2
100
AcDbLine
 10
693.284271
 20
183.0
 30
0.0
 11
693.686292
 21
183.40202
 31
0.0
  0
LINE
  5
312
100
AcDbEntity
  8
LAY-9
  6
CONTINUOUS
 62
     1
100
AcDbLine
 10
203.937511
 20
189.175
 30
0.0
 11
203.937511
 21
171.175
 31
0.0
  0
ARC
  5
313
100
AcDbEntity
  8
LAY-9
  6
CONTINUOUS
 62
     1
100
AcDbCircle
 10
473.437541
 20
207.175
 30
0.0
 40
2.3
100
AcDbArc
 50
90.0
 51
180.0
  0
ARC
  5
314
100
AcDbEntity
  8
LAY-9
  6
CONTINUOUS
 62
     1
100
AcDbCircle
 10
501.637541
 20
207.175
 30
0.0
 40
2.3
100
AcDbArc
 50
0.0
 51
90.0
  0
LINE
  5
315
100
AcDbEntity
  8
LAY-9
  6
CONTINUOUS
 62
     1
100
AcDbLine
 10
473.437541
 20
207.175
 30
0.0
 11
501.637541
 21
207.175
 31
0.0
  0
LINE
  5
316
100
AcDbEntity
  8
LAY-9
  6
CONTINUOUS
 62
     1
100
AcDbLine
 10
473.437541
 20
209.475
 30
0.0
 11
501.637541
 21
209.475
 31
0.0
  0
LINE
  5
317
100
AcDbEntity
  8
LAY-9
  6
CONTINUOUS
 62
     1
100
AcDbLine
 10
503.937541
 20
184.475
 30
0.0
 11
501.637541
 21
184.475
 31
0.0
  0
LINE
  5
318
100
AcDbEntity
  8
LAY-9
  6
CONTINUOUS
 62
     1
100
AcDbLine
 10
501.637541
 20
184.475
 30
0.0
 11
501.637541
 21
207.175
 31
0.0
  0
LINE
  5
319
100
AcDbEntity
  8
LAY-9
  6
CONTINUOUS
 62
     1
100
AcDbLine
 10
471.137541
 20
184.475
 30
0.0
 11
473.437541
 21
184.475
 31
0.0
  0
LINE
  5
31A
100
AcDbEntity
  8
LAY-9
  6
CONTINUOUS
 62
     1
100
AcDbLine
 10
473.437541
 20
184.475
 30
0.0
 11
473.437541
 21
207.175
 31
0.0
  0
LINE
  5
31B
100
AcDbEntity
  8
LAY-9
  6
CONTINUOUS
 62
     1
100
AcDbLine
 10
151.937511
 20
174.175
 30
0.0
 11
151.937511
 21
171.175
 31
0.0
  0
LINE
  5
31C
100
AcDbEntity
  8
LAY-9
  6
CONTINUOUS
 62
     1
100
AcDbLine
 10
462.537511
 20
161.175
 30
0.0
 11
527.537511
 21
161.175
 31
0.0
  0
POLYLINE
  5
31D
100
AcDbEntity
  8
LAY-9
  6
CONTINUOUS
 62
     1
100
AcDb2dPolyline
 66
     1
 10
0.0
 20
0.0
 30
0.0
 70
   128
  0
VERTEX
  5
31E
100
AcDbEntity
  8
LAY-9
  6
CONTINUOUS
 62
     1
100
AcDbVertex
100
AcDb2dVertex
 10
462.537511
 20
161.175
 30
0.0
  0
VERTEX
  5
31F
100
AcDbEntity
  8
LAY-9
  6
CONTINUOUS
 62
     1
100
AcDbVertex
100
AcDb2dVertex
 10
462.569101
 20
161.07659
 30
0.0
  0
VERTEX
  5
320
100
AcDbEntity
  8
LAY-9
  6
CONTINUOUS
 62
     1
100
AcDbVertex
100
AcDb2dVertex
 10
462.656093
 20
160.797022
 30
0.0
  0
VERTEX
  5
321
100
AcDbEntity
  8
LAY-9
  6
CONTINUOUS
 62
     1
100
AcDbVertex
100
AcDb2dVertex
 10
462.786824
 20
160.359787
 30
0.0
  0
VERTEX
  5
322
100
AcDbEntity
  8
LAY-9
  6
CONTINUOUS
 62
     1
100
AcDbVertex
100
AcDb2dVertex
 10
462.949628
 20
159.788379
 30
0.0
  0
VERTEX
  5
323
100
AcDbEntity
  8
LAY-9
  6
CONTINUOUS
 62
     1
100
AcDbVertex
100
AcDb2dVertex
 10
463.132842
 20
159.106289
 30
0.0
  0
VERTEX
  5
324
100
AcDbEntity
  8
LAY-9
  6
CONTINUOUS
 62
     1
100
AcDbVertex
100
AcDb2dVertex
 10
463.3248
 20
158.33701
 30
0.0
  0
VERTEX
  5
325
100
AcDbEntity
  8
LAY-9
  6
CONTINUOUS
 62
     1
100
AcDbVertex
100
AcDb2dVertex
 10
463.51384
 20
157.504033
 30
0.0
  0
VERTEX
  5
326
100
AcDbEntity
  8
LAY-9
  6
CONTINUOUS
 62
     1
100
AcDbVertex
100
AcDb2dVertex
 10
463.688295
 20
156.630852
 30
0.0
  0
VERTEX
  5
327
100
AcDbEntity
  8
LAY-9
  6
CONTINUOUS
 62
     1
100
AcDbVertex
100
AcDb2dVertex
 10
463.836501
 20
155.740957
 30
0.0
  0
VERTEX
  5
328
100
AcDbEntity
  8
LAY-9
  6
CONTINUOUS
 62
     1
100
AcDbVertex
100
AcDb2dVertex
 10
463.946795
 20
154.857843
 30
0.0
  0
VERTEX
  5
329
100
AcDbEntity
  8
LAY-9
  6
CONTINUOUS
 62
     1
100
AcDbVertex
100
AcDb2dVertex
 10
464.007511
 20
154.005
 30
0.0
  0
VERTEX
  5
32A
100
AcDbEntity
  8
LAY-9
  6
CONTINUOUS
 62
     1
100
AcDbVertex
100
AcDb2dVertex
 10
464.012119
 20
153.266124
 30
0.0
  0
VERTEX
  5
32B
100
AcDbEntity
  8
LAY-9
  6
CONTINUOUS
 62
     1
100
AcDbVertex
100
AcDb2dVertex
 10
463.971075
 20
152.568354
 30
0.0
  0
VERTEX
  5
32C
100
AcDbEntity
  8
LAY-9
  6
CONTINUOUS
 62
     1
100
AcDbVertex
100
AcDb2dVertex
 10
463.8902
 20
151.907609
 30
0.0
  0
VERTEX
  5
32D
100
AcDbEntity
  8
LAY-9
  6
CONTINUOUS
 62
     1
100
AcDbVertex
100
AcDb2dVertex
 10
463.775312
 20
151.27981
 30
0.0
  0
VERTEX
  5
32E
100
AcDbEntity
  8
LAY-9
  6
CONTINUOUS
 62
     1
100
AcDbVertex
100
AcDb2dVertex
 10
463.63223
 20
150.680876
 30
0.0
  0
VERTEX
  5
32F
100
AcDbEntity
  8
LAY-9
  6
CONTINUOUS
 62
     1
100
AcDbVertex
100
AcDb2dVertex
 10
463.466773
 20
150.106729
 30
0.0
  0
VERTEX
  5
330
100
AcDbEntity
  8
LAY-9
  6
CONTINUOUS
 62
     1
100
AcDbVertex
100
AcDb2dVertex
 10
463.284758
 20
149.553289
 30
0.0
  0
VERTEX
  5
331
100
AcDbEntity
  8
LAY-9
  6
CONTINUOUS
 62
     1
100
AcDbVertex
100
AcDb2dVertex
 10
463.092006
 20
149.016476
 30
0.0
  0
VERTEX
  5
332
100
AcDbEntity
  8
LAY-9
  6
CONTINUOUS
 62
     1
100
AcDbVertex
100
AcDb2dVertex
 10
462.894335
 20
148.49221
 30
0.0
  0
VERTEX
  5
333
100
AcDbEntity
  8
LAY-9
  6
CONTINUOUS
 62
     1
100
AcDbVertex
100
AcDb2dVertex
 10
462.697564
 20
147.976411
 30
0.0
  0
VERTEX
  5
334
100
AcDbEntity
  8
LAY-9
  6
CONTINUOUS
 62
     1
100
AcDbVertex
100
AcDb2dVertex
 10
462.507511
 20
147.465
 30
0.0
  0
VERTEX
  5
335
100
AcDbEntity
  8
LAY-9
  6
CONTINUOUS
 62
     1
100
AcDbVertex
100
AcDb2dVertex
 10
462.363234
 20
147.052762
 30
0.0
  0
VERTEX
  5
336
100
AcDbEntity
  8
LAY-9
  6
CONTINUOUS
 62
     1
100
AcDbVertex
100
AcDb2dVertex
 10
462.230783
 20
146.63674
 30
0.0
  0
VERTEX
  5
337
100
AcDbEntity
  8
LAY-9
  6
CONTINUOUS
 62
     1
100
AcDbVertex
100
AcDb2dVertex
 10
462.113836
 20
146.212952
 30
0.0
  0
VERTEX
  5
338
100
AcDbEntity
  8
LAY-9
  6
CONTINUOUS
 62
     1
100
AcDbVertex
100
AcDb2dVertex
 10
462.016067
 20
145.777413
 30
0.0
  0
VERTEX
  5
339
100
AcDbEntity
  8
LAY-9
  6
CONTINUOUS
 62
     1
100
AcDbVertex
100
AcDb2dVertex
 10
461.941154
 20
145.32614
 30
0.0
  0
VERTEX
  5
33A
100
AcDbEntity
  8
LAY-9
  6
CONTINUOUS
 62
     1
100
AcDbVertex
100
AcDb2dVertex
 10
461.892773
 20
144.855149
 30
0.0
  0
VERTEX
  5
33B
100
AcDbEntity
  8
LAY-9
  6
CONTINUOUS
 62
     1
100
AcDbVertex
100
AcDb2dVertex
 10
461.8746
 20
144.360456
 30
0.0
  0
VERTEX
  5
33C
100
AcDbEntity
  8
LAY-9
  6
CONTINUOUS
 62
     1
100
AcDbVertex
100
AcDb2dVertex
 10
461.890311
 20
143.838079
 30
0.0
  0
VERTEX
  5
33D
100
AcDbEntity
  8
LAY-9
  6
CONTINUOUS
 62
     1
100
AcDbVertex
100
AcDb2dVertex
 10
461.943583
 20
143.284033
 30
0.0
  0
VERTEX
  5
33E
100
AcDbEntity
  8
LAY-9
  6
CONTINUOUS
 62
     1
100
AcDbVertex
100
AcDb2dVertex
 10
462.038091
 20
142.694334
 30
0.0
  0
VERTEX
  5
33F
100
AcDbEntity
  8
LAY-9
  6
CONTINUOUS
 62
     1
100
AcDbVertex
100
AcDb2dVertex
 10
462.177511
 20
142.065
 30
0.0
  0
VERTEX
  5
340
100
AcDbEntity
  8
LAY-9
  6
CONTINUOUS
 62
     1
100
AcDbVertex
100
AcDb2dVertex
 10
462.253854
 20
141.77431
 30
0.0
  0
VERTEX
  5
341
100
AcDbEntity
  8
LAY-9
  6
CONTINUOUS
 62
     1
100
AcDbVertex
100
AcDb2dVertex
 10
462.336769
 20
141.481402
 30
0.0
  0
VERTEX
  5
342
100
AcDbEntity
  8
LAY-9
  6
CONTINUOUS
 62
     1
100
AcDbVertex
100
AcDb2dVertex
 10
462.423341
 20
141.192575
 30
0.0
  0
VERTEX
  5
343
100
AcDbEntity
  8
LAY-9
  6
CONTINUOUS
 62
     1
100
AcDbVertex
100
AcDb2dVertex
 10
462.510653
 20
140.914131
 30
0.0
  0
VERTEX
  5
344
100
AcDbEntity
  8
LAY-9
  6
CONTINUOUS
 62
     1
100
AcDbVertex
100
AcDb2dVertex
 10
462.595787
 20
140.65237
 30
0.0
  0
VERTEX
  5
345
100
AcDbEntity
  8
LAY-9
  6
CONTINUOUS
 62
     1
100
AcDbVertex
100
AcDb2dVertex
 10
462.675826
 20
140.413594
 30
0.0
  0
VERTEX
  5
346
100
AcDbEntity
  8
LAY-9
  6
CONTINUOUS
 62
     1
100
AcDbVertex
100
AcDb2dVertex
 10
462.747854
 20
140.204102
 30
0.0
  0
VERTEX
  5
347
100
AcDbEntity
  8
LAY-9
  6
CONTINUOUS
 62
     1
100
AcDbVertex
100
AcDb2dVertex
 10
462.808954
 20
140.030196
 30
0.0
  0
VERTEX
  5
348
100
AcDbEntity
  8
LAY-9
  6
CONTINUOUS
 62
     1
100
AcDbVertex
100
AcDb2dVertex
 10
462.856208
 20
139.898177
 30
0.0
  0
VERTEX
  5
349
100
AcDbEntity
  8
LAY-9
  6
CONTINUOUS
 62
     1
100
AcDbVertex
100
AcDb2dVertex
 10
462.886699
 20
139.814344
 30
0.0
  0
VERTEX
  5
34A
100
AcDbEntity
  8
LAY-9
  6
CONTINUOUS
 62
     1
100
AcDbVertex
100
AcDb2dVertex
 10
462.897511
 20
139.785
 30
0.0
  0
SEQEND
  5
34B
100
AcDbEntity
  8
LAY-9
  6
CONTINUOUS
 62
     1
  0
POLYLINE
  5
34C
100
AcDbEntity
  8
LAY-9
  6
CONTINUOUS
 62
     1
100
AcDb2dPolyline
 66
     1
 10
0.0
 20
0.0
 30
0.0
 70
   128
  0
VERTEX
  5
34D
100
AcDbEntity
  8
LAY-9
  6
CONTINUOUS
 62
     1
100
AcDbVertex
100
AcDb2dVertex
 10
527.537511
 20
161.175
 30
0.0
  0
VERTEX
  5
34E
100
AcDbEntity
  8
LAY-9
  6
CONTINUOUS
 62
     1
100
AcDbVertex
100
AcDb2dVertex
 10
527.569101
 20
161.07659
 30
0.0
  0
VERTEX
  5
34F
100
AcDbEntity
  8
LAY-9
  6
CONTINUOUS
 62
     1
100
AcDbVertex
100
AcDb2dVertex
 10
527.656093
 20
160.797022
 30
0.0
  0
VERTEX
  5
350
100
AcDbEntity
  8
LAY-9
  6
CONTINUOUS
 62
     1
100
AcDbVertex
100
AcDb2dVertex
 10
527.786824
 20
160.359787
 30
0.0
  0
VERTEX
  5
351
100
AcDbEntity
  8
LAY-9
  6
CONTINUOUS
 62
     1
100
AcDbVertex
100
AcDb2dVertex
 10
527.949628
 20
159.788379
 30
0.0
  0
VERTEX
  5
352
100
AcDbEntity
  8
LAY-9
  6
CONTINUOUS
 62
     1
100
AcDbVertex
100
AcDb2dVertex
 10
528.132842
 20
159.106289
 30
0.0
  0
VERTEX
  5
353
100
AcDbEntity
  8
LAY-9
  6
CONTINUOUS
 62
     1
100
AcDbVertex
100
AcDb2dVertex
 10
528.3248
 20
158.33701
 30
0.0
  0
VERTEX
  5
354
100
AcDbEntity
  8
LAY-9
  6
CONTINUOUS
 62
     1
100
AcDbVertex
100
AcDb2dVertex
 10
528.51384
 20
157.504033
 30
0.0
  0
VERTEX
  5
355
100
AcDbEntity
  8
LAY-9
  6
CONTINUOUS
 62
     1
100
AcDbVertex
100
AcDb2dVertex
 10
528.688295
 20
156.630852
 30
0.0
  0
VERTEX
  5
356
100
AcDbEntity
  8
LAY-9
  6
CONTINUOUS
 62
     1
100
AcDbVertex
100
AcDb2dVertex
 10
528.836501
 20
155.740957
 30
0.0
  0
VERTEX
  5
357
100
AcDbEntity
  8
LAY-9
  6
CONTINUOUS
 62
     1
100
AcDbVertex
100
AcDb2dVertex
 10
528.946795
 20
154.857843
 30
0.0
  0
VERTEX
  5
358
100
AcDbEntity
  8
LAY-9
  6
CONTINUOUS
 62
     1
100
AcDbVertex
100
AcDb2dVertex
 10
529.007511
 20
154.005
 30
0.0
  0
VERTEX
  5
359
100
AcDbEntity
  8
LAY-9
  6
CONTINUOUS
 62
     1
100
AcDbVertex
100
AcDb2dVertex
 10
529.012119
 20
153.266124
 30
0.0
  0
VERTEX
  5
35A
100
AcDbEntity
  8
LAY-9
  6
CONTINUOUS
 62
     1
100
AcDbVertex
100
AcDb2dVertex
 10
528.971075
 20
152.568354
 30
0.0
  0
VERTEX
  5
35B
100
AcDbEntity
  8
LAY-9
  6
CONTINUOUS
 62
     1
100
AcDbVertex
100
AcDb2dVertex
 10
528.8902
 20
151.907609
 30
0.0
  0
VERTEX
  5
35C
100
AcDbEntity
  8
LAY-9
  6
CONTINUOUS
 62
     1
100
AcDbVertex
100
AcDb2dVertex
 10
528.775312
 20
151.27981
 30
0.0
  0
VERTEX
  5
35D
100
AcDbEntity
  8
LAY-9
  6
CONTINUOUS
 62
     1
100
AcDbVertex
100
AcDb2dVertex
 10
528.63223
 20
150.680876
 30
0.0
  0
VERTEX
  5
35E
100
AcDbEntity
  8
LAY-9
  6
CONTINUOUS
 62
     1
100
AcDbVertex
100
AcDb2dVertex
 10
528.466773
 20
150.106729
 30
0.0
  0
VERTEX
  5
35F
100
AcDbEntity
  8
LAY-9
  6
CONTINUOUS
 62
     1
100
AcDbVertex
100
AcDb2dVertex
 10
528.284758
 20
149.553289
 30
0.0
  0
VERTEX
  5
360
100
AcDbEntity
  8
LAY-9
  6
CONTINUOUS
 62
     1
100
AcDbVertex
100
AcDb2dVertex
 10
528.092006
 20
149.016476
 30
0.0
  0
VERTEX
  5
361
100
AcDbEntity
  8
LAY-9
  6
CONTINUOUS
 62
     1
100
AcDbVertex
100
AcDb2dVertex
 10
527.894335
 20
148.49221
 30
0.0
  0
VERTEX
  5
362
100
AcDbEntity
  8
LAY-9
  6
CONTINUOUS
 62
     1
100
AcDbVertex
100
AcDb2dVertex
 10
527.697564
 20
147.976411
 30
0.0
  0
VERTEX
  5
363
100
AcDbEntity
  8
LAY-9
  6
CONTINUOUS
 62
     1
100
AcDbVertex
100
AcDb2dVertex
 10
527.507511
 20
147.465
 30
0.0
  0
VERTEX
  5
364
100
AcDbEntity
  8
LAY-9
  6
CONTINUOUS
 62
     1
100
AcDbVertex
100
AcDb2dVertex
 10
527.363234
 20
147.052762
 30
0.0
  0
VERTEX
  5
365
100
AcDbEntity
  8
LAY-9
  6
CONTINUOUS
 62
     1
100
AcDbVertex
100
AcDb2dVertex
 10
527.230783
 20
146.63674
 30
0.0
  0
VERTEX
  5
366
100
AcDbEntity
  8
LAY-9
  6
CONTINUOUS
 62
     1
100
AcDbVertex
100
AcDb2dVertex
 10
527.113836
 20
146.212952
 30
0.0
  0
VERTEX
  5
367
100
AcDbEntity
  8
LAY-9
  6
CONTINUOUS
 62
     1
100
AcDbVertex
100
AcDb2dVertex
 10
527.016067
 20
145.777413
 30
0.0
  0
VERTEX
  5
368
100
AcDbEntity
  8
LAY-9
  6
CONTINUOUS
 62
     1
100
AcDbVertex
100
AcDb2dVertex
 10
526.941154
 20
145.32614
 30
0.0
  0
VERTEX
  5
369
100
AcDbEntity
  8
LAY-9
  6
CONTINUOUS
 62
     1
100
AcDbVertex
100
AcDb2dVertex
 10
526.892773
 20
144.855149
 30
0.0
  0
VERTEX
  5
36A
100
AcDbEntity
  8
LAY-9
  6
CONTINUOUS
 62
     1
100
AcDbVertex
100
AcDb2dVertex
 10
526.8746
 20
144.360456
 30
0.0
  0
VERTEX
  5
36B
100
AcDbEntity
  8
LAY-9
  6
CONTINUOUS
 62
     1
100
AcDbVertex
100
AcDb2dVertex
 10
526.890311
 20
143.838079
 30
0.0
  0
VERTEX
  5
36C
100
AcDbEntity
  8
LAY-9
  6
CONTINUOUS
 62
     1
100
AcDbVertex
100
AcDb2dVertex
 10
526.943583
 20
143.284033
 30
0.0
  0
VERTEX
  5
36D
100
AcDbEntity
  8
LAY-9
  6
CONTINUOUS
 62
     1
100
AcDbVertex
100
AcDb2dVertex
 10
527.038091
 20
142.694334
 30
0.0
  0
VERTEX
  5
36E
100
AcDbEntity
  8
LAY-9
  6
CONTINUOUS
 62
     1
100
AcDbVertex
100
AcDb2dVertex
 10
527.177511
 20
142.065
 30
0.0
  0
VERTEX
  5
36F
100
AcDbEntity
  8
LAY-9
  6
CONTINUOUS
 62
     1
100
AcDbVertex
100
AcDb2dVertex
 10
527.253854
 20
141.77431
 30
0.0
  0
VERTEX
  5
370
100
AcDbEntity
  8
LAY-9
  6
CONTINUOUS
 62
     1
100
AcDbVertex
100
AcDb2dVertex
 10
527.336769
 20
141.481402
 30
0.0
  0
VERTEX
  5
371
100
AcDbEntity
  8
LAY-9
  6
CONTINUOUS
 62
     1
100
AcDbVertex
100
AcDb2dVertex
 10
527.423341
 20
141.192575
 30
0.0
  0
VERTEX
  5
372
100
AcDbEntity
  8
LAY-9
  6
CONTINUOUS
 62
     1
100
AcDbVertex
100
AcDb2dVertex
 10
527.510653
 20
140.914131
 30
0.0
  0
VERTEX
  5
373
100
AcDbEntity
  8
LAY-9
  6
CONTINUOUS
 62
     1
100
AcDbVertex
100
AcDb2dVertex
 10
527.595787
 20
140.65237
 30
0.0
  0
VERTEX
  5
374
100
AcDbEntity
  8
LAY-9
  6
CONTINUOUS
 62
     1
100
AcDbVertex
100
AcDb2dVertex
 10
527.675826
 20
140.413594
 30
0.0
  0
VERTEX
  5
375
100
AcDbEntity
  8
LAY-9
  6
CONTINUOUS
 62
     1
100
AcDbVertex
100
AcDb2dVertex
 10
527.747854
 20
140.204102
 30
0.0
  0
VERTEX
  5
376
100
AcDbEntity
  8
LAY-9
  6
CONTINUOUS
 62
     1
100
AcDbVertex
100
AcDb2dVertex
 10
527.808954
 20
140.030196
 30
0.0
  0
VERTEX
  5
377
100
AcDbEntity
  8
LAY-9
  6
CONTINUOUS
 62
     1
100
AcDbVertex
100
AcDb2dVertex
 10
527.856208
 20
139.898177
 30
0.0
  0
VERTEX
  5
378
100
AcDbEntity
  8
LAY-9
  6
CONTINUOUS
 62
     1
100
AcDbVertex
100
AcDb2dVertex
 10
527.886699
 20
139.814344
 30
0.0
  0
VERTEX
  5
379
100
AcDbEntity
  8
LAY-9
  6
CONTINUOUS
 62
     1
100
AcDbVertex
100
AcDb2dVertex
 10
527.897511
 20
139.785
 30
0.0
  0
SEQEND
  5
37A
100
AcDbEntity
  8
LAY-9
  6
CONTINUOUS
 62
     1
  0
LINE
  5
37B
100
AcDbEntity
  8
LAY-9
  6
CONTINUOUS
 62
     1
100
AcDbLine
 10
466.537541
 20
171.175
 30
0.0
 11
522.537481
 21
171.175
 31
0.0
  0
LINE
  5
37C
100
AcDbEntity
  8
LAY-9
  6
CONTINUOUS
 62
     1
100
AcDbLine
 10
379.843093
 20
207.175
 30
0.0
 11
289.937511
 21
207.175
 31
0.0
  0
POLYLINE
  5
37D
100
AcDbEntity
  8
LAY-9
  6
CONTINUOUS
 62
     1
100
AcDb2dPolyline
 66
     1
 10
0.0
 20
0.0
 30
0.0
 70
   128
  0
VERTEX
  5
37E
100
AcDbEntity
  8
LAY-9
  6
CONTINUOUS
 62
     1
100
AcDbVertex
100
AcDb2dVertex
 10
376.487855
 20
171.175
 30
0.0
  0
VERTEX
  5
37F
100
AcDbEntity
  8
LAY-9
  6
CONTINUOUS
 62
     1
100
AcDbVertex
100
AcDb2dVertex
 10
376.593153
 20
171.503033
 30
0.0
  0
VERTEX
  5
380
100
AcDbEntity
  8
LAY-9
  6
CONTINUOUS
 62
     1
100
AcDbVertex
100
AcDb2dVertex
 10
376.883128
 20
172.434928
 30
0.0
  0
VERTEX
  5
381
100
AcDbEntity
  8
LAY-9
  6
CONTINUOUS
 62
     1
100
AcDbVertex
100
AcDb2dVertex
 10
377.318896
 20
173.892376
 30
0.0
  0
VERTEX
  5
382
100
AcDbEntity
  8
LAY-9
  6
CONTINUOUS
 62
     1
100
AcDbVertex
100
AcDb2dVertex
 10
377.861577
 20
175.79707
 30
0.0
  0
VERTEX
  5
383
100
AcDbEntity
  8
LAY-9
  6
CONTINUOUS
 62
     1
100
AcDbVertex
100
AcDb2dVertex
 10
378.47229
 20
178.070704
 30
0.0
  0
VERTEX
  5
384
100
AcDbEntity
  8
LAY-9
  6
CONTINUOUS
 62
     1
100
AcDbVertex
100
AcDb2dVertex
 10
379.112152
 20
180.634968
 30
0.0
  0
VERTEX
  5
385
100
AcDbEntity
  8
LAY-9
  6
CONTINUOUS
 62
     1
100
AcDbVertex
100
AcDb2dVertex
 10
379.742282
 20
183.411557
 30
0.0
  0
VERTEX
  5
386
100
AcDbEntity
  8
LAY-9
  6
CONTINUOUS
 62
     1
100
AcDbVertex
100
AcDb2dVertex
 10
380.323799
 20
186.322162
 30
0.0
  0
VERTEX
  5
387
100
AcDbEntity
  8
LAY-9
  6
CONTINUOUS
 62
     1
100
AcDbVertex
100
AcDb2dVertex
 10
380.817821
 20
189.288475
 30
0.0
  0
VERTEX
  5
388
100
AcDbEntity
  8
LAY-9
  6
CONTINUOUS
 62
     1
100
AcDbVertex
100
AcDb2dVertex
 10
381.185467
 20
192.232191
 30
0.0
  0
VERTEX
  5
389
100
AcDbEntity
  8
LAY-9
  6
CONTINUOUS
 62
     1
100
AcDbVertex
100
AcDb2dVertex
 10
381.387855
 20
195.075
 30
0.0
  0
VERTEX
  5
38A
100
AcDbEntity
  8
LAY-9
  6
CONTINUOUS
 62
     1
100
AcDbVertex
100
AcDb2dVertex
 10
381.403213
 20
197.537919
 30
0.0
  0
VERTEX
  5
38B
100
AcDbEntity
  8
LAY-9
  6
CONTINUOUS
 62
     1
100
AcDbVertex
100
AcDb2dVertex
 10
381.266402
 20
199.86382
 30
0.0
  0
VERTEX
  5
38C
100
AcDbEntity
  8
LAY-9
  6
CONTINUOUS
 62
     1
100
AcDbVertex
100
AcDb2dVertex
 10
380.996818
 20
202.066304
 30
0.0
  0
VERTEX
  5
38D
100
AcDbEntity
  8
LAY-9
  6
CONTINUOUS
 62
     1
100
AcDbVertex
100
AcDb2dVertex
 10
380.613858
 20
204.158968
 30
0.0
  0
VERTEX
  5
38E
100
AcDbEntity
  8
LAY-9
  6
CONTINUOUS
 62
     1
100
AcDbVertex
100
AcDb2dVertex
 10
380.136918
 20
206.155412
 30
0.0
  0
VERTEX
  5
38F
100
AcDbEntity
  8
LAY-9
  6
CONTINUOUS
 62
     1
100
AcDbVertex
100
AcDb2dVertex
 10
379.585392
 20
208.069235
 30
0.0
  0
VERTEX
  5
390
100
AcDbEntity
  8
LAY-9
  6
CONTINUOUS
 62
     1
100
AcDbVertex
100
AcDb2dVertex
 10
378.978678
 20
209.914036
 30
0.0
  0
VERTEX
  5
391
100
AcDbEntity
  8
LAY-9
  6
CONTINUOUS
 62
     1
100
AcDbVertex
100
AcDb2dVertex
 10
378.336171
 20
211.703414
 30
0.0
  0
VERTEX
  5
392
100
AcDbEntity
  8
LAY-9
  6
CONTINUOUS
 62
     1
100
AcDbVertex
100
AcDb2dVertex
 10
377.677268
 20
213.450968
 30
0.0
  0
VERTEX
  5
393
100
AcDbEntity
  8
LAY-9
  6
CONTINUOUS
 62
     1
100
AcDbVertex
100
AcDb2dVertex
 10
377.021364
 20
215.170297
 30
0.0
  0
VERTEX
  5
394
100
AcDbEntity
  8
LAY-9
  6
CONTINUOUS
 62
     1
100
AcDbVertex
100
AcDb2dVertex
 10
376.387855
 20
216.875
 30
0.0
  0
VERTEX
  5
395
100
AcDbEntity
  8
LAY-9
  6
CONTINUOUS
 62
     1
100
AcDbVertex
100
AcDb2dVertex
 10
375.90693
 20
218.249127
 30
0.0
  0
VERTEX
  5
396
100
AcDbEntity
  8
LAY-9
  6
CONTINUOUS
 62
     1
100
AcDbVertex
100
AcDb2dVertex
 10
375.465427
 20
219.635866
 30
0.0
  0
VERTEX
  5
397
100
AcDbEntity
  8
LAY-9
  6
CONTINUOUS
 62
     1
100
AcDbVertex
100
AcDb2dVertex
 10
375.075602
 20
221.048494
 30
0.0
  0
VERTEX
  5
398
100
AcDbEntity
  8
LAY-9
  6
CONTINUOUS
 62
     1
100
AcDbVertex
100
AcDb2dVertex
 10
374.749708
 20
222.500291
 30
0.0
  0
VERTEX
  5
399
100
AcDbEntity
  8
LAY-9
  6
CONTINUOUS
 62
     1
100
AcDbVertex
100
AcDb2dVertex
 10
374.499998
 20
224.004535
 30
0.0
  0
VERTEX
  5
39A
100
AcDbEntity
  8
LAY-9
  6
CONTINUOUS
 62
     1
100
AcDbVertex
100
AcDb2dVertex
 10
374.338728
 20
225.574505
 30
0.0
  0
VERTEX
  5
39B
100
AcDbEntity
  8
LAY-9
  6
CONTINUOUS
 62
     1
100
AcDbVertex
100
AcDb2dVertex
 10
374.278151
 20
227.22348
 30
0.0
  0
VERTEX
  5
39C
100
AcDbEntity
  8
LAY-9
  6
CONTINUOUS
 62
     1
100
AcDbVertex
100
AcDb2dVertex
 10
374.330521
 20
228.964738
 30
0.0
  0
VERTEX
  5
39D
100
AcDbEntity
  8
LAY-9
  6
CONTINUOUS
 62
     1
100
AcDbVertex
100
AcDb2dVertex
 10
374.508093
 20
230.811558
 30
0.0
  0
VERTEX
  5
39E
100
AcDbEntity
  8
LAY-9
  6
CONTINUOUS
 62
     1
100
AcDbVertex
100
AcDb2dVertex
 10
374.823119
 20
232.777219
 30
0.0
  0
VERTEX
  5
39F
100
AcDbEntity
  8
LAY-9
  6
CONTINUOUS
 62
     1
100
AcDbVertex
100
AcDb2dVertex
 10
375.287855
 20
234.875
 30
0.0
  0
VERTEX
  5
3A0
100
AcDbEntity
  8
LAY-9
  6
CONTINUOUS
 62
     1
100
AcDbVertex
100
AcDb2dVertex
 10
375.542329
 20
235.843965
 30
0.0
  0
VERTEX
  5
3A1
100
AcDbEntity
  8
LAY-9
  6
CONTINUOUS
 62
     1
100
AcDbVertex
100
AcDb2dVertex
 10
375.818715
 20
236.820327
 30
0.0
  0
VERTEX
  5
3A2
100
AcDbEntity
  8
LAY-9
  6
CONTINUOUS
 62
     1
100
AcDbVertex
100
AcDb2dVertex
 10
376.107288
 20
237.783082
 30
0.0
  0
VERTEX
  5
3A3
100
AcDbEntity
  8
LAY-9
  6
CONTINUOUS
 62
     1
100
AcDbVertex
100
AcDb2dVertex
 10
376.398327
 20
238.711229
 30
0.0
  0
VERTEX
  5
3A4
100
AcDbEntity
  8
LAY-9
  6
CONTINUOUS
 62
     1
100
AcDbVertex
100
AcDb2dVertex
 10
376.682107
 20
239.583765
 30
0.0
  0
VERTEX
  5
3A5
100
AcDbEntity
  8
LAY-9
  6
CONTINUOUS
 62
     1
100
AcDbVertex
100
AcDb2dVertex
 10
376.948905
 20
240.379687
 30
0.0
  0
VERTEX
  5
3A6
100
AcDbEntity
  8
LAY-9
  6
CONTINUOUS
 62
     1
100
AcDbVertex
100
AcDb2dVertex
 10
377.188998
 20
241.077993
 30
0.0
  0
VERTEX
  5
3A7
100
AcDbEntity
  8
LAY-9
  6
CONTINUOUS
 62
     1
100
AcDbVertex
100
AcDb2dVertex
 10
377.392663
 20
241.65768
 30
0.0
  0
VERTEX
  5
3A8
100
AcDbEntity
  8
LAY-9
  6
CONTINUOUS
 62
     1
100
AcDbVertex
100
AcDb2dVertex
 10
377.550176
 20
242.097745
 30
0.0
  0
VERTEX
  5
3A9
100
AcDbEntity
  8
LAY-9
  6
CONTINUOUS
 62
     1
100
AcDbVertex
100
AcDb2dVertex
 10
377.651815
 20
242.377186
 30
0.0
  0
VERTEX
  5
3AA
100
AcDbEntity
  8
LAY-9
  6
CONTINUOUS
 62
     1
100
AcDbVertex
100
AcDb2dVertex
 10
377.687855
 20
242.475
 30
0.0
  0
SEQEND
  5
3AB
100
AcDbEntity
  8
LAY-9
  6
CONTINUOUS
 62
     1
  0
LINE
  5
3AC
100
AcDbEntity
  8
LAY-9
  6
CONTINUOUS
 62
     1
100
AcDbLine
 10
203.937511
 20
171.175
 30
0.0
 11
376.487855
 21
171.175
 31
0.0
  0
LINE
  5
3AD
100
AcDbEntity
  8
LAY-9
  6
CONTINUOUS
 62
     1
100
AcDbLine
 10
379.057292
 20
209.675
 30
0.0
 11
200.937511
 21
209.675
 31
0.0
  0
POLYLINE
  5
3AE
100
AcDbEntity
  8
LAY-9
  6
CONTINUOUS
 62
     1
100
AcDb2dPolyline
 66
     1
 10
0.0
 20
0.0
 30
0.0
 70
   128
  0
VERTEX
  5
3AF
100
AcDbEntity
  8
LAY-9
  6
CONTINUOUS
 62
     1
100
AcDbVertex
100
AcDb2dVertex
 10
376.487855
 20
161.175
 30
0.0
  0
VERTEX
  5
3B0
100
AcDbEntity
  8
LAY-9
  6
CONTINUOUS
 62
     1
100
AcDbVertex
100
AcDb2dVertex
 10
376.519445
 20
161.07659
 30
0.0
  0
VERTEX
  5
3B1
100
AcDbEntity
  8
LAY-9
  6
CONTINUOUS
 62
     1
100
AcDbVertex
100
AcDb2dVertex
 10
376.606437
 20
160.797022
 30
0.0
  0
VERTEX
  5
3B2
100
AcDbEntity
  8
LAY-9
  6
CONTINUOUS
 62
     1
100
AcDbVertex
100
AcDb2dVertex
 10
376.737167
 20
160.359787
 30
0.0
  0
VERTEX
  5
3B3
100
AcDbEntity
  8
LAY-9
  6
CONTINUOUS
 62
     1
100
AcDbVertex
100
AcDb2dVertex
 10
376.899972
 20
159.788379
 30
0.0
  0
VERTEX
  5
3B4
100
AcDbEntity
  8
LAY-9
  6
CONTINUOUS
 62
     1
100
AcDbVertex
100
AcDb2dVertex
 10
377.083185
 20
159.106289
 30
0.0
  0
VERTEX
  5
3B5
100
AcDbEntity
  8
LAY-9
  6
CONTINUOUS
 62
     1
100
AcDbVertex
100
AcDb2dVertex
 10
377.275144
 20
158.33701
 30
0.0
  0
VERTEX
  5
3B6
100
AcDbEntity
  8
LAY-9
  6
CONTINUOUS
 62
     1
100
AcDbVertex
100
AcDb2dVertex
 10
377.464183
 20
157.504033
 30
0.0
  0
VERTEX
  5
3B7
100
AcDbEntity
  8
LAY-9
  6
CONTINUOUS
 62
     1
100
AcDbVertex
100
AcDb2dVertex
 10
377.638638
 20
156.630852
 30
0.0
  0
VERTEX
  5
3B8
100
AcDbEntity
  8
LAY-9
  6
CONTINUOUS
 62
     1
100
AcDbVertex
100
AcDb2dVertex
 10
377.786845
 20
155.740957
 30
0.0
  0
VERTEX
  5
3B9
100
AcDbEntity
  8
LAY-9
  6
CONTINUOUS
 62
     1
100
AcDbVertex
100
AcDb2dVertex
 10
377.897139
 20
154.857843
 30
0.0
  0
VERTEX
  5
3BA
100
AcDbEntity
  8
LAY-9
  6
CONTINUOUS
 62
     1
100
AcDbVertex
100
AcDb2dVertex
 10
377.957855
 20
154.005
 30
0.0
  0
VERTEX
  5
3BB
100
AcDbEntity
  8
LAY-9
  6
CONTINUOUS
 62
     1
100
AcDbVertex
100
AcDb2dVertex
 10
377.962462
 20
153.266124
 30
0.0
  0
VERTEX
  5
3BC
100
AcDbEntity
  8
LAY-9
  6
CONTINUOUS
 62
     1
100
AcDbVertex
100
AcDb2dVertex
 10
377.921419
 20
152.568354
 30
0.0
  0
VERTEX
  5
3BD
100
AcDbEntity
  8
LAY-9
  6
CONTINUOUS
 62
     1
100
AcDbVertex
100
AcDb2dVertex
 10
377.840544
 20
151.907609
 30
0.0
  0
VERTEX
  5
3BE
100
AcDbEntity
  8
LAY-9
  6
CONTINUOUS
 62
     1
100
AcDbVertex
100
AcDb2dVertex
 10
377.725656
 20
151.27981
 30
0.0
  0
VERTEX
  5
3BF
100
AcDbEntity
  8
LAY-9
  6
CONTINUOUS
 62
     1
100
AcDbVertex
100
AcDb2dVertex
 10
377.582574
 20
150.680876
 30
0.0
  0
VERTEX
  5
3C0
100
AcDbEntity
  8
LAY-9
  6
CONTINUOUS
 62
     1
100
AcDbVertex
100
AcDb2dVertex
 10
377.417116
 20
150.106729
 30
0.0
  0
VERTEX
  5
3C1
100
AcDbEntity
  8
LAY-9
  6
CONTINUOUS
 62
     1
100
AcDbVertex
100
AcDb2dVertex
 10
377.235102
 20
149.553289
 30
0.0
  0
VERTEX
  5
3C2
100
AcDbEntity
  8
LAY-9
  6
CONTINUOUS
 62
     1
100
AcDbVertex
100
AcDb2dVertex
 10
377.04235
 20
149.016476
 30
0.0
  0
VERTEX
  5
3C3
100
AcDbEntity
  8
LAY-9
  6
CONTINUOUS
 62
     1
100
AcDbVertex
100
AcDb2dVertex
 10
376.844679
 20
148.49221
 30
0.0
  0
VERTEX
  5
3C4
100
AcDbEntity
  8
LAY-9
  6
CONTINUOUS
 62
     1
100
AcDbVertex
100
AcDb2dVertex
 10
376.647908
 20
147.976411
 30
0.0
  0
VERTEX
  5
3C5
100
AcDbEntity
  8
LAY-9
  6
CONTINUOUS
 62
     1
100
AcDbVertex
100
AcDb2dVertex
 10
376.457855
 20
147.465
 30
0.0
  0
VERTEX
  5
3C6
100
AcDbEntity
  8
LAY-9
  6
CONTINUOUS
 62
     1
100
AcDbVertex
100
AcDb2dVertex
 10
376.313577
 20
147.052762
 30
0.0
  0
VERTEX
  5
3C7
100
AcDbEntity
  8
LAY-9
  6
CONTINUOUS
 62
     1
100
AcDbVertex
100
AcDb2dVertex
 10
376.181127
 20
146.63674
 30
0.0
  0
VERTEX
  5
3C8
100
AcDbEntity
  8
LAY-9
  6
CONTINUOUS
 62
     1
100
AcDbVertex
100
AcDb2dVertex
 10
376.064179
 20
146.212952
 30
0.0
  0
VERTEX
  5
3C9
100
AcDbEntity
  8
LAY-9
  6
CONTINUOUS
 62
     1
100
AcDbVertex
100
AcDb2dVertex
 10
375.966411
 20
145.777413
 30
0.0
  0
VERTEX
  5
3CA
100
AcDbEntity
  8
LAY-9
  6
CONTINUOUS
 62
     1
100
AcDbVertex
100
AcDb2dVertex
 10
375.891498
 20
145.32614
 30
0.0
  0
VERTEX
  5
3CB
100
AcDbEntity
  8
LAY-9
  6
CONTINUOUS
 62
     1
100
AcDbVertex
100
AcDb2dVertex
 10
375.843117
 20
144.855149
 30
0.0
  0
VERTEX
  5
3CC
100
AcDbEntity
  8
LAY-9
  6
CONTINUOUS
 62
     1
100
AcDbVertex
100
AcDb2dVertex
 10
375.824944
 20
144.360456
 30
0.0
  0
VERTEX
  5
3CD
100
AcDbEntity
  8
LAY-9
  6
CONTINUOUS
 62
     1
100
AcDbVertex
100
AcDb2dVertex
 10
375.840655
 20
143.838079
 30
0.0
  0
VERTEX
  5
3CE
100
AcDbEntity
  8
LAY-9
  6
CONTINUOUS
 62
     1
100
AcDbVertex
100
AcDb2dVertex
 10
375.893926
 20
143.284033
 30
0.0
  0
VERTEX
  5
3CF
100
AcDbEntity
  8
LAY-9
  6
CONTINUOUS
 62
     1
100
AcDbVertex
100
AcDb2dVertex
 10
375.988434
 20
142.694334
 30
0.0
  0
VERTEX
  5
3D0
100
AcDbEntity
  8
LAY-9
  6
CONTINUOUS
 62
     1
100
AcDbVertex
100
AcDb2dVertex
 10
376.127855
 20
142.065
 30
0.0
  0
VERTEX
  5
3D1
100
AcDbEntity
  8
LAY-9
  6
CONTINUOUS
 62
     1
100
AcDbVertex
100
AcDb2dVertex
 10
376.204197
 20
141.77431
 30
0.0
  0
VERTEX
  5
3D2
100
AcDbEntity
  8
LAY-9
  6
CONTINUOUS
 62
     1
100
AcDbVertex
100
AcDb2dVertex
 10
376.287113
 20
141.481402
 30
0.0
  0
VERTEX
  5
3D3
100
AcDbEntity
  8
LAY-9
  6
CONTINUOUS
 62
     1
100
AcDbVertex
100
AcDb2dVertex
 10
376.373685
 20
141.192575
 30
0.0
  0
VERTEX
  5
3D4
100
AcDbEntity
  8
LAY-9
  6
CONTINUOUS
 62
     1
100
AcDbVertex
100
AcDb2dVertex
 10
376.460997
 20
140.914131
 30
0.0
  0
VERTEX
  5
3D5
100
AcDbEntity
  8
LAY-9
  6
CONTINUOUS
 62
     1
100
AcDbVertex
100
AcDb2dVertex
 10
376.546131
 20
140.65237
 30
0.0
  0
VERTEX
  5
3D6
100
AcDbEntity
  8
LAY-9
  6
CONTINUOUS
 62
     1
100
AcDbVertex
100
AcDb2dVertex
 10
376.62617
 20
140.413594
 30
0.0
  0
VERTEX
  5
3D7
100
AcDbEntity
  8
LAY-9
  6
CONTINUOUS
 62
     1
100
AcDbVertex
100
AcDb2dVertex
 10
376.698198
 20
140.204102
 30
0.0
  0
VERTEX
  5
3D8
100
AcDbEntity
  8
LAY-9
  6
CONTINUOUS
 62
     1
100
AcDbVertex
100
AcDb2dVertex
 10
376.759297
 20
140.030196
 30
0.0
  0
VERTEX
  5
3D9
100
AcDbEntity
  8
LAY-9
  6
CONTINUOUS
 62
     1
100
AcDbVertex
100
AcDb2dVertex
 10
376.806551
 20
139.898177
 30
0.0
  0
VERTEX
  5
3DA
100
AcDbEntity
  8
LAY-9
  6
CONTINUOUS
 62
     1
100
AcDbVertex
100
AcDb2dVertex
 10
376.837043
 20
139.814344
 30
0.0
  0
VERTEX
  5
3DB
100
AcDbEntity
  8
LAY-9
  6
CONTINUOUS
 62
     1
100
AcDbVertex
100
AcDb2dVertex
 10
376.847855
 20
139.785
 30
0.0
  0
SEQEND
  5
3DC
100
AcDbEntity
  8
LAY-9
  6
CONTINUOUS
 62
     1
  0
LINE
  5
3DD
100
AcDbEntity
  8
LAY-9
  6
CONTINUOUS
 62
     1
100
AcDbLine
 10
163.937511
 20
292.515
 30
0.0
 11
163.937511
 21
189.175
 31
0.0
  0
LINE
  5
3DE
100
AcDbEntity
  8
LAY-9
  6
CONTINUOUS
 62
     1
100
AcDbLine
 10
163.937511
 20
189.175
 30
0.0
 11
203.937511
 21
189.175
 31
0.0
  0
CIRCLE
  5
3DF
100
AcDbEntity
  8
LAY-9
  6
DASHDOT
 62
     1
100
AcDbCircle
 10
181.937511
 20
472.675
 30
0.0
 40
7.5
  0
LINE
  5
3E0
100
AcDbEntity
  8
LAY-9
  6
DIVIDE
 62
     1
100
AcDbLine
 10
219.937511
 20
343.675
 30
0.0
 11
169.937511
 21
343.675
 31
0.0
  0
LINE
  5
3E1
100
AcDbEntity
  8
LAY-9
  6
DIVIDE
 62
     1
100
AcDbLine
 10
219.937511
 20
363.675
 30
0.0
 11
219.937511
 21
343.675
 31
0.0
  0
LINE
  5
3E2
100
AcDbEntity
  8
LAY-9
  6
DIVIDE
 62
     1
100
AcDbLine
 10
169.937511
 20
363.675
 30
0.0
 11
219.937511
 21
363.675
 31
0.0
  0
LINE
  5
3E3
100
AcDbEntity
  8
LAY-9
  6
DIVIDE
 62
     1
100
AcDbLine
 10
169.937511
 20
363.675
 30
0.0
 11
169.937511
 21
343.675
 31
0.0
  0
LINE
  5
3E4
100
AcDbEntity
  8
LAY-9
  6
CONTINUOUS
 62
     1
100
AcDbLine
 10
151.937511
 20
323.175
 30
0.0
 11
151.937511
 21
183.175
 31
0.0
  0
LINE
  5
3E5
100
AcDbEntity
  8
LAY-9
  6
CONTINUOUS
 62
     1
100
AcDbLine
 10
150.337511
 20
323.175
 30
0.0
 11
150.337511
 21
183.175
 31
0.0
  0
LINE
  5
3E6
100
AcDbEntity
  8
LAY-9
  6
DIVIDE
 62
     1
100
AcDbLine
 10
148.838482
 20
328.175
 30
0.0
 11
202.337511
 21
328.175
 31
0.0
  0
LINE
  5
3E7
100
AcDbEntity
  8
LAY-9
  6
DIVIDE
 62
     1
100
AcDbLine
 10
148.838482
 20
323.175
 30
0.0
 11
202.337511
 21
323.175
 31
0.0
  0
LINE
  5
3E8
100
AcDbEntity
  8
LAY-9
  6
DIVIDE
 62
     1
100
AcDbLine
 10
462.537511
 20
328.175
 30
0.0
 11
527.437511
 21
328.175
 31
0.0
  0
LINE
  5
3E9
100
AcDbEntity
  8
LAY-9
  6
DIVIDE
 62
     1
100
AcDbLine
 10
462.537511
 20
323.175
 30
0.0
 11
527.437511
 21
323.175
 31
0.0
  0
LINE
  5
3EA
100
AcDbEntity
  8
LAY-9
  6
CONTINUOUS
 62
     1
100
AcDbLine
 10
507.537481
 20
323.175
 30
0.0
 11
507.537481
 21
171.175
 31
0.0
  0
LINE
  5
3EB
100
AcDbEntity
  8
LAY-9
  6
CONTINUOUS
 62
     1
100
AcDbLine
 10
505.537481
 20
171.175
 30
0.0
 11
505.537481
 21
323.175
 31
0.0
  0
LINE
  5
3EC
100
AcDbEntity
  8
LAY-9
  6
CONTINUOUS
 62
     1
100
AcDbLine
 10
503.937541
 20
171.175
 30
0.0
 11
503.937541
 21
323.175
 31
0.0
  0
LINE
  5
3ED
100
AcDbEntity
  8
LAY-9
  6
CONTINUOUS
 62
     1
100
AcDbLine
 10
471.137541
 20
171.175
 30
0.0
 11
471.137541
 21
323.175
 31
0.0
  0
LINE
  5
3EE
100
AcDbEntity
  8
LAY-9
  6
CONTINUOUS
 62
     1
100
AcDbLine
 10
469.537541
 20
171.175
 30
0.0
 11
469.537541
 21
323.175
 31
0.0
  0
LINE
  5
3EF
100
AcDbEntity
  8
LAY-9
  6
CONTINUOUS
 62
     1
100
AcDbLine
 10
466.537541
 20
323.175
 30
0.0
 11
466.537541
 21
171.175
 31
0.0
  0
LINE
  5
3F0
100
AcDbEntity
  8
LAY-9
  6
CONTINUOUS
 62
     1
100
AcDbLine
 10
163.537511
 20
323.175
 30
0.0
 11
163.537511
 21
297.715
 31
0.0
  0
POLYLINE
  5
3F1
100
AcDbEntity
  8
LAY-9
  6
CONTINUOUS
 62
     1
100
AcDb2dPolyline
 66
     1
 10
0.0
 20
0.0
 30
0.0
 70
   128
  0
VERTEX
  5
3F2
100
AcDbEntity
  8
LAY-9
  6
CONTINUOUS
 62
     1
100
AcDbVertex
100
AcDb2dVertex
 10
150.337541
 20
512.175
 30
0.0
  0
VERTEX
  5
3F3
100
AcDbEntity
  8
LAY-9
  6
CONTINUOUS
 62
     1
100
AcDbVertex
100
AcDb2dVertex
 10
150.665575
 20
512.069702
 30
0.0
  0
VERTEX
  5
3F4
100
AcDbEntity
  8
LAY-9
  6
CONTINUOUS
 62
     1
100
AcDbVertex
100
AcDb2dVertex
 10
151.597469
 20
511.779727
 30
0.0
  0
VERTEX
  5
3F5
100
AcDbEntity
  8
LAY-9
  6
CONTINUOUS
 62
     1
100
AcDbVertex
100
AcDb2dVertex
 10
153.054917
 20
511.343959
 30
0.0
  0
VERTEX
  5
3F6
100
AcDbEntity
  8
LAY-9
  6
CONTINUOUS
 62
     1
100
AcDbVertex
100
AcDb2dVertex
 10
154.959612
 20
510.801278
 30
0.0
  0
VERTEX
  5
3F7
100
AcDbEntity
  8
LAY-9
  6
CONTINUOUS
 62
     1
100
AcDbVertex
100
AcDb2dVertex
 10
157.233245
 20
510.190565
 30
0.0
  0
VERTEX
  5
3F8
100
AcDbEntity
  8
LAY-9
  6
CONTINUOUS
 62
     1
100
AcDbVertex
100
AcDb2dVertex
 10
159.79751
 20
509.550703
 30
0.0
  0
VERTEX
  5
3F9
100
AcDbEntity
  8
LAY-9
  6
CONTINUOUS
 62
     1
100
AcDbVertex
100
AcDb2dVertex
 10
162.574098
 20
508.920573
 30
0.0
  0
VERTEX
  5
3FA
100
AcDbEntity
  8
LAY-9
  6
CONTINUOUS
 62
     1
100
AcDbVertex
100
AcDb2dVertex
 10
165.484703
 20
508.339056
 30
0.0
  0
VERTEX
  5
3FB
100
AcDbEntity
  8
LAY-9
  6
CONTINUOUS
 62
     1
100
AcDbVertex
100
AcDb2dVertex
 10
168.451017
 20
507.845034
 30
0.0
  0
VERTEX
  5
3FC
100
AcDbEntity
  8
LAY-9
  6
CONTINUOUS
 62
     1
100
AcDbVertex
100
AcDb2dVertex
 10
171.394732
 20
507.477388
 30
0.0
  0
VERTEX
  5
3FD
100
AcDbEntity
  8
LAY-9
  6
CONTINUOUS
 62
     1
100
AcDbVertex
100
AcDb2dVertex
 10
174.237541
 20
507.275
 30
0.0
  0
VERTEX
  5
3FE
100
AcDbEntity
  8
LAY-9
  6
CONTINUOUS
 62
     1
100
AcDbVertex
100
AcDb2dVertex
 10
176.70046
 20
507.259642
 30
0.0
  0
VERTEX
  5
3FF
100
AcDbEntity
  8
LAY-9
  6
CONTINUOUS
 62
     1
100
AcDbVertex
100
AcDb2dVertex
 10
179.026362
 20
507.396453
 30
0.0
  0
VERTEX
  5
400
100
AcDbEntity
  8
LAY-9
  6
CONTINUOUS
 62
     1
100
AcDbVertex
100
AcDb2dVertex
 10
181.228845
 20
507.666037
 30
0.0
  0
VERTEX
  5
401
100
AcDbEntity
  8
LAY-9
  6
CONTINUOUS
 62
     1
100
AcDbVertex
100
AcDb2dVertex
 10
183.321509
 20
508.048997
 30
0.0
  0
VERTEX
  5
402
100
AcDbEntity
  8
LAY-9
  6
CONTINUOUS
 62
     1
100
AcDbVertex
100
AcDb2dVertex
 10
185.317954
 20
508.525937
 30
0.0
  0
VERTEX
  5
403
100
AcDbEntity
  8
LAY-9
  6
CONTINUOUS
 62
     1
100
AcDbVertex
100
AcDb2dVertex
 10
187.231777
 20
509.077463
 30
0.0
  0
VERTEX
  5
404
100
AcDbEntity
  8
LAY-9
  6
CONTINUOUS
 62
     1
100
AcDbVertex
100
AcDb2dVertex
 10
189.076578
 20
509.684177
 30
0.0
  0
VERTEX
  5
405
100
AcDbEntity
  8
LAY-9
  6
CONTINUOUS
 62
     1
100
AcDbVertex
100
AcDb2dVertex
 10
190.865956
 20
510.326684
 30
0.0
  0
VERTEX
  5
406
100
AcDbEntity
  8
LAY-9
  6
CONTINUOUS
 62
     1
100
AcDbVertex
100
AcDb2dVertex
 10
192.61351
 20
510.985587
 30
0.0
  0
VERTEX
  5
407
100
AcDbEntity
  8
LAY-9
  6
CONTINUOUS
 62
     1
100
AcDbVertex
100
AcDb2dVertex
 10
194.332838
 20
511.641491
 30
0.0
  0
VERTEX
  5
408
100
AcDbEntity
  8
LAY-9
  6
CONTINUOUS
 62
     1
100
AcDbVertex
100
AcDb2dVertex
 10
196.037541
 20
512.275
 30
0.0
  0
VERTEX
  5
409
100
AcDbEntity
  8
LAY-9
  6
CONTINUOUS
 62
     1
100
AcDbVertex
100
AcDb2dVertex
 10
197.411669
 20
512.755925
 30
0.0
  0
VERTEX
  5
40A
100
AcDbEntity
  8
LAY-9
  6
CONTINUOUS
 62
     1
100
AcDbVertex
100
AcDb2dVertex
 10
198.798407
 20
513.197428
 30
0.0
  0
VERTEX
  5
40B
100
AcDbEntity
  8
LAY-9
  6
CONTINUOUS
 62
     1
100
AcDbVertex
100
AcDb2dVertex
 10
200.211035
 20
513.587253
 30
0.0
  0
VERTEX
  5
40C
100
AcDbEntity
  8
LAY-9
  6
CONTINUOUS
 62
     1
100
AcDbVertex
100
AcDb2dVertex
 10
201.662832
 20
513.913147
 30
0.0
  0
VERTEX
  5
40D
100
AcDbEntity
  8
LAY-9
  6
CONTINUOUS
 62
     1
100
AcDbVertex
100
AcDb2dVertex
 10
203.167076
 20
514.162857
 30
0.0
  0
VERTEX
  5
40E
100
AcDbEntity
  8
LAY-9
  6
CONTINUOUS
 62
     1
100
AcDbVertex
100
AcDb2dVertex
 10
204.737046
 20
514.324127
 30
0.0
  0
VERTEX
  5
40F
100
AcDbEntity
  8
LAY-9
  6
CONTINUOUS
 62
     1
100
AcDbVertex
100
AcDb2dVertex
 10
206.386021
 20
514.384704
 30
0.0
  0
VERTEX
  5
410
100
AcDbEntity
  8
LAY-9
  6
CONTINUOUS
 62
     1
100
AcDbVertex
100
AcDb2dVertex
 10
208.127279
 20
514.332334
 30
0.0
  0
VERTEX
  5
411
100
AcDbEntity
  8
LAY-9
  6
CONTINUOUS
 62
     1
100
AcDbVertex
100
AcDb2dVertex
 10
209.974099
 20
514.154763
 30
0.0
  0
VERTEX
  5
412
100
AcDbEntity
  8
LAY-9
  6
CONTINUOUS
 62
     1
100
AcDbVertex
100
AcDb2dVertex
 10
211.939761
 20
513.839736
 30
0.0
  0
VERTEX
  5
413
100
AcDbEntity
  8
LAY-9
  6
CONTINUOUS
 62
     1
100
AcDbVertex
100
AcDb2dVertex
 10
214.037541
 20
513.375
 30
0.0
  0
VERTEX
  5
414
100
AcDbEntity
  8
LAY-9
  6
CONTINUOUS
 62
     1
100
AcDbVertex
100
AcDb2dVertex
 10
215.006506
 20
513.120526
 30
0.0
  0
VERTEX
  5
415
100
AcDbEntity
  8
LAY-9
  6
CONTINUOUS
 62
     1
100
AcDbVertex
100
AcDb2dVertex
 10
215.982868
 20
512.84414
 30
0.0
  0
VERTEX
  5
416
100
AcDbEntity
  8
LAY-9
  6
CONTINUOUS
 62
     1
100
AcDbVertex
100
AcDb2dVertex
 10
216.945624
 20
512.555567
 30
0.0
  0
VERTEX
  5
417
100
AcDbEntity
  8
LAY-9
  6
CONTINUOUS
 62
     1
100
AcDbVertex
100
AcDb2dVertex
 10
217.873771
 20
512.264528
 30
0.0
  0
VERTEX
  5
418
100
AcDbEntity
  8
LAY-9
  6
CONTINUOUS
 62
     1
100
AcDbVertex
100
AcDb2dVertex
 10
218.746307
 20
511.980748
 30
0.0
  0
VERTEX
  5
419
100
AcDbEntity
  8
LAY-9
  6
CONTINUOUS
 62
     1
100
AcDbVertex
100
AcDb2dVertex
 10
219.542229
 20
511.71395
 30
0.0
  0
VERTEX
  5
41A
100
AcDbEntity
  8
LAY-9
  6
CONTINUOUS
 62
     1
100
AcDbVertex
100
AcDb2dVertex
 10
220.240534
 20
511.473857
 30
0.0
  0
VERTEX
  5
41B
100
AcDbEntity
  8
LAY-9
  6
CONTINUOUS
 62
     1
100
AcDbVertex
100
AcDb2dVertex
 10
220.820221
 20
511.270192
 30
0.0
  0
VERTEX
  5
41C
100
AcDbEntity
  8
LAY-9
  6
CONTINUOUS
 62
     1
100
AcDbVertex
100
AcDb2dVertex
 10
221.260286
 20
511.112679
 30
0.0
  0
VERTEX
  5
41D
100
AcDbEntity
  8
LAY-9
  6
CONTINUOUS
 62
     1
100
AcDbVertex
100
AcDb2dVertex
 10
221.539727
 20
511.01104
 30
0.0
  0
VERTEX
  5
41E
100
AcDbEntity
  8
LAY-9
  6
CONTINUOUS
 62
     1
100
AcDbVertex
100
AcDb2dVertex
 10
221.637541
 20
510.975
 30
0.0
  0
SEQEND
  5
41F
100
AcDbEntity
  8
LAY-9
  6
CONTINUOUS
 62
     1
  0
LINE
  5
420
100
AcDbEntity
  8
LAY-9
  6
CONTINUOUS
 62
     1
100
AcDbLine
 10
151.937511
 20
511.678057
 30
0.0
 11
151.937511
 21
328.175
 31
0.0
  0
LINE
  5
421
100
AcDbEntity
  8
LAY-9
  6
CONTINUOUS
 62
     1
100
AcDbLine
 10
150.337511
 20
512.175
 30
0.0
 11
150.337511
 21
328.175
 31
0.0
  0
LINE
  5
422
100
AcDbEntity
  8
LAY-9
  6
CONTINUOUS
 62
     1
100
AcDbLine
 10
466.537541
 20
511.678057
 30
0.0
 11
466.537541
 21
328.175
 31
0.0
  0
LINE
  5
423
100
AcDbEntity
  8
LAY-9
  6
CONTINUOUS
 62
     1
100
AcDbLine
 10
469.537541
 20
328.175
 30
0.0
 11
469.537541
 21
510.807575
 31
0.0
  0
LINE
  5
424
100
AcDbEntity
  8
LAY-9
  6
CONTINUOUS
 62
     1
100
AcDbLine
 10
471.137541
 20
328.175
 30
0.0
 11
471.137541
 21
510.377444
 31
0.0
  0
LINE
  5
425
100
AcDbEntity
  8
LAY-9
  6
CONTINUOUS
 62
     1
100
AcDbLine
 10
503.937541
 20
328.175
 30
0.0
 11
503.937541
 21
509.77787
 31
0.0
  0
LINE
  5
426
100
AcDbEntity
  8
LAY-9
  6
CONTINUOUS
 62
     1
100
AcDbLine
 10
505.537481
 20
328.175
 30
0.0
 11
505.537481
 21
510.353641
 31
0.0
  0
LINE
  5
427
100
AcDbEntity
  8
LAY-9
  6
CONTINUOUS
 62
     1
100
AcDbLine
 10
507.537481
 20
511.109167
 30
0.0
 11
507.537481
 21
328.175
 31
0.0
  0
LINE
  5
428
100
AcDbEntity
  8
LAY-9
  6
CONTINUOUS
 62
     1
100
AcDbLine
 10
522.537481
 20
514.338043
 30
0.0
 11
522.537481
 21
171.175
 31
0.0
  0
POLYLINE
  5
429
100
AcDbEntity
  8
LAY-9
  6
CONTINUOUS
 62
     1
100
AcDb2dPolyline
 66
     1
 10
0.0
 20
0.0
 30
0.0
 70
   128
  0
VERTEX
  5
42A
100
AcDbEntity
  8
LAY-9
  6
CONTINUOUS
 62
     1
100
AcDbVertex
100
AcDb2dVertex
 10
466.537541
 20
512.175
 30
0.0
  0
VERTEX
  5
42B
100
AcDbEntity
  8
LAY-9
  6
CONTINUOUS
 62
     1
100
AcDbVertex
100
AcDb2dVertex
 10
466.865575
 20
512.069702
 30
0.0
  0
VERTEX
  5
42C
100
AcDbEntity
  8
LAY-9
  6
CONTINUOUS
 62
     1
100
AcDbVertex
100
AcDb2dVertex
 10
467.797469
 20
511.779727
 30
0.0
  0
VERTEX
  5
42D
100
AcDbEntity
  8
LAY-9
  6
CONTINUOUS
 62
     1
100
AcDbVertex
100
AcDb2dVertex
 10
469.254917
 20
511.343959
 30
0.0
  0
VERTEX
  5
42E
100
AcDbEntity
  8
LAY-9
  6
CONTINUOUS
 62
     1
100
AcDbVertex
100
AcDb2dVertex
 10
471.159612
 20
510.801278
 30
0.0
  0
VERTEX
  5
42F
100
AcDbEntity
  8
LAY-9
  6
CONTINUOUS
 62
     1
100
AcDbVertex
100
AcDb2dVertex
 10
473.433245
 20
510.190565
 30
0.0
  0
VERTEX
  5
430
100
AcDbEntity
  8
LAY-9
  6
CONTINUOUS
 62
     1
100
AcDbVertex
100
AcDb2dVertex
 10
475.99751
 20
509.550703
 30
0.0
  0
VERTEX
  5
431
100
AcDbEntity
  8
LAY-9
  6
CONTINUOUS
 62
     1
100
AcDbVertex
100
AcDb2dVertex
 10
478.774098
 20
508.920573
 30
0.0
  0
VERTEX
  5
432
100
AcDbEntity
  8
LAY-9
  6
CONTINUOUS
 62
     1
100
AcDbVertex
100
AcDb2dVertex
 10
481.684703
 20
508.339056
 30
0.0
  0
VERTEX
  5
433
100
AcDbEntity
  8
LAY-9
  6
CONTINUOUS
 62
     1
100
AcDbVertex
100
AcDb2dVertex
 10
484.651017
 20
507.845034
 30
0.0
  0
VERTEX
  5
434
100
AcDbEntity
  8
LAY-9
  6
CONTINUOUS
 62
     1
100
AcDbVertex
100
AcDb2dVertex
 10
487.594732
 20
507.477388
 30
0.0
  0
VERTEX
  5
435
100
AcDbEntity
  8
LAY-9
  6
CONTINUOUS
 62
     1
100
AcDbVertex
100
AcDb2dVertex
 10
490.437541
 20
507.275
 30
0.0
  0
VERTEX
  5
436
100
AcDbEntity
  8
LAY-9
  6
CONTINUOUS
 62
     1
100
AcDbVertex
100
AcDb2dVertex
 10
492.90046
 20
507.259642
 30
0.0
  0
VERTEX
  5
437
100
AcDbEntity
  8
LAY-9
  6
CONTINUOUS
 62
     1
100
AcDbVertex
100
AcDb2dVertex
 10
495.226362
 20
507.396453
 30
0.0
  0
VERTEX
  5
438
100
AcDbEntity
  8
LAY-9
  6
CONTINUOUS
 62
     1
100
AcDbVertex
100
AcDb2dVertex
 10
497.428845
 20
507.666037
 30
0.0
  0
VERTEX
  5
439
100
AcDbEntity
  8
LAY-9
  6
CONTINUOUS
 62
     1
100
AcDbVertex
100
AcDb2dVertex
 10
499.521509
 20
508.048997
 30
0.0
  0
VERTEX
  5
43A
100
AcDbEntity
  8
LAY-9
  6
CONTINUOUS
 62
     1
100
AcDbVertex
100
AcDb2dVertex
 10
501.517954
 20
508.525937
 30
0.0
  0
VERTEX
  5
43B
100
AcDbEntity
  8
LAY-9
  6
CONTINUOUS
 62
     1
100
AcDbVertex
100
AcDb2dVertex
 10
503.431777
 20
509.077463
 30
0.0
  0
VERTEX
  5
43C
100
AcDbEntity
  8
LAY-9
  6
CONTINUOUS
 62
     1
100
AcDbVertex
100
AcDb2dVertex
 10
505.276578
 20
509.684177
 30
0.0
  0
VERTEX
  5
43D
100
AcDbEntity
  8
LAY-9
  6
CONTINUOUS
 62
     1
100
AcDbVertex
100
AcDb2dVertex
 10
507.065956
 20
510.326684
 30
0.0
  0
VERTEX
  5
43E
100
AcDbEntity
  8
LAY-9
  6
CONTINUOUS
 62
     1
100
AcDbVertex
100
AcDb2dVertex
 10
508.81351
 20
510.985587
 30
0.0
  0
VERTEX
  5
43F
100
AcDbEntity
  8
LAY-9
  6
CONTINUOUS
 62
     1
100
AcDbVertex
100
AcDb2dVertex
 10
510.532838
 20
511.641491
 30
0.0
  0
VERTEX
  5
440
100
AcDbEntity
  8
LAY-9
  6
CONTINUOUS
 62
     1
100
AcDbVertex
100
AcDb2dVertex
 10
512.237541
 20
512.275
 30
0.0
  0
VERTEX
  5
441
100
AcDbEntity
  8
LAY-9
  6
CONTINUOUS
 62
     1
100
AcDbVertex
100
AcDb2dVertex
 10
513.611669
 20
512.755925
 30
0.0
  0
VERTEX
  5
442
100
AcDbEntity
  8
LAY-9
  6
CONTINUOUS
 62
     1
100
AcDbVertex
100
AcDb2dVertex
 10
514.998407
 20
513.197428
 30
0.0
  0
VERTEX
  5
443
100
AcDbEntity
  8
LAY-9
  6
CONTINUOUS
 62
     1
100
AcDbVertex
100
AcDb2dVertex
 10
516.411035
 20
513.587253
 30
0.0
  0
VERTEX
  5
444
100
AcDbEntity
  8
LAY-9
  6
CONTINUOUS
 62
     1
100
AcDbVertex
100
AcDb2dVertex
 10
517.862832
 20
513.913147
 30
0.0
  0
VERTEX
  5
445
100
AcDbEntity
  8
LAY-9
  6
CONTINUOUS
 62
     1
100
AcDbVertex
100
AcDb2dVertex
 10
519.367076
 20
514.162857
 30
0.0
  0
VERTEX
  5
446
100
AcDbEntity
  8
LAY-9
  6
CONTINUOUS
 62
     1
100
AcDbVertex
100
AcDb2dVertex
 10
520.937046
 20
514.324127
 30
0.0
  0
VERTEX
  5
447
100
AcDbEntity
  8
LAY-9
  6
CONTINUOUS
 62
     1
100
AcDbVertex
100
AcDb2dVertex
 10
522.586021
 20
514.384704
 30
0.0
  0
VERTEX
  5
448
100
AcDbEntity
  8
LAY-9
  6
CONTINUOUS
 62
     1
100
AcDbVertex
100
AcDb2dVertex
 10
524.327279
 20
514.332334
 30
0.0
  0
VERTEX
  5
449
100
AcDbEntity
  8
LAY-9
  6
CONTINUOUS
 62
     1
100
AcDbVertex
100
AcDb2dVertex
 10
526.174099
 20
514.154763
 30
0.0
  0
VERTEX
  5
44A
100
AcDbEntity
  8
LAY-9
  6
CONTINUOUS
 62
     1
100
AcDbVertex
100
AcDb2dVertex
 10
528.139761
 20
513.839736
 30
0.0
  0
VERTEX
  5
44B
100
AcDbEntity
  8
LAY-9
  6
CONTINUOUS
 62
     1
100
AcDbVertex
100
AcDb2dVertex
 10
530.237541
 20
513.375
 30
0.0
  0
VERTEX
  5
44C
100
AcDbEntity
  8
LAY-9
  6
CONTINUOUS
 62
     1
100
AcDbVertex
100
AcDb2dVertex
 10
531.206506
 20
513.120526
 30
0.0
  0
VERTEX
  5
44D
100
AcDbEntity
  8
LAY-9
  6
CONTINUOUS
 62
     1
100
AcDbVertex
100
AcDb2dVertex
 10
532.182868
 20
512.84414
 30
0.0
  0
VERTEX
  5
44E
100
AcDbEntity
  8
LAY-9
  6
CONTINUOUS
 62
     1
100
AcDbVertex
100
AcDb2dVertex
 10
533.145624
 20
512.555567
 30
0.0
  0
VERTEX
  5
44F
100
AcDbEntity
  8
LAY-9
  6
CONTINUOUS
 62
     1
100
AcDbVertex
100
AcDb2dVertex
 10
534.073771
 20
512.264528
 30
0.0
  0
VERTEX
  5
450
100
AcDbEntity
  8
LAY-9
  6
CONTINUOUS
 62
     1
100
AcDbVertex
100
AcDb2dVertex
 10
534.946307
 20
511.980748
 30
0.0
  0
VERTEX
  5
451
100
AcDbEntity
  8
LAY-9
  6
CONTINUOUS
 62
     1
100
AcDbVertex
100
AcDb2dVertex
 10
535.742229
 20
511.71395
 30
0.0
  0
VERTEX
  5
452
100
AcDbEntity
  8
LAY-9
  6
CONTINUOUS
 62
     1
100
AcDbVertex
100
AcDb2dVertex
 10
536.440534
 20
511.473857
 30
0.0
  0
VERTEX
  5
453
100
AcDbEntity
  8
LAY-9
  6
CONTINUOUS
 62
     1
100
AcDbVertex
100
AcDb2dVertex
 10
537.020221
 20
511.270192
 30
0.0
  0
VERTEX
  5
454
100
AcDbEntity
  8
LAY-9
  6
CONTINUOUS
 62
     1
100
AcDbVertex
100
AcDb2dVertex
 10
537.460286
 20
511.112679
 30
0.0
  0
VERTEX
  5
455
100
AcDbEntity
  8
LAY-9
  6
CONTINUOUS
 62
     1
100
AcDbVertex
100
AcDb2dVertex
 10
537.739727
 20
511.01104
 30
0.0
  0
VERTEX
  5
456
100
AcDbEntity
  8
LAY-9
  6
CONTINUOUS
 62
     1
100
AcDbVertex
100
AcDb2dVertex
 10
537.837541
 20
510.975
 30
0.0
  0
SEQEND
  5
457
100
AcDbEntity
  8
LAY-9
  6
CONTINUOUS
 62
     1
  0
LINE
  5
458
100
AcDbEntity
  8
LAY-9
  6
CONTINUOUS
 62
     1
100
AcDbLine
 10
163.937511
 20
508.72809
 30
0.0
 11
163.937511
 21
328.175
 31
0.0
  0
POLYLINE
  5
459
100
AcDbEntity
  8
LAY-9
  6
CONTINUOUS
 62
     1
100
AcDb2dPolyline
 66
     1
 10
0.0
 20
0.0
 30
0.0
 70
   128
  0
VERTEX
  5
45A
100
AcDbEntity
  8
LAY-9
  6
CONTINUOUS
 62
     1
100
AcDbVertex
100
AcDb2dVertex
 10
69.437541
 20
161.175
 30
0.0
  0
VERTEX
  5
45B
100
AcDbEntity
  8
LAY-9
  6
CONTINUOUS
 62
     1
100
AcDbVertex
100
AcDb2dVertex
 10
69.469131
 20
161.07659
 30
0.0
  0
VERTEX
  5
45C
100
AcDbEntity
  8
LAY-9
  6
CONTINUOUS
 62
     1
100
AcDbVertex
100
AcDb2dVertex
 10
69.556123
 20
160.797022
 30
0.0
  0
VERTEX
  5
45D
100
AcDbEntity
  8
LAY-9
  6
CONTINUOUS
 62
     1
100
AcDbVertex
100
AcDb2dVertex
 10
69.686854
 20
160.359787
 30
0.0
  0
VERTEX
  5
45E
100
AcDbEntity
  8
LAY-9
  6
CONTINUOUS
 62
     1
100
AcDbVertex
100
AcDb2dVertex
 10
69.849658
 20
159.788379
 30
0.0
  0
VERTEX
  5
45F
100
AcDbEntity
  8
LAY-9
  6
CONTINUOUS
 62
     1
100
AcDbVertex
100
AcDb2dVertex
 10
70.032872
 20
159.106289
 30
0.0
  0
VERTEX
  5
460
100
AcDbEntity
  8
LAY-9
  6
CONTINUOUS
 62
     1
100
AcDbVertex
100
AcDb2dVertex
 10
70.22483
 20
158.33701
 30
0.0
  0
VERTEX
  5
461
100
AcDbEntity
  8
LAY-9
  6
CONTINUOUS
 62
     1
100
AcDbVertex
100
AcDb2dVertex
 10
70.41387
 20
157.504033
 30
0.0
  0
VERTEX
  5
462
100
AcDbEntity
  8
LAY-9
  6
CONTINUOUS
 62
     1
100
AcDbVertex
100
AcDb2dVertex
 10
70.588325
 20
156.630852
 30
0.0
  0
VERTEX
  5
463
100
AcDbEntity
  8
LAY-9
  6
CONTINUOUS
 62
     1
100
AcDbVertex
100
AcDb2dVertex
 10
70.736531
 20
155.740957
 30
0.0
  0
VERTEX
  5
464
100
AcDbEntity
  8
LAY-9
  6
CONTINUOUS
 62
     1
100
AcDbVertex
100
AcDb2dVertex
 10
70.846825
 20
154.857843
 30
0.0
  0
VERTEX
  5
465
100
AcDbEntity
  8
LAY-9
  6
CONTINUOUS
 62
     1
100
AcDbVertex
100
AcDb2dVertex
 10
70.907541
 20
154.005
 30
0.0
  0
VERTEX
  5
466
100
AcDbEntity
  8
LAY-9
  6
CONTINUOUS
 62
     1
100
AcDbVertex
100
AcDb2dVertex
 10
70.912149
 20
153.266124
 30
0.0
  0
VERTEX
  5
467
100
AcDbEntity
  8
LAY-9
  6
CONTINUOUS
 62
     1
100
AcDbVertex
100
AcDb2dVertex
 10
70.871105
 20
152.568354
 30
0.0
  0
VERTEX
  5
468
100
AcDbEntity
  8
LAY-9
  6
CONTINUOUS
 62
     1
100
AcDbVertex
100
AcDb2dVertex
 10
70.79023
 20
151.907609
 30
0.0
  0
VERTEX
  5
469
100
AcDbEntity
  8
LAY-9
  6
CONTINUOUS
 62
     1
100
AcDbVertex
100
AcDb2dVertex
 10
70.675342
 20
151.27981
 30
0.0
  0
VERTEX
  5
46A
100
AcDbEntity
  8
LAY-9
  6
CONTINUOUS
 62
     1
100
AcDbVertex
100
AcDb2dVertex
 10
70.53226
 20
150.680876
 30
0.0
  0
VERTEX
  5
46B
100
AcDbEntity
  8
LAY-9
  6
CONTINUOUS
 62
     1
100
AcDbVertex
100
AcDb2dVertex
 10
70.366803
 20
150.106729
 30
0.0
  0
VERTEX
  5
46C
100
AcDbEntity
  8
LAY-9
  6
CONTINUOUS
 62
     1
100
AcDbVertex
100
AcDb2dVertex
 10
70.184788
 20
149.553289
 30
0.0
  0
VERTEX
  5
46D
100
AcDbEntity
  8
LAY-9
  6
CONTINUOUS
 62
     1
100
AcDbVertex
100
AcDb2dVertex
 10
69.992036
 20
149.016476
 30
0.0
  0
VERTEX
  5
46E
100
AcDbEntity
  8
LAY-9
  6
CONTINUOUS
 62
     1
100
AcDbVertex
100
AcDb2dVertex
 10
69.794365
 20
148.49221
 30
0.0
  0
VERTEX
  5
46F
100
AcDbEntity
  8
LAY-9
  6
CONTINUOUS
 62
     1
100
AcDbVertex
100
AcDb2dVertex
 10
69.597594
 20
147.976411
 30
0.0
  0
VERTEX
  5
470
100
AcDbEntity
  8
LAY-9
  6
CONTINUOUS
 62
     1
100
AcDbVertex
100
AcDb2dVertex
 10
69.407541
 20
147.465
 30
0.0
  0
VERTEX
  5
471
100
AcDbEntity
  8
LAY-9
  6
CONTINUOUS
 62
     1
100
AcDbVertex
100
AcDb2dVertex
 10
69.263264
 20
147.052762
 30
0.0
  0
VERTEX
  5
472
100
AcDbEntity
  8
LAY-9
  6
CONTINUOUS
 62
     1
100
AcDbVertex
100
AcDb2dVertex
 10
69.130813
 20
146.63674
 30
0.0
  0
VERTEX
  5
473
100
AcDbEntity
  8
LAY-9
  6
CONTINUOUS
 62
     1
100
AcDbVertex
100
AcDb2dVertex
 10
69.013866
 20
146.212952
 30
0.0
  0
VERTEX
  5
474
100
AcDbEntity
  8
LAY-9
  6
CONTINUOUS
 62
     1
100
AcDbVertex
100
AcDb2dVertex
 10
68.916097
 20
145.777413
 30
0.0
  0
VERTEX
  5
475
100
AcDbEntity
  8
LAY-9
  6
CONTINUOUS
 62
     1
100
AcDbVertex
100
AcDb2dVertex
 10
68.841184
 20
145.32614
 30
0.0
  0
VERTEX
  5
476
100
AcDbEntity
  8
LAY-9
  6
CONTINUOUS
 62
     1
100
AcDbVertex
100
AcDb2dVertex
 10
68.792803
 20
144.855149
 30
0.0
  0
VERTEX
  5
477
100
AcDbEntity
  8
LAY-9
  6
CONTINUOUS
 62
     1
100
AcDbVertex
100
AcDb2dVertex
 10
68.77463
 20
144.360456
 30
0.0
  0
VERTEX
  5
478
100
AcDbEntity
  8
LAY-9
  6
CONTINUOUS
 62
     1
100
AcDbVertex
100
AcDb2dVertex
 10
68.790341
 20
143.838079
 30
0.0
  0
VERTEX
  5
479
100
AcDbEntity
  8
LAY-9
  6
CONTINUOUS
 62
     1
100
AcDbVertex
100
AcDb2dVertex
 10
68.843613
 20
143.284033
 30
0.0
  0
VERTEX
  5
47A
100
AcDbEntity
  8
LAY-9
  6
CONTINUOUS
 62
     1
100
AcDbVertex
100
AcDb2dVertex
 10
68.938121
 20
142.694334
 30
0.0
  0
VERTEX
  5
47B
100
AcDbEntity
  8
LAY-9
  6
CONTINUOUS
 62
     1
100
AcDbVertex
100
AcDb2dVertex
 10
69.077541
 20
142.065
 30
0.0
  0
VERTEX
  5
47C
100
AcDbEntity
  8
LAY-9
  6
CONTINUOUS
 62
     1
100
AcDbVertex
100
AcDb2dVertex
 10
69.153884
 20
141.77431
 30
0.0
  0
VERTEX
  5
47D
100
AcDbEntity
  8
LAY-9
  6
CONTINUOUS
 62
     1
100
AcDbVertex
100
AcDb2dVertex
 10
69.236799
 20
141.481402
 30
0.0
  0
VERTEX
  5
47E
100
AcDbEntity
  8
LAY-9
  6
CONTINUOUS
 62
     1
100
AcDbVertex
100
AcDb2dVertex
 10
69.323371
 20
141.192575
 30
0.0
  0
VERTEX
  5
47F
100
AcDbEntity
  8
LAY-9
  6
CONTINUOUS
 62
     1
100
AcDbVertex
100
AcDb2dVertex
 10
69.410683
 20
140.914131
 30
0.0
  0
VERTEX
  5
480
100
AcDbEntity
  8
LAY-9
  6
CONTINUOUS
 62
     1
100
AcDbVertex
100
AcDb2dVertex
 10
69.495817
 20
140.65237
 30
0.0
  0
VERTEX
  5
481
100
AcDbEntity
  8
LAY-9
  6
CONTINUOUS
 62
     1
100
AcDbVertex
100
AcDb2dVertex
 10
69.575856
 20
140.413594
 30
0.0
  0
VERTEX
  5
482
100
AcDbEntity
  8
LAY-9
  6
CONTINUOUS
 62
     1
100
AcDbVertex
100
AcDb2dVertex
 10
69.647884
 20
140.204102
 30
0.0
  0
VERTEX
  5
483
100
AcDbEntity
  8
LAY-9
  6
CONTINUOUS
 62
     1
100
AcDbVertex
100
AcDb2dVertex
 10
69.708984
 20
140.030196
 30
0.0
  0
VERTEX
  5
484
100
AcDbEntity
  8
LAY-9
  6
CONTINUOUS
 62
     1
100
AcDbVertex
100
AcDb2dVertex
 10
69.756238
 20
139.898177
 30
0.0
  0
VERTEX
  5
485
100
AcDbEntity
  8
LAY-9
  6
CONTINUOUS
 62
     1
100
AcDbVertex
100
AcDb2dVertex
 10
69.786729
 20
139.814344
 30
0.0
  0
VERTEX
  5
486
100
AcDbEntity
  8
LAY-9
  6
CONTINUOUS
 62
     1
100
AcDbVertex
100
AcDb2dVertex
 10
69.797541
 20
139.785
 30
0.0
  0
SEQEND
  5
487
100
AcDbEntity
  8
LAY-9
  6
CONTINUOUS
 62
     1
  0
POLYLINE
  5
488
100
AcDbEntity
  8
LAY-9
  6
CONTINUOUS
 62
     1
100
AcDb2dPolyline
 66
     1
 10
0.0
 20
0.0
 30
0.0
 70
   128
  0
VERTEX
  5
489
100
AcDbEntity
  8
LAY-9
  6
CONTINUOUS
 62
     1
100
AcDbVertex
100
AcDb2dVertex
 10
69.437541
 20
171.175
 30
0.0
  0
VERTEX
  5
48A
100
AcDbEntity
  8
LAY-9
  6
CONTINUOUS
 62
     1
100
AcDbVertex
100
AcDb2dVertex
 10
69.469131
 20
171.27341
 30
0.0
  0
VERTEX
  5
48B
100
AcDbEntity
  8
LAY-9
  6
CONTINUOUS
 62
     1
100
AcDbVertex
100
AcDb2dVertex
 10
69.556123
 20
171.552978
 30
0.0
  0
VERTEX
  5
48C
100
AcDbEntity
  8
LAY-9
  6
CONTINUOUS
 62
     1
100
AcDbVertex
100
AcDb2dVertex
 10
69.686854
 20
171.990213
 30
0.0
  0
VERTEX
  5
48D
100
AcDbEntity
  8
LAY-9
  6
CONTINUOUS
 62
     1
100
AcDbVertex
100
AcDb2dVertex
 10
69.849658
 20
172.561621
 30
0.0
  0
VERTEX
  5
48E
100
AcDbEntity
  8
LAY-9
  6
CONTINUOUS
 62
     1
100
AcDbVertex
100
AcDb2dVertex
 10
70.032872
 20
173.243711
 30
0.0
  0
VERTEX
  5
48F
100
AcDbEntity
  8
LAY-9
  6
CONTINUOUS
 62
     1
100
AcDbVertex
100
AcDb2dVertex
 10
70.22483
 20
174.01299
 30
0.0
  0
VERTEX
  5
490
100
AcDbEntity
  8
LAY-9
  6
CONTINUOUS
 62
     1
100
AcDbVertex
100
AcDb2dVertex
 10
70.41387
 20
174.845967
 30
0.0
  0
VERTEX
  5
491
100
AcDbEntity
  8
LAY-9
  6
CONTINUOUS
 62
     1
100
AcDbVertex
100
AcDb2dVertex
 10
70.588325
 20
175.719148
 30
0.0
  0
VERTEX
  5
492
100
AcDbEntity
  8
LAY-9
  6
CONTINUOUS
 62
     1
100
AcDbVertex
100
AcDb2dVertex
 10
70.736531
 20
176.609043
 30
0.0
  0
VERTEX
  5
493
100
AcDbEntity
  8
LAY-9
  6
CONTINUOUS
 62
     1
100
AcDbVertex
100
AcDb2dVertex
 10
70.846825
 20
177.492157
 30
0.0
  0
VERTEX
  5
494
100
AcDbEntity
  8
LAY-9
  6
CONTINUOUS
 62
     1
100
AcDbVertex
100
AcDb2dVertex
 10
70.907541
 20
178.345
 30
0.0
  0
VERTEX
  5
495
100
AcDbEntity
  8
LAY-9
  6
CONTINUOUS
 62
     1
100
AcDbVertex
100
AcDb2dVertex
 10
70.912149
 20
179.083876
 30
0.0
  0
VERTEX
  5
496
100
AcDbEntity
  8
LAY-9
  6
CONTINUOUS
 62
     1
100
AcDbVertex
100
AcDb2dVertex
 10
70.871105
 20
179.781646
 30
0.0
  0
VERTEX
  5
497
100
AcDbEntity
  8
LAY-9
  6
CONTINUOUS
 62
     1
100
AcDbVertex
100
AcDb2dVertex
 10
70.79023
 20
180.442391
 30
0.0
  0
VERTEX
  5
498
100
AcDbEntity
  8
LAY-9
  6
CONTINUOUS
 62
     1
100
AcDbVertex
100
AcDb2dVertex
 10
70.675342
 20
181.07019
 30
0.0
  0
VERTEX
  5
499
100
AcDbEntity
  8
LAY-9
  6
CONTINUOUS
 62
     1
100
AcDbVertex
100
AcDb2dVertex
 10
70.53226
 20
181.669124
 30
0.0
  0
VERTEX
  5
49A
100
AcDbEntity
  8
LAY-9
  6
CONTINUOUS
 62
     1
100
AcDbVertex
100
AcDb2dVertex
 10
70.366803
 20
182.243271
 30
0.0
  0
VERTEX
  5
49B
100
AcDbEntity
  8
LAY-9
  6
CONTINUOUS
 62
     1
100
AcDbVertex
100
AcDb2dVertex
 10
70.184788
 20
182.796711
 30
0.0
  0
VERTEX
  5
49C
100
AcDbEntity
  8
LAY-9
  6
CONTINUOUS
 62
     1
100
AcDbVertex
100
AcDb2dVertex
 10
69.992036
 20
183.333524
 30
0.0
  0
VERTEX
  5
49D
100
AcDbEntity
  8
LAY-9
  6
CONTINUOUS
 62
     1
100
AcDbVertex
100
AcDb2dVertex
 10
69.794365
 20
183.85779
 30
0.0
  0
VERTEX
  5
49E
100
AcDbEntity
  8
LAY-9
  6
CONTINUOUS
 62
     1
100
AcDbVertex
100
AcDb2dVertex
 10
69.597594
 20
184.373589
 30
0.0
  0
VERTEX
  5
49F
100
AcDbEntity
  8
LAY-9
  6
CONTINUOUS
 62
     1
100
AcDbVertex
100
AcDb2dVertex
 10
69.407541
 20
184.885
 30
0.0
  0
VERTEX
  5
4A0
100
AcDbEntity
  8
LAY-9
  6
CONTINUOUS
 62
     1
100
AcDbVertex
100
AcDb2dVertex
 10
69.263264
 20
185.297238
 30
0.0
  0
VERTEX
  5
4A1
100
AcDbEntity
  8
LAY-9
  6
CONTINUOUS
 62
     1
100
AcDbVertex
100
AcDb2dVertex
 10
69.130813
 20
185.71326
 30
0.0
  0
VERTEX
  5
4A2
100
AcDbEntity
  8
LAY-9
  6
CONTINUOUS
 62
     1
100
AcDbVertex
100
AcDb2dVertex
 10
69.013866
 20
186.137048
 30
0.0
  0
VERTEX
  5
4A3
100
AcDbEntity
  8
LAY-9
  6
CONTINUOUS
 62
     1
100
AcDbVertex
100
AcDb2dVertex
 10
68.916097
 20
186.572587
 30
0.0
  0
VERTEX
  5
4A4
100
AcDbEntity
  8
LAY-9
  6
CONTINUOUS
 62
     1
100
AcDbVertex
100
AcDb2dVertex
 10
68.841184
 20
187.02386
 30
0.0
  0
VERTEX
  5
4A5
100
AcDbEntity
  8
LAY-9
  6
CONTINUOUS
 62
     1
100
AcDbVertex
100
AcDb2dVertex
 10
68.792803
 20
187.494851
 30
0.0
  0
VERTEX
  5
4A6
100
AcDbEntity
  8
LAY-9
  6
CONTINUOUS
 62
     1
100
AcDbVertex
100
AcDb2dVertex
 10
68.77463
 20
187.989544
 30
0.0
  0
VERTEX
  5
4A7
100
AcDbEntity
  8
LAY-9
  6
CONTINUOUS
 62
     1
100
AcDbVertex
100
AcDb2dVertex
 10
68.790341
 20
188.511921
 30
0.0
  0
VERTEX
  5
4A8
100
AcDbEntity
  8
LAY-9
  6
CONTINUOUS
 62
     1
100
AcDbVertex
100
AcDb2dVertex
 10
68.843613
 20
189.065967
 30
0.0
  0
VERTEX
  5
4A9
100
AcDbEntity
  8
LAY-9
  6
CONTINUOUS
 62
     1
100
AcDbVertex
100
AcDb2dVertex
 10
68.938121
 20
189.655666
 30
0.0
  0
VERTEX
  5
4AA
100
AcDbEntity
  8
LAY-9
  6
CONTINUOUS
 62
     1
100
AcDbVertex
100
AcDb2dVertex
 10
69.077541
 20
190.285
 30
0.0
  0
VERTEX
  5
4AB
100
AcDbEntity
  8
LAY-9
  6
CONTINUOUS
 62
     1
100
AcDbVertex
100
AcDb2dVertex
 10
69.153884
 20
190.57569
 30
0.0
  0
VERTEX
  5
4AC
100
AcDbEntity
  8
LAY-9
  6
CONTINUOUS
 62
     1
100
AcDbVertex
100
AcDb2dVertex
 10
69.236799
 20
190.868598
 30
0.0
  0
VERTEX
  5
4AD
100
AcDbEntity
  8
LAY-9
  6
CONTINUOUS
 62
     1
100
AcDbVertex
100
AcDb2dVertex
 10
69.323371
 20
191.157425
 30
0.0
  0
VERTEX
  5
4AE
100
AcDbEntity
  8
LAY-9
  6
CONTINUOUS
 62
     1
100
AcDbVertex
100
AcDb2dVertex
 10
69.410683
 20
191.435869
 30
0.0
  0
VERTEX
  5
4AF
100
AcDbEntity
  8
LAY-9
  6
CONTINUOUS
 62
     1
100
AcDbVertex
100
AcDb2dVertex
 10
69.495817
 20
191.69763
 30
0.0
  0
VERTEX
  5
4B0
100
AcDbEntity
  8
LAY-9
  6
CONTINUOUS
 62
     1
100
AcDbVertex
100
AcDb2dVertex
 10
69.575856
 20
191.936406
 30
0.0
  0
VERTEX
  5
4B1
100
AcDbEntity
  8
LAY-9
  6
CONTINUOUS
 62
     1
100
AcDbVertex
100
AcDb2dVertex
 10
69.647884
 20
192.145898
 30
0.0
  0
VERTEX
  5
4B2
100
AcDbEntity
  8
LAY-9
  6
CONTINUOUS
 62
     1
100
AcDbVertex
100
AcDb2dVertex
 10
69.708984
 20
192.319804
 30
0.0
  0
VERTEX
  5
4B3
100
AcDbEntity
  8
LAY-9
  6
CONTINUOUS
 62
     1
100
AcDbVertex
100
AcDb2dVertex
 10
69.756238
 20
192.451823
 30
0.0
  0
VERTEX
  5
4B4
100
AcDbEntity
  8
LAY-9
  6
CONTINUOUS
 62
     1
100
AcDbVertex
100
AcDb2dVertex
 10
69.786729
 20
192.535656
 30
0.0
  0
VERTEX
  5
4B5
100
AcDbEntity
  8
LAY-9
  6
CONTINUOUS
 62
     1
100
AcDbVertex
100
AcDb2dVertex
 10
69.797541
 20
192.565
 30
0.0
  0
SEQEND
  5
4B6
100
AcDbEntity
  8
LAY-9
  6
CONTINUOUS
 62
     1
  0
LINE
  5
4B7
100
AcDbEntity
  8
LAY-9
  6
CONTINUOUS
 62
     1
100
AcDbLine
 10
69.437541
 20
161.175
 30
0.0
 11
376.487855
 21
161.175
 31
0.0
  0
LINE
  5
4B8
100
AcDbEntity
  8
LAY-9
  6
CONTINUOUS
 62
     1
100
AcDbLine
 10
69.437541
 20
171.175
 30
0.0
 11
151.937511
 21
171.175
 31
0.0
  0
LINE
  5
4B9
100
AcDbEntity
  8
LAY-9
  6
CONTINUOUS
 62
     1
100
AcDbLine
 10
661.686292
 20
234.4
 30
0.0
 11
661.686292
 21
232.8
 31
0.0
  0
LINE
  5
4BA
100
AcDbEntity
  8
LAY-9
  6
CONTINUOUS
 62
     1
100
AcDbLine
 10
693.686292
 20
222.6
 30
0.0
 11
693.686292
 21
234.4
 31
0.0
  0
ARC
  5
4BB
100
AcDbEntity
  8
LAY-9
  6
CONTINUOUS
 62
     1
100
AcDbCircle
 10
692.086292
 20
222.6
 30
0.0
 40
1.6
100
AcDbArc
 50
225.0
 51
0.0
  0
LINE
  5
4BC
100
AcDbEntity
  8
LAY-9
  6
CONTINUOUS
 62
     1
100
AcDbLine
 10
692.086292
 20
222.6
 30
0.0
 11
692.086292
 21
234.4
 31
0.0
  0
LINE
  5
4BD
100
AcDbEntity
  8
LAY-9
  6
CONTINUOUS
 62
     1
100
AcDbLine
 10
692.086292
 20
222.6
 30
0.0
 11
680.286292
 21
234.4
 31
0.0
  0
LINE
  5
4BE
100
AcDbEntity
  8
LAY-9
  6
CONTINUOUS
 62
     1
100
AcDbLine
 10
679.154921
 20
233.268629
 30
0.0
 11
690.954921
 21
221.468629
 31
0.0
  0
LINE
  5
4BF
100
AcDbEntity
  8
LAY-9
  6
CONTINUOUS
 62
     1
100
AcDbLine
 10
661.686292
 20
232.8
 30
0.0
 11
641.686292
 21
232.8
 31
0.0
  0
ARC
  5
4C0
100
AcDbEntity
  8
LAY-9
  6
CONTINUOUS
 62
     1
100
AcDbCircle
 10
692.086292
 20
234.4
 30
0.0
 40
1.6
100
AcDbArc
 50
0.0
 51
90.0
  0
ARC
  5
4C1
100
AcDbEntity
  8
LAY-9
  6
CONTINUOUS
 62
     1
100
AcDbCircle
 10
641.686292
 20
232.8
 30
0.0
 40
1.6
100
AcDbArc
 50
90.0
 51
180.0
  0
LINE
  5
4C2
100
AcDbEntity
  8
LAY-9
  6
CONTINUOUS
 62
     1
100
AcDbLine
 10
680.286292
 20
234.4
 30
0.0
 11
679.154921
 21
233.268629
 31
0.0
  0
ARC
  5
4C3
100
AcDbEntity
  8
LAY-9
  6
CONTINUOUS
 62
     1
100
AcDbCircle
 10
649.086292
 20
181.6
 30
0.0
 40
1.6
100
AcDbArc
 50
270.0
 51
45.0
  0
LINE
  5
4C4
100
AcDbEntity
  8
LAY-9
  6
CONTINUOUS
 62
     1
100
AcDbLine
 10
640.086292
 20
190.6
 30
0.0
 11
649.086292
 21
181.6
 31
0.0
  0
LINE
  5
4C5
100
AcDbEntity
  8
LAY-9
  6
CONTINUOUS
 62
     1
100
AcDbLine
 10
641.686292
 20
191.262742
 30
0.0
 11
650.217662
 21
182.731371
 31
0.0
  0
LINE
  5
4C6
100
AcDbEntity
  8
LAY-9
  6
CONTINUOUS
 62
     1
100
AcDbLine
 10
641.686292
 20
191.262742
 30
0.0
 11
641.686292
 21
232.8
 31
0.0
  0
LINE
  5
4C7
100
AcDbEntity
  8
LAY-9
  6
CONTINUOUS
 62
     1
100
AcDbLine
 10
640.086292
 20
190.6
 30
0.0
 11
640.086292
 21
232.8
 31
0.0
  0
ARC
  5
4C8
100
AcDbEntity
  8
LAY-9
  6
CONTINUOUS
 62
     2
100
AcDbCircle
 10
655.286292
 20
184.6
 30
0.0
 40
1.6
100
AcDbArc
 50
180.0
 51
270.0
  0
ARC
  5
4C9
100
AcDbEntity
  8
LAY-9
  6
CONTINUOUS
 62
     2
100
AcDbCircle
 10
657.586292
 20
186.9
 30
0.0
 40
2.3
100
AcDbArc
 50
180.0
 51
270.0
  0
LINE
  5
4CA
100
AcDbEntity
  8
LAY-9
  6
CONTINUOUS
 62
     2
100
AcDbLine
 10
657.586292
 20
186.9
 30
0.0
 11
657.586292
 21
201.0
 31
0.0
  0
LINE
  5
4CB
100
AcDbEntity
  8
LAY-9
  6
CONTINUOUS
 62
     2
100
AcDbLine
 10
655.286292
 20
184.6
 30
0.0
 11
655.286292
 21
201.0
 31
0.0
  0
LINE
  5
4CC
100
AcDbEntity
  8
LAY-9
  6
CONTINUOUS
 62
     2
100
AcDbLine
 10
653.686292
 20
184.6
 30
0.0
 11
653.686292
 21
201.0
 31
0.0
  0
ARC
  5
4CD
100
AcDbEntity
  8
LAY-9
  6
CONTINUOUS
 62
     2
100
AcDbCircle
 10
671.686292
 20
201.0
 30
0.0
 40
18.0
100
AcDbArc
 50
89.880729
 51
180.0
  0
ARC
  5
4CE
100
AcDbEntity
  8
LAY-9
  6
CONTINUOUS
 62
     2
100
AcDbCircle
 10
671.686292
 20
201.0
 30
0.0
 40
16.4
100
AcDbArc
 50
89.875047
 51
180.0
  0
LINE
  5
4CF
100
AcDbEntity
  8
LAY-9
  6
CONTINUOUS
 62
     2
100
AcDbLine
 10
693.686292
 20
184.6
 30
0.0
 11
693.686292
 21
183.0
 31
0.0
  0
LINE
  5
4D0
100
AcDbEntity
  8
LAY-9
  6
CONTINUOUS
 62
     2
100
AcDbLine
 10
693.686292
 20
219.0
 30
0.0
 11
693.686292
 21
217.4
 31
0.0
  0
LINE
  5
4D1
100
AcDbEntity
  8
LAY-9
  6
CONTINUOUS
 62
     2
100
AcDbLine
 10
670.286292
 20
186.9
 30
0.0
 11
670.286292
 21
184.6
 31
0.0
  0
LINE
  5
4D2
100
AcDbEntity
  8
LAY-9
  6
CONTINUOUS
 62
     2
100
AcDbLine
 10
670.286292
 20
217.340135
 30
0.0
 11
670.286292
 21
215.030324
 31
0.0
  0
ARC
  5
4D3
100
AcDbEntity
  8
LAY-9
  6
CONTINUOUS
 62
     2
100
AcDbCircle
 10
671.686292
 20
201.0
 30
0.0
 40
14.1
100
AcDbArc
 50
89.86524
 51
90.0
  0
ARC
  5
4D4
100
AcDbEntity
  8
LAY-9
  6
CONTINUOUS
 62
     2
100
AcDbCircle
 10
671.686292
 20
201.0
 30
0.0
 40
14.1
100
AcDbArc
 50
95.698332
 51
180.0
  0
LINE
  5
4D5
100
AcDbEntity
  8
LAY-9
  6
CONTINUOUS
 62
     2
100
AcDbLine
 10
655.286292
 20
183.0
 30
0.0
 11
693.686292
 21
183.0
 31
0.0
  0
LINE
  5
4D6
100
AcDbEntity
  8
LAY-9
  6
CONTINUOUS
 62
     2
100
AcDbLine
 10
655.286292
 20
184.6
 30
0.0
 11
693.686292
 21
184.6
 31
0.0
  0
LINE
  5
4D7
100
AcDbEntity
  8
LAY-9
  6
CONTINUOUS
 62
     2
100
AcDbLine
 10
671.686292
 20
217.4
 30
0.0
 11
693.686292
 21
217.4
 31
0.0
  0
LINE
  5
4D8
100
AcDbEntity
  8
LAY-9
  6
CONTINUOUS
 62
     2
100
AcDbLine
 10
671.686292
 20
219.0
 30
0.0
 11
693.686292
 21
219.0
 31
0.0
  0
LINE
  5
4D9
100
AcDbEntity
  8
LAY-9
  6
CONTINUOUS
 62
     2
100
AcDbLine
 10
670.286292
 20
186.9
 30
0.0
 11
657.586292
 21
186.9
 31
0.0
  0
LINE
  5
4DA
100
AcDbEntity
  8
LAY-9
  6
CONTINUOUS
 62
     1
100
AcDbLine
 10
693.686292
 20
217.4
 30
0.0
 11
762.186322
 21
217.4
 31
0.0
  0
LINE
  5
4DB
100
AcDbEntity
  8
LAY-9
  6
CONTINUOUS
 62
     1
100
AcDbLine
 10
693.686292
 20
219.0
 30
0.0
 11
762.186322
 21
219.0
 31
0.0
  0
LINE
  5
4DC
100
AcDbEntity
  8
LAY-9
  6
CONTINUOUS
 62
     1
100
AcDbLine
 10
693.686292
 20
184.6
 30
0.0
 11
762.186322
 21
184.6
 31
0.0
  0
LINE
  5
4DD
100
AcDbEntity
  8
LAY-9
  6
CONTINUOUS
 62
     1
100
AcDbLine
 10
693.686292
 20
183.0
 30
0.0
 11
762.186322
 21
183.0
 31
0.0
  0
LINE
  5
4DE
100
AcDbEntity
  8
LAY-9
  6
CONTINUOUS
 62
     1
100
AcDbLine
 10
692.086292
 20
236.0
 30
0.0
 11
569.186322
 21
236.0
 31
0.0
  0
LINE
  5
4DF
100
AcDbEntity
  8
LAY-9
  6
CONTINUOUS
 62
     1
100
AcDbLine
 10
692.086292
 20
234.4
 30
0.0
 11
569.186322
 21
234.4
 31
0.0
  0
LINE
  5
4E0
100
AcDbEntity
  8
LAY-9
  6
CONTINUOUS
 62
     1
100
AcDbLine
 10
569.186322
 20
181.6
 30
0.0
 11
649.086292
 21
181.6
 31
0.0
  0
LINE
  5
4E1
100
AcDbEntity
  8
LAY-9
  6
CONTINUOUS
 62
     1
100
AcDbLine
 10
569.186322
 20
180.0
 30
0.0
 11
649.086292
 21
180.0
 31
0.0
  0
LINE
  5
4E2
100
AcDbEntity
  8
LAY-9
  6
CONTINUOUS
 62
     1
100
AcDbLine
 10
165.937511
 20
323.175
 30
0.0
 11
165.937511
 21
297.715
 31
0.0
  0
LINE
  5
4E3
100
AcDbEntity
  8
LAY-9
  6
CONTINUOUS
 62
     1
100
AcDbLine
 10
165.537511
 20
292.515
 30
0.0
 11
165.537511
 21
189.175
 31
0.0
  0
LINE
  5
4E4
100
AcDbEntity
  8
LAY-9
  6
CONTINUOUS
 62
     1
100
AcDbLine
 10
165.537511
 20
508.330261
 30
0.0
 11
165.537511
 21
328.175
 31
0.0
  0
LINE
  5
4E5
100
AcDbEntity
  8
LAY-10
  6
CONTINUOUS
 62
     5
100
AcDbLine
 10
15.0
 20
15.0
 30
0.0
 11
826.0
 21
15.0
 31
0.0
  0
LINE
  5
4E6
100
AcDbEntity
  8
LAY-10
  6
CONTINUOUS
 62
     5
100
AcDbLine
 10
826.0
 20
15.0
 30
0.0
 11
826.0
 21
579.0
 31
0.0
  0
LINE
  5
4E7
100
AcDbEntity
  8
LAY-10
  6
CONTINUOUS
 62
     5
100
AcDbLine
 10
15.0
 20
15.0
 30
0.0
 11
15.0
 21
579.0
 31
0.0
  0
LINE
  5
4E8
100
AcDbEntity
  8
LAY-10
  6
CONTINUOUS
 62
     5
100
AcDbLine
 10
15.0
 20
579.0
 30
0.0
 11
826.0
 21
579.0
 31
0.0
  0
LINE
  5
4E9
100
AcDbEntity
  8
LAY-10
  6
CONTINUOUS
 62
     5
100
AcDbLine
 10
15.0
 20
40.0
 30
0.0
 11
826.0
 21
40.0
 31
0.0
  0
LINE
  5
4EA
100
AcDbEntity
  8
LAY-10
  6
CONTINUOUS
 62
     1
100
AcDbLine
 10
224.0
 20
40.0
 30
0.0
 11
224.0
 21
15.0
 31
0.0
  0
LINE
  5
4EB
100
AcDbEntity
  8
LAY-10
  6
CONTINUOUS
 62
     1
100
AcDbLine
 10
249.5
 20
40.0
 30
0.0
 11
249.5
 21
15.0
 31
0.0
  0
LINE
  5
4EC
100
AcDbEntity
  8
LAY-10
  6
CONTINUOUS
 62
     1
100
AcDbLine
 10
275.0
 20
40.0
 30
0.0
 11
275.0
 21
15.0
 31
0.0
  0
LINE
  5
4ED
100
AcDbEntity
  8
LAY-10
  6
CONTINUOUS
 62
     1
100
AcDbLine
 10
300.5
 20
40.0
 30
0.0
 11
300.5
 21
15.0
 31
0.0
  0
LINE
  5
4EE
100
AcDbEntity
  8
LAY-10
  6
CONTINUOUS
 62
     1
100
AcDbLine
 10
326.0
 20
40.0
 30
0.0
 11
326.0
 21
15.0
 31
0.0
  0
LINE
  5
4EF
100
AcDbEntity
  8
LAY-10
  6
CONTINUOUS
 62
     1
100
AcDbLine
 10
377.0
 20
40.0
 30
0.0
 11
377.0
 21
15.0
 31
0.0
  0
LINE
  5
4F0
100
AcDbEntity
  8
LAY-10
  6
CONTINUOUS
 62
     1
100
AcDbLine
 10
738.0
 20
40.0
 30
0.0
 11
738.0
 21
15.0
 31
0.0
  0
LINE
  5
4F1
100
AcDbEntity
  8
LAY-10
  6
CONTINUOUS
 62
     1
100
AcDbLine
 10
224.0
 20
32.0
 30
0.0
 11
377.0
 21
32.0
 31
0.0
  0
TEXT
  5
4F2
100
AcDbEntity
  8
LAY-10
  6
CONTINUOUS
 62
     4
100
AcDbText
 10
227.5
 20
33.0
 30
0.0
 40
6.0
  1
検　  図
 41
0.57856
  7
EXCADSTD
 72
     5
 11
246.700001
 21
33.0
 31
0.0
100
AcDbText
  0
TEXT
  5
4F3
100
AcDbEntity
  8
LAY-10
  6
CONTINUOUS
 62
     4
100
AcDbText
 10
253.2
 20
33.0
 30
0.0
 40
6.0
  1
担　　当
 41
0.672
  7
EXCADSTD
 72
     5
 11
272.400001
 21
33.0
 31
0.0
100
AcDbText
  0
TEXT
  5
4F4
100
AcDbEntity
  8
LAY-10
  6
CONTINUOUS
 62
     4
100
AcDbText
 10
278.4
 20
33.0
 30
0.0
 40
6.0
  1
製　　図
 41
0.672
  7
EXCADSTD
 72
     5
 11
297.600001
 21
33.0
 31
0.0
100
AcDbText
  0
TEXT
  5
4F5
100
AcDbEntity
  8
LAY-10
  6
CONTINUOUS
 62
     4
100
AcDbText
 10
303.9
 20
33.0
 30
0.0
 40
6.0
  1
尺　　度
 41
0.672
  7
EXCADSTD
 72
     5
 11
323.100001
 21
33.0
 31
0.0
100
AcDbText
  0
TEXT
  5
4F6
100
AcDbEntity
  8
LAY-10
  6
CONTINUOUS
 62
     4
100
AcDbText
 10
339.5
 20
33.0
 30
0.0
 40
6.0
  1
作成年月日
 41
0.672
  7
EXCADSTD
 72
     5
 11
363.500001
 21
33.0
 31
0.0
100
AcDbText
  0
TEXT
  5
4F7
100
AcDbEntity
  8
LAY-10
  6
CONTINUOUS
 62
   134
100
AcDbText
 10
42.98
 20
20.91
 30
0.0
 40
13.0
  1
日本ドアーチエック製造株式会社
 41
0.653908
  7
EXCADSTD
 72
     5
 11
194.779994
 21
20.91
 31
0.0
100
AcDbText
  0
LINE
  5
4F8
100
AcDbEntity
  8
LAY-10
  6
CONTINUOUS
 62
     1
100
AcDbLine
 10
841.0
 20
0.0
 30
0.0
 11
841.0
 21
2.0
 31
0.0
  0
LINE
  5
4F9
100
AcDbEntity
  8
LAY-10
  6
CONTINUOUS
 62
     1
100
AcDbLine
 10
841.0
 20
592.0
 30
0.0
 11
841.0
 21
594.0
 31
0.0
  0
LINE
  5
4FA
100
AcDbEntity
  8
LAY-10
  6
CONTINUOUS
 62
     1
100
AcDbLine
 10
841.0
 20
594.0
 30
0.0
 11
839.0
 21
594.0
 31
0.0
  0
LINE
  5
4FB
100
AcDbEntity
  8
LAY-10
  6
CONTINUOUS
 62
     1
100
AcDbLine
 10
2.0
 20
594.0
 30
0.0
 11
0.0
 21
594.0
 31
0.0
  0
LINE
  5
4FC
100
AcDbEntity
  8
LAY-10
  6
CONTINUOUS
 62
     1
100
AcDbLine
 10
0.0
 20
594.0
 30
0.0
 11
0.0
 21
592.0
 31
0.0
  0
LINE
  5
4FD
100
AcDbEntity
  8
LAY-10
  6
CONTINUOUS
 62
     1
100
AcDbLine
 10
0.0
 20
2.0
 30
0.0
 11
0.0
 21
0.0
 31
0.0
  0
LINE
  5
4FE
100
AcDbEntity
  8
LAY-10
  6
CONTINUOUS
 62
     1
100
AcDbLine
 10
0.0
 20
0.0
 30
0.0
 11
2.0
 21
0.0
 31
0.0
  0
LINE
  5
4FF
100
AcDbEntity
  8
LAY-10
  6
CONTINUOUS
 62
     1
100
AcDbLine
 10
839.0
 20
0.0
 30
0.0
 11
841.0
 21
0.0
 31
0.0
  0
TEXT
  5
500
100
AcDbEntity
  8
LAY-10
  6
CONTINUOUS
 62
     4
100
AcDbText
 10
383.0
 20
33.0
 30
0.0
 40
6.0
  1
図 面 名
 41
0.57856
  7
EXCADSTD
 72
     5
 11
402.200001
 21
33.0
 31
0.0
100
AcDbText
  0
TEXT
  5
501
100
AcDbEntity
  8
LAY-10
  6
CONTINUOUS
 62
     4
100
AcDbText
 10
744.0
 20
33.0
 30
0.0
 40
6.0
  1
図面番号
 41
0.672
  7
EXCADSTD
 72
     5
 11
763.200001
 21
33.0
 31
0.0
100
AcDbText
  0
LINE
  5
502
100
AcDbEntity
  8
LAY-11
  6
CONTINUOUS
 62
     1
100
AcDbLine
 10
141.937511
 20
188.175
 30
0.0
 11
150.337511
 21
188.175
 31
0.0
  0
LINE
  5
503
100
AcDbEntity
  8
LAY-11
  6
CONTINUOUS
 62
     1
100
AcDbLine
 10
141.937511
 20
188.175
 30
0.0
 11
141.937511
 21
288.175
 31
0.0
  0
LINE
  5
504
100
AcDbEntity
  8
LAY-11
  6
CONTINUOUS
 62
     1
100
AcDbLine
 10
150.337511
 20
188.175
 30
0.0
 11
150.337511
 21
288.175
 31
0.0
  0
LINE
  5
505
100
AcDbEntity
  8
LAY-11
  6
CONTINUOUS
 62
     1
100
AcDbLine
 10
141.937511
 20
288.175
 30
0.0
 11
150.337511
 21
288.175
 31
0.0
  0
LINE
  5
506
100
AcDbEntity
  8
LAY-11
  6
CONTINUOUS
 62
     1
100
AcDbLine
 10
150.337511
 20
288.175
 30
0.0
 11
141.937511
 21
188.175
 31
0.0
  0
LINE
  5
507
100
AcDbEntity
  8
LAY-11
  6
CONTINUOUS
 62
     1
100
AcDbLine
 10
141.937511
 20
288.175
 30
0.0
 11
150.337511
 21
188.175
 31
0.0
  0
LINE
  5
508
100
AcDbEntity
  8
LAY-11
  6
CONTINUOUS
 62
     1
100
AcDbLine
 10
291.937511
 20
209.675
 30
0.0
 11
291.937511
 21
214.175
 31
0.0
  0
LINE
  5
509
100
AcDbEntity
  8
LAY-11
  6
CONTINUOUS
 62
     1
100
AcDbLine
 10
291.937511
 20
214.175
 30
0.0
 11
198.937511
 21
214.175
 31
0.0
  0
LINE
  5
50A
100
AcDbEntity
  8
LAY-11
  6
CONTINUOUS
 62
     1
100
AcDbLine
 10
198.937511
 20
214.175
 30
0.0
 11
198.937511
 21
207.175
 31
0.0
  0
LINE
  5
50B
100
AcDbEntity
  8
LAY-11
  6
CONTINUOUS
 62
     1
100
AcDbLine
 10
291.937511
 20
214.175
 30
0.0
 11
198.937511
 21
209.675
 31
0.0
  0
LINE
  5
50C
100
AcDbEntity
  8
LAY-11
  6
CONTINUOUS
 62
     1
100
AcDbLine
 10
198.937511
 20
214.175
 30
0.0
 11
291.937511
 21
209.675
 31
0.0
  0
LINE
  5
50D
100
AcDbEntity
  8
LAY-11
  6
CONTINUOUS
 62
     1
100
AcDbLine
 10
471.137541
 20
213.975
 30
0.0
 11
503.937541
 21
213.975
 31
0.0
  0
LINE
  5
50E
100
AcDbEntity
  8
LAY-11
  6
CONTINUOUS
 62
     1
100
AcDbLine
 10
471.137541
 20
209.475
 30
0.0
 11
503.937541
 21
209.475
 31
0.0
  0
LINE
  5
50F
100
AcDbEntity
  8
LAY-11
  6
CONTINUOUS
 62
     1
100
AcDbLine
 10
503.937541
 20
213.975
 30
0.0
 11
471.137541
 21
209.475
 31
0.0
  0
LINE
  5
510
100
AcDbEntity
  8
LAY-11
  6
CONTINUOUS
 62
     1
100
AcDbLine
 10
471.137541
 20
213.975
 30
0.0
 11
503.937541
 21
209.475
 31
0.0
  0
LINE
  5
511
100
AcDbEntity
  8
LAY-11
  6
CONTINUOUS
 62
     1
100
AcDbLine
 10
631.686292
 20
181.6
 30
0.0
 11
631.686292
 21
234.4
 31
0.0
  0
LINE
  5
512
100
AcDbEntity
  8
LAY-11
  6
CONTINUOUS
 62
     1
100
AcDbLine
 10
640.086292
 20
181.6
 30
0.0
 11
640.086292
 21
234.4
 31
0.0
  0
LINE
  5
513
100
AcDbEntity
  8
LAY-11
  6
CONTINUOUS
 62
     1
100
AcDbLine
 10
640.086292
 20
234.4
 30
0.0
 11
631.686292
 21
234.4
 31
0.0
  0
LINE
  5
514
100
AcDbEntity
  8
LAY-11
  6
CONTINUOUS
 62
     1
100
AcDbLine
 10
640.086292
 20
181.6
 30
0.0
 11
631.686292
 21
181.6
 31
0.0
  0
LINE
  5
515
100
AcDbEntity
  8
LAY-11
  6
CONTINUOUS
 62
     1
100
AcDbLine
 10
640.086292
 20
234.4
 30
0.0
 11
631.686292
 21
181.6
 31
0.0
  0
LINE
  5
516
100
AcDbEntity
  8
LAY-11
  6
CONTINUOUS
 62
     1
100
AcDbLine
 10
631.686292
 20
234.4
 30
0.0
 11
640.086292
 21
181.6
 31
0.0
  0
LINE
  5
517
100
AcDbEntity
  8
LAY-12
  6
CONTINUOUS
 62
     3
100
AcDbLine
 10
467.787541
 20
339.675
 30
0.0
 11
467.787541
 21
367.675
 31
0.0
  0
LINE
  5
518
100
AcDbEntity
  8
LAY-12
  6
CONTINUOUS
 62
     3
100
AcDbLine
 10
469.537541
 20
368.675
 30
0.0
 11
469.537541
 21
338.675
 31
0.0
  0
LINE
  5
519
100
AcDbEntity
  8
LAY-12
  6
CONTINUOUS
 62
     3
100
AcDbLine
 10
471.137541
 20
367.175
 30
0.0
 11
469.537572
 21
367.175
 31
0.0
  0
LINE
  5
51A
100
AcDbEntity
  8
LAY-12
  6
CONTINUOUS
 62
     3
100
AcDbLine
 10
469.537572
 20
340.175
 30
0.0
 11
471.137541
 21
340.175
 31
0.0
  0
LINE
  5
51B
100
AcDbEntity
  8
LAY-12
  6
CONTINUOUS
 62
     3
100
AcDbLine
 10
469.537541
 20
368.675
 30
0.0
 11
468.787541
 21
368.675
 31
0.0
  0
ARC
  5
51C
100
AcDbEntity
  8
LAY-12
  6
CONTINUOUS
 62
     3
100
AcDbCircle
 10
468.787541
 20
367.675
 30
0.0
 40
1.0
100
AcDbArc
 50
89.999981
 51
180.00002
  0
LINE
  5
51D
100
AcDbEntity
  8
LAY-12
  6
CONTINUOUS
 62
     3
100
AcDbLine
 10
469.537541
 20
338.675
 30
0.0
 11
468.787541
 21
338.675
 31
0.0
  0
ARC
  5
51E
100
AcDbEntity
  8
LAY-12
  6
CONTINUOUS
 62
     3
100
AcDbCircle
 10
468.787541
 20
339.675
 30
0.0
 40
1.0
100
AcDbArc
 50
180.00002
 51
270.0
  0
LINE
  5
51F
100
AcDbEntity
  8
LAY-12
  6
CONTINUOUS
 62
     3
100
AcDbLine
 10
471.137541
 20
480.925
 30
0.0
 11
469.537541
 21
480.925
 31
0.0
  0
LINE
  5
520
100
AcDbEntity
  8
LAY-12
  6
CONTINUOUS
 62
     3
100
AcDbLine
 10
469.537541
 20
464.425
 30
0.0
 11
471.137541
 21
464.425
 31
0.0
  0
LINE
  5
521
100
AcDbEntity
  8
LAY-12
  6
CONTINUOUS
 62
     3
100
AcDbLine
 10
469.537541
 20
462.675
 30
0.0
 11
468.787541
 21
462.675
 31
0.0
  0
ARC
  5
522
100
AcDbEntity
  8
LAY-12
  6
CONTINUOUS
 62
     3
100
AcDbCircle
 10
468.787541
 20
463.675
 30
0.0
 40
1.0
100
AcDbArc
 50
180.00002
 51
270.0
  0
LINE
  5
523
100
AcDbEntity
  8
LAY-12
  6
CONTINUOUS
 62
     3
100
AcDbLine
 10
469.537541
 20
482.675
 30
0.0
 11
468.787541
 21
482.675
 31
0.0
  0
ARC
  5
524
100
AcDbEntity
  8
LAY-12
  6
CONTINUOUS
 62
     3
100
AcDbCircle
 10
468.787541
 20
481.675
 30
0.0
 40
1.0
100
AcDbArc
 50
89.999981
 51
180.00002
  0
LINE
  5
525
100
AcDbEntity
  8
LAY-12
  6
CONTINUOUS
 62
     3
100
AcDbLine
 10
467.787541
 20
463.675
 30
0.0
 11
467.787541
 21
481.675
 31
0.0
  0
LINE
  5
526
100
AcDbEntity
  8
LAY-12
  6
CONTINUOUS
 62
     3
100
AcDbLine
 10
469.537541
 20
482.675
 30
0.0
 11
469.537541
 21
462.675
 31
0.0
  0
LINE
  5
527
100
AcDbEntity
  8
LAY-13
  6
CONTINUOUS
 62
     1
100
AcDbLine
 10
396.95
 20
64.5
 30
0.0
 11
412.25
 21
64.5
 31
0.0
  0
POLYLINE
  5
528
100
AcDbEntity
  8
LAY-13
  6
CONTINUOUS
 62
     1
100
AcDb2dPolyline
 66
     1
 10
0.0
 20
0.0
 30
0.0
 70
   128
  0
VERTEX
  5
529
100
AcDbEntity
  8
LAY-13
  6
CONTINUOUS
 62
     1
100
AcDbVertex
100
AcDb2dVertex
 10
413.0
 20
72.0
 30
0.0
  0
VERTEX
  5
52A
100
AcDbEntity
  8
LAY-13
  6
CONTINUOUS
 62
     1
100
AcDbVertex
100
AcDb2dVertex
 10
412.995485
 20
71.983139
 30
0.0
  0
VERTEX
  5
52B
100
AcDbEntity
  8
LAY-13
  6
CONTINUOUS
 62
     1
100
AcDbVertex
100
AcDb2dVertex
 10
412.98289
 20
71.935102
 30
0.0
  0
VERTEX
  5
52C
100
AcDbEntity
  8
LAY-13
  6
CONTINUOUS
 62
     1
100
AcDbVertex
100
AcDb2dVertex
 10
412.963642
 20
71.859708
 30
0.0
  0
VERTEX
  5
52D
100
AcDbEntity
  8
LAY-13
  6
CONTINUOUS
 62
     1
100
AcDbVertex
100
AcDb2dVertex
 10
412.939165
 20
71.760776
 30
0.0
  0
VERTEX
  5
52E
100
AcDbEntity
  8
LAY-13
  6
CONTINUOUS
 62
     1
100
AcDbVertex
100
AcDb2dVertex
 10
412.910885
 20
71.642126
 30
0.0
  0
VERTEX
  5
52F
100
AcDbEntity
  8
LAY-13
  6
CONTINUOUS
 62
     1
100
AcDbVertex
100
AcDb2dVertex
 10
412.880228
 20
71.507576
 30
0.0
  0
VERTEX
  5
530
100
AcDbEntity
  8
LAY-13
  6
CONTINUOUS
 62
     1
100
AcDbVertex
100
AcDb2dVertex
 10
412.84862
 20
71.360946
 30
0.0
  0
VERTEX
  5
531
100
AcDbEntity
  8
LAY-13
  6
CONTINUOUS
 62
     1
100
AcDbVertex
100
AcDb2dVertex
 10
412.817486
 20
71.206055
 30
0.0
  0
VERTEX
  5
532
100
AcDbEntity
  8
LAY-13
  6
CONTINUOUS
 62
     1
100
AcDbVertex
100
AcDb2dVertex
 10
412.788251
 20
71.046721
 30
0.0
  0
VERTEX
  5
533
100
AcDbEntity
  8
LAY-13
  6
CONTINUOUS
 62
     1
100
AcDbVertex
100
AcDb2dVertex
 10
412.762343
 20
70.886765
 30
0.0
  0
VERTEX
  5
534
100
AcDbEntity
  8
LAY-13
  6
CONTINUOUS
 62
     1
100
AcDbVertex
100
AcDb2dVertex
 10
412.741185
 20
70.730004
 30
0.0
  0
VERTEX
  5
535
100
AcDbEntity
  8
LAY-13
  6
CONTINUOUS
 62
     1
100
AcDbVertex
100
AcDb2dVertex
 10
412.720492
 20
70.507903
 30
0.0
  0
VERTEX
  5
536
100
AcDbEntity
  8
LAY-13
  6
CONTINUOUS
 62
     1
100
AcDbVertex
100
AcDb2dVertex
 10
412.712052
 20
70.299878
 30
0.0
  0
VERTEX
  5
537
100
AcDbEntity
  8
LAY-13
  6
CONTINUOUS
 62
     1
100
AcDbVertex
100
AcDb2dVertex
 10
412.714363
 20
70.104384
 30
0.0
  0
VERTEX
  5
538
100
AcDbEntity
  8
LAY-13
  6
CONTINUOUS
 62
     1
100
AcDbVertex
100
AcDb2dVertex
 10
412.725921
 20
69.919875
 30
0.0
  0
VERTEX
  5
539
100
AcDbEntity
  8
LAY-13
  6
CONTINUOUS
 62
     1
100
AcDbVertex
100
AcDb2dVertex
 10
412.745224
 20
69.744803
 30
0.0
  0
VERTEX
  5
53A
100
AcDbEntity
  8
LAY-13
  6
CONTINUOUS
 62
     1
100
AcDbVertex
100
AcDb2dVertex
 10
412.770768
 20
69.577623
 30
0.0
  0
VERTEX
  5
53B
100
AcDbEntity
  8
LAY-13
  6
CONTINUOUS
 62
     1
100
AcDbVertex
100
AcDb2dVertex
 10
412.801052
 20
69.416789
 30
0.0
  0
VERTEX
  5
53C
100
AcDbEntity
  8
LAY-13
  6
CONTINUOUS
 62
     1
100
AcDbVertex
100
AcDb2dVertex
 10
412.834571
 20
69.260752
 30
0.0
  0
VERTEX
  5
53D
100
AcDbEntity
  8
LAY-13
  6
CONTINUOUS
 62
     1
100
AcDbVertex
100
AcDb2dVertex
 10
412.869823
 20
69.107969
 30
0.0
  0
VERTEX
  5
53E
100
AcDbEntity
  8
LAY-13
  6
CONTINUOUS
 62
     1
100
AcDbVertex
100
AcDb2dVertex
 10
412.905306
 20
68.956891
 30
0.0
  0
VERTEX
  5
53F
100
AcDbEntity
  8
LAY-13
  6
CONTINUOUS
 62
     1
100
AcDbVertex
100
AcDb2dVertex
 10
412.939515
 20
68.805972
 30
0.0
  0
VERTEX
  5
540
100
AcDbEntity
  8
LAY-13
  6
CONTINUOUS
 62
     1
100
AcDbVertex
100
AcDb2dVertex
 10
412.972045
 20
68.648888
 30
0.0
  0
VERTEX
  5
541
100
AcDbEntity
  8
LAY-13
  6
CONTINUOUS
 62
     1
100
AcDbVertex
100
AcDb2dVertex
 10
413.000869
 20
68.489477
 30
0.0
  0
VERTEX
  5
542
100
AcDbEntity
  8
LAY-13
  6
CONTINUOUS
 62
     1
100
AcDbVertex
100
AcDb2dVertex
 10
413.025239
 20
68.326891
 30
0.0
  0
VERTEX
  5
543
100
AcDbEntity
  8
LAY-13
  6
CONTINUOUS
 62
     1
100
AcDbVertex
100
AcDb2dVertex
 10
413.044406
 20
68.160281
 30
0.0
  0
VERTEX
  5
544
100
AcDbEntity
  8
LAY-13
  6
CONTINUOUS
 62
     1
100
AcDbVertex
100
AcDb2dVertex
 10
413.057622
 20
67.988796
 30
0.0
  0
VERTEX
  5
545
100
AcDbEntity
  8
LAY-13
  6
CONTINUOUS
 62
     1
100
AcDbVertex
100
AcDb2dVertex
 10
413.064137
 20
67.81159
 30
0.0
  0
VERTEX
  5
546
100
AcDbEntity
  8
LAY-13
  6
CONTINUOUS
 62
     1
100
AcDbVertex
100
AcDb2dVertex
 10
413.063204
 20
67.627811
 30
0.0
  0
VERTEX
  5
547
100
AcDbEntity
  8
LAY-13
  6
CONTINUOUS
 62
     1
100
AcDbVertex
100
AcDb2dVertex
 10
413.054072
 20
67.436612
 30
0.0
  0
VERTEX
  5
548
100
AcDbEntity
  8
LAY-13
  6
CONTINUOUS
 62
     1
100
AcDbVertex
100
AcDb2dVertex
 10
413.035993
 20
67.237143
 30
0.0
  0
VERTEX
  5
549
100
AcDbEntity
  8
LAY-13
  6
CONTINUOUS
 62
     1
100
AcDbVertex
100
AcDb2dVertex
 10
413.008219
 20
67.028556
 30
0.0
  0
VERTEX
  5
54A
100
AcDbEntity
  8
LAY-13
  6
CONTINUOUS
 62
     1
100
AcDbVertex
100
AcDb2dVertex
 10
412.97
 20
66.81
 30
0.0
  0
VERTEX
  5
54B
100
AcDbEntity
  8
LAY-13
  6
CONTINUOUS
 62
     1
100
AcDbVertex
100
AcDb2dVertex
 10
412.909464
 20
66.531987
 30
0.0
  0
VERTEX
  5
54C
100
AcDbEntity
  8
LAY-13
  6
CONTINUOUS
 62
     1
100
AcDbVertex
100
AcDb2dVertex
 10
412.836348
 20
66.245455
 30
0.0
  0
VERTEX
  5
54D
100
AcDbEntity
  8
LAY-13
  6
CONTINUOUS
 62
     1
100
AcDbVertex
100
AcDb2dVertex
 10
412.754518
 20
65.957778
 30
0.0
  0
VERTEX
  5
54E
100
AcDbEntity
  8
LAY-13
  6
CONTINUOUS
 62
     1
100
AcDbVertex
100
AcDb2dVertex
 10
412.667839
 20
65.67633
 30
0.0
  0
VERTEX
  5
54F
100
AcDbEntity
  8
LAY-13
  6
CONTINUOUS
 62
     1
100
AcDbVertex
100
AcDb2dVertex
 10
412.580176
 20
65.408485
 30
0.0
  0
VERTEX
  5
550
100
AcDbEntity
  8
LAY-13
  6
CONTINUOUS
 62
     1
100
AcDbVertex
100
AcDb2dVertex
 10
412.495394
 20
65.161616
 30
0.0
  0
VERTEX
  5
551
100
AcDbEntity
  8
LAY-13
  6
CONTINUOUS
 62
     1
100
AcDbVertex
100
AcDb2dVertex
 10
412.41736
 20
64.943098
 30
0.0
  0
VERTEX
  5
552
100
AcDbEntity
  8
LAY-13
  6
CONTINUOUS
 62
     1
100
AcDbVertex
100
AcDb2dVertex
 10
412.349938
 20
64.760303
 30
0.0
  0
VERTEX
  5
553
100
AcDbEntity
  8
LAY-13
  6
CONTINUOUS
 62
     1
100
AcDbVertex
100
AcDb2dVertex
 10
412.296994
 20
64.620606
 30
0.0
  0
VERTEX
  5
554
100
AcDbEntity
  8
LAY-13
  6
CONTINUOUS
 62
     1
100
AcDbVertex
100
AcDb2dVertex
 10
412.262393
 20
64.53138
 30
0.0
  0
VERTEX
  5
555
100
AcDbEntity
  8
LAY-13
  6
CONTINUOUS
 62
     1
100
AcDbVertex
100
AcDb2dVertex
 10
412.25
 20
64.5
 30
0.0
  0
SEQEND
  5
556
100
AcDbEntity
  8
LAY-13
  6
CONTINUOUS
 62
     1
  0
ARC
  5
557
100
AcDbEntity
  8
LAY-13
  6
CONTINUOUS
 62
     1
100
AcDbCircle
 10
386.45
 20
75.75
 30
0.0
 40
0.75
100
AcDbArc
 50
0.0
 51
90.0
  0
LINE
  5
558
100
AcDbEntity
  8
LAY-13
  6
CONTINUOUS
 62
     1
100
AcDbLine
 10
387.2
 20
75.75
 30
0.0
 11
387.2
 21
65.25
 31
0.0
  0
ARC
  5
559
100
AcDbEntity
  8
LAY-13
  6
CONTINUOUS
 62
     1
100
AcDbCircle
 10
386.45
 20
65.25
 30
0.0
 40
0.75
100
AcDbArc
 50
270.0
 51
0.0
  0
LINE
  5
55A
100
AcDbEntity
  8
LAY-13
  6
CONTINUOUS
 62
     1
100
AcDbLine
 10
383.45
 20
78.0
 30
0.0
 11
388.7
 21
78.0
 31
0.0
  0
LINE
  5
55B
100
AcDbEntity
  8
LAY-13
  6
CONTINUOUS
 62
     1
100
AcDbLine
 10
382.7
 20
78.75
 30
0.0
 11
382.7
 21
93.6
 31
0.0
  0
ARC
  5
55C
100
AcDbEntity
  8
LAY-13
  6
CONTINUOUS
 62
     1
100
AcDbCircle
 10
383.45
 20
78.75
 30
0.0
 40
0.75
100
AcDbArc
 50
180.0
 51
270.0
  0
LINE
  5
55D
100
AcDbEntity
  8
LAY-13
  6
CONTINUOUS
 62
     1
100
AcDbLine
 10
388.7
 20
78.0
 30
0.0
 11
388.7
 21
62.25
 31
0.0
  0
ARC
  5
55E
100
AcDbEntity
  8
LAY-13
  6
CONTINUOUS
 62
     1
100
AcDbCircle
 10
389.45
 20
62.25
 30
0.0
 40
0.75
100
AcDbArc
 50
180.0
 51
270.0
  0
LINE
  5
55F
100
AcDbEntity
  8
LAY-13
  6
CONTINUOUS
 62
     1
100
AcDbLine
 10
389.45
 20
61.5
 30
0.0
 11
396.2
 21
61.5
 31
0.0
  0
LINE
  5
560
100
AcDbEntity
  8
LAY-13
  6
CONTINUOUS
 62
     1
100
AcDbLine
 10
396.95
 20
72.0
 30
0.0
 11
396.95
 21
62.25
 31
0.0
  0
ARC
  5
561
100
AcDbEntity
  8
LAY-13
  6
CONTINUOUS
 62
     1
100
AcDbCircle
 10
396.2
 20
62.25
 30
0.0
 40
0.75
100
AcDbArc
 50
270.0
 51
0.0
  0
POLYLINE
  5
562
100
AcDbEntity
  8
LAY-13
  6
CONTINUOUS
 62
     1
100
AcDb2dPolyline
 66
     1
 10
0.0
 20
0.0
 30
0.0
 70
   128
  0
VERTEX
  5
563
100
AcDbEntity
  8
LAY-13
  6
CONTINUOUS
 62
     1
100
AcDbVertex
100
AcDb2dVertex
 10
370.1
 20
76.5
 30
0.0
  0
VERTEX
  5
564
100
AcDbEntity
  8
LAY-13
  6
CONTINUOUS
 62
     1
100
AcDbVertex
100
AcDb2dVertex
 10
370.12828
 20
76.465122
 30
0.0
  0
VERTEX
  5
565
100
AcDbEntity
  8
LAY-13
  6
CONTINUOUS
 62
     1
100
AcDbVertex
100
AcDb2dVertex
 10
370.206765
 20
76.366008
 30
0.0
  0
VERTEX
  5
566
100
AcDbEntity
  8
LAY-13
  6
CONTINUOUS
 62
     1
100
AcDbVertex
100
AcDb2dVertex
 10
370.325927
 20
76.210941
 30
0.0
  0
VERTEX
  5
567
100
AcDbEntity
  8
LAY-13
  6
CONTINUOUS
 62
     1
100
AcDbVertex
100
AcDb2dVertex
 10
370.476235
 20
76.008204
 30
0.0
  0
VERTEX
  5
568
100
AcDbEntity
  8
LAY-13
  6
CONTINUOUS
 62
     1
100
AcDbVertex
100
AcDb2dVertex
 10
370.64816
 20
75.766079
 30
0.0
  0
VERTEX
  5
569
100
AcDbEntity
  8
LAY-13
  6
CONTINUOUS
 62
     1
100
AcDbVertex
100
AcDb2dVertex
 10
370.832172
 20
75.492848
 30
0.0
  0
VERTEX
  5
56A
100
AcDbEntity
  8
LAY-13
  6
CONTINUOUS
 62
     1
100
AcDbVertex
100
AcDb2dVertex
 10
371.018742
 20
75.196795
 30
0.0
  0
VERTEX
  5
56B
100
AcDbEntity
  8
LAY-13
  6
CONTINUOUS
 62
     1
100
AcDbVertex
100
AcDb2dVertex
 10
371.198339
 20
74.886201
 30
0.0
  0
VERTEX
  5
56C
100
AcDbEntity
  8
LAY-13
  6
CONTINUOUS
 62
     1
100
AcDbVertex
100
AcDb2dVertex
 10
371.361434
 20
74.569349
 30
0.0
  0
VERTEX
  5
56D
100
AcDbEntity
  8
LAY-13
  6
CONTINUOUS
 62
     1
100
AcDbVertex
100
AcDb2dVertex
 10
371.498498
 20
74.254521
 30
0.0
  0
VERTEX
  5
56E
100
AcDbEntity
  8
LAY-13
  6
CONTINUOUS
 62
     1
100
AcDbVertex
100
AcDb2dVertex
 10
371.6
 20
73.95
 30
0.0
  0
VERTEX
  5
56F
100
AcDbEntity
  8
LAY-13
  6
CONTINUOUS
 62
     1
100
AcDbVertex
100
AcDb2dVertex
 10
371.673129
 20
73.512667
 30
0.0
  0
VERTEX
  5
570
100
AcDbEntity
  8
LAY-13
  6
CONTINUOUS
 62
     1
100
AcDbVertex
100
AcDb2dVertex
 10
371.653743
 20
73.11137
 30
0.0
  0
VERTEX
  5
571
100
AcDbEntity
  8
LAY-13
  6
CONTINUOUS
 62
     1
100
AcDbVertex
100
AcDb2dVertex
 10
371.556895
 20
72.737798
 30
0.0
  0
VERTEX
  5
572
100
AcDbEntity
  8
LAY-13
  6
CONTINUOUS
 62
     1
100
AcDbVertex
100
AcDb2dVertex
 10
371.39764
 20
72.383639
 30
0.0
  0
VERTEX
  5
573
100
AcDbEntity
  8
LAY-13
  6
CONTINUOUS
 62
     1
100
AcDbVertex
100
AcDb2dVertex
 10
371.191032
 20
72.040584
 30
0.0
  0
VERTEX
  5
574
100
AcDbEntity
  8
LAY-13
  6
CONTINUOUS
 62
     1
100
AcDbVertex
100
AcDb2dVertex
 10
370.952126
 20
71.70032
 30
0.0
  0
VERTEX
  5
575
100
AcDbEntity
  8
LAY-13
  6
CONTINUOUS
 62
     1
100
AcDbVertex
100
AcDb2dVertex
 10
370.695974
 20
71.354538
 30
0.0
  0
VERTEX
  5
576
100
AcDbEntity
  8
LAY-13
  6
CONTINUOUS
 62
     1
100
AcDbVertex
100
AcDb2dVertex
 10
370.437631
 20
70.994926
 30
0.0
  0
VERTEX
  5
577
100
AcDbEntity
  8
LAY-13
  6
CONTINUOUS
 62
     1
100
AcDbVertex
100
AcDb2dVertex
 10
370.192152
 20
70.613172
 30
0.0
  0
VERTEX
  5
578
100
AcDbEntity
  8
LAY-13
  6
CONTINUOUS
 62
     1
100
AcDbVertex
100
AcDb2dVertex
 10
369.97459
 20
70.200968
 30
0.0
  0
VERTEX
  5
579
100
AcDbEntity
  8
LAY-13
  6
CONTINUOUS
 62
     1
100
AcDbVertex
100
AcDb2dVertex
 10
369.8
 20
69.75
 30
0.0
  0
VERTEX
  5
57A
100
AcDbEntity
  8
LAY-13
  6
CONTINUOUS
 62
     1
100
AcDbVertex
100
AcDb2dVertex
 10
369.666145
 20
69.17775
 30
0.0
  0
VERTEX
  5
57B
100
AcDbEntity
  8
LAY-13
  6
CONTINUOUS
 62
     1
100
AcDbVertex
100
AcDb2dVertex
 10
369.597982
 20
68.563492
 30
0.0
  0
VERTEX
  5
57C
100
AcDbEntity
  8
LAY-13
  6
CONTINUOUS
 62
     1
100
AcDbVertex
100
AcDb2dVertex
 10
369.584354
 20
67.927561
 30
0.0
  0
VERTEX
  5
57D
100
AcDbEntity
  8
LAY-13
  6
CONTINUOUS
 62
     1
100
AcDbVertex
100
AcDb2dVertex
 10
369.614108
 20
67.29029
 30
0.0
  0
VERTEX
  5
57E
100
AcDbEntity
  8
LAY-13
  6
CONTINUOUS
 62
     1
100
AcDbVertex
100
AcDb2dVertex
 10
369.676086
 20
66.672016
 30
0.0
  0
VERTEX
  5
57F
100
AcDbEntity
  8
LAY-13
  6
CONTINUOUS
 62
     1
100
AcDbVertex
100
AcDb2dVertex
 10
369.759135
 20
66.093071
 30
0.0
  0
VERTEX
  5
580
100
AcDbEntity
  8
LAY-13
  6
CONTINUOUS
 62
     1
100
AcDbVertex
100
AcDb2dVertex
 10
369.852099
 20
65.57379
 30
0.0
  0
VERTEX
  5
581
100
AcDbEntity
  8
LAY-13
  6
CONTINUOUS
 62
     1
100
AcDbVertex
100
AcDb2dVertex
 10
369.943823
 20
65.134509
 30
0.0
  0
VERTEX
  5
582
100
AcDbEntity
  8
LAY-13
  6
CONTINUOUS
 62
     1
100
AcDbVertex
100
AcDb2dVertex
 10
370.023151
 20
64.79556
 30
0.0
  0
VERTEX
  5
583
100
AcDbEntity
  8
LAY-13
  6
CONTINUOUS
 62
     1
100
AcDbVertex
100
AcDb2dVertex
 10
370.078929
 20
64.577279
 30
0.0
  0
VERTEX
  5
584
100
AcDbEntity
  8
LAY-13
  6
CONTINUOUS
 62
     1
100
AcDbVertex
100
AcDb2dVertex
 10
370.1
 20
64.5
 30
0.0
  0
SEQEND
  5
585
100
AcDbEntity
  8
LAY-13
  6
CONTINUOUS
 62
     1
  0
LINE
  5
586
100
AcDbEntity
  8
LAY-13
  6
CONTINUOUS
 62
     1
100
AcDbLine
 10
370.1
 20
76.5
 30
0.0
 11
386.45
 21
76.5
 31
0.0
  0
LINE
  5
587
100
AcDbEntity
  8
LAY-13
  6
CONTINUOUS
 62
     1
100
AcDbLine
 10
370.1
 20
64.5
 30
0.0
 11
386.45
 21
64.5
 31
0.0
  0
ENDSEC
  0
SECTION
  2
OBJECTS
  0
DICTIONARY
  5
19
100
AcDbDictionary
  3
ACAD_GROUP
350
1A
  3
ACAD_MLINESTYLE
350
1B
  0
DICTIONARY
  5
1A
102
{ACAD_REACTORS
330
19
102
}
100
AcDbDictionary
  0
DICTIONARY
  5
1B
102
{ACAD_REACTORS
330
19
102
}
100
AcDbDictionary
  3
STANDARD
350
1C
  0
MLINESTYLE
  5
1C
102
{ACAD_REACTORS
330
1B
102
}
100
AcDbMlineStyle
  2
Standard
 70
     0
  3

 62
     0
 51
90.0
 52
90.0
 71
     2
 49
0.5
 62
   256
  6
ByLayer
 49
-0.5
 62
   256
  6
ByLayer
  0
ENDSEC
  0
EOF
