  0
SECTION
  2
HEADER
  9
$ACADVER
  1
AC1014
  9
$ACADMAINTVER
 70
     0
  9
$DWGCODEPAGE
  3
ANSI_932
  9
$INSBASE
 10
0.0
 20
0.0
 30
0.0
  9
$EXTMIN
 10
0.0
 20
0.0
 30
0.0
  9
$EXTMAX
 10
841.0
 20
594.0
 30
0.0
  9
$LIMMIN
 10
0.0
 20
0.0
  9
$LIMMAX
 10
841.0
 20
594.0
  9
$ORTHOMODE
 70
     0
  9
$REGENMODE
 70
     1
  9
$FILLMODE
 70
     1
  9
$QTEXTMODE
 70
     0
  9
$MIRRTEXT
 70
     1
  9
$DRAGMODE
 70
     2
  9
$LTSCALE
 40
1.0
  9
$OSMODE
 70
     0
  9
$ATTMODE
 70
     1
  9
$TEXTSIZE
 40
0.2
  9
$TRACEWID
 40
0.05
  9
$TEXTSTYLE
  7
STANDARD
  9
$CLAYER
  8
LAY-1
  9
$CELTYPE
  6
CONTINUOUS
  9
$CECOLOR
 62
   256
  9
$CELTSCALE
 40
1.0
  9
$DELOBJ
 70
     1
  9
$DISPSILH
 70
     0
  9
$DIMSCALE
 40
1.0
  9
$DIMASZ
 40
0.18
  9
$DIMEXO
 40
0.0625
  9
$DIMDLI
 40
0.38
  9
$DIMRND
 40
0.0
  9
$DIMDLE
 40
0.0
  9
$DIMEXE
 40
0.18
  9
$DIMTP
 40
0.0
  9
$DIMTM
 40
0.0
  9
$DIMTXT
 40
0.18
  9
$DIMCEN
 40
0.09
  9
$DIMTSZ
 40
0.0
  9
$DIMTOL
 70
     0
  9
$DIMLIM
 70
     0
  9
$DIMTIH
 70
     1
  9
$DIMTOH
 70
     1
  9
$DIMSE1
 70
     0
  9
$DIMSE2
 70
     0
  9
$DIMTAD
 70
     0
  9
$DIMZIN
 70
     0
  9
$DIMBLK
  1

  9
$DIMASO
 70
     1
  9
$DIMSHO
 70
     1
  9
$DIMPOST
  1

  9
$DIMAPOST
  1

  9
$DIMALT
 70
     0
  9
$DIMALTD
 70
     2
  9
$DIMALTF
 40
25.4
  9
$DIMLFAC
 40
1.0
  9
$DIMTOFL
 70
     0
  9
$DIMTVP
 40
0.0
  9
$DIMTIX
 70
     0
  9
$DIMSOXD
 70
     0
  9
$DIMSAH
 70
     0
  9
$DIMBLK1
  1

  9
$DIMBLK2
  1

  9
$DIMSTYLE
  2
STANDARD
  9
$DIMCLRD
 70
     0
  9
$DIMCLRE
 70
     0
  9
$DIMCLRT
 70
     0
  9
$DIMTFAC
 40
1.0
  9
$DIMGAP
 40
0.09
  9
$DIMJUST
 70
     0
  9
$DIMSD1
 70
     0
  9
$DIMSD2
 70
     0
  9
$DIMTOLJ
 70
     1
  9
$DIMTZIN
 70
     0
  9
$DIMALTZ
 70
     0
  9
$DIMALTTZ
 70
     0
  9
$DIMFIT
 70
     3
  9
$DIMUPT
 70
     0
  9
$DIMUNIT
 70
     2
  9
$DIMDEC
 70
     4
  9
$DIMTDEC
 70
     4
  9
$DIMALTU
 70
     2
  9
$DIMALTTD
 70
     2
  9
$DIMTXSTY
  7
STANDARD
  9
$DIMAUNIT
 70
     0
  9
$LUNITS
 70
     2
  9
$LUPREC
 70
     4
  9
$SKETCHINC
 40
0.1
  9
$FILLETRAD
 40
0.0
  9
$AUNITS
 70
     0
  9
$AUPREC
 70
     0
  9
$MENU
  1
acad
  9
$ELEVATION
 40
0.0
  9
$PELEVATION
 40
0.0
  9
$THICKNESS
 40
0.0
  9
$LIMCHECK
 70
     0
  9
$BLIPMODE
 70
     1
  9
$CHAMFERA
 40
0.0
  9
$CHAMFERB
 40
0.0
  9
$CHAMFERC
 40
0.0
  9
$CHAMFERD
 40
0.0
  9
$SKPOLY
 70
     0
  9
$TDCREATE
 40
2455606.805196540
  9
$TDUPDATE
 40
2455606.805196540
  9
$TDINDWG
 40
0.0000000000
  9
$TDUSRTIMER
 40
0.0000000000
  9
$USRTIMER
 70
     1
  9
$ANGBASE
 50
0.0
  9
$ANGDIR
 70
     0
  9
$PDMODE
 70
     0
  9
$PDSIZE
 40
0.0
  9
$PLINEWID
 40
0.0
  9
$COORDS
 70
     1
  9
$SPLFRAME
 70
     0
  9
$SPLINETYPE
 70
     6
  9
$SPLINESEGS
 70
     8
  9
$ATTDIA
 70
     0
  9
$ATTREQ
 70
     1
  9
$HANDLING
 70
     1
  9
$HANDSEED
  5
6B8
  9
$SURFTAB1
 70
     6
  9
$SURFTAB2
 70
     6
  9
$SURFTYPE
 70
     6
  9
$SURFU
 70
     6
  9
$SURFV
 70
     6
  9
$UCSNAME
  2

  9
$UCSORG
 10
0.0
 20
0.0
 30
0.0
  9
$UCSXDIR
 10
1.0
 20
0.0
 30
0.0
  9
$UCSYDIR
 10
0.0
 20
1.0
 30
0.0
  9
$PUCSNAME
  2

  9
$PUCSORG
 10
0.0
 20
0.0
 30
0.0
  9
$PUCSXDIR
 10
1.0
 20
0.0
 30
0.0
  9
$PUCSYDIR
 10
0.0
 20
1.0
 30
0.0
  9
$USERI1
 70
     0
  9
$USERI2
 70
     0
  9
$USERI3
 70
     0
  9
$USERI4
 70
     0
  9
$USERI5
 70
     0
  9
$USERR1
 40
0.0
  9
$USERR2
 40
0.0
  9
$USERR3
 40
0.0
  9
$USERR4
 40
0.0
  9
$USERR5
 40
0.0
  9
$WORLDVIEW
 70
     1
  9
$SHADEDGE
 70
     3
  9
$SHADEDIF
 70
    70
  9
$TILEMODE
 70
     1
  9
$MAXACTVP
 70
    16
  9
$PINSBASE
 10
0.0
 20
0.0
 30
0.0
  9
$PLIMCHECK
 70
     0
  9
$PEXTMIN
 10
1.000000E+20
 20
1.000000E+20
 30
1.000000E+20
  9
$PEXTMAX
 10
-1.000000E+20
 20
-1.000000E+20
 30
-1.000000E+20
  9
$PLIMMIN
 10
0.0
 20
0.0
  9
$PLIMMAX
 10
12.0
 20
9.0
  9
$UNITMODE
 70
     0
  9
$VISRETAIN
 70
     0
  9
$PLINEGEN
 70
     1
  9
$PSLTSCALE
 70
     0
  9
$TREEDEPTH
 70
  3020
  9
$PICKSTYLE
 70
     1
  9
$CMLSTYLE
  2
Standard
  9
$CMLJUST
 70
     0
  9
$CMLSCALE
 40
1.0
  9
$PROXYGRAPHICS
 70
     0
  9
$MEASUREMENT
 70
     0
  0
ENDSEC
  0
SECTION
  2
CLASSES
  0
CLASS
  1
LWPOLYLINE
  2
AcDbPolyline
  3
"AutoCAD"
 90
        0
280
     0
281
     1
  0
CLASS
  1
IMAGE
  2
AcDbRasterImage
  3
ISM
 90
      127
280
     0
281
     1
  0
CLASS
  1
OLE2FRAME
  2
AcDbOle2Frame
  3
""
 90
        0
280
     0
281
     1
  0
CLASS
  1
HATCH
  2
AcDbHatch
  3
"ACAD_SEDONA"
 90
        0
280
     0
281
     1
  0
CLASS
  1
DICTIONARYVAR
  2
AcDbDictionaryVar
  3
"AutoCAD"
 90
        0
280
     0
281
     0
  0
CLASS
  1
RASTERVARIABLES
  2
AcDbRasterVariables
  3
ISM
 90
        0
280
     0
281
     0
  0
CLASS
  1
IMAGEDEF
  2
AcDbRasterImageDef
  3
ISM
 90
        0
280
     0
281
     0
  0
CLASS
  1
IMAGEDEF_REACTOR
  2
AcDbRasterImageDefReactor
  3
ISM
 90
        1
280
     0
281
     0
  0
CLASS
  1
IDBUFFER
  2
AcDbIdBuffer
  3
"Acad"
 90
        0
280
     0
281
     0
  0
CLASS
  1
SPATIAL_FILTER
  2
AcDbSpatialFilter
  3
"Acad"
 90
        0
280
     0
281
     0
  0
CLASS
  1
XRECORD
  2
AcDbXrecord
  3
"<Built In>"
 90
        0
280
     0
281
     0
  0
CLASS
  1
SORTENTSTABLE
  2
AcDbSortentsTable
  3
"AutoCAD"
 90
        0
280
     0
281
     0
  0
CLASS
  1
LAYER_INDEX
  2
AcDbLayerIndex
  3
"Acad"
 90
        0
280
     0
281
     0
  0
CLASS
  1
SPATIAL_INDEX
  2
AcDbSpatialIndex
  3
"Acad"
 90
        0
280
     0
281
     0
  0
CLASS
  1
OBJECT_PTR
  2
CAseDLPNTableRecord
  3
"ASE-LPNTableRecord"
 90
        1
280
     0
281
     0
  0
CLASS
  1
LAYOUT
  2
AcDbLayout
  3
"AutoCAD 2000"
 90
        0
280
     0
281
     0
  0
CLASS
  1
PLOTSETTINGS
  2
AcDbPlotSettings
  3
"AutoCAD 2000"
 90
        0
280
     0
281
     0
  0
CLASS
  1
ACDBDICTIONARYWDFLT
  2
AcDbDictionaryWithDefault
  3
"AutoCAD 2000"
 90
        0
280
     0
281
     0
  0
CLASS
  1
ACDBPLACEHOLDER
  2
AcDbPlaceHolder
  3
"AutoCAD 2000"
 90
        0
280
     0
281
     0
  0
CLASS
  1
VBA_PROJECT
  2
AcDbVbaProject
  3
"acadvba"
 90
        0
280
     0
281
     0
  0
CLASS
  1
WIPEOUT
  2
AcDbWipeout
  3
WipeOut|AutoCAD Express Tool|expresstools@autodesk.com
 90
      127
280
     0
281
     1
  0
CLASS
  1
WIPEOUTVARIABLES
  2
AcDbWipeoutVariables
  3
WipeOut|AutoCAD Express Tool|expresstools@autodesk.com
 90
        0
280
     0
281
     0
  0
CLASS
  1
RTEXT
  2
RText
  3
RText|AutoCAD Express Tool|expresstools@autodesk.com
 90
        0
280
     0
281
     1
  0
CLASS
  1
ARCALIGNEDTEXT
  2
AcDbArcAlignedText
  3
ATEXT|AutoCAD Express Tool|expresstools@autodesk.com
 90
        0
280
     0
281
     1
  0
ENDSEC
  0
SECTION
  2
TABLES
  0
TABLE
  2
VPORT
  5
7
100
AcDbSymbolTable
 70
     1
  0
VPORT
  5
15
100
AcDbSymbolTableRecord
100
AcDbViewportTableRecord
  2
*ACTIVE
 70
     0
 10
0.0
 20
0.0
 11
1.0
 21
1.0
 12
420.5
 22
297.0
 13
0.0
 23
0.0
 14
1.0
 24
1.0
 15
0.0
 25
0.0
 16
0.0
 26
0.0
 36
1.0
 17
0.0
 27
0.0
 37
0.0
 40
594.0
 41
1.722533
 42
50.0
 43
0.0
 44
0.0
 50
0.0
 51
0.0
 71
     0
 72
   100
 73
     1
 74
     1
 75
     0
 76
     0
 77
     0
 78
     0
  0
ENDTAB
  0
TABLE
  2
LTYPE
  5
4
100
AcDbSymbolTable
 70
     9
  0
LTYPE
  5
11
100
AcDbSymbolTableRecord
100
AcDbLinetypeTableRecord
  2
BYBLOCK
 70
    64
  3

 72
    65
 73
     0
 40
0.0
  0
LTYPE
  5
12
100
AcDbSymbolTableRecord
100
AcDbLinetypeTableRecord
  2
BYLAYER
 70
    64
  3

 72
    65
 73
     0
 40
0.0
  0
LTYPE
  5
13
100
AcDbSymbolTableRecord
100
AcDbLinetypeTableRecord
  2
CONTINUOUS
 70
    64
  3
実線
 72
    65
 73
     0
 40
0.0
  0
LTYPE
  5
1D
100
AcDbSymbolTableRecord
100
AcDbLinetypeTableRecord
  2
DASHED
 70
    64
  3
Dashed __ __ __ __ __ __ __ __ __ __ __ __ __ _
 72
    65
 73
     2
 40
19.05
 49
12.7
 74
     0
 49
-6.35
 74
     0
  0
LTYPE
  5
1E
100
AcDbSymbolTableRecord
100
AcDbLinetypeTableRecord
  2
DASHED2
 70
    64
  3
Dashed (.5x) _ _ _ _ _ _ _ _ _ _ _ _ _ _ _ _ _ 
 72
    65
 73
     2
 40
9.525
 49
6.35
 74
     0
 49
-3.175
 74
     0
  0
LTYPE
  5
1F
100
AcDbSymbolTableRecord
100
AcDbLinetypeTableRecord
  2
DASHDOT
 70
    64
  3
Dash dot __ . __ . __ . __ . __ . __ . __ . __
 72
    65
 73
     4
 40
25.4
 49
12.7
 74
     0
 49
-6.35
 74
     0
 49
0.0
 74
     0
 49
-6.35
 74
     0
  0
LTYPE
  5
20
100
AcDbSymbolTableRecord
100
AcDbLinetypeTableRecord
  2
DIVIDE
 70
    64
  3
Divide ____ . . ____ . . ____ . . ____ . . ____
 72
    65
 73
     6
 40
31.75
 49
12.7
 74
     0
 49
-6.35
 74
     0
 49
0.0
 74
     0
 49
-6.35
 74
     0
 49
0.0
 74
     0
 49
-6.35
 74
     0
  0
LTYPE
  5
21
100
AcDbSymbolTableRecord
100
AcDbLinetypeTableRecord
  2
ACAD_ISO06W100
 70
    64
  3
ISO long-dash triple-dot ____ ... ____ ... ____
 72
    65
 73
     8
 40
36.0
 49
24.0
 74
     0
 49
-3.0
 74
     0
 49
0.0
 74
     0
 49
-3.0
 74
     0
 49
0.0
 74
     0
 49
-3.0
 74
     0
 49
0.0
 74
     0
 49
-3.0
 74
     0
  0
LTYPE
  5
22
100
AcDbSymbolTableRecord
100
AcDbLinetypeTableRecord
  2
ACAD_ISO15W100
 70
    64
  3
ISO double-dash triple-dot __ __ . . . __ __ . .
 72
    65
 73
    10
 40
39.0
 49
12.0
 74
     0
 49
-3.0
 74
     0
 49
12.0
 74
     0
 49
-3.0
 74
     0
 49
0.0
 74
     0
 49
-3.0
 74
     0
 49
0.0
 74
     0
 49
-3.0
 74
     0
 49
0.0
 74
     0
 49
-3.0
 74
     0
  0
ENDTAB
  0
TABLE
  2
LAYER
  5
2
100
AcDbSymbolTable
 70
     9
  0
LAYER
  5
14
100
AcDbSymbolTableRecord
100
AcDbLayerTableRecord
  2
0
 70
     0
 62
     7
  6
CONTINUOUS
  0
LAYER
  5
25
100
AcDbSymbolTableRecord
100
AcDbLayerTableRecord
  2
LAY-1
 70
    64
 62
     3
  6
CONTINUOUS
  0
LAYER
  5
26
100
AcDbSymbolTableRecord
100
AcDbLayerTableRecord
  2
LAY-2
 70
    64
 62
     3
  6
CONTINUOUS
  0
LAYER
  5
27
100
AcDbSymbolTableRecord
100
AcDbLayerTableRecord
  2
LAY-3
 70
    64
 62
     3
  6
CONTINUOUS
  0
LAYER
  5
28
100
AcDbSymbolTableRecord
100
AcDbLayerTableRecord
  2
LAY-4
 70
    64
 62
     3
  6
CONTINUOUS
  0
LAYER
  5
29
100
AcDbSymbolTableRecord
100
AcDbLayerTableRecord
  2
LAY-5
 70
    64
 62
     1
  6
DASHDOT
  0
LAYER
  5
2A
100
AcDbSymbolTableRecord
100
AcDbLayerTableRecord
  2
LAY-6
 70
    64
 62
     2
  6
CONTINUOUS
  0
LAYER
  5
2B
100
AcDbSymbolTableRecord
100
AcDbLayerTableRecord
  2
LAY-9
 70
    64
 62
     1
  6
CONTINUOUS
  0
LAYER
  5
2C
100
AcDbSymbolTableRecord
100
AcDbLayerTableRecord
  2
LAY-10
 70
    64
 62
     5
  6
CONTINUOUS
  0
ENDTAB
  0
TABLE
  2
STYLE
  5
3
100
AcDbSymbolTable
 70
     3
  0
STYLE
  5
17
100
AcDbSymbolTableRecord
100
AcDbTextStyleTableRecord
  2
STANDARD
 70
     0
 40
0.0
 41
1.0
 50
0.0
 71
     0
 42
0.0
  3
monotxt
  4
extfont
  0
STYLE
  5
23
100
AcDbSymbolTableRecord
100
AcDbTextStyleTableRecord
  2
EXCADSTD
 70
    64
 40
0.0
 41
1.0
 50
0.0
 71
     0
 42
0.2
  3
monotxt
  4
extfont
  0
STYLE
  5
24
100
AcDbSymbolTableRecord
100
AcDbTextStyleTableRecord
  2
EXCADVERT
 70
    68
 40
0.0
 41
1.0
 50
0.0
 71
     0
 42
0.286885
  3
monotxt
  4
extfont
  0
ENDTAB
  0
TABLE
  2
VIEW
  5
5
100
AcDbSymbolTable
 70
     0
  0
ENDTAB
  0
TABLE
  2
UCS
  5
6
100
AcDbSymbolTable
 70
     0
  0
ENDTAB
  0
TABLE
  2
APPID
  5
8
100
AcDbSymbolTable
 70
     1
  0
APPID
  5
16
100
AcDbSymbolTableRecord
100
AcDbRegAppTableRecord
  2
ACAD
 70
     0
  0
ENDTAB
  0
TABLE
  2
DIMSTYLE
  5
9
100
AcDbSymbolTable
 70
     1
  0
DIMSTYLE
105
18
100
AcDbSymbolTableRecord
100
AcDbDimStyleTableRecord
  2
STANDARD
 70
     0
  3

  4

  5

  6

  7

 40
1.0
 41
0.18
 42
0.0625
 43
0.38
 44
0.18
 45
0.0
 46
0.0
 47
0.0
 48
0.0
 71
     0
 72
     0
 73
     1
 74
     1
 75
     0
 76
     0
 77
     0
 78
     0
140
0.18
141
0.09
142
0.0
143
25.4
144
1.0
145
0.0
146
1.0
147
0.09
170
     0
171
     2
172
     1
173
     0
174
     0
175
     0
176
     0
177
     0
178
     0
270
     2
271
     4
272
     4
273
     2
274
     2
275
     0
280
     0
281
     0
282
     0
283
     1
284
     0
285
     0
286
     0
287
     3
288
     0
340
17
  0
ENDTAB
  0
TABLE
  2
BLOCK_RECORD
  5
1
100
AcDbSymbolTable
 70
    18
  0
BLOCK_RECORD
  5
A
100
AcDbSymbolTableRecord
100
AcDbBlockTableRecord
  2
*MODEL_SPACE
  0
BLOCK_RECORD
  5
B
100
AcDbSymbolTableRecord
100
AcDbBlockTableRecord
  2
*PAPER_SPACE
  0
BLOCK_RECORD
  5
2D
100
AcDbSymbolTableRecord
100
AcDbBlockTableRecord
  2
_EX_NORM
  0
BLOCK_RECORD
  5
2E
100
AcDbSymbolTableRecord
100
AcDbBlockTableRecord
  2
_EX_BNORM
  0
BLOCK_RECORD
  5
2F
100
AcDbSymbolTableRecord
100
AcDbBlockTableRecord
  2
_EX_BCIR
  0
BLOCK_RECORD
  5
30
100
AcDbSymbolTableRecord
100
AcDbBlockTableRecord
  2
_EX_RCIVIL
  0
BLOCK_RECORD
  5
31
100
AcDbSymbolTableRecord
100
AcDbBlockTableRecord
  2
_EX_SLANT
  0
BLOCK_RECORD
  5
32
100
AcDbSymbolTableRecord
100
AcDbBlockTableRecord
  2
_EX_NONE
  0
BLOCK_RECORD
  5
33
100
AcDbSymbolTableRecord
100
AcDbBlockTableRecord
  2
_EX_CIVIL
  0
BLOCK_RECORD
  5
34
100
AcDbSymbolTableRecord
100
AcDbBlockTableRecord
  2
_EX_WCIR
  0
BLOCK_RECORD
  5
35
100
AcDbSymbolTableRecord
100
AcDbBlockTableRecord
  2
_EX_WCIR2
  0
BLOCK_RECORD
  5
36
100
AcDbSymbolTableRecord
100
AcDbBlockTableRecord
  2
_EX_WNORM
  0
BLOCK_RECORD
  5
37
100
AcDbSymbolTableRecord
100
AcDbBlockTableRecord
  2
_EX_NNORM
  0
BLOCK_RECORD
  5
38
100
AcDbSymbolTableRecord
100
AcDbBlockTableRecord
  2
_EX_BBOX
  0
BLOCK_RECORD
  5
39
100
AcDbSymbolTableRecord
100
AcDbBlockTableRecord
  2
_EX_WBOX
  0
BLOCK_RECORD
  5
3A
100
AcDbSymbolTableRecord
100
AcDbBlockTableRecord
  2
_EX_INTEGRAL
  0
BLOCK_RECORD
  5
3B
100
AcDbSymbolTableRecord
100
AcDbBlockTableRecord
  2
SYM-1
  0
BLOCK_RECORD
  5
3C
100
AcDbSymbolTableRecord
100
AcDbBlockTableRecord
  2
SYM-2
  0
BLOCK_RECORD
  5
3D
100
AcDbSymbolTableRecord
100
AcDbBlockTableRecord
  2
SYM-3
  0
BLOCK_RECORD
  5
3E
100
AcDbSymbolTableRecord
100
AcDbBlockTableRecord
  2
SYM-4
  0
ENDTAB
  0
ENDSEC
  0
SECTION
  2
BLOCKS
  0
BLOCK
  5
D
100
AcDbEntity
  8
0
100
AcDbBlockBegin
  2
*MODEL_SPACE
 70
     0
 10
0.0
 20
0.0
 30
0.0
  3
*MODEL_SPACE
  1

  0
ENDBLK
  5
E
100
AcDbEntity
  8
0
100
AcDbBlockEnd
  0
BLOCK
  5
F
100
AcDbEntity
 67
     1
  8
0
100
AcDbBlockBegin
  2
*PAPER_SPACE
 70
     0
 10
0.0
 20
0.0
 30
0.0
  3
*PAPER_SPACE
  1

  0
ENDBLK
  5
10
100
AcDbEntity
 67
     1
  8
0
100
AcDbBlockEnd
  0
BLOCK
  5
3F
100
AcDbEntity
  8
0
100
AcDbBlockBegin
  2
_EX_NORM
 70
     0
 10
0.0
 20
0.0
 30
0.0
  3
_EX_NORM
  1

  0
LINE
  5
40
100
AcDbEntity
  8
0
  6
CONTINUOUS
 62
     0
100
AcDbLine
 10
0.0
 20
0.0
 30
0.0
 11
-1.0
 21
0.0
 31
0.0
  0
LINE
  5
41
100
AcDbEntity
  8
0
  6
CONTINUOUS
 62
     0
100
AcDbLine
 10
0.0
 20
0.0
 30
0.0
 11
-1.0
 21
0.166667
 31
0.0
  0
LINE
  5
42
100
AcDbEntity
  8
0
  6
CONTINUOUS
 62
     0
100
AcDbLine
 10
0.0
 20
0.0
 30
0.0
 11
-1.0
 21
-0.166667
 31
0.0
  0
ENDBLK
  5
43
100
AcDbEntity
  8
0
100
AcDbBlockEnd
  0
BLOCK
  5
44
100
AcDbEntity
  8
0
100
AcDbBlockBegin
  2
_EX_BNORM
 70
     0
 10
0.0
 20
0.0
 30
0.0
  3
_EX_BNORM
  1

  0
LINE
  5
45
100
AcDbEntity
  8
0
  6
CONTINUOUS
 62
     0
100
AcDbLine
 10
0.0
 20
0.0
 30
0.0
 11
-1.0
 21
0.0
 31
0.0
  0
LINE
  5
46
100
AcDbEntity
  8
0
  6
CONTINUOUS
 62
     0
100
AcDbLine
 10
0.0
 20
0.0
 30
0.0
 11
-1.0
 21
0.166667
 31
0.0
  0
LINE
  5
47
100
AcDbEntity
  8
0
  6
CONTINUOUS
 62
     0
100
AcDbLine
 10
0.0
 20
0.0
 30
0.0
 11
-1.0
 21
-0.166667
 31
0.0
  0
LINE
  5
48
100
AcDbEntity
  8
0
  6
CONTINUOUS
 62
     0
100
AcDbLine
 10
0.0
 20
0.0
 30
0.0
 11
-1.0
 21
0.083333
 31
0.0
  0
LINE
  5
49
100
AcDbEntity
  8
0
  6
CONTINUOUS
 62
     0
100
AcDbLine
 10
0.0
 20
0.0
 30
0.0
 11
-1.0
 21
-0.083333
 31
0.0
  0
LINE
  5
4A
100
AcDbEntity
  8
0
  6
CONTINUOUS
 62
     0
100
AcDbLine
 10
-1.0
 20
0.166667
 30
0.0
 11
-1.0
 21
-0.166667
 31
0.0
  0
ENDBLK
  5
4B
100
AcDbEntity
  8
0
100
AcDbBlockEnd
  0
BLOCK
  5
4C
100
AcDbEntity
  8
0
100
AcDbBlockBegin
  2
_EX_BCIR
 70
     0
 10
0.0
 20
0.0
 30
0.0
  3
_EX_BCIR
  1

  0
LINE
  5
4D
100
AcDbEntity
  8
0
  6
CONTINUOUS
 62
     0
100
AcDbLine
 10
0.0
 20
0.0
 30
0.0
 11
-1.0
 21
0.0
 31
0.0
  0
CIRCLE
  5
4E
100
AcDbEntity
  8
0
  6
CONTINUOUS
 62
     0
100
AcDbCircle
 10
0.0
 20
0.0
 30
0.0
 40
0.5
  0
CIRCLE
  5
4F
100
AcDbEntity
  8
0
  6
CONTINUOUS
 62
     0
100
AcDbCircle
 10
0.0
 20
0.0
 30
0.0
 40
0.25
  0
ENDBLK
  5
50
100
AcDbEntity
  8
0
100
AcDbBlockEnd
  0
BLOCK
  5
51
100
AcDbEntity
  8
0
100
AcDbBlockBegin
  2
_EX_RCIVIL
 70
     0
 10
0.0
 20
0.0
 30
0.0
  3
_EX_RCIVIL
  1

  0
LINE
  5
52
100
AcDbEntity
  8
0
  6
CONTINUOUS
 62
     0
100
AcDbLine
 10
0.0
 20
0.0
 30
0.0
 11
-1.0
 21
0.0
 31
0.0
  0
LINE
  5
53
100
AcDbEntity
  8
0
  6
CONTINUOUS
 62
     0
100
AcDbLine
 10
-1.0
 20
-0.25
 30
0.0
 11
0.0
 21
-0.25
 31
0.0
  0
LINE
  5
54
100
AcDbEntity
  8
0
  6
CONTINUOUS
 62
     0
100
AcDbLine
 10
-1.0
 20
-0.125
 30
0.0
 11
0.0
 21
-0.125
 31
0.0
  0
ENDBLK
  5
55
100
AcDbEntity
  8
0
100
AcDbBlockEnd
  0
BLOCK
  5
56
100
AcDbEntity
  8
0
100
AcDbBlockBegin
  2
_EX_SLANT
 70
     0
 10
0.0
 20
0.0
 30
0.0
  3
_EX_SLANT
  1

  0
LINE
  5
57
100
AcDbEntity
  8
0
  6
CONTINUOUS
 62
     0
100
AcDbLine
 10
0.0
 20
0.0
 30
0.0
 11
-1.0
 21
0.0
 31
0.0
  0
LINE
  5
58
100
AcDbEntity
  8
0
  6
CONTINUOUS
 62
     0
100
AcDbLine
 10
0.707107
 20
0.707107
 30
0.0
 11
-0.707107
 21
-0.707107
 31
0.0
  0
ENDBLK
  5
59
100
AcDbEntity
  8
0
100
AcDbBlockEnd
  0
BLOCK
  5
5A
100
AcDbEntity
  8
0
100
AcDbBlockBegin
  2
_EX_NONE
 70
     0
 10
0.0
 20
0.0
 30
0.0
  3
_EX_NONE
  1

  0
LINE
  5
5B
100
AcDbEntity
  8
0
  6
CONTINUOUS
 62
     0
100
AcDbLine
 10
0.0
 20
0.0
 30
0.0
 11
-1.0
 21
0.0
 31
0.0
  0
ENDBLK
  5
5C
100
AcDbEntity
  8
0
100
AcDbBlockEnd
  0
BLOCK
  5
5D
100
AcDbEntity
  8
0
100
AcDbBlockBegin
  2
_EX_CIVIL
 70
     0
 10
0.0
 20
0.0
 30
0.0
  3
_EX_CIVIL
  1

  0
LINE
  5
5E
100
AcDbEntity
  8
0
  6
CONTINUOUS
 62
     0
100
AcDbLine
 10
0.0
 20
0.0
 30
0.0
 11
-1.0
 21
0.0
 31
0.0
  0
LINE
  5
5F
100
AcDbEntity
  8
0
  6
CONTINUOUS
 62
     0
100
AcDbLine
 10
-1.0
 20
0.25
 30
0.0
 11
0.0
 21
0.25
 31
0.0
  0
LINE
  5
60
100
AcDbEntity
  8
0
  6
CONTINUOUS
 62
     0
100
AcDbLine
 10
-1.0
 20
0.125
 30
0.0
 11
0.0
 21
0.125
 31
0.0
  0
ENDBLK
  5
61
100
AcDbEntity
  8
0
100
AcDbBlockEnd
  0
BLOCK
  5
62
100
AcDbEntity
  8
0
100
AcDbBlockBegin
  2
_EX_WCIR
 70
     0
 10
0.0
 20
0.0
 30
0.0
  3
_EX_WCIR
  1

  0
LINE
  5
63
100
AcDbEntity
  8
0
  6
CONTINUOUS
 62
     0
100
AcDbLine
 10
0.0
 20
0.0
 30
0.0
 11
-1.0
 21
0.0
 31
0.0
  0
CIRCLE
  5
64
100
AcDbEntity
  8
0
  6
CONTINUOUS
 62
     0
100
AcDbCircle
 10
0.0
 20
0.0
 30
0.0
 40
0.5
  0
ENDBLK
  5
65
100
AcDbEntity
  8
0
100
AcDbBlockEnd
  0
BLOCK
  5
66
100
AcDbEntity
  8
0
100
AcDbBlockBegin
  2
_EX_WCIR2
 70
     0
 10
0.0
 20
0.0
 30
0.0
  3
_EX_WCIR2
  1

  0
LINE
  5
67
100
AcDbEntity
  8
0
  6
CONTINUOUS
 62
     0
100
AcDbLine
 10
-0.5
 20
0.0
 30
0.0
 11
-1.0
 21
0.0
 31
0.0
  0
CIRCLE
  5
68
100
AcDbEntity
  8
0
  6
CONTINUOUS
 62
     0
100
AcDbCircle
 10
0.0
 20
0.0
 30
0.0
 40
0.5
  0
ENDBLK
  5
69
100
AcDbEntity
  8
0
100
AcDbBlockEnd
  0
BLOCK
  5
6A
100
AcDbEntity
  8
0
100
AcDbBlockBegin
  2
_EX_WNORM
 70
     0
 10
0.0
 20
0.0
 30
0.0
  3
_EX_WNORM
  1

  0
LINE
  5
6B
100
AcDbEntity
  8
0
  6
CONTINUOUS
 62
     0
100
AcDbLine
 10
-1.0
 20
0.0
 30
0.0
 11
-1.0
 21
0.0
 31
0.0
  0
LINE
  5
6C
100
AcDbEntity
  8
0
  6
CONTINUOUS
 62
     0
100
AcDbLine
 10
0.0
 20
0.0
 30
0.0
 11
-1.0
 21
0.166667
 31
0.0
  0
LINE
  5
6D
100
AcDbEntity
  8
0
  6
CONTINUOUS
 62
     0
100
AcDbLine
 10
0.0
 20
0.0
 30
0.0
 11
-1.0
 21
-0.166667
 31
0.0
  0
LINE
  5
6E
100
AcDbEntity
  8
0
  6
CONTINUOUS
 62
     0
100
AcDbLine
 10
-1.0
 20
0.166667
 30
0.0
 11
-1.0
 21
-0.166667
 31
0.0
  0
ENDBLK
  5
6F
100
AcDbEntity
  8
0
100
AcDbBlockEnd
  0
BLOCK
  5
70
100
AcDbEntity
  8
0
100
AcDbBlockBegin
  2
_EX_NNORM
 70
     0
 10
0.0
 20
0.0
 30
0.0
  3
_EX_NNORM
  1

  0
LINE
  5
71
100
AcDbEntity
  8
0
  6
CONTINUOUS
 62
     0
100
AcDbLine
 10
0.0
 20
0.0
 30
0.0
 11
-1.0
 21
0.0
 31
0.0
  0
LINE
  5
72
100
AcDbEntity
  8
0
  6
CONTINUOUS
 62
     0
100
AcDbLine
 10
0.0
 20
0.0
 30
0.0
 11
-1.0
 21
0.166667
 31
0.0
  0
LINE
  5
73
100
AcDbEntity
  8
0
  6
CONTINUOUS
 62
     0
100
AcDbLine
 10
0.0
 20
0.0
 30
0.0
 11
-1.0
 21
-0.166667
 31
0.0
  0
LINE
  5
74
100
AcDbEntity
  8
0
  6
CONTINUOUS
 62
     0
100
AcDbLine
 10
-1.0
 20
0.166667
 30
0.0
 11
-1.0
 21
-0.166667
 31
0.0
  0
ENDBLK
  5
75
100
AcDbEntity
  8
0
100
AcDbBlockEnd
  0
BLOCK
  5
76
100
AcDbEntity
  8
0
100
AcDbBlockBegin
  2
_EX_BBOX
 70
     0
 10
0.0
 20
0.0
 30
0.0
  3
_EX_BBOX
  1

  0
LINE
  5
77
100
AcDbEntity
  8
0
  6
CONTINUOUS
 62
     0
100
AcDbLine
 10
0.0
 20
0.0
 30
0.0
 11
-1.0
 21
0.0
 31
0.0
  0
LINE
  5
78
100
AcDbEntity
  8
0
  6
CONTINUOUS
 62
     0
100
AcDbLine
 10
-0.5
 20
0.5
 30
0.0
 11
0.5
 21
0.5
 31
0.0
  0
LINE
  5
79
100
AcDbEntity
  8
0
  6
CONTINUOUS
 62
     0
100
AcDbLine
 10
0.5
 20
0.5
 30
0.0
 11
0.5
 21
-0.5
 31
0.0
  0
LINE
  5
7A
100
AcDbEntity
  8
0
  6
CONTINUOUS
 62
     0
100
AcDbLine
 10
0.5
 20
-0.5
 30
0.0
 11
-0.5
 21
-0.5
 31
0.0
  0
LINE
  5
7B
100
AcDbEntity
  8
0
  6
CONTINUOUS
 62
     0
100
AcDbLine
 10
-0.5
 20
-0.5
 30
0.0
 11
-0.5
 21
0.5
 31
0.0
  0
LINE
  5
7C
100
AcDbEntity
  8
0
  6
CONTINUOUS
 62
     0
100
AcDbLine
 10
-0.25
 20
0.25
 30
0.0
 11
0.25
 21
0.25
 31
0.0
  0
LINE
  5
7D
100
AcDbEntity
  8
0
  6
CONTINUOUS
 62
     0
100
AcDbLine
 10
0.25
 20
0.25
 30
0.0
 11
0.25
 21
-0.25
 31
0.0
  0
LINE
  5
7E
100
AcDbEntity
  8
0
  6
CONTINUOUS
 62
     0
100
AcDbLine
 10
0.25
 20
-0.25
 30
0.0
 11
-0.25
 21
-0.25
 31
0.0
  0
LINE
  5
7F
100
AcDbEntity
  8
0
  6
CONTINUOUS
 62
     0
100
AcDbLine
 10
-0.25
 20
-0.25
 30
0.0
 11
-0.25
 21
0.25
 31
0.0
  0
ENDBLK
  5
80
100
AcDbEntity
  8
0
100
AcDbBlockEnd
  0
BLOCK
  5
81
100
AcDbEntity
  8
0
100
AcDbBlockBegin
  2
_EX_WBOX
 70
     0
 10
0.0
 20
0.0
 30
0.0
  3
_EX_WBOX
  1

  0
LINE
  5
82
100
AcDbEntity
  8
0
  6
CONTINUOUS
 62
     0
100
AcDbLine
 10
-0.5
 20
0.0
 30
0.0
 11
-1.0
 21
0.0
 31
0.0
  0
LINE
  5
83
100
AcDbEntity
  8
0
  6
CONTINUOUS
 62
     0
100
AcDbLine
 10
-0.5
 20
0.5
 30
0.0
 11
0.5
 21
0.5
 31
0.0
  0
LINE
  5
84
100
AcDbEntity
  8
0
  6
CONTINUOUS
 62
     0
100
AcDbLine
 10
0.5
 20
0.5
 30
0.0
 11
0.5
 21
-0.5
 31
0.0
  0
LINE
  5
85
100
AcDbEntity
  8
0
  6
CONTINUOUS
 62
     0
100
AcDbLine
 10
0.5
 20
-0.5
 30
0.0
 11
-0.5
 21
-0.5
 31
0.0
  0
LINE
  5
86
100
AcDbEntity
  8
0
  6
CONTINUOUS
 62
     0
100
AcDbLine
 10
-0.5
 20
-0.5
 30
0.0
 11
-0.5
 21
0.5
 31
0.0
  0
ENDBLK
  5
87
100
AcDbEntity
  8
0
100
AcDbBlockEnd
  0
BLOCK
  5
88
100
AcDbEntity
  8
0
100
AcDbBlockBegin
  2
_EX_INTEGRAL
 70
     0
 10
0.0
 20
0.0
 30
0.0
  3
_EX_INTEGRAL
  1

  0
LINE
  5
89
100
AcDbEntity
  8
0
  6
CONTINUOUS
 62
     0
100
AcDbLine
 10
0.0
 20
0.0
 30
0.0
 11
-1.0
 21
0.0
 31
0.0
  0
ARC
  5
8A
100
AcDbEntity
  8
0
  6
CONTINUOUS
 62
     0
100
AcDbCircle
 10
0.542115
 20
0.164992
 30
0.0
 40
0.56667
100
AcDbArc
 50
73.07249
 51
196.927513
  0
ARC
  5
8B
100
AcDbEntity
  8
0
  6
CONTINUOUS
 62
     0
100
AcDbCircle
 10
-0.542115
 20
-0.164992
 30
0.0
 40
0.56667
100
AcDbArc
 50
253.072487
 51
16.927513
  0
ENDBLK
  5
8C
100
AcDbEntity
  8
0
100
AcDbBlockEnd
  0
BLOCK
  5
8D
100
AcDbEntity
  8
0
100
AcDbBlockBegin
  2
SYM-1
 70
     0
 10
0.0
 20
0.0
 30
0.0
  3
SYM-1
  1

  0
TEXT
  5
8E
100
AcDbEntity
  8
0
  6
CONTINUOUS
 62
     2
100
AcDbText
 10
-2.828427
 20
-2.828427
 30
0.0
 40
5.656854
  1
１
 41
0.84
  7
EXCADSTD
 72
     5
 11
1.697056
 21
-2.828427
 31
0.0
100
AcDbText
  0
CIRCLE
  5
8F
100
AcDbEntity
  8
0
  6
CONTINUOUS
 62
     1
100
AcDbCircle
 10
0.0
 20
0.0
 30
0.0
 40
4.0
  0
TEXT
  5
90
100
AcDbEntity
  8
0
  6
CONTINUOUS
 62
     2
100
AcDbText
 10
6.6
 20
-3.2
 30
0.0
 40
7.0
  1
トップピボット（上枠側）
 41
0.672
  7
EXCADSTD
 72
     5
 11
73.799999
 21
-3.2
 31
0.0
100
AcDbText
  0
LINE
  5
91
100
AcDbEntity
  8
0
  6
CONTINUOUS
 62
     1
100
AcDbLine
 10
4.0
 20
-3.7
 30
0.0
 11
70.1
 21
-3.7
 31
0.0
  0
ENDBLK
  5
92
100
AcDbEntity
  8
0
100
AcDbBlockEnd
  0
BLOCK
  5
93
100
AcDbEntity
  8
0
100
AcDbBlockBegin
  2
SYM-2
 70
     0
 10
0.0
 20
0.0
 30
0.0
  3
SYM-2
  1

  0
TEXT
  5
94
100
AcDbEntity
  8
0
  6
CONTINUOUS
 62
     2
100
AcDbText
 10
-2.828427
 20
-2.828427
 30
0.0
 40
5.656854
  1
３
 41
0.84
  7
EXCADSTD
 72
     5
 11
1.697056
 21
-2.828427
 31
0.0
100
AcDbText
  0
CIRCLE
  5
95
100
AcDbEntity
  8
0
  6
CONTINUOUS
 62
     1
100
AcDbCircle
 10
0.0
 20
0.0
 30
0.0
 40
4.0
  0
TEXT
  5
96
100
AcDbEntity
  8
0
  6
CONTINUOUS
 62
     2
100
AcDbText
 10
6.6
 20
-3.2
 30
0.0
 40
7.0
  1
ア　ー　ム
 41
0.672
  7
EXCADSTD
 72
     5
 11
34.6
 21
-3.2
 31
0.0
100
AcDbText
  0
LINE
  5
97
100
AcDbEntity
  8
0
  6
CONTINUOUS
 62
     1
100
AcDbLine
 10
4.0
 20
-3.7
 30
0.0
 11
34.9
 21
-3.7
 31
0.0
  0
ENDBLK
  5
98
100
AcDbEntity
  8
0
100
AcDbBlockEnd
  0
BLOCK
  5
99
100
AcDbEntity
  8
0
100
AcDbBlockBegin
  2
SYM-3
 70
     0
 10
0.0
 20
0.0
 30
0.0
  3
SYM-3
  1

  0
TEXT
  5
9A
100
AcDbEntity
  8
0
  6
CONTINUOUS
 62
     2
100
AcDbText
 10
-2.828427
 20
-2.828427
 30
0.0
 40
5.656854
  1
２
 41
0.84
  7
EXCADSTD
 72
     5
 11
1.697056
 21
-2.828427
 31
0.0
100
AcDbText
  0
CIRCLE
  5
9B
100
AcDbEntity
  8
0
  6
CONTINUOUS
 62
     1
100
AcDbCircle
 10
0.0
 20
0.0
 30
0.0
 40
4.0
  0
TEXT
  5
9C
100
AcDbEntity
  8
0
  6
CONTINUOUS
 62
     2
100
AcDbText
 10
6.6
 20
-3.2
 30
0.0
 40
7.0
  1
トップピボット（ドア側）
 41
0.672
  7
EXCADSTD
 72
     5
 11
73.799999
 21
-3.2
 31
0.0
100
AcDbText
  0
LINE
  5
9D
100
AcDbEntity
  8
0
  6
CONTINUOUS
 62
     1
100
AcDbLine
 10
4.0
 20
-3.7
 30
0.0
 11
71.0
 21
-3.7
 31
0.0
  0
ENDBLK
  5
9E
100
AcDbEntity
  8
0
100
AcDbBlockEnd
  0
BLOCK
  5
9F
100
AcDbEntity
  8
0
100
AcDbBlockBegin
  2
SYM-4
 70
     0
 10
0.0
 20
0.0
 30
0.0
  3
SYM-4
  1

  0
TEXT
  5
A0
100
AcDbEntity
  8
0
  6
CONTINUOUS
 62
     2
100
AcDbText
 10
-2.828427
 20
-2.828427
 30
0.0
 40
5.656854
  1
４
 41
0.84
  7
EXCADSTD
 72
     5
 11
1.697056
 21
-2.828427
 31
0.0
100
AcDbText
  0
CIRCLE
  5
A1
100
AcDbEntity
  8
0
  6
CONTINUOUS
 62
     1
100
AcDbCircle
 10
0.0
 20
0.0
 30
0.0
 40
4.0
  0
TEXT
  5
A2
100
AcDbEntity
  8
0
  6
CONTINUOUS
 62
     2
100
AcDbText
 10
6.6
 20
-3.2
 30
0.0
 40
7.0
  1
床面軸座
 41
0.672
  7
EXCADSTD
 72
     5
 11
29.0
 21
-3.2
 31
0.0
100
AcDbText
  0
LINE
  5
A3
100
AcDbEntity
  8
0
  6
CONTINUOUS
 62
     1
100
AcDbLine
 10
4.0
 20
-3.7
 30
0.0
 11
29.3
 21
-3.7
 31
0.0
  0
ENDBLK
  5
A4
100
AcDbEntity
  8
0
100
AcDbBlockEnd
  0
ENDSEC
  0
SECTION
  2
ENTITIES
  0
LINE
  5
A5
100
AcDbEntity
  8
LAY-1
  6
DASHED2
 62
     3
100
AcDbLine
 10
662.854589
 20
396.515201
 30
0.0
 11
657.854589
 21
396.515201
 31
0.0
  0
LINE
  5
A6
100
AcDbEntity
  8
LAY-1
  6
DASHED2
 62
     3
100
AcDbLine
 10
657.854589
 20
396.515201
 30
0.0
 11
655.704589
 21
394.365201
 31
0.0
  0
LINE
  5
A7
100
AcDbEntity
  8
LAY-1
  6
DASHED2
 62
     3
100
AcDbLine
 10
662.854589
 20
396.515201
 30
0.0
 11
665.004589
 21
394.365201
 31
0.0
  0
LINE
  5
A8
100
AcDbEntity
  8
LAY-1
  6
DASHED2
 62
     3
100
AcDbLine
 10
655.704589
 20
394.365201
 30
0.0
 11
665.004589
 21
394.365201
 31
0.0
  0
LINE
  5
A9
100
AcDbEntity
  8
LAY-1
  6
DASHED2
 62
     3
100
AcDbLine
 10
655.704589
 20
394.365201
 30
0.0
 11
655.704589
 21
393.815201
 31
0.0
  0
LINE
  5
AA
100
AcDbEntity
  8
LAY-1
  6
DASHED2
 62
     3
100
AcDbLine
 10
665.004589
 20
394.365201
 30
0.0
 11
665.004589
 21
393.815201
 31
0.0
  0
LINE
  5
AB
100
AcDbEntity
  8
LAY-1
  6
DASHED2
 62
     3
100
AcDbLine
 10
657.854589
 20
408.815201
 30
0.0
 11
657.854589
 21
396.515201
 31
0.0
  0
LINE
  5
AC
100
AcDbEntity
  8
LAY-1
  6
DASHED2
 62
     1
100
AcDbLine
 10
658.354589
 20
408.815201
 30
0.0
 11
658.354589
 21
396.515201
 31
0.0
  0
LINE
  5
AD
100
AcDbEntity
  8
LAY-1
  6
DASHED2
 62
     1
100
AcDbLine
 10
662.354589
 20
408.815201
 30
0.0
 11
662.354589
 21
396.515201
 31
0.0
  0
LINE
  5
AE
100
AcDbEntity
  8
LAY-1
  6
DASHED2
 62
     3
100
AcDbLine
 10
662.854589
 20
408.815201
 30
0.0
 11
662.854589
 21
396.515201
 31
0.0
  0
LINE
  5
AF
100
AcDbEntity
  8
LAY-1
  6
CONTINUOUS
 62
     3
100
AcDbLine
 10
662.854589
 20
414.365201
 30
0.0
 11
657.854589
 21
414.365201
 31
0.0
  0
LINE
  5
B0
100
AcDbEntity
  8
LAY-1
  6
CONTINUOUS
 62
     3
100
AcDbLine
 10
657.854589
 20
414.365201
 30
0.0
 11
657.854589
 21
408.815201
 31
0.0
  0
LINE
  5
B1
100
AcDbEntity
  8
LAY-1
  6
CONTINUOUS
 62
     1
100
AcDbLine
 10
658.354589
 20
414.365201
 30
0.0
 11
658.354589
 21
408.815201
 31
0.0
  0
LINE
  5
B2
100
AcDbEntity
  8
LAY-1
  6
CONTINUOUS
 62
     1
100
AcDbLine
 10
662.354589
 20
414.365201
 30
0.0
 11
662.354589
 21
408.815201
 31
0.0
  0
LINE
  5
B3
100
AcDbEntity
  8
LAY-1
  6
CONTINUOUS
 62
     3
100
AcDbLine
 10
662.854589
 20
414.365201
 30
0.0
 11
662.854589
 21
408.815201
 31
0.0
  0
LINE
  5
B4
100
AcDbEntity
  8
LAY-1
  6
DASHED2
 62
     3
100
AcDbLine
 10
678.854589
 20
396.515201
 30
0.0
 11
673.854589
 21
396.515201
 31
0.0
  0
LINE
  5
B5
100
AcDbEntity
  8
LAY-1
  6
DASHED2
 62
     3
100
AcDbLine
 10
673.854589
 20
396.515201
 30
0.0
 11
671.704589
 21
394.365201
 31
0.0
  0
LINE
  5
B6
100
AcDbEntity
  8
LAY-1
  6
DASHED2
 62
     3
100
AcDbLine
 10
678.854589
 20
396.515201
 30
0.0
 11
681.004589
 21
394.365201
 31
0.0
  0
LINE
  5
B7
100
AcDbEntity
  8
LAY-1
  6
DASHED2
 62
     3
100
AcDbLine
 10
671.704589
 20
394.365201
 30
0.0
 11
681.004589
 21
394.365201
 31
0.0
  0
LINE
  5
B8
100
AcDbEntity
  8
LAY-1
  6
DASHED2
 62
     3
100
AcDbLine
 10
671.704589
 20
394.365201
 30
0.0
 11
671.704589
 21
393.815201
 31
0.0
  0
LINE
  5
B9
100
AcDbEntity
  8
LAY-1
  6
DASHED2
 62
     3
100
AcDbLine
 10
681.004589
 20
394.365201
 30
0.0
 11
681.004589
 21
393.815201
 31
0.0
  0
LINE
  5
BA
100
AcDbEntity
  8
LAY-1
  6
DASHED2
 62
     3
100
AcDbLine
 10
673.854589
 20
408.815201
 30
0.0
 11
673.854589
 21
396.515201
 31
0.0
  0
LINE
  5
BB
100
AcDbEntity
  8
LAY-1
  6
DASHED2
 62
     1
100
AcDbLine
 10
674.354589
 20
408.815201
 30
0.0
 11
674.354589
 21
396.515201
 31
0.0
  0
LINE
  5
BC
100
AcDbEntity
  8
LAY-1
  6
DASHED2
 62
     1
100
AcDbLine
 10
678.354589
 20
408.815201
 30
0.0
 11
678.354589
 21
396.515201
 31
0.0
  0
LINE
  5
BD
100
AcDbEntity
  8
LAY-1
  6
DASHED2
 62
     3
100
AcDbLine
 10
678.854589
 20
408.815201
 30
0.0
 11
678.854589
 21
396.515201
 31
0.0
  0
LINE
  5
BE
100
AcDbEntity
  8
LAY-1
  6
CONTINUOUS
 62
     3
100
AcDbLine
 10
678.854589
 20
414.365201
 30
0.0
 11
673.854589
 21
414.365201
 31
0.0
  0
LINE
  5
BF
100
AcDbEntity
  8
LAY-1
  6
CONTINUOUS
 62
     3
100
AcDbLine
 10
673.854589
 20
414.365201
 30
0.0
 11
673.854589
 21
408.815201
 31
0.0
  0
LINE
  5
C0
100
AcDbEntity
  8
LAY-1
  6
CONTINUOUS
 62
     1
100
AcDbLine
 10
674.354589
 20
414.365201
 30
0.0
 11
674.354589
 21
408.815201
 31
0.0
  0
LINE
  5
C1
100
AcDbEntity
  8
LAY-1
  6
CONTINUOUS
 62
     1
100
AcDbLine
 10
678.354589
 20
414.365201
 30
0.0
 11
678.354589
 21
408.815201
 31
0.0
  0
LINE
  5
C2
100
AcDbEntity
  8
LAY-1
  6
CONTINUOUS
 62
     3
100
AcDbLine
 10
678.854589
 20
414.365201
 30
0.0
 11
678.854589
 21
408.815201
 31
0.0
  0
LINE
  5
C3
100
AcDbEntity
  8
LAY-1
  6
CONTINUOUS
 62
     3
100
AcDbLine
 10
123.503381
 20
382.491089
 30
0.0
 11
123.503381
 21
419.991054
 31
0.0
  0
LINE
  5
C4
100
AcDbEntity
  8
LAY-1
  6
CONTINUOUS
 62
     3
100
AcDbLine
 10
170.503381
 20
422.991058
 30
0.0
 11
126.503381
 21
422.991054
 31
0.0
  0
LINE
  5
C5
100
AcDbEntity
  8
LAY-1
  6
DASHED2
 62
     3
100
AcDbLine
 10
173.503412
 20
382.991028
 30
0.0
 11
123.503389
 21
382.991028
 31
0.0
  0
ARC
  5
C6
100
AcDbEntity
  8
LAY-1
  6
CONTINUOUS
 62
     3
100
AcDbCircle
 10
126.503381
 20
419.991054
 30
0.0
 40
3.0
100
AcDbArc
 50
90.00002
 51
180.0
  0
ARC
  5
C7
100
AcDbEntity
  8
LAY-1
  6
CONTINUOUS
 62
     3
100
AcDbCircle
 10
170.503381
 20
419.991058
 30
0.0
 40
3.0
100
AcDbArc
 50
359.999981
 51
90.00002
  0
LINE
  5
C8
100
AcDbEntity
  8
LAY-1
  6
CONTINUOUS
 62
     3
100
AcDbLine
 10
173.503381
 20
382.991028
 30
0.0
 11
173.503381
 21
419.991058
 31
0.0
  0
CIRCLE
  5
C9
100
AcDbEntity
  8
LAY-1
  6
CONTINUOUS
 62
     1
100
AcDbCircle
 10
133.503381
 20
411.991128
 30
0.0
 40
2.5
  0
CIRCLE
  5
CA
100
AcDbEntity
  8
LAY-1
  6
CONTINUOUS
 62
     3
100
AcDbCircle
 10
133.503381
 20
411.991128
 30
0.0
 40
2.0
  0
CIRCLE
  5
CB
100
AcDbEntity
  8
LAY-1
  6
CONTINUOUS
 62
     1
100
AcDbCircle
 10
133.503381
 20
395.991128
 30
0.0
 40
2.5
  0
CIRCLE
  5
CC
100
AcDbEntity
  8
LAY-1
  6
CONTINUOUS
 62
     3
100
AcDbCircle
 10
133.503381
 20
395.991128
 30
0.0
 40
2.0
  0
CIRCLE
  5
CD
100
AcDbEntity
  8
LAY-1
  6
CONTINUOUS
 62
     1
100
AcDbCircle
 10
163.503381
 20
411.991128
 30
0.0
 40
2.5
  0
CIRCLE
  5
CE
100
AcDbEntity
  8
LAY-1
  6
CONTINUOUS
 62
     3
100
AcDbCircle
 10
163.503381
 20
411.991128
 30
0.0
 40
2.0
  0
CIRCLE
  5
CF
100
AcDbEntity
  8
LAY-1
  6
CONTINUOUS
 62
     1
100
AcDbCircle
 10
163.503381
 20
395.991128
 30
0.0
 40
2.5
  0
CIRCLE
  5
D0
100
AcDbEntity
  8
LAY-1
  6
CONTINUOUS
 62
     3
100
AcDbCircle
 10
163.503381
 20
395.991128
 30
0.0
 40
2.0
  0
CIRCLE
  5
D1
100
AcDbEntity
  8
LAY-1
  6
CONTINUOUS
 62
     3
100
AcDbCircle
 10
119.503377
 20
363.991084
 30
0.0
 40
9.4
  0
CIRCLE
  5
D2
100
AcDbEntity
  8
LAY-1
  6
DASHED2
 62
     3
100
AcDbCircle
 10
119.503377
 20
363.991084
 30
0.0
 40
6.25
  0
LINE
  5
D3
100
AcDbEntity
  8
LAY-1
  6
CONTINUOUS
 62
     3
100
AcDbLine
 10
647.354589
 20
407.815201
 30
0.0
 11
610.354589
 21
407.815201
 31
0.0
  0
LINE
  5
D4
100
AcDbEntity
  8
LAY-1
  6
CONTINUOUS
 62
     3
100
AcDbLine
 10
647.354589
 20
393.815201
 30
0.0
 11
611.354589
 21
393.815201
 31
0.0
  0
LINE
  5
D5
100
AcDbEntity
  8
LAY-1
  6
CONTINUOUS
 62
     3
100
AcDbLine
 10
610.354589
 20
394.815201
 30
0.0
 11
610.354589
 21
407.815201
 31
0.0
  0
ARC
  5
D6
100
AcDbEntity
  8
LAY-1
  6
CONTINUOUS
 62
     3
100
AcDbCircle
 10
611.354589
 20
394.815201
 30
0.0
 40
1.0
100
AcDbArc
 50
180.0
 51
269.999982
  0
LINE
  5
D7
100
AcDbEntity
  8
LAY-1
  6
DASHED2
 62
     3
100
AcDbLine
 10
647.354589
 20
394.415207
 30
0.0
 11
611.354589
 21
394.415207
 31
0.0
  0
ARC
  5
D8
100
AcDbEntity
  8
LAY-1
  6
DASHED2
 62
     3
100
AcDbCircle
 10
611.354589
 20
394.815201
 30
0.0
 40
0.4
100
AcDbArc
 50
180.0
 51
269.999982
  0
LINE
  5
D9
100
AcDbEntity
  8
LAY-1
  6
DASHED2
 62
     3
100
AcDbLine
 10
610.954595
 20
394.815201
 30
0.0
 11
610.954595
 21
407.815201
 31
0.0
  0
LINE
  5
DA
100
AcDbEntity
  8
LAY-1
  6
CONTINUOUS
 62
     3
100
AcDbLine
 10
647.354589
 20
407.815201
 30
0.0
 11
647.354589
 21
393.815201
 31
0.0
  0
LINE
  5
DB
100
AcDbEntity
  8
LAY-1
  6
CONTINUOUS
 62
     3
100
AcDbLine
 10
647.354589
 20
398.815201
 30
0.0
 11
685.854619
 21
398.815201
 31
0.0
  0
LINE
  5
DC
100
AcDbEntity
  8
LAY-1
  6
CONTINUOUS
 62
     3
100
AcDbLine
 10
687.354619
 20
400.315201
 30
0.0
 11
687.354619
 21
406.315201
 31
0.0
  0
ARC
  5
DD
100
AcDbEntity
  8
LAY-1
  6
CONTINUOUS
 62
     3
100
AcDbCircle
 10
685.854619
 20
406.315201
 30
0.0
 40
1.5
100
AcDbArc
 50
359.999981
 51
90.00002
  0
ARC
  5
DE
100
AcDbEntity
  8
LAY-1
  6
CONTINUOUS
 62
     3
100
AcDbCircle
 10
685.854619
 20
400.315201
 30
0.0
 40
1.5
100
AcDbArc
 50
269.999982
 51
0.000021
  0
LINE
  5
DF
100
AcDbEntity
  8
LAY-1
  6
CONTINUOUS
 62
     3
100
AcDbLine
 10
647.354589
 20
407.815201
 30
0.0
 11
685.854619
 21
407.815201
 31
0.0
  0
LINE
  5
E0
100
AcDbEntity
  8
LAY-1
  6
CONTINUOUS
 62
     3
100
AcDbLine
 10
628.354619
 20
411.815201
 30
0.0
 11
633.754619
 21
411.815201
 31
0.0
  0
ARC
  5
E1
100
AcDbEntity
  8
LAY-1
  6
CONTINUOUS
 62
     3
100
AcDbCircle
 10
633.754619
 20
407.815201
 30
0.0
 40
4.0
100
AcDbArc
 50
0.0
 51
90.0
  0
LINE
  5
E2
100
AcDbEntity
  8
LAY-1
  6
CONTINUOUS
 62
     3
100
AcDbLine
 10
628.354619
 20
411.815201
 30
0.0
 11
622.954619
 21
411.815201
 31
0.0
  0
ARC
  5
E3
100
AcDbEntity
  8
LAY-1
  6
CONTINUOUS
 62
     3
100
AcDbCircle
 10
622.954619
 20
407.815201
 30
0.0
 40
4.0
100
AcDbArc
 50
90.0
 51
180.0
  0
LINE
  5
E4
100
AcDbEntity
  8
LAY-1
  6
DASHED2
 62
     3
100
AcDbLine
 10
621.854619
 20
410.615201
 30
0.0
 11
628.354619
 21
410.615201
 31
0.0
  0
LINE
  5
E5
100
AcDbEntity
  8
LAY-1
  6
DASHED2
 62
     3
100
AcDbLine
 10
621.554619
 20
410.315201
 30
0.0
 11
621.554619
 21
407.815201
 31
0.0
  0
ARC
  5
E6
100
AcDbEntity
  8
LAY-1
  6
DASHED2
 62
     3
100
AcDbCircle
 10
621.854619
 20
410.315201
 30
0.0
 40
0.3
100
AcDbArc
 50
90.0
 51
180.0
  0
LINE
  5
E7
100
AcDbEntity
  8
LAY-1
  6
DASHED2
 62
     3
100
AcDbLine
 10
634.854619
 20
410.615201
 30
0.0
 11
628.354619
 21
410.615201
 31
0.0
  0
LINE
  5
E8
100
AcDbEntity
  8
LAY-1
  6
DASHED2
 62
     3
100
AcDbLine
 10
635.154619
 20
410.315201
 30
0.0
 11
635.154619
 21
407.815201
 31
0.0
  0
ARC
  5
E9
100
AcDbEntity
  8
LAY-1
  6
DASHED2
 62
     3
100
AcDbCircle
 10
634.854619
 20
410.315201
 30
0.0
 40
0.3
100
AcDbArc
 50
0.0
 51
90.0
  0
ARC
  5
EA
100
AcDbEntity
  8
LAY-1
  6
CONTINUOUS
 62
     3
100
AcDbCircle
 10
170.503381
 20
377.923095
 30
0.0
 40
3.0
100
AcDbArc
 50
300.000013
 51
359.999981
  0
LINE
  5
EB
100
AcDbEntity
  8
LAY-1
  6
CONTINUOUS
 62
     3
100
AcDbLine
 10
177.503427
 20
377.847473
 30
0.0
 11
177.503427
 21
382.991058
 31
0.0
  0
ARC
  5
EC
100
AcDbEntity
  8
LAY-1
  6
CONTINUOUS
 62
     3
100
AcDbCircle
 10
175.503427
 20
377.847473
 30
0.0
 40
2.0
100
AcDbArc
 50
300.000013
 51
359.999981
  0
LINE
  5
ED
100
AcDbEntity
  8
LAY-1
  6
CONTINUOUS
 62
     3
100
AcDbLine
 10
173.503397
 20
382.991058
 30
0.0
 11
177.503397
 21
382.991058
 31
0.0
  0
ARC
  5
EE
100
AcDbEntity
  8
LAY-1
  6
CONTINUOUS
 62
     3
100
AcDbCircle
 10
175.503427
 20
377.847473
 30
0.0
 40
1.4
100
AcDbArc
 50
300.000013
 51
359.999981
  0
LINE
  5
EF
100
AcDbEntity
  8
LAY-1
  6
CONTINUOUS
 62
     3
100
AcDbLine
 10
176.903436
 20
382.991058
 30
0.0
 11
176.903421
 21
377.847473
 31
0.0
  0
LINE
  5
F0
100
AcDbEntity
  8
LAY-1
  6
CONTINUOUS
 62
     3
100
AcDbLine
 10
173.503381
 20
377.923095
 30
0.0
 11
173.503381
 21
382.991028
 31
0.0
  0
LINE
  5
F1
100
AcDbEntity
  8
LAY-1
  6
CONTINUOUS
 62
     3
100
AcDbLine
 10
128.745309
 20
350.349975
 30
0.0
 11
172.003381
 21
375.325012
 31
0.0
  0
LINE
  5
F2
100
AcDbEntity
  8
LAY-1
  6
CONTINUOUS
 62
     3
100
AcDbLine
 10
128.203386
 20
348.922241
 30
0.0
 11
176.203409
 21
376.635071
 31
0.0
  0
LINE
  5
F3
100
AcDbEntity
  8
LAY-1
  6
CONTINUOUS
 62
     3
100
AcDbLine
 10
127.380281
 20
347.754181
 30
0.0
 11
176.503427
 21
376.115448
 31
0.0
  0
ARC
  5
F4
100
AcDbEntity
  8
LAY-1
  6
CONTINUOUS
 62
     3
100
AcDbCircle
 10
119.503389
 20
363.991058
 30
0.0
 40
17.4
100
AcDbArc
 50
90.00002
 51
300.000053
  0
ARC
  5
F5
100
AcDbEntity
  8
LAY-1
  6
CONTINUOUS
 62
     3
100
AcDbCircle
 10
119.503389
 20
363.991058
 30
0.0
 40
18.0
100
AcDbArc
 50
90.00002
 51
295.868397
  0
ARC
  5
F6
100
AcDbEntity
  8
LAY-1
  6
CONTINUOUS
 62
     3
100
AcDbCircle
 10
119.503381
 20
363.991089
 30
0.0
 40
16.5
100
AcDbArc
 50
90.00002
 51
304.112171
  0
CIRCLE
  5
F7
100
AcDbEntity
  8
LAY-1
  6
DASHED2
 62
     3
100
AcDbCircle
 10
119.503366
 20
363.991089
 30
0.0
 40
11.9
  0
ARC
  5
F8
100
AcDbEntity
  8
LAY-1
  6
CONTINUOUS
 62
     3
100
AcDbCircle
 10
121.503389
 20
382.491089
 30
0.0
 40
2.0
100
AcDbArc
 50
269.999982
 51
0.000021
  0
LINE
  5
F9
100
AcDbEntity
  8
LAY-1
  6
CONTINUOUS
 62
     3
100
AcDbLine
 10
119.503381
 20
380.491089
 30
0.0
 11
121.503389
 21
380.491089
 31
0.0
  0
LINE
  5
FA
100
AcDbEntity
  8
LAY-1
  6
CONTINUOUS
 62
     3
100
AcDbLine
 10
123.439874
 20
381.991058
 30
0.0
 11
119.503389
 21
381.991058
 31
0.0
  0
LINE
  5
FB
100
AcDbEntity
  8
LAY-1
  6
CONTINUOUS
 62
     3
100
AcDbLine
 10
123.173692
 20
381.391052
 30
0.0
 11
119.503389
 21
381.391052
 31
0.0
  0
LINE
  5
FC
100
AcDbEntity
  8
LAY-2
  6
DASHED2
 62
     1
100
AcDbLine
 10
106.628946
 20
207.381134
 30
0.0
 11
114.629675
 21
202.761906
 31
0.0
  0
LINE
  5
FD
100
AcDbEntity
  8
LAY-2
  6
DASHED2
 62
     3
100
AcDbLine
 10
106.952135
 20
207.771881
 30
0.0
 11
115.050464
 21
203.096321
 31
0.0
  0
LINE
  5
FE
100
AcDbEntity
  8
LAY-2
  6
DASHED2
 62
     1
100
AcDbLine
 10
104.128931
 20
203.050995
 30
0.0
 11
112.129674
 21
198.431767
 31
0.0
  0
LINE
  5
FF
100
AcDbEntity
  8
LAY-2
  6
DASHED2
 62
     3
100
AcDbLine
 10
103.952142
 20
202.575714
 30
0.0
 11
112.050459
 21
197.900153
 31
0.0
  0
LINE
  5
100
100
AcDbEntity
  8
LAY-2
  6
CONTINUOUS
 62
     3
100
AcDbLine
 10
170.503412
 20
252.06131
 30
0.0
 11
126.503404
 21
252.061341
 31
0.0
  0
ARC
  5
101
100
AcDbEntity
  8
LAY-2
  6
CONTINUOUS
 62
     3
100
AcDbCircle
 10
126.503404
 20
249.061341
 30
0.0
 40
3.0
100
AcDbArc
 50
90.00002
 51
180.0
  0
ARC
  5
102
100
AcDbEntity
  8
LAY-2
  6
CONTINUOUS
 62
     3
100
AcDbCircle
 10
170.503412
 20
249.06131
 30
0.0
 40
3.0
100
AcDbArc
 50
359.999981
 51
90.00002
  0
LINE
  5
103
100
AcDbEntity
  8
LAY-2
  6
CONTINUOUS
 62
     3
100
AcDbLine
 10
123.503404
 20
215.561341
 30
0.0
 11
123.503404
 21
249.061341
 31
0.0
  0
LINE
  5
104
100
AcDbEntity
  8
LAY-2
  6
DASHED2
 62
     3
100
AcDbLine
 10
173.503427
 20
219.06131
 30
0.0
 11
123.503412
 21
219.06131
 31
0.0
  0
CIRCLE
  5
105
100
AcDbEntity
  8
LAY-2
  6
CONTINUOUS
 62
     3
100
AcDbCircle
 10
133.503404
 20
229.061341
 30
0.0
 40
6.0
  0
CIRCLE
  5
106
100
AcDbEntity
  8
LAY-2
  6
CONTINUOUS
 62
     3
100
AcDbCircle
 10
133.503404
 20
229.061341
 30
0.0
 40
3.25
  0
CIRCLE
  5
107
100
AcDbEntity
  8
LAY-2
  6
CONTINUOUS
 62
     3
100
AcDbCircle
 10
133.503404
 20
245.061341
 30
0.0
 40
6.0
  0
CIRCLE
  5
108
100
AcDbEntity
  8
LAY-2
  6
CONTINUOUS
 62
     3
100
AcDbCircle
 10
133.503404
 20
245.061341
 30
0.0
 40
3.25
  0
CIRCLE
  5
109
100
AcDbEntity
  8
LAY-2
  6
CONTINUOUS
 62
     3
100
AcDbCircle
 10
163.503412
 20
229.061341
 30
0.0
 40
6.0
  0
CIRCLE
  5
10A
100
AcDbEntity
  8
LAY-2
  6
CONTINUOUS
 62
     3
100
AcDbCircle
 10
163.503412
 20
229.061341
 30
0.0
 40
3.25
  0
CIRCLE
  5
10B
100
AcDbEntity
  8
LAY-2
  6
CONTINUOUS
 62
     3
100
AcDbCircle
 10
163.503412
 20
245.061341
 30
0.0
 40
6.0
  0
CIRCLE
  5
10C
100
AcDbEntity
  8
LAY-2
  6
CONTINUOUS
 62
     3
100
AcDbCircle
 10
163.503412
 20
245.061341
 30
0.0
 40
3.25
  0
LINE
  5
10D
100
AcDbEntity
  8
LAY-2
  6
CONTINUOUS
 62
     3
100
AcDbLine
 10
173.5034
 20
219.06131
 30
0.0
 11
173.503412
 21
249.06131
 31
0.0
  0
CIRCLE
  5
10E
100
AcDbEntity
  8
LAY-2
  6
CONTINUOUS
 62
     3
100
AcDbCircle
 10
119.5034
 20
197.06131
 30
0.0
 40
6.25
  0
CIRCLE
  5
10F
100
AcDbEntity
  8
LAY-2
  6
CONTINUOUS
 62
     3
100
AcDbCircle
 10
119.5034
 20
197.06131
 30
0.0
 40
7.5
  0
LINE
  5
110
100
AcDbEntity
  8
LAY-2
  6
CONTINUOUS
 62
     3
100
AcDbLine
 10
650.354589
 20
390.815231
 30
0.0
 11
610.354619
 21
390.815231
 31
0.0
  0
LINE
  5
111
100
AcDbEntity
  8
LAY-2
  6
CONTINUOUS
 62
     3
100
AcDbLine
 10
650.354589
 20
376.815231
 30
0.0
 11
611.354619
 21
376.815231
 31
0.0
  0
LINE
  5
112
100
AcDbEntity
  8
LAY-2
  6
CONTINUOUS
 62
     3
100
AcDbLine
 10
610.354619
 20
377.815231
 30
0.0
 11
610.354619
 21
390.815231
 31
0.0
  0
ARC
  5
113
100
AcDbEntity
  8
LAY-2
  6
CONTINUOUS
 62
     3
100
AcDbCircle
 10
611.354619
 20
377.815231
 30
0.0
 40
1.0
100
AcDbArc
 50
180.0
 51
269.999982
  0
LINE
  5
114
100
AcDbEntity
  8
LAY-2
  6
DASHED2
 62
     3
100
AcDbLine
 10
650.354589
 20
377.415237
 30
0.0
 11
611.354619
 21
377.415237
 31
0.0
  0
ARC
  5
115
100
AcDbEntity
  8
LAY-2
  6
DASHED2
 62
     3
100
AcDbCircle
 10
611.354619
 20
377.815231
 30
0.0
 40
0.4
100
AcDbArc
 50
180.0
 51
269.999982
  0
LINE
  5
116
100
AcDbEntity
  8
LAY-2
  6
DASHED2
 62
     3
100
AcDbLine
 10
610.954595
 20
377.815231
 30
0.0
 11
610.954595
 21
390.815231
 31
0.0
  0
LINE
  5
117
100
AcDbEntity
  8
LAY-2
  6
CONTINUOUS
 62
     3
100
AcDbLine
 10
650.354589
 20
390.815231
 30
0.0
 11
650.354589
 21
376.815231
 31
0.0
  0
LINE
  5
118
100
AcDbEntity
  8
LAY-2
  6
CONTINUOUS
 62
     3
100
AcDbLine
 10
683.354619
 20
383.315231
 30
0.0
 11
683.354619
 21
389.315231
 31
0.0
  0
ARC
  5
119
100
AcDbEntity
  8
LAY-2
  6
CONTINUOUS
 62
     3
100
AcDbCircle
 10
681.854619
 20
389.315231
 30
0.0
 40
1.5
100
AcDbArc
 50
359.999981
 51
90.00002
  0
ARC
  5
11A
100
AcDbEntity
  8
LAY-2
  6
CONTINUOUS
 62
     3
100
AcDbCircle
 10
681.854619
 20
383.315231
 30
0.0
 40
1.5
100
AcDbArc
 50
269.999982
 51
0.000021
  0
LINE
  5
11B
100
AcDbEntity
  8
LAY-2
  6
CONTINUOUS
 62
     3
100
AcDbLine
 10
650.354589
 20
381.815231
 30
0.0
 11
681.854619
 21
381.815231
 31
0.0
  0
LINE
  5
11C
100
AcDbEntity
  8
LAY-2
  6
CONTINUOUS
 62
     3
100
AcDbLine
 10
650.354589
 20
390.815231
 30
0.0
 11
681.854619
 21
390.815231
 31
0.0
  0
LINE
  5
11D
100
AcDbEntity
  8
LAY-2
  6
DASHED2
 62
     3
100
AcDbLine
 10
654.354589
 20
390.815262
 30
0.0
 11
654.354589
 21
390.415268
 31
0.0
  0
LINE
  5
11E
100
AcDbEntity
  8
LAY-2
  6
DASHED2
 62
     3
100
AcDbLine
 10
666.354589
 20
390.815262
 30
0.0
 11
666.354589
 21
390.415268
 31
0.0
  0
LINE
  5
11F
100
AcDbEntity
  8
LAY-2
  6
DASHED2
 62
     3
100
AcDbLine
 10
654.354589
 20
390.415268
 30
0.0
 11
666.354589
 21
390.415268
 31
0.0
  0
LINE
  5
120
100
AcDbEntity
  8
LAY-2
  6
DASHED2
 62
     3
100
AcDbLine
 10
663.604589
 20
387.665268
 30
0.0
 11
666.354589
 21
390.415329
 31
0.0
  0
LINE
  5
121
100
AcDbEntity
  8
LAY-2
  6
DASHED2
 62
     3
100
AcDbLine
 10
670.354589
 20
390.815262
 30
0.0
 11
670.354589
 21
390.415268
 31
0.0
  0
LINE
  5
122
100
AcDbEntity
  8
LAY-2
  6
DASHED2
 62
     3
100
AcDbLine
 10
682.354589
 20
390.815262
 30
0.0
 11
682.354589
 21
390.415268
 31
0.0
  0
LINE
  5
123
100
AcDbEntity
  8
LAY-2
  6
DASHED2
 62
     3
100
AcDbLine
 10
670.354589
 20
390.415268
 30
0.0
 11
682.354589
 21
390.415268
 31
0.0
  0
LINE
  5
124
100
AcDbEntity
  8
LAY-2
  6
CONTINUOUS
 62
     3
100
AcDbLine
 10
657.104589
 20
370.815262
 30
0.0
 11
663.604589
 21
370.815262
 31
0.0
  0
LINE
  5
125
100
AcDbEntity
  8
LAY-2
  6
DASHED2
 62
     3
100
AcDbLine
 10
657.104619
 20
387.665237
 30
0.0
 11
654.354589
 21
390.415268
 31
0.0
  0
LINE
  5
126
100
AcDbEntity
  8
LAY-2
  6
DASHED2
 62
     3
100
AcDbLine
 10
657.104589
 20
387.665237
 30
0.0
 11
663.604589
 21
387.665237
 31
0.0
  0
LINE
  5
127
100
AcDbEntity
  8
LAY-2
  6
CONTINUOUS
 62
     3
100
AcDbLine
 10
673.104589
 20
370.815262
 30
0.0
 11
679.604589
 21
370.815262
 31
0.0
  0
LINE
  5
128
100
AcDbEntity
  8
LAY-2
  6
DASHED2
 62
     3
100
AcDbLine
 10
679.604589
 20
387.665268
 30
0.0
 11
682.354589
 21
390.415329
 31
0.0
  0
LINE
  5
129
100
AcDbEntity
  8
LAY-2
  6
DASHED2
 62
     3
100
AcDbLine
 10
673.104619
 20
387.665237
 30
0.0
 11
670.354589
 21
390.415268
 31
0.0
  0
LINE
  5
12A
100
AcDbEntity
  8
LAY-2
  6
DASHED2
 62
     3
100
AcDbLine
 10
673.104589
 20
387.665237
 30
0.0
 11
679.604589
 21
387.665237
 31
0.0
  0
LINE
  5
12B
100
AcDbEntity
  8
LAY-2
  6
DASHED2
 62
     3
100
AcDbLine
 10
663.604589
 20
387.665268
 30
0.0
 11
663.604589
 21
377.315201
 31
0.0
  0
LINE
  5
12C
100
AcDbEntity
  8
LAY-2
  6
DASHED2
 62
     1
100
AcDbLine
 10
663.104558
 20
387.665237
 30
0.0
 11
663.104558
 21
377.315201
 31
0.0
  0
LINE
  5
12D
100
AcDbEntity
  8
LAY-2
  6
DASHED2
 62
     3
100
AcDbLine
 10
657.104619
 20
387.665237
 30
0.0
 11
657.104619
 21
377.315201
 31
0.0
  0
LINE
  5
12E
100
AcDbEntity
  8
LAY-2
  6
DASHED2
 62
     1
100
AcDbLine
 10
657.604589
 20
387.665237
 30
0.0
 11
657.604589
 21
377.315201
 31
0.0
  0
LINE
  5
12F
100
AcDbEntity
  8
LAY-2
  6
DASHED2
 62
     3
100
AcDbLine
 10
679.604589
 20
387.665268
 30
0.0
 11
679.604589
 21
377.315201
 31
0.0
  0
LINE
  5
130
100
AcDbEntity
  8
LAY-2
  6
DASHED2
 62
     3
100
AcDbLine
 10
673.104619
 20
387.665237
 30
0.0
 11
673.104619
 21
377.315201
 31
0.0
  0
LINE
  5
131
100
AcDbEntity
  8
LAY-2
  6
DASHED2
 62
     1
100
AcDbLine
 10
673.604589
 20
387.665237
 30
0.0
 11
673.604589
 21
377.315201
 31
0.0
  0
LINE
  5
132
100
AcDbEntity
  8
LAY-2
  6
DASHED2
 62
     1
100
AcDbLine
 10
679.104558
 20
387.665237
 30
0.0
 11
679.104558
 21
377.315201
 31
0.0
  0
LINE
  5
133
100
AcDbEntity
  8
LAY-2
  6
CONTINUOUS
 62
     3
100
AcDbLine
 10
663.604607
 20
377.315201
 30
0.0
 11
663.604589
 21
370.815262
 31
0.0
  0
LINE
  5
134
100
AcDbEntity
  8
LAY-2
  6
CONTINUOUS
 62
     1
100
AcDbLine
 10
663.104607
 20
377.315201
 30
0.0
 11
663.104589
 21
370.815262
 31
0.0
  0
LINE
  5
135
100
AcDbEntity
  8
LAY-2
  6
CONTINUOUS
 62
     3
100
AcDbLine
 10
657.104607
 20
377.315201
 30
0.0
 11
657.104589
 21
370.815262
 31
0.0
  0
LINE
  5
136
100
AcDbEntity
  8
LAY-2
  6
CONTINUOUS
 62
     1
100
AcDbLine
 10
657.604607
 20
377.315201
 30
0.0
 11
657.604589
 21
370.815262
 31
0.0
  0
LINE
  5
137
100
AcDbEntity
  8
LAY-2
  6
CONTINUOUS
 62
     3
100
AcDbLine
 10
679.604607
 20
377.315201
 30
0.0
 11
679.604589
 21
370.815262
 31
0.0
  0
LINE
  5
138
100
AcDbEntity
  8
LAY-2
  6
CONTINUOUS
 62
     3
100
AcDbLine
 10
673.104607
 20
377.315201
 30
0.0
 11
673.104589
 21
370.815262
 31
0.0
  0
LINE
  5
139
100
AcDbEntity
  8
LAY-2
  6
CONTINUOUS
 62
     1
100
AcDbLine
 10
673.604607
 20
377.315201
 30
0.0
 11
673.604589
 21
370.815262
 31
0.0
  0
LINE
  5
13A
100
AcDbEntity
  8
LAY-2
  6
CONTINUOUS
 62
     1
100
AcDbLine
 10
679.104607
 20
377.315201
 30
0.0
 11
679.104589
 21
370.815262
 31
0.0
  0
LINE
  5
13B
100
AcDbEntity
  8
LAY-2
  6
CONTINUOUS
 62
     3
100
AcDbLine
 10
634.604589
 20
393.815201
 30
0.0
 11
634.604589
 21
390.815231
 31
0.0
  0
LINE
  5
13C
100
AcDbEntity
  8
LAY-2
  6
CONTINUOUS
 62
     3
100
AcDbLine
 10
622.104589
 20
393.815201
 30
0.0
 11
622.104589
 21
390.815231
 31
0.0
  0
ARC
  5
13D
100
AcDbEntity
  8
LAY-2
  6
CONTINUOUS
 62
     3
100
AcDbCircle
 10
175.503427
 20
210.917694
 30
0.0
 40
2.0
100
AcDbArc
 50
300.000013
 51
359.999981
  0
LINE
  5
13E
100
AcDbEntity
  8
LAY-2
  6
CONTINUOUS
 62
     3
100
AcDbLine
 10
177.503427
 20
210.917694
 30
0.0
 11
177.503427
 21
219.06131
 31
0.0
  0
LINE
  5
13F
100
AcDbEntity
  8
LAY-2
  6
CONTINUOUS
 62
     3
100
AcDbLine
 10
173.503381
 20
219.06131
 30
0.0
 11
177.503397
 21
219.06131
 31
0.0
  0
ARC
  5
140
100
AcDbEntity
  8
LAY-2
  6
CONTINUOUS
 62
     3
100
AcDbCircle
 10
175.503427
 20
210.917694
 30
0.0
 40
1.4
100
AcDbArc
 50
300.000013
 51
359.999981
  0
LINE
  5
141
100
AcDbEntity
  8
LAY-2
  6
CONTINUOUS
 62
     3
100
AcDbLine
 10
176.903406
 20
219.06131
 30
0.0
 11
176.903421
 21
210.917694
 31
0.0
  0
ARC
  5
142
100
AcDbEntity
  8
LAY-2
  6
CONTINUOUS
 62
     3
100
AcDbCircle
 10
170.503397
 20
210.917725
 30
0.0
 40
3.0
100
AcDbArc
 50
300.000013
 51
359.999981
  0
LINE
  5
143
100
AcDbEntity
  8
LAY-2
  6
CONTINUOUS
 62
     3
100
AcDbLine
 10
173.503397
 20
210.917725
 30
0.0
 11
173.5034
 21
219.06131
 31
0.0
  0
LINE
  5
144
100
AcDbEntity
  8
LAY-2
  6
CONTINUOUS
 62
     3
100
AcDbLine
 10
127.380289
 20
180.824433
 30
0.0
 11
176.503427
 21
209.185669
 31
0.0
  0
LINE
  5
145
100
AcDbEntity
  8
LAY-2
  6
CONTINUOUS
 62
     3
100
AcDbLine
 10
128.203386
 20
181.992462
 30
0.0
 11
176.203409
 21
209.705292
 31
0.0
  0
LINE
  5
146
100
AcDbEntity
  8
LAY-2
  6
CONTINUOUS
 62
     3
100
AcDbLine
 10
126.595674
 20
182.103485
 30
0.0
 11
172.003397
 21
208.319641
 31
0.0
  0
ARC
  5
147
100
AcDbEntity
  8
LAY-2
  6
CONTINUOUS
 62
     3
100
AcDbCircle
 10
119.503397
 20
197.06131
 30
0.0
 40
18.0
100
AcDbArc
 50
90.00002
 51
295.868397
  0
ARC
  5
148
100
AcDbEntity
  8
LAY-2
  6
CONTINUOUS
 62
     3
100
AcDbCircle
 10
119.503397
 20
197.06131
 30
0.0
 40
17.4
100
AcDbArc
 50
90.00002
 51
299.999995
  0
ARC
  5
149
100
AcDbEntity
  8
LAY-2
  6
CONTINUOUS
 62
     3
100
AcDbCircle
 10
119.503404
 20
197.061341
 30
0.0
 40
16.5
100
AcDbArc
 50
90.00002
 51
295.352792
  0
LINE
  5
14A
100
AcDbEntity
  8
LAY-2
  6
CONTINUOUS
 62
     3
100
AcDbLine
 10
123.42019
 20
215.06131
 30
0.0
 11
119.503397
 21
215.06131
 31
0.0
  0
LINE
  5
14B
100
AcDbEntity
  8
LAY-2
  6
CONTINUOUS
 62
     3
100
AcDbLine
 10
123.15584
 20
214.461304
 30
0.0
 11
119.503397
 21
214.461304
 31
0.0
  0
LINE
  5
14C
100
AcDbEntity
  8
LAY-2
  6
CONTINUOUS
 62
     3
100
AcDbLine
 10
119.503404
 20
213.561341
 30
0.0
 11
121.503412
 21
213.561341
 31
0.0
  0
ARC
  5
14D
100
AcDbEntity
  8
LAY-2
  6
CONTINUOUS
 62
     3
100
AcDbCircle
 10
121.503412
 20
215.561341
 30
0.0
 40
2.0
100
AcDbArc
 50
269.999982
 51
0.000021
  0
LINE
  5
14E
100
AcDbEntity
  8
LAY-3
  6
CONTINUOUS
 62
     3
100
AcDbLine
 10
333.503397
 20
381.991089
 30
0.0
 11
333.503397
 21
409.991089
 31
0.0
  0
LINE
  5
14F
100
AcDbEntity
  8
LAY-3
  6
CONTINUOUS
 62
     3
100
AcDbLine
 10
383.503381
 20
385.991089
 30
0.0
 11
383.503397
 21
389.991089
 31
0.0
  0
CIRCLE
  5
150
100
AcDbEntity
  8
LAY-3
  6
DASHED2
 62
     3
100
AcDbCircle
 10
329.503397
 20
363.991089
 30
0.0
 40
14.0
  0
LINE
  5
151
100
AcDbEntity
  8
LAY-3
  6
CONTINUOUS
 62
     3
100
AcDbLine
 10
343.503397
 20
419.991089
 30
0.0
 11
420.503397
 21
419.991089
 31
0.0
  0
LINE
  5
152
100
AcDbEntity
  8
LAY-3
  6
CONTINUOUS
 62
     3
100
AcDbLine
 10
423.503397
 20
416.991089
 30
0.0
 11
423.503397
 21
394.991089
 31
0.0
  0
LINE
  5
153
100
AcDbEntity
  8
LAY-3
  6
CONTINUOUS
 62
     3
100
AcDbLine
 10
420.503397
 20
391.991089
 30
0.0
 11
385.503397
 21
391.991089
 31
0.0
  0
ARC
  5
154
100
AcDbEntity
  8
LAY-3
  6
CONTINUOUS
 62
     3
100
AcDbCircle
 10
385.503397
 20
389.991089
 30
0.0
 40
2.0
100
AcDbArc
 50
90.00002
 51
179.999944
  0
ARC
  5
155
100
AcDbEntity
  8
LAY-3
  6
CONTINUOUS
 62
     3
100
AcDbCircle
 10
420.503397
 20
394.991089
 30
0.0
 40
3.0
100
AcDbArc
 50
269.999982
 51
0.000021
  0
ARC
  5
156
100
AcDbEntity
  8
LAY-3
  6
CONTINUOUS
 62
     3
100
AcDbCircle
 10
420.503397
 20
416.991089
 30
0.0
 40
3.0
100
AcDbArc
 50
359.999981
 51
90.00002
  0
ARC
  5
157
100
AcDbEntity
  8
LAY-3
  6
CONTINUOUS
 62
     3
100
AcDbCircle
 10
343.503397
 20
409.991089
 30
0.0
 40
10.0
100
AcDbArc
 50
90.00002
 51
180.000001
  0
CIRCLE
  5
158
100
AcDbEntity
  8
LAY-3
  6
DASHED2
 62
     3
100
AcDbCircle
 10
343.503397
 20
398.991089
 30
0.0
 40
6.0
  0
CIRCLE
  5
159
100
AcDbEntity
  8
LAY-3
  6
CONTINUOUS
 62
     3
100
AcDbCircle
 10
343.503397
 20
398.991089
 30
0.0
 40
3.25
  0
CIRCLE
  5
15A
100
AcDbEntity
  8
LAY-3
  6
DASHED2
 62
     3
100
AcDbCircle
 10
390.503381
 20
398.991089
 30
0.0
 40
6.0
  0
CIRCLE
  5
15B
100
AcDbEntity
  8
LAY-3
  6
CONTINUOUS
 62
     3
100
AcDbCircle
 10
390.503381
 20
398.991089
 30
0.0
 40
3.25
  0
CIRCLE
  5
15C
100
AcDbEntity
  8
LAY-3
  6
DASHED2
 62
     3
100
AcDbCircle
 10
366.503397
 20
410.991089
 30
0.0
 40
6.0
  0
CIRCLE
  5
15D
100
AcDbEntity
  8
LAY-3
  6
CONTINUOUS
 62
     3
100
AcDbCircle
 10
366.503397
 20
410.991089
 30
0.0
 40
3.25
  0
CIRCLE
  5
15E
100
AcDbEntity
  8
LAY-3
  6
DASHED2
 62
     3
100
AcDbCircle
 10
413.503381
 20
410.991089
 30
0.0
 40
6.0
  0
CIRCLE
  5
15F
100
AcDbEntity
  8
LAY-3
  6
CONTINUOUS
 62
     3
100
AcDbCircle
 10
413.503381
 20
410.991089
 30
0.0
 40
3.25
  0
LINE
  5
160
100
AcDbEntity
  8
LAY-3
  6
CONTINUOUS
 62
     3
100
AcDbLine
 10
333.503397
 20
385.991089
 30
0.0
 11
387.503397
 21
385.991089
 31
0.0
  0
CIRCLE
  5
161
100
AcDbEntity
  8
LAY-3
  6
DASHED2
 62
     3
100
AcDbCircle
 10
329.503377
 20
363.991089
 30
0.0
 40
6.0
  0
LINE
  5
162
100
AcDbEntity
  8
LAY-3
  6
CONTINUOUS
 62
     3
100
AcDbLine
 10
610.354619
 20
206.965485
 30
0.0
 11
610.354619
 21
193.965485
 31
0.0
  0
ARC
  5
163
100
AcDbEntity
  8
LAY-3
  6
CONTINUOUS
 62
     3
100
AcDbCircle
 10
611.354619
 20
206.965485
 30
0.0
 40
1.0
100
AcDbArc
 50
90.00002
 51
180.0
  0
ARC
  5
164
100
AcDbEntity
  8
LAY-3
  6
DASHED2
 62
     3
100
AcDbCircle
 10
611.354619
 20
206.965485
 30
0.0
 40
0.4
100
AcDbArc
 50
90.00002
 51
180.0
  0
LINE
  5
165
100
AcDbEntity
  8
LAY-3
  6
DASHED2
 62
     3
100
AcDbLine
 10
610.954626
 20
206.965485
 30
0.0
 11
610.954626
 21
193.965485
 31
0.0
  0
LINE
  5
166
100
AcDbEntity
  8
LAY-3
  6
CONTINUOUS
 62
     3
100
AcDbLine
 10
610.354619
 20
193.965485
 30
0.0
 11
650.354619
 21
193.965485
 31
0.0
  0
LINE
  5
167
100
AcDbEntity
  8
LAY-3
  6
CONTINUOUS
 62
     3
100
AcDbLine
 10
650.354619
 20
207.965485
 30
0.0
 11
611.354619
 21
207.965485
 31
0.0
  0
LINE
  5
168
100
AcDbEntity
  8
LAY-3
  6
DASHED2
 62
     3
100
AcDbLine
 10
650.354619
 20
207.365479
 30
0.0
 11
611.354619
 21
207.365479
 31
0.0
  0
LINE
  5
169
100
AcDbEntity
  8
LAY-3
  6
CONTINUOUS
 62
     3
100
AcDbLine
 10
650.354619
 20
207.965485
 30
0.0
 11
650.354619
 21
193.965485
 31
0.0
  0
LINE
  5
16A
100
AcDbEntity
  8
LAY-3
  6
CONTINUOUS
 62
     3
100
AcDbLine
 10
684.35465
 20
201.465485
 30
0.0
 11
684.35465
 21
195.465485
 31
0.0
  0
ARC
  5
16B
100
AcDbEntity
  8
LAY-3
  6
CONTINUOUS
 62
     3
100
AcDbCircle
 10
682.85465
 20
195.465485
 30
0.0
 40
1.5
100
AcDbArc
 50
269.999982
 51
0.000021
  0
ARC
  5
16C
100
AcDbEntity
  8
LAY-3
  6
CONTINUOUS
 62
     3
100
AcDbCircle
 10
682.85465
 20
201.465485
 30
0.0
 40
1.5
100
AcDbArc
 50
359.999981
 51
90.00002
  0
LINE
  5
16D
100
AcDbEntity
  8
LAY-3
  6
CONTINUOUS
 62
     3
100
AcDbLine
 10
650.354619
 20
202.965485
 30
0.0
 11
682.85465
 21
202.965485
 31
0.0
  0
LINE
  5
16E
100
AcDbEntity
  8
LAY-3
  6
CONTINUOUS
 62
     3
100
AcDbLine
 10
650.354619
 20
193.965485
 30
0.0
 11
682.85465
 21
193.965485
 31
0.0
  0
LINE
  5
16F
100
AcDbEntity
  8
LAY-3
  6
CONTINUOUS
 62
     3
100
AcDbLine
 10
656.354619
 20
201.465485
 30
0.0
 11
656.354619
 21
195.465485
 31
0.0
  0
ARC
  5
170
100
AcDbEntity
  8
LAY-3
  6
CONTINUOUS
 62
     3
100
AcDbCircle
 10
657.854619
 20
201.465485
 30
0.0
 40
1.5
100
AcDbArc
 50
90.00002
 51
180.0
  0
ARC
  5
171
100
AcDbEntity
  8
LAY-3
  6
CONTINUOUS
 62
     3
100
AcDbCircle
 10
657.854619
 20
195.465485
 30
0.0
 40
1.5
100
AcDbArc
 50
180.0
 51
269.999982
  0
LINE
  5
172
100
AcDbEntity
  8
LAY-3
  6
DASHED2
 62
     3
100
AcDbLine
 10
669.35465
 20
193.965485
 30
0.0
 11
669.35465
 21
194.365479
 31
0.0
  0
LINE
  5
173
100
AcDbEntity
  8
LAY-3
  6
DASHED2
 62
     3
100
AcDbLine
 10
657.35465
 20
193.965485
 30
0.0
 11
657.35465
 21
194.365479
 31
0.0
  0
LINE
  5
174
100
AcDbEntity
  8
LAY-3
  6
DASHED2
 62
     3
100
AcDbLine
 10
669.35465
 20
194.365479
 30
0.0
 11
657.35465
 21
194.365479
 31
0.0
  0
LINE
  5
175
100
AcDbEntity
  8
LAY-3
  6
CONTINUOUS
 62
     3
100
AcDbLine
 10
666.60465
 20
213.965485
 30
0.0
 11
660.10465
 21
213.965454
 31
0.0
  0
LINE
  5
176
100
AcDbEntity
  8
LAY-3
  6
DASHED2
 62
     3
100
AcDbLine
 10
660.10465
 20
197.115448
 30
0.0
 11
657.35465
 21
194.365417
 31
0.0
  0
LINE
  5
177
100
AcDbEntity
  8
LAY-3
  6
DASHED2
 62
     3
100
AcDbLine
 10
666.604619
 20
197.115509
 30
0.0
 11
669.35465
 21
194.365479
 31
0.0
  0
LINE
  5
178
100
AcDbEntity
  8
LAY-3
  6
DASHED2
 62
     3
100
AcDbLine
 10
666.60465
 20
197.115509
 30
0.0
 11
660.10465
 21
197.115479
 31
0.0
  0
LINE
  5
179
100
AcDbEntity
  8
LAY-3
  6
DASHED2
 62
     3
100
AcDbLine
 10
681.35465
 20
193.965485
 30
0.0
 11
681.35465
 21
194.365479
 31
0.0
  0
LINE
  5
17A
100
AcDbEntity
  8
LAY-3
  6
DASHED2
 62
     3
100
AcDbLine
 10
669.35465
 20
193.965485
 30
0.0
 11
669.35465
 21
194.365479
 31
0.0
  0
LINE
  5
17B
100
AcDbEntity
  8
LAY-3
  6
DASHED2
 62
     3
100
AcDbLine
 10
681.35465
 20
194.365479
 30
0.0
 11
669.35465
 21
194.365479
 31
0.0
  0
LINE
  5
17C
100
AcDbEntity
  8
LAY-3
  6
CONTINUOUS
 62
     3
100
AcDbLine
 10
678.60465
 20
213.965485
 30
0.0
 11
672.10465
 21
213.965454
 31
0.0
  0
LINE
  5
17D
100
AcDbEntity
  8
LAY-3
  6
DASHED2
 62
     3
100
AcDbLine
 10
672.10465
 20
197.115448
 30
0.0
 11
669.35465
 21
194.365417
 31
0.0
  0
LINE
  5
17E
100
AcDbEntity
  8
LAY-3
  6
DASHED2
 62
     3
100
AcDbLine
 10
678.604619
 20
197.115509
 30
0.0
 11
681.35465
 21
194.365479
 31
0.0
  0
LINE
  5
17F
100
AcDbEntity
  8
LAY-3
  6
DASHED2
 62
     3
100
AcDbLine
 10
678.60465
 20
197.115509
 30
0.0
 11
672.10465
 21
197.115479
 31
0.0
  0
LINE
  5
180
100
AcDbEntity
  8
LAY-3
  6
DASHED2
 62
     3
100
AcDbLine
 10
660.10465
 20
197.115448
 30
0.0
 11
660.10465
 21
209.765485
 31
0.0
  0
LINE
  5
181
100
AcDbEntity
  8
LAY-3
  6
DASHED2
 62
     3
100
AcDbLine
 10
666.604619
 20
197.115509
 30
0.0
 11
666.604619
 21
209.765485
 31
0.0
  0
LINE
  5
182
100
AcDbEntity
  8
LAY-3
  6
DASHED2
 62
     1
100
AcDbLine
 10
666.10465
 20
197.115509
 30
0.0
 11
666.10465
 21
209.765485
 31
0.0
  0
LINE
  5
183
100
AcDbEntity
  8
LAY-3
  6
DASHED2
 62
     1
100
AcDbLine
 10
660.60468
 20
197.115479
 30
0.0
 11
660.60468
 21
209.765485
 31
0.0
  0
LINE
  5
184
100
AcDbEntity
  8
LAY-3
  6
DASHED2
 62
     3
100
AcDbLine
 10
672.10465
 20
197.115448
 30
0.0
 11
672.10465
 21
209.765485
 31
0.0
  0
LINE
  5
185
100
AcDbEntity
  8
LAY-3
  6
DASHED2
 62
     3
100
AcDbLine
 10
678.604619
 20
197.115509
 30
0.0
 11
678.604619
 21
209.765485
 31
0.0
  0
LINE
  5
186
100
AcDbEntity
  8
LAY-3
  6
DASHED2
 62
     1
100
AcDbLine
 10
678.10465
 20
197.115509
 30
0.0
 11
678.10465
 21
209.765485
 31
0.0
  0
LINE
  5
187
100
AcDbEntity
  8
LAY-3
  6
DASHED2
 62
     1
100
AcDbLine
 10
672.60468
 20
197.115479
 30
0.0
 11
672.60468
 21
209.765485
 31
0.0
  0
LINE
  5
188
100
AcDbEntity
  8
LAY-3
  6
CONTINUOUS
 62
     3
100
AcDbLine
 10
660.10465
 20
209.765485
 30
0.0
 11
660.10465
 21
213.965454
 31
0.0
  0
LINE
  5
189
100
AcDbEntity
  8
LAY-3
  6
CONTINUOUS
 62
     3
100
AcDbLine
 10
666.604638
 20
209.765485
 30
0.0
 11
666.60465
 21
213.965485
 31
0.0
  0
LINE
  5
18A
100
AcDbEntity
  8
LAY-3
  6
CONTINUOUS
 62
     1
100
AcDbLine
 10
666.10465
 20
209.765485
 30
0.0
 11
666.10465
 21
213.965485
 31
0.0
  0
LINE
  5
18B
100
AcDbEntity
  8
LAY-3
  6
CONTINUOUS
 62
     1
100
AcDbLine
 10
660.604661
 20
209.765485
 30
0.0
 11
660.60465
 21
213.965454
 31
0.0
  0
LINE
  5
18C
100
AcDbEntity
  8
LAY-3
  6
CONTINUOUS
 62
     3
100
AcDbLine
 10
672.10465
 20
209.765485
 30
0.0
 11
672.10465
 21
213.965454
 31
0.0
  0
LINE
  5
18D
100
AcDbEntity
  8
LAY-3
  6
CONTINUOUS
 62
     3
100
AcDbLine
 10
678.604638
 20
209.765485
 30
0.0
 11
678.60465
 21
213.965485
 31
0.0
  0
LINE
  5
18E
100
AcDbEntity
  8
LAY-3
  6
CONTINUOUS
 62
     1
100
AcDbLine
 10
678.10465
 20
209.765485
 30
0.0
 11
678.10465
 21
213.965485
 31
0.0
  0
LINE
  5
18F
100
AcDbEntity
  8
LAY-3
  6
CONTINUOUS
 62
     1
100
AcDbLine
 10
672.604661
 20
209.765485
 30
0.0
 11
672.60465
 21
213.965454
 31
0.0
  0
LINE
  5
190
100
AcDbEntity
  8
LAY-3
  6
CONTINUOUS
 62
     3
100
AcDbLine
 10
337.380289
 20
347.754211
 30
0.0
 11
386.503427
 21
376.115448
 31
0.0
  0
LINE
  5
191
100
AcDbEntity
  8
LAY-3
  6
DASHED2
 62
     3
100
AcDbLine
 10
336.595667
 20
349.033234
 30
0.0
 11
382.003381
 21
375.24939
 31
0.0
  0
LINE
  5
192
100
AcDbEntity
  8
LAY-3
  6
DASHED2
 62
     3
100
AcDbLine
 10
338.203378
 20
348.922272
 30
0.0
 11
386.203424
 21
376.635071
 31
0.0
  0
ARC
  5
193
100
AcDbEntity
  8
LAY-3
  6
DASHED2
 62
     3
100
AcDbCircle
 10
380.503381
 20
377.847473
 30
0.0
 40
3.0
100
AcDbArc
 50
300.000013
 51
359.999981
  0
ARC
  5
194
100
AcDbEntity
  8
LAY-3
  6
CONTINUOUS
 62
     3
100
AcDbCircle
 10
385.503427
 20
377.847504
 30
0.0
 40
2.0
100
AcDbArc
 50
300.000013
 51
359.999981
  0
LINE
  5
195
100
AcDbEntity
  8
LAY-3
  6
CONTINUOUS
 62
     3
100
AcDbLine
 10
387.503427
 20
377.847504
 30
0.0
 11
387.503427
 21
385.991089
 31
0.0
  0
ARC
  5
196
100
AcDbEntity
  8
LAY-3
  6
DASHED2
 62
     3
100
AcDbCircle
 10
385.503427
 20
377.847504
 30
0.0
 40
1.4
100
AcDbArc
 50
300.000242
 51
359.999981
  0
LINE
  5
197
100
AcDbEntity
  8
LAY-3
  6
DASHED2
 62
     3
100
AcDbLine
 10
386.903421
 20
385.991089
 30
0.0
 11
386.903421
 21
377.847504
 31
0.0
  0
LINE
  5
198
100
AcDbEntity
  8
LAY-3
  6
DASHED2
 62
     3
100
AcDbLine
 10
383.503412
 20
385.991058
 30
0.0
 11
383.503412
 21
377.847473
 31
0.0
  0
ARC
  5
199
100
AcDbEntity
  8
LAY-3
  6
CONTINUOUS
 62
     3
100
AcDbCircle
 10
329.503397
 20
363.991089
 30
0.0
 40
18.0
100
AcDbArc
 50
90.00002
 51
295.868397
  0
ARC
  5
19A
100
AcDbEntity
  8
LAY-3
  6
DASHED2
 62
     3
100
AcDbCircle
 10
329.503397
 20
363.991089
 30
0.0
 40
17.4
100
AcDbArc
 50
90.00002
 51
299.999995
  0
ARC
  5
19B
100
AcDbEntity
  8
LAY-3
  6
DASHED2
 62
     3
100
AcDbCircle
 10
329.503397
 20
363.991089
 30
0.0
 40
16.5
100
AcDbArc
 50
90.00002
 51
295.352792
  0
LINE
  5
19C
100
AcDbEntity
  8
LAY-3
  6
DASHED2
 62
     3
100
AcDbLine
 10
329.503397
 20
380.491089
 30
0.0
 11
331.503404
 21
380.491089
 31
0.0
  0
ARC
  5
19D
100
AcDbEntity
  8
LAY-3
  6
DASHED2
 62
     3
100
AcDbCircle
 10
331.503404
 20
382.491089
 30
0.0
 40
2.0
100
AcDbArc
 50
269.999982
 51
0.000021
  0
LINE
  5
19E
100
AcDbEntity
  8
LAY-3
  6
CONTINUOUS
 62
     3
100
AcDbLine
 10
333.503397
 20
381.991089
 30
0.0
 11
329.503397
 21
381.991089
 31
0.0
  0
LINE
  5
19F
100
AcDbEntity
  8
LAY-3
  6
DASHED2
 62
     3
100
AcDbLine
 10
333.503404
 20
381.391083
 30
0.0
 11
329.503397
 21
381.391083
 31
0.0
  0
LINE
  5
1A0
100
AcDbEntity
  8
LAY-3
  6
DASHED2
 62
     3
100
AcDbLine
 10
333.503404
 20
381.991058
 30
0.0
 11
333.503404
 21
381.391083
 31
0.0
  0
LINE
  5
1A1
100
AcDbEntity
  8
LAY-4
  6
DASHED2
 62
     3
100
AcDbLine
 10
673.854619
 20
185.265455
 30
0.0
 11
678.854619
 21
185.265455
 31
0.0
  0
LINE
  5
1A2
100
AcDbEntity
  8
LAY-4
  6
DASHED2
 62
     3
100
AcDbLine
 10
678.854619
 20
185.265455
 30
0.0
 11
681.004619
 21
187.415455
 31
0.0
  0
LINE
  5
1A3
100
AcDbEntity
  8
LAY-4
  6
DASHED2
 62
     3
100
AcDbLine
 10
673.854619
 20
185.265455
 30
0.0
 11
671.704619
 21
187.415455
 31
0.0
  0
LINE
  5
1A4
100
AcDbEntity
  8
LAY-4
  6
DASHED2
 62
     3
100
AcDbLine
 10
681.004619
 20
187.415455
 30
0.0
 11
671.704619
 21
187.415455
 31
0.0
  0
LINE
  5
1A5
100
AcDbEntity
  8
LAY-4
  6
DASHED2
 62
     3
100
AcDbLine
 10
681.004619
 20
187.415455
 30
0.0
 11
681.004619
 21
187.965455
 31
0.0
  0
LINE
  5
1A6
100
AcDbEntity
  8
LAY-4
  6
DASHED2
 62
     3
100
AcDbLine
 10
671.704619
 20
187.415455
 30
0.0
 11
671.704619
 21
187.965455
 31
0.0
  0
LINE
  5
1A7
100
AcDbEntity
  8
LAY-4
  6
DASHED2
 62
     3
100
AcDbLine
 10
678.854619
 20
172.965455
 30
0.0
 11
678.854619
 21
185.265455
 31
0.0
  0
LINE
  5
1A8
100
AcDbEntity
  8
LAY-4
  6
DASHED2
 62
     1
100
AcDbLine
 10
678.354619
 20
172.965455
 30
0.0
 11
678.354619
 21
185.265455
 31
0.0
  0
LINE
  5
1A9
100
AcDbEntity
  8
LAY-4
  6
DASHED2
 62
     1
100
AcDbLine
 10
674.354619
 20
172.965455
 30
0.0
 11
674.354619
 21
185.265455
 31
0.0
  0
LINE
  5
1AA
100
AcDbEntity
  8
LAY-4
  6
DASHED2
 62
     3
100
AcDbLine
 10
673.854619
 20
172.965455
 30
0.0
 11
673.854619
 21
185.265455
 31
0.0
  0
LINE
  5
1AB
100
AcDbEntity
  8
LAY-4
  6
CONTINUOUS
 62
     3
100
AcDbLine
 10
673.854619
 20
167.415455
 30
0.0
 11
678.854619
 21
167.415455
 31
0.0
  0
LINE
  5
1AC
100
AcDbEntity
  8
LAY-4
  6
CONTINUOUS
 62
     3
100
AcDbLine
 10
678.854619
 20
167.415455
 30
0.0
 11
678.854619
 21
172.965455
 31
0.0
  0
LINE
  5
1AD
100
AcDbEntity
  8
LAY-4
  6
CONTINUOUS
 62
     1
100
AcDbLine
 10
678.354619
 20
167.415455
 30
0.0
 11
678.354619
 21
172.965455
 31
0.0
  0
LINE
  5
1AE
100
AcDbEntity
  8
LAY-4
  6
CONTINUOUS
 62
     1
100
AcDbLine
 10
674.354619
 20
167.415455
 30
0.0
 11
674.354619
 21
172.965455
 31
0.0
  0
LINE
  5
1AF
100
AcDbEntity
  8
LAY-4
  6
CONTINUOUS
 62
     3
100
AcDbLine
 10
673.854619
 20
167.415455
 30
0.0
 11
673.854619
 21
172.965455
 31
0.0
  0
LINE
  5
1B0
100
AcDbEntity
  8
LAY-4
  6
DASHED2
 62
     3
100
AcDbLine
 10
657.854619
 20
185.265455
 30
0.0
 11
662.854619
 21
185.265455
 31
0.0
  0
LINE
  5
1B1
100
AcDbEntity
  8
LAY-4
  6
DASHED2
 62
     3
100
AcDbLine
 10
662.854619
 20
185.265455
 30
0.0
 11
665.004619
 21
187.415455
 31
0.0
  0
LINE
  5
1B2
100
AcDbEntity
  8
LAY-4
  6
DASHED2
 62
     3
100
AcDbLine
 10
657.854619
 20
185.265455
 30
0.0
 11
655.704619
 21
187.415455
 31
0.0
  0
LINE
  5
1B3
100
AcDbEntity
  8
LAY-4
  6
DASHED2
 62
     3
100
AcDbLine
 10
665.004619
 20
187.415455
 30
0.0
 11
655.704619
 21
187.415455
 31
0.0
  0
LINE
  5
1B4
100
AcDbEntity
  8
LAY-4
  6
DASHED2
 62
     3
100
AcDbLine
 10
665.004619
 20
187.415455
 30
0.0
 11
665.004619
 21
187.965455
 31
0.0
  0
LINE
  5
1B5
100
AcDbEntity
  8
LAY-4
  6
DASHED2
 62
     3
100
AcDbLine
 10
655.704619
 20
187.415455
 30
0.0
 11
655.704619
 21
187.965455
 31
0.0
  0
LINE
  5
1B6
100
AcDbEntity
  8
LAY-4
  6
DASHED2
 62
     3
100
AcDbLine
 10
662.854619
 20
172.965455
 30
0.0
 11
662.854619
 21
185.265455
 31
0.0
  0
LINE
  5
1B7
100
AcDbEntity
  8
LAY-4
  6
DASHED2
 62
     1
100
AcDbLine
 10
662.354619
 20
172.965455
 30
0.0
 11
662.354619
 21
185.265455
 31
0.0
  0
LINE
  5
1B8
100
AcDbEntity
  8
LAY-4
  6
DASHED2
 62
     1
100
AcDbLine
 10
658.354619
 20
172.965455
 30
0.0
 11
658.354619
 21
185.265455
 31
0.0
  0
LINE
  5
1B9
100
AcDbEntity
  8
LAY-4
  6
DASHED2
 62
     3
100
AcDbLine
 10
657.854619
 20
172.965455
 30
0.0
 11
657.854619
 21
185.265455
 31
0.0
  0
LINE
  5
1BA
100
AcDbEntity
  8
LAY-4
  6
CONTINUOUS
 62
     3
100
AcDbLine
 10
657.854619
 20
167.415455
 30
0.0
 11
662.854619
 21
167.415455
 31
0.0
  0
LINE
  5
1BB
100
AcDbEntity
  8
LAY-4
  6
CONTINUOUS
 62
     3
100
AcDbLine
 10
662.854619
 20
167.415455
 30
0.0
 11
662.854619
 21
172.965455
 31
0.0
  0
LINE
  5
1BC
100
AcDbEntity
  8
LAY-4
  6
CONTINUOUS
 62
     1
100
AcDbLine
 10
662.354619
 20
167.415455
 30
0.0
 11
662.354619
 21
172.965455
 31
0.0
  0
LINE
  5
1BD
100
AcDbEntity
  8
LAY-4
  6
CONTINUOUS
 62
     1
100
AcDbLine
 10
658.354619
 20
167.415455
 30
0.0
 11
658.354619
 21
172.965455
 31
0.0
  0
LINE
  5
1BE
100
AcDbEntity
  8
LAY-4
  6
CONTINUOUS
 62
     3
100
AcDbLine
 10
657.854619
 20
167.415455
 30
0.0
 11
657.854619
 21
172.965455
 31
0.0
  0
LINE
  5
1BF
100
AcDbEntity
  8
LAY-4
  6
CONTINUOUS
 62
     3
100
AcDbLine
 10
380.503412
 20
256.06131
 30
0.0
 11
336.503397
 21
256.06134
 31
0.0
  0
ARC
  5
1C0
100
AcDbEntity
  8
LAY-4
  6
CONTINUOUS
 62
     3
100
AcDbCircle
 10
336.503397
 20
253.06134
 30
0.0
 40
3.0
100
AcDbArc
 50
90.00002
 51
180.0
  0
ARC
  5
1C1
100
AcDbEntity
  8
LAY-4
  6
CONTINUOUS
 62
     3
100
AcDbCircle
 10
380.503412
 20
253.06131
 30
0.0
 40
3.0
100
AcDbArc
 50
359.999981
 51
90.00002
  0
LINE
  5
1C2
100
AcDbEntity
  8
LAY-4
  6
CONTINUOUS
 62
     3
100
AcDbLine
 10
383.503412
 20
219.06134
 30
0.0
 11
383.503412
 21
253.06131
 31
0.0
  0
LINE
  5
1C3
100
AcDbEntity
  8
LAY-4
  6
CONTINUOUS
 62
     3
100
AcDbLine
 10
333.503397
 20
219.06134
 30
0.0
 11
387.503412
 21
219.06134
 31
0.0
  0
CIRCLE
  5
1C4
100
AcDbEntity
  8
LAY-4
  6
CONTINUOUS
 62
     3
100
AcDbCircle
 10
329.503397
 20
197.06134
 30
0.0
 40
5.0
  0
CIRCLE
  5
1C5
100
AcDbEntity
  8
LAY-4
  6
CONTINUOUS
 62
     3
100
AcDbCircle
 10
329.503397
 20
197.06134
 30
0.0
 40
12.5
  0
LINE
  5
1C6
100
AcDbEntity
  8
LAY-4
  6
CONTINUOUS
 62
     3
100
AcDbLine
 10
333.503397
 20
219.06134
 30
0.0
 11
333.503397
 21
253.06134
 31
0.0
  0
CIRCLE
  5
1C7
100
AcDbEntity
  8
LAY-4
  6
CONTINUOUS
 62
     3
100
AcDbCircle
 10
329.503389
 20
197.06131
 30
0.0
 40
6.0
  0
CIRCLE
  5
1C8
100
AcDbEntity
  8
LAY-4
  6
CONTINUOUS
 62
     1
100
AcDbCircle
 10
343.503393
 20
229.061354
 30
0.0
 40
2.5
  0
CIRCLE
  5
1C9
100
AcDbEntity
  8
LAY-4
  6
CONTINUOUS
 62
     3
100
AcDbCircle
 10
343.503393
 20
229.061354
 30
0.0
 40
2.0
  0
CIRCLE
  5
1CA
100
AcDbEntity
  8
LAY-4
  6
CONTINUOUS
 62
     1
100
AcDbCircle
 10
343.503393
 20
245.061354
 30
0.0
 40
2.5
  0
CIRCLE
  5
1CB
100
AcDbEntity
  8
LAY-4
  6
CONTINUOUS
 62
     3
100
AcDbCircle
 10
343.503393
 20
245.061354
 30
0.0
 40
2.0
  0
CIRCLE
  5
1CC
100
AcDbEntity
  8
LAY-4
  6
CONTINUOUS
 62
     1
100
AcDbCircle
 10
373.503393
 20
229.061354
 30
0.0
 40
2.5
  0
CIRCLE
  5
1CD
100
AcDbEntity
  8
LAY-4
  6
CONTINUOUS
 62
     3
100
AcDbCircle
 10
373.503393
 20
229.061354
 30
0.0
 40
2.0
  0
CIRCLE
  5
1CE
100
AcDbEntity
  8
LAY-4
  6
CONTINUOUS
 62
     1
100
AcDbCircle
 10
373.503393
 20
245.061354
 30
0.0
 40
2.5
  0
CIRCLE
  5
1CF
100
AcDbEntity
  8
LAY-4
  6
CONTINUOUS
 62
     3
100
AcDbCircle
 10
373.503393
 20
245.061354
 30
0.0
 40
2.0
  0
LINE
  5
1D0
100
AcDbEntity
  8
LAY-4
  6
CONTINUOUS
 62
     3
100
AcDbLine
 10
610.354619
 20
184.965546
 30
0.0
 11
610.354619
 21
171.965546
 31
0.0
  0
ARC
  5
1D1
100
AcDbEntity
  8
LAY-4
  6
CONTINUOUS
 62
     3
100
AcDbCircle
 10
611.354619
 20
184.965546
 30
0.0
 40
1.0
100
AcDbArc
 50
90.00002
 51
180.0
  0
ARC
  5
1D2
100
AcDbEntity
  8
LAY-4
  6
DASHED2
 62
     3
100
AcDbCircle
 10
611.354619
 20
184.965546
 30
0.0
 40
0.4
100
AcDbArc
 50
90.00002
 51
180.0
  0
LINE
  5
1D3
100
AcDbEntity
  8
LAY-4
  6
DASHED2
 62
     3
100
AcDbLine
 10
610.954626
 20
184.965546
 30
0.0
 11
610.954626
 21
171.965546
 31
0.0
  0
LINE
  5
1D4
100
AcDbEntity
  8
LAY-4
  6
CONTINUOUS
 62
     3
100
AcDbLine
 10
610.354619
 20
171.965546
 30
0.0
 11
650.354619
 21
171.965546
 31
0.0
  0
LINE
  5
1D5
100
AcDbEntity
  8
LAY-4
  6
CONTINUOUS
 62
     3
100
AcDbLine
 10
650.354619
 20
185.965546
 30
0.0
 11
611.354619
 21
185.965546
 31
0.0
  0
LINE
  5
1D6
100
AcDbEntity
  8
LAY-4
  6
DASHED2
 62
     3
100
AcDbLine
 10
650.354619
 20
185.36554
 30
0.0
 11
611.354619
 21
185.36554
 31
0.0
  0
LINE
  5
1D7
100
AcDbEntity
  8
LAY-4
  6
CONTINUOUS
 62
     3
100
AcDbLine
 10
650.354619
 20
185.965546
 30
0.0
 11
650.354619
 21
171.965546
 31
0.0
  0
LINE
  5
1D8
100
AcDbEntity
  8
LAY-4
  6
CONTINUOUS
 62
     3
100
AcDbLine
 10
650.354619
 20
171.965515
 30
0.0
 11
685.85465
 21
171.965546
 31
0.0
  0
LINE
  5
1D9
100
AcDbEntity
  8
LAY-4
  6
CONTINUOUS
 62
     3
100
AcDbLine
 10
687.35465
 20
173.465546
 30
0.0
 11
687.35465
 21
179.465546
 31
0.0
  0
ARC
  5
1DA
100
AcDbEntity
  8
LAY-4
  6
CONTINUOUS
 62
     3
100
AcDbCircle
 10
685.85465
 20
179.465546
 30
0.0
 40
1.5
100
AcDbArc
 50
359.999981
 51
90.00002
  0
ARC
  5
1DB
100
AcDbEntity
  8
LAY-4
  6
CONTINUOUS
 62
     3
100
AcDbCircle
 10
685.85465
 20
173.465546
 30
0.0
 40
1.5
100
AcDbArc
 50
269.999982
 51
0.000021
  0
LINE
  5
1DC
100
AcDbEntity
  8
LAY-4
  6
CONTINUOUS
 62
     3
100
AcDbLine
 10
650.354619
 20
180.965515
 30
0.0
 11
685.85465
 21
180.965546
 31
0.0
  0
LINE
  5
1DD
100
AcDbEntity
  8
LAY-4
  6
CONTINUOUS
 62
     3
100
AcDbLine
 10
640.854619
 20
193.965485
 30
0.0
 11
640.854619
 21
185.965546
 31
0.0
  0
LINE
  5
1DE
100
AcDbEntity
  8
LAY-4
  6
CONTINUOUS
 62
     3
100
AcDbLine
 10
615.854619
 20
193.965485
 30
0.0
 11
615.854619
 21
185.965546
 31
0.0
  0
LINE
  5
1DF
100
AcDbEntity
  8
LAY-4
  6
CONTINUOUS
 62
     3
100
AcDbLine
 10
387.503442
 20
210.917755
 30
0.0
 11
387.503442
 21
219.06134
 31
0.0
  0
LINE
  5
1E0
100
AcDbEntity
  8
LAY-4
  6
DASHED2
 62
     3
100
AcDbLine
 10
386.903436
 20
219.06134
 30
0.0
 11
386.903436
 21
210.917755
 31
0.0
  0
LINE
  5
1E1
100
AcDbEntity
  8
LAY-4
  6
DASHED2
 62
     3
100
AcDbLine
 10
383.503412
 20
219.06134
 30
0.0
 11
383.503412
 21
210.993378
 31
0.0
  0
ARC
  5
1E2
100
AcDbEntity
  8
LAY-4
  6
DASHED2
 62
     3
100
AcDbCircle
 10
380.503412
 20
210.993378
 30
0.0
 40
3.0
100
AcDbArc
 50
300.000013
 51
359.999981
  0
ARC
  5
1E3
100
AcDbEntity
  8
LAY-4
  6
CONTINUOUS
 62
     3
100
AcDbCircle
 10
385.503442
 20
210.917755
 30
0.0
 40
2.0
100
AcDbArc
 50
300.000013
 51
359.999981
  0
ARC
  5
1E4
100
AcDbEntity
  8
LAY-4
  6
DASHED2
 62
     3
100
AcDbCircle
 10
385.503442
 20
210.917755
 30
0.0
 40
1.4
100
AcDbArc
 50
299.999956
 51
359.999981
  0
LINE
  5
1E5
100
AcDbEntity
  8
LAY-4
  6
CONTINUOUS
 62
     3
100
AcDbLine
 10
337.380296
 20
180.824463
 30
0.0
 11
386.503442
 21
209.185699
 31
0.0
  0
LINE
  5
1E6
100
AcDbEntity
  8
LAY-4
  6
DASHED2
 62
     3
100
AcDbLine
 10
338.203409
 20
181.992493
 30
0.0
 11
386.203439
 21
209.705322
 31
0.0
  0
LINE
  5
1E7
100
AcDbEntity
  8
LAY-4
  6
DASHED2
 62
     3
100
AcDbLine
 10
338.745348
 20
183.420227
 30
0.0
 11
382.003412
 21
208.395294
 31
0.0
  0
ARC
  5
1E8
100
AcDbEntity
  8
LAY-4
  6
CONTINUOUS
 62
     3
100
AcDbCircle
 10
329.503404
 20
197.06134
 30
0.0
 40
18.0
100
AcDbArc
 50
90.00002
 51
295.868397
  0
ARC
  5
1E9
100
AcDbEntity
  8
LAY-4
  6
DASHED2
 62
     3
100
AcDbCircle
 10
329.503404
 20
197.06134
 30
0.0
 40
16.5
100
AcDbArc
 50
90.00002
 51
304.112171
  0
ARC
  5
1EA
100
AcDbEntity
  8
LAY-4
  6
DASHED2
 62
     3
100
AcDbCircle
 10
329.503404
 20
197.06134
 30
0.0
 40
17.4
100
AcDbArc
 50
90.00002
 51
300.000053
  0
LINE
  5
1EB
100
AcDbEntity
  8
LAY-4
  6
DASHED2
 62
     3
100
AcDbLine
 10
329.503404
 20
213.56134
 30
0.0
 11
331.503404
 21
213.56134
 31
0.0
  0
ARC
  5
1EC
100
AcDbEntity
  8
LAY-4
  6
DASHED2
 62
     3
100
AcDbCircle
 10
331.503397
 20
215.56134
 30
0.0
 40
2.0
100
AcDbArc
 50
269.999982
 51
0.000021
  0
LINE
  5
1ED
100
AcDbEntity
  8
LAY-4
  6
CONTINUOUS
 62
     3
100
AcDbLine
 10
333.43989
 20
215.06134
 30
0.0
 11
329.503397
 21
215.06134
 31
0.0
  0
LINE
  5
1EE
100
AcDbEntity
  8
LAY-4
  6
DASHED2
 62
     3
100
AcDbLine
 10
333.17373
 20
214.461334
 30
0.0
 11
329.503404
 21
214.461334
 31
0.0
  0
LINE
  5
1EF
100
AcDbEntity
  8
LAY-4
  6
CONTINUOUS
 62
     3
100
AcDbLine
 10
333.503397
 20
215.56134
 30
0.0
 11
333.503397
 21
219.06134
 31
0.0
  0
LINE
  5
1F0
100
AcDbEntity
  8
LAY-5
  6
DASHDOT
 62
     1
100
AcDbLine
 10
119.503397
 20
217.419495
 30
0.0
 11
119.503404
 21
175.061341
 31
0.0
  0
LINE
  5
1F1
100
AcDbEntity
  8
LAY-5
  6
DASHDOT
 62
     1
100
AcDbLine
 10
133.503404
 20
253.383972
 30
0.0
 11
133.503404
 21
221.061341
 31
0.0
  0
LINE
  5
1F2
100
AcDbEntity
  8
LAY-5
  6
DASHDOT
 62
     1
100
AcDbLine
 10
163.503412
 20
253.383972
 30
0.0
 11
163.503412
 21
221.061341
 31
0.0
  0
LINE
  5
1F3
100
AcDbEntity
  8
LAY-5
  6
DASHDOT
 62
     1
100
AcDbLine
 10
171.6
 20
229.061341
 30
0.0
 11
154.894922
 21
229.061341
 31
0.0
  0
LINE
  5
1F4
100
AcDbEntity
  8
LAY-5
  6
DASHDOT
 62
     1
100
AcDbLine
 10
142.482156
 20
229.061341
 30
0.0
 11
125.581705
 21
229.061341
 31
0.0
  0
LINE
  5
1F5
100
AcDbEntity
  8
LAY-5
  6
DASHDOT
 62
     1
100
AcDbLine
 10
171.6
 20
245.061341
 30
0.0
 11
154.894922
 21
245.061341
 31
0.0
  0
LINE
  5
1F6
100
AcDbEntity
  8
LAY-5
  6
DASHDOT
 62
     1
100
AcDbLine
 10
142.482156
 20
245.061341
 30
0.0
 11
125.581705
 21
245.061341
 31
0.0
  0
LINE
  5
1F7
100
AcDbEntity
  8
LAY-5
  6
DASHDOT
 62
     1
100
AcDbLine
 10
114.858858
 20
199.742829
 30
0.0
 11
101.356241
 21
207.538575
 31
0.0
  0
LINE
  5
1F8
100
AcDbEntity
  8
LAY-5
  6
DASHDOT
 62
     1
100
AcDbLine
 10
128.503381
 20
411.991028
 30
0.0
 11
138.503381
 21
411.991028
 31
0.0
  0
LINE
  5
1F9
100
AcDbEntity
  8
LAY-5
  6
DASHDOT
 62
     1
100
AcDbLine
 10
133.503381
 20
416.991028
 30
0.0
 11
133.503381
 21
406.991028
 31
0.0
  0
LINE
  5
1FA
100
AcDbEntity
  8
LAY-5
  6
DASHDOT
 62
     1
100
AcDbLine
 10
133.503381
 20
400.991028
 30
0.0
 11
133.503381
 21
390.991028
 31
0.0
  0
LINE
  5
1FB
100
AcDbEntity
  8
LAY-5
  6
DASHDOT
 62
     1
100
AcDbLine
 10
128.503381
 20
395.991028
 30
0.0
 11
138.503381
 21
395.991028
 31
0.0
  0
LINE
  5
1FC
100
AcDbEntity
  8
LAY-5
  6
DASHDOT
 62
     1
100
AcDbLine
 10
163.503381
 20
416.991028
 30
0.0
 11
163.503381
 21
406.991028
 31
0.0
  0
LINE
  5
1FD
100
AcDbEntity
  8
LAY-5
  6
DASHDOT
 62
     1
100
AcDbLine
 10
158.503381
 20
411.991028
 30
0.0
 11
168.503381
 21
411.991028
 31
0.0
  0
LINE
  5
1FE
100
AcDbEntity
  8
LAY-5
  6
DASHDOT
 62
     1
100
AcDbLine
 10
158.503381
 20
395.991028
 30
0.0
 11
168.503381
 21
395.991028
 31
0.0
  0
LINE
  5
1FF
100
AcDbEntity
  8
LAY-5
  6
DASHDOT
 62
     1
100
AcDbLine
 10
163.503381
 20
400.991028
 30
0.0
 11
163.503381
 21
390.991028
 31
0.0
  0
LINE
  5
200
100
AcDbEntity
  8
LAY-5
  6
DASHDOT
 62
     1
100
AcDbLine
 10
329.503374
 20
384.048096
 30
0.0
 11
329.503381
 21
341.991119
 31
0.0
  0
LINE
  5
201
100
AcDbEntity
  8
LAY-5
  6
DASHDOT
 62
     1
100
AcDbLine
 10
343.503397
 20
406.4
 30
0.0
 11
343.503397
 21
390.991089
 31
0.0
  0
LINE
  5
202
100
AcDbEntity
  8
LAY-5
  6
DASHDOT
 62
     1
100
AcDbLine
 10
335.503397
 20
398.991089
 30
0.0
 11
351.718301
 21
398.991089
 31
0.0
  0
LINE
  5
203
100
AcDbEntity
  8
LAY-5
  6
DASHDOT
 62
     1
100
AcDbLine
 10
390.503397
 20
406.4
 30
0.0
 11
390.503397
 21
390.991089
 31
0.0
  0
LINE
  5
204
100
AcDbEntity
  8
LAY-5
  6
DASHDOT
 62
     1
100
AcDbLine
 10
397.3
 20
398.991089
 30
0.0
 11
382.503397
 21
398.991089
 31
0.0
  0
LINE
  5
205
100
AcDbEntity
  8
LAY-5
  6
DASHDOT
 62
     1
100
AcDbLine
 10
366.503412
 20
418.4
 30
0.0
 11
366.503412
 21
402.991089
 31
0.0
  0
LINE
  5
206
100
AcDbEntity
  8
LAY-5
  6
DASHDOT
 62
     1
100
AcDbLine
 10
358.50342
 20
410.991089
 30
0.0
 11
374.718317
 21
410.991089
 31
0.0
  0
LINE
  5
207
100
AcDbEntity
  8
LAY-5
  6
DASHDOT
 62
     1
100
AcDbLine
 10
413.503397
 20
418.4
 30
0.0
 11
413.503397
 21
402.991089
 31
0.0
  0
LINE
  5
208
100
AcDbEntity
  8
LAY-5
  6
DASHDOT
 62
     1
100
AcDbLine
 10
421.1
 20
410.991089
 30
0.0
 11
405.503397
 21
410.991089
 31
0.0
  0
LINE
  5
209
100
AcDbEntity
  8
LAY-5
  6
DASHDOT
 62
     1
100
AcDbLine
 10
338.503393
 20
245.061354
 30
0.0
 11
348.503393
 21
245.061354
 31
0.0
  0
LINE
  5
20A
100
AcDbEntity
  8
LAY-5
  6
DASHDOT
 62
     1
100
AcDbLine
 10
343.503393
 20
250.061354
 30
0.0
 11
343.503393
 21
240.061354
 31
0.0
  0
LINE
  5
20B
100
AcDbEntity
  8
LAY-5
  6
DASHDOT
 62
     1
100
AcDbLine
 10
338.503393
 20
229.061354
 30
0.0
 11
348.503393
 21
229.061354
 31
0.0
  0
LINE
  5
20C
100
AcDbEntity
  8
LAY-5
  6
DASHDOT
 62
     1
100
AcDbLine
 10
343.503393
 20
234.061354
 30
0.0
 11
343.503393
 21
224.061354
 31
0.0
  0
LINE
  5
20D
100
AcDbEntity
  8
LAY-5
  6
DASHDOT
 62
     1
100
AcDbLine
 10
368.503393
 20
229.061354
 30
0.0
 11
378.503393
 21
229.061354
 31
0.0
  0
LINE
  5
20E
100
AcDbEntity
  8
LAY-5
  6
DASHDOT
 62
     1
100
AcDbLine
 10
373.503393
 20
234.061354
 30
0.0
 11
373.503393
 21
224.061354
 31
0.0
  0
LINE
  5
20F
100
AcDbEntity
  8
LAY-5
  6
DASHDOT
 62
     1
100
AcDbLine
 10
368.503393
 20
245.061354
 30
0.0
 11
378.503393
 21
245.061354
 31
0.0
  0
LINE
  5
210
100
AcDbEntity
  8
LAY-5
  6
DASHDOT
 62
     1
100
AcDbLine
 10
373.503393
 20
250.061354
 30
0.0
 11
373.503393
 21
240.061354
 31
0.0
  0
LINE
  5
211
100
AcDbEntity
  8
LAY-5
  6
DASHDOT
 62
     1
100
AcDbLine
 10
628.354619
 20
373.866226
 30
0.0
 11
628.354619
 21
410.750595
 31
0.0
  0
LINE
  5
212
100
AcDbEntity
  8
LAY-5
  6
DASHDOT
 62
     1
100
AcDbLine
 10
660.354589
 20
392.378952
 30
0.0
 11
660.354589
 21
369.041916
 31
0.0
  0
LINE
  5
213
100
AcDbEntity
  8
LAY-5
  6
DASHDOT
 62
     1
100
AcDbLine
 10
676.354589
 20
392.378952
 30
0.0
 11
676.354589
 21
369.041916
 31
0.0
  0
LINE
  5
214
100
AcDbEntity
  8
LAY-5
  6
DASHDOT
 62
     1
100
AcDbLine
 10
663.35465
 20
217.74469
 30
0.0
 11
663.35465
 21
190.132721
 31
0.0
  0
LINE
  5
215
100
AcDbEntity
  8
LAY-5
  6
DASHDOT
 62
     1
100
AcDbLine
 10
675.35465
 20
217.74469
 30
0.0
 11
675.35465
 21
190.132721
 31
0.0
  0
LINE
  5
216
100
AcDbEntity
  8
LAY-5
  6
DASHDOT
 62
     1
100
AcDbLine
 10
628.35465
 20
168.453857
 30
0.0
 11
628.35465
 21
211.056885
 31
0.0
  0
LINE
  5
217
100
AcDbEntity
  8
LAY-5
  6
DASHDOT
 62
     1
100
AcDbLine
 10
660.354589
 20
416.1
 30
0.0
 11
660.354589
 21
393.2
 31
0.0
  0
LINE
  5
218
100
AcDbEntity
  8
LAY-5
  6
DASHDOT
 62
     1
100
AcDbLine
 10
676.354589
 20
416.1
 30
0.0
 11
676.354589
 21
393.2
 31
0.0
  0
LINE
  5
219
100
AcDbEntity
  8
LAY-5
  6
DASHDOT
 62
     1
100
AcDbLine
 10
660.354619
 20
189.6
 30
0.0
 11
660.354619
 21
165.5
 31
0.0
  0
LINE
  5
21A
100
AcDbEntity
  8
LAY-5
  6
DASHDOT
 62
     1
100
AcDbLine
 10
676.354619
 20
189.7
 30
0.0
 11
676.354619
 21
165.5
 31
0.0
  0
LINE
  5
21B
100
AcDbEntity
  8
LAY-5
  6
DASHDOT
 62
     1
100
AcDbLine
 10
173.415437
 20
363.99109
 30
0.0
 11
97.749635
 21
363.991081
 31
0.0
  0
LINE
  5
21C
100
AcDbEntity
  8
LAY-5
  6
DASHDOT
 62
     1
100
AcDbLine
 10
119.503372
 20
395.1
 30
0.0
 11
119.503381
 21
341.991119
 31
0.0
  0
LINE
  5
21D
100
AcDbEntity
  8
LAY-5
  6
DASHDOT
 62
     1
100
AcDbLine
 10
173.915419
 20
197.06131
 30
0.0
 11
97.749658
 21
197.06131
 31
0.0
  0
LINE
  5
21E
100
AcDbEntity
  8
LAY-5
  6
DASHDOT
 62
     1
100
AcDbLine
 10
383.415419
 20
363.991089
 30
0.0
 11
307.749628
 21
363.991089
 31
0.0
  0
LINE
  5
21F
100
AcDbEntity
  8
LAY-5
  6
DASHDOT
 62
     1
100
AcDbLine
 10
329.503397
 20
176.616028
 30
0.0
 11
329.503375
 21
237.499999
 31
0.0
  0
LINE
  5
220
100
AcDbEntity
  8
LAY-5
  6
DASHDOT
 62
     1
100
AcDbLine
 10
383.415378
 20
197.06131
 30
0.0
 11
307.749651
 21
197.06131
 31
0.0
  0
TEXT
  5
221
100
AcDbEntity
  8
LAY-6
  6
CONTINUOUS
 62
     2
100
AcDbText
 10
92.763008
 20
348.824071
 30
0.0
 40
5.0
  1
Ｒ
 50
30.0
 41
0.672
  7
EXCADSTD
 72
     5
 11
95.534289
 21
350.424071
 31
0.0
100
AcDbText
  0
TEXT
  5
222
100
AcDbEntity
  8
LAY-6
  6
CONTINUOUS
 62
     2
100
AcDbText
 10
96.22711
 20
350.824071
 30
0.0
 40
5.0
  1
１８
 50
30.0
 41
0.672
  7
EXCADSTD
 72
     5
 11
102.577501
 21
354.490471
 31
0.0
100
AcDbText
  0
LINE
  5
223
100
AcDbEntity
  8
LAY-6
  6
CONTINUOUS
 62
     1
100
AcDbLine
 10
103.914932
 20
354.991058
 30
0.0
 11
119.503389
 21
363.991058
 31
0.0
  0
LINE
  5
224
100
AcDbEntity
  8
LAY-6
  6
CONTINUOUS
 62
     1
100
AcDbLine
 10
106.263008
 20
356.924071
 30
0.0
 11
103.914932
 21
354.991058
 31
0.0
  0
LINE
  5
225
100
AcDbEntity
  8
LAY-6
  6
CONTINUOUS
 62
     1
100
AcDbLine
 10
103.914932
 20
354.991058
 30
0.0
 11
106.763008
 21
356.058045
 31
0.0
  0
TEXT
  5
226
100
AcDbEntity
  8
LAY-6
  6
CONTINUOUS
 62
     2
100
AcDbText
 10
92.763031
 20
181.894297
 30
0.0
 40
5.0
  1
Ｒ
 50
30.0
 41
0.672
  7
EXCADSTD
 72
     5
 11
95.534312
 21
183.494297
 31
0.0
100
AcDbText
  0
TEXT
  5
227
100
AcDbEntity
  8
LAY-6
  6
CONTINUOUS
 62
     2
100
AcDbText
 10
96.227133
 20
183.894297
 30
0.0
 40
5.0
  1
１８
 50
30.0
 41
0.672
  7
EXCADSTD
 72
     5
 11
102.577524
 21
187.560697
 31
0.0
100
AcDbText
  0
LINE
  5
228
100
AcDbEntity
  8
LAY-6
  6
CONTINUOUS
 62
     1
100
AcDbLine
 10
103.914955
 20
188.061284
 30
0.0
 11
119.503412
 21
197.061284
 31
0.0
  0
LINE
  5
229
100
AcDbEntity
  8
LAY-6
  6
CONTINUOUS
 62
     1
100
AcDbLine
 10
106.263031
 20
189.994297
 30
0.0
 11
103.914955
 21
188.061284
 31
0.0
  0
LINE
  5
22A
100
AcDbEntity
  8
LAY-6
  6
CONTINUOUS
 62
     1
100
AcDbLine
 10
103.914955
 20
188.061284
 30
0.0
 11
106.763031
 21
189.128272
 31
0.0
  0
TEXT
  5
22B
100
AcDbEntity
  8
LAY-6
  6
CONTINUOUS
 62
     2
100
AcDbText
 10
302.76302
 20
181.894297
 30
0.0
 40
5.0
  1
Ｒ
 50
30.0
 41
0.672
  7
EXCADSTD
 72
     5
 11
305.534301
 21
183.494297
 31
0.0
100
AcDbText
  0
TEXT
  5
22C
100
AcDbEntity
  8
LAY-6
  6
CONTINUOUS
 62
     2
100
AcDbText
 10
306.227121
 20
183.894297
 30
0.0
 40
5.0
  1
１８
 50
30.0
 41
0.672
  7
EXCADSTD
 72
     5
 11
312.577512
 21
187.560697
 31
0.0
100
AcDbText
  0
LINE
  5
22D
100
AcDbEntity
  8
LAY-6
  6
CONTINUOUS
 62
     1
100
AcDbLine
 10
313.914944
 20
188.061284
 30
0.0
 11
329.503401
 21
197.061284
 31
0.0
  0
LINE
  5
22E
100
AcDbEntity
  8
LAY-6
  6
CONTINUOUS
 62
     1
100
AcDbLine
 10
316.26302
 20
189.994297
 30
0.0
 11
313.914944
 21
188.061284
 31
0.0
  0
LINE
  5
22F
100
AcDbEntity
  8
LAY-6
  6
CONTINUOUS
 62
     1
100
AcDbLine
 10
313.914944
 20
188.061284
 30
0.0
 11
316.76302
 21
189.128272
 31
0.0
  0
TEXT
  5
230
100
AcDbEntity
  8
LAY-6
  6
CONTINUOUS
 62
     2
100
AcDbText
 10
302.763008
 20
348.824076
 30
0.0
 40
5.0
  1
Ｒ
 50
30.0
 41
0.672
  7
EXCADSTD
 72
     5
 11
305.534289
 21
350.424076
 31
0.0
100
AcDbText
  0
TEXT
  5
231
100
AcDbEntity
  8
LAY-6
  6
CONTINUOUS
 62
     2
100
AcDbText
 10
306.22711
 20
350.824076
 30
0.0
 40
5.0
  1
１８
 50
30.0
 41
0.672
  7
EXCADSTD
 72
     5
 11
312.577501
 21
354.490476
 31
0.0
100
AcDbText
  0
LINE
  5
232
100
AcDbEntity
  8
LAY-6
  6
CONTINUOUS
 62
     1
100
AcDbLine
 10
313.914932
 20
354.991063
 30
0.0
 11
329.503389
 21
363.991063
 31
0.0
  0
LINE
  5
233
100
AcDbEntity
  8
LAY-6
  6
CONTINUOUS
 62
     1
100
AcDbLine
 10
316.263008
 20
356.924076
 30
0.0
 11
313.914932
 21
354.991063
 31
0.0
  0
LINE
  5
234
100
AcDbEntity
  8
LAY-6
  6
CONTINUOUS
 62
     1
100
AcDbLine
 10
313.914932
 20
354.991063
 30
0.0
 11
316.763008
 21
356.058051
 31
0.0
  0
TEXT
  5
235
100
AcDbEntity
  8
LAY-6
  6
CONTINUOUS
 62
     2
100
AcDbText
 10
170.545078
 20
373.19787
 30
0.0
 40
5.0
  1
３０
 50
285.000006
 41
0.672
  7
EXCADSTD
 72
     5
 11
172.442947
 21
366.114929
 31
0.0
100
AcDbText
  0
TEXT
  5
236
100
AcDbEntity
  8
LAY-6
  6
CONTINUOUS
 62
     2
100
AcDbText
 10
172.615631
 20
365.470463
 30
0.0
 40
5.0
  1
ﾟ
 50
285.000006
 41
0.4
  7
EXCADSTD
 72
     5
 11
172.952096
 21
364.21476
 31
0.0
100
AcDbText
  0
ARC
  5
237
100
AcDbEntity
  8
LAY-6
  6
CONTINUOUS
 62
     1
100
AcDbCircle
 10
155.503648
 20
363.991148
 30
0.0
 40
16.411789
100
AcDbArc
 50
359.999798
 51
30.000214
  0
LINE
  5
238
100
AcDbEntity
  8
LAY-6
  6
CONTINUOUS
 62
     1
100
AcDbLine
 10
171.415436
 20
366.99109
 30
0.0
 11
171.915437
 21
363.99109
 31
0.0
  0
LINE
  5
239
100
AcDbEntity
  8
LAY-6
  6
CONTINUOUS
 62
     1
100
AcDbLine
 10
171.915437
 20
363.99109
 30
0.0
 11
172.415436
 21
366.99109
 31
0.0
  0
LINE
  5
23A
100
AcDbEntity
  8
LAY-6
  6
CONTINUOUS
 62
     1
100
AcDbLine
 10
171.649656
 20
369.84902
 30
0.0
 11
169.716643
 21
372.197096
 31
0.0
  0
LINE
  5
23B
100
AcDbEntity
  8
LAY-6
  6
CONTINUOUS
 62
     1
100
AcDbLine
 10
169.716643
 20
372.197096
 30
0.0
 11
170.783631
 21
369.34902
 31
0.0
  0
TEXT
  5
23C
100
AcDbEntity
  8
LAY-6
  6
CONTINUOUS
 62
     2
100
AcDbText
 10
170.54506
 20
206.268092
 30
0.0
 40
5.0
  1
３０
 50
285.000006
 41
0.672
  7
EXCADSTD
 72
     5
 11
172.442929
 21
199.185151
 31
0.0
100
AcDbText
  0
TEXT
  5
23D
100
AcDbEntity
  8
LAY-6
  6
CONTINUOUS
 62
     2
100
AcDbText
 10
172.615613
 20
198.540685
 30
0.0
 40
5.0
  1
ﾟ
 50
285.000006
 41
0.4
  7
EXCADSTD
 72
     5
 11
172.952078
 21
197.284982
 31
0.0
100
AcDbText
  0
ARC
  5
23E
100
AcDbEntity
  8
LAY-6
  6
CONTINUOUS
 62
     1
100
AcDbCircle
 10
155.50363
 20
197.06137
 30
0.0
 40
16.411789
100
AcDbArc
 50
359.999798
 51
30.000214
  0
LINE
  5
23F
100
AcDbEntity
  8
LAY-6
  6
CONTINUOUS
 62
     1
100
AcDbLine
 10
171.415418
 20
200.061312
 30
0.0
 11
171.915419
 21
197.061312
 31
0.0
  0
LINE
  5
240
100
AcDbEntity
  8
LAY-6
  6
CONTINUOUS
 62
     1
100
AcDbLine
 10
171.915419
 20
197.061312
 30
0.0
 11
172.415418
 21
200.061312
 31
0.0
  0
LINE
  5
241
100
AcDbEntity
  8
LAY-6
  6
CONTINUOUS
 62
     1
100
AcDbLine
 10
171.649638
 20
202.919242
 30
0.0
 11
169.716625
 21
205.267318
 31
0.0
  0
LINE
  5
242
100
AcDbEntity
  8
LAY-6
  6
CONTINUOUS
 62
     1
100
AcDbLine
 10
169.716625
 20
205.267318
 30
0.0
 11
170.783613
 21
202.419242
 31
0.0
  0
TEXT
  5
243
100
AcDbEntity
  8
LAY-6
  6
CONTINUOUS
 62
     2
100
AcDbText
 10
380.545019
 20
206.268092
 30
0.0
 40
5.0
  1
３０
 50
285.000006
 41
0.672
  7
EXCADSTD
 72
     5
 11
382.442888
 21
199.185151
 31
0.0
100
AcDbText
  0
TEXT
  5
244
100
AcDbEntity
  8
LAY-6
  6
CONTINUOUS
 62
     2
100
AcDbText
 10
382.615572
 20
198.540685
 30
0.0
 40
5.0
  1
ﾟ
 50
285.000006
 41
0.4
  7
EXCADSTD
 72
     5
 11
382.952037
 21
197.284982
 31
0.0
100
AcDbText
  0
ARC
  5
245
100
AcDbEntity
  8
LAY-6
  6
CONTINUOUS
 62
     1
100
AcDbCircle
 10
365.503589
 20
197.06137
 30
0.0
 40
16.411789
100
AcDbArc
 50
359.999798
 51
30.000214
  0
LINE
  5
246
100
AcDbEntity
  8
LAY-6
  6
CONTINUOUS
 62
     1
100
AcDbLine
 10
381.415378
 20
200.061312
 30
0.0
 11
381.915378
 21
197.061312
 31
0.0
  0
LINE
  5
247
100
AcDbEntity
  8
LAY-6
  6
CONTINUOUS
 62
     1
100
AcDbLine
 10
381.915378
 20
197.061312
 30
0.0
 11
382.415378
 21
200.061312
 31
0.0
  0
LINE
  5
248
100
AcDbEntity
  8
LAY-6
  6
CONTINUOUS
 62
     1
100
AcDbLine
 10
381.649598
 20
202.919242
 30
0.0
 11
379.716585
 21
205.267318
 31
0.0
  0
LINE
  5
249
100
AcDbEntity
  8
LAY-6
  6
CONTINUOUS
 62
     1
100
AcDbLine
 10
379.716585
 20
205.267318
 30
0.0
 11
380.783572
 21
202.419242
 31
0.0
  0
TEXT
  5
24A
100
AcDbEntity
  8
LAY-6
  6
CONTINUOUS
 62
     2
100
AcDbText
 10
380.54506
 20
373.197871
 30
0.0
 40
5.0
  1
３０
 50
285.000006
 41
0.672
  7
EXCADSTD
 72
     5
 11
382.442929
 21
366.11493
 31
0.0
100
AcDbText
  0
TEXT
  5
24B
100
AcDbEntity
  8
LAY-6
  6
CONTINUOUS
 62
     2
100
AcDbText
 10
382.615614
 20
365.470464
 30
0.0
 40
5.0
  1
ﾟ
 50
285.000006
 41
0.4
  7
EXCADSTD
 72
     5
 11
382.952078
 21
364.214761
 31
0.0
100
AcDbText
  0
ARC
  5
24C
100
AcDbEntity
  8
LAY-6
  6
CONTINUOUS
 62
     1
100
AcDbCircle
 10
365.50363
 20
363.991149
 30
0.0
 40
16.411789
100
AcDbArc
 50
359.999798
 51
30.000214
  0
LINE
  5
24D
100
AcDbEntity
  8
LAY-6
  6
CONTINUOUS
 62
     1
100
AcDbLine
 10
381.415419
 20
366.991091
 30
0.0
 11
381.915419
 21
363.991091
 31
0.0
  0
LINE
  5
24E
100
AcDbEntity
  8
LAY-6
  6
CONTINUOUS
 62
     1
100
AcDbLine
 10
381.915419
 20
363.991091
 30
0.0
 11
382.415419
 21
366.991091
 31
0.0
  0
LINE
  5
24F
100
AcDbEntity
  8
LAY-6
  6
CONTINUOUS
 62
     1
100
AcDbLine
 10
381.649639
 20
369.849021
 30
0.0
 11
379.716626
 21
372.197097
 31
0.0
  0
LINE
  5
250
100
AcDbEntity
  8
LAY-6
  6
CONTINUOUS
 62
     1
100
AcDbLine
 10
379.716626
 20
372.197097
 30
0.0
 11
380.783613
 21
369.349021
 31
0.0
  0
LINE
  5
251
100
AcDbEntity
  8
LAY-6
  6
CONTINUOUS
 62
     1
100
AcDbLine
 10
119.503381
 20
341.991119
 30
0.0
 11
119.503381
 21
339.5
 31
0.0
  0
LINE
  5
252
100
AcDbEntity
  8
LAY-6
  6
CONTINUOUS
 62
     1
100
AcDbLine
 10
177.503427
 20
377.847473
 30
0.0
 11
177.503427
 21
339.5
 31
0.0
  0
TEXT
  5
253
100
AcDbEntity
  8
LAY-6
  6
CONTINUOUS
 62
     2
100
AcDbText
 10
144.503404
 20
341.5
 30
0.0
 40
5.0
  1
５８
 41
0.672
  7
EXCADSTD
 72
     5
 11
151.836204
 21
341.5
 31
0.0
100
AcDbText
  0
LINE
  5
254
100
AcDbEntity
  8
LAY-6
  6
CONTINUOUS
 62
     1
100
AcDbLine
 10
119.503381
 20
341.0
 30
0.0
 11
177.503427
 21
341.0
 31
0.0
  0
LINE
  5
255
100
AcDbEntity
  8
LAY-6
  6
CONTINUOUS
 62
     1
100
AcDbLine
 10
122.503381
 20
341.5
 30
0.0
 11
119.503381
 21
341.0
 31
0.0
  0
LINE
  5
256
100
AcDbEntity
  8
LAY-6
  6
CONTINUOUS
 62
     1
100
AcDbLine
 10
119.503381
 20
341.0
 30
0.0
 11
122.503381
 21
340.5
 31
0.0
  0
LINE
  5
257
100
AcDbEntity
  8
LAY-6
  6
CONTINUOUS
 62
     1
100
AcDbLine
 10
174.503427
 20
340.5
 30
0.0
 11
177.503427
 21
341.0
 31
0.0
  0
LINE
  5
258
100
AcDbEntity
  8
LAY-6
  6
CONTINUOUS
 62
     1
100
AcDbLine
 10
177.503427
 20
341.0
 30
0.0
 11
174.503427
 21
341.5
 31
0.0
  0
TEXT
  5
259
100
AcDbEntity
  8
LAY-6
  6
CONTINUOUS
 62
     2
100
AcDbText
 10
200.9
 20
369.49109
 30
0.0
 40
5.0
  1
１９
 50
90.0
 41
0.672
  7
EXCADSTD
 72
     5
 11
200.9
 21
376.82389
 31
0.0
100
AcDbText
  0
LINE
  5
25A
100
AcDbEntity
  8
LAY-6
  6
CONTINUOUS
 62
     1
100
AcDbLine
 10
173.415437
 20
363.99109
 30
0.0
 11
202.9
 21
363.99109
 31
0.0
  0
LINE
  5
25B
100
AcDbEntity
  8
LAY-6
  6
CONTINUOUS
 62
     1
100
AcDbLine
 10
201.4
 20
363.99109
 30
0.0
 11
201.4
 21
382.99109
 31
0.0
  0
LINE
  5
25C
100
AcDbEntity
  8
LAY-6
  6
CONTINUOUS
 62
     1
100
AcDbLine
 10
200.9
 20
366.99109
 30
0.0
 11
201.4
 21
363.99109
 31
0.0
  0
LINE
  5
25D
100
AcDbEntity
  8
LAY-6
  6
CONTINUOUS
 62
     1
100
AcDbLine
 10
201.4
 20
363.99109
 30
0.0
 11
201.9
 21
366.99109
 31
0.0
  0
LINE
  5
25E
100
AcDbEntity
  8
LAY-6
  6
CONTINUOUS
 62
     1
100
AcDbLine
 10
201.9
 20
379.99109
 30
0.0
 11
201.4
 21
382.99109
 31
0.0
  0
LINE
  5
25F
100
AcDbEntity
  8
LAY-6
  6
CONTINUOUS
 62
     1
100
AcDbLine
 10
201.4
 20
382.99109
 30
0.0
 11
200.9
 21
379.99109
 31
0.0
  0
TEXT
  5
260
100
AcDbEntity
  8
LAY-6
  6
CONTINUOUS
 62
     2
100
AcDbText
 10
200.9
 20
398.991074
 30
0.0
 40
5.0
  1
４０
 50
90.0
 41
0.672
  7
EXCADSTD
 72
     5
 11
200.9
 21
406.323874
 31
0.0
100
AcDbText
  0
LINE
  5
261
100
AcDbEntity
  8
LAY-6
  6
CONTINUOUS
 62
     1
100
AcDbLine
 10
170.503381
 20
422.991058
 30
0.0
 11
202.9
 21
422.991058
 31
0.0
  0
LINE
  5
262
100
AcDbEntity
  8
LAY-6
  6
CONTINUOUS
 62
     1
100
AcDbLine
 10
201.4
 20
382.99109
 30
0.0
 11
201.4
 21
422.991058
 31
0.0
  0
LINE
  5
263
100
AcDbEntity
  8
LAY-6
  6
CONTINUOUS
 62
     1
100
AcDbLine
 10
200.9
 20
385.99109
 30
0.0
 11
201.4
 21
382.99109
 31
0.0
  0
LINE
  5
264
100
AcDbEntity
  8
LAY-6
  6
CONTINUOUS
 62
     1
100
AcDbLine
 10
201.4
 20
382.99109
 30
0.0
 11
201.9
 21
385.99109
 31
0.0
  0
LINE
  5
265
100
AcDbEntity
  8
LAY-6
  6
CONTINUOUS
 62
     1
100
AcDbLine
 10
201.9
 20
419.991058
 30
0.0
 11
201.4
 21
422.991058
 31
0.0
  0
LINE
  5
266
100
AcDbEntity
  8
LAY-6
  6
CONTINUOUS
 62
     1
100
AcDbLine
 10
201.4
 20
422.991058
 30
0.0
 11
200.9
 21
419.991058
 31
0.0
  0
LINE
  5
267
100
AcDbEntity
  8
LAY-6
  6
CONTINUOUS
 62
     1
100
AcDbLine
 10
119.503404
 20
175.061341
 30
0.0
 11
119.503404
 21
171.3
 31
0.0
  0
LINE
  5
268
100
AcDbEntity
  8
LAY-6
  6
CONTINUOUS
 62
     1
100
AcDbLine
 10
177.503427
 20
210.917694
 30
0.0
 11
177.503427
 21
171.3
 31
0.0
  0
TEXT
  5
269
100
AcDbEntity
  8
LAY-6
  6
CONTINUOUS
 62
     2
100
AcDbText
 10
144.503416
 20
173.3
 30
0.0
 40
5.0
  1
５８
 41
0.672
  7
EXCADSTD
 72
     5
 11
151.836216
 21
173.3
 31
0.0
100
AcDbText
  0
LINE
  5
26A
100
AcDbEntity
  8
LAY-6
  6
CONTINUOUS
 62
     1
100
AcDbLine
 10
119.503404
 20
172.8
 30
0.0
 11
177.503427
 21
172.8
 31
0.0
  0
LINE
  5
26B
100
AcDbEntity
  8
LAY-6
  6
CONTINUOUS
 62
     1
100
AcDbLine
 10
122.503404
 20
173.3
 30
0.0
 11
119.503404
 21
172.8
 31
0.0
  0
LINE
  5
26C
100
AcDbEntity
  8
LAY-6
  6
CONTINUOUS
 62
     1
100
AcDbLine
 10
119.503404
 20
172.8
 30
0.0
 11
122.503404
 21
172.3
 31
0.0
  0
LINE
  5
26D
100
AcDbEntity
  8
LAY-6
  6
CONTINUOUS
 62
     1
100
AcDbLine
 10
174.503427
 20
172.3
 30
0.0
 11
177.503427
 21
172.8
 31
0.0
  0
LINE
  5
26E
100
AcDbEntity
  8
LAY-6
  6
CONTINUOUS
 62
     1
100
AcDbLine
 10
177.503427
 20
172.8
 30
0.0
 11
174.503427
 21
173.3
 31
0.0
  0
LINE
  5
26F
100
AcDbEntity
  8
LAY-6
  6
CONTINUOUS
 62
     1
100
AcDbLine
 10
123.503404
 20
249.061341
 30
0.0
 11
123.503404
 21
267.1
 31
0.0
  0
LINE
  5
270
100
AcDbEntity
  8
LAY-6
  6
CONTINUOUS
 62
     1
100
AcDbLine
 10
133.503404
 20
253.383972
 30
0.0
 11
133.503404
 21
267.1
 31
0.0
  0
TEXT
  5
271
100
AcDbEntity
  8
LAY-6
  6
CONTINUOUS
 62
     2
100
AcDbText
 10
124.503404
 20
266.1
 30
0.0
 40
5.0
  1
１０
 41
0.672
  7
EXCADSTD
 72
     5
 11
131.836204
 21
266.1
 31
0.0
100
AcDbText
  0
LINE
  5
272
100
AcDbEntity
  8
LAY-6
  6
CONTINUOUS
 62
     1
100
AcDbLine
 10
123.503404
 20
265.6
 30
0.0
 11
133.503404
 21
265.6
 31
0.0
  0
LINE
  5
273
100
AcDbEntity
  8
LAY-6
  6
CONTINUOUS
 62
     1
100
AcDbLine
 10
126.503404
 20
266.1
 30
0.0
 11
123.503404
 21
265.6
 31
0.0
  0
LINE
  5
274
100
AcDbEntity
  8
LAY-6
  6
CONTINUOUS
 62
     1
100
AcDbLine
 10
123.503404
 20
265.6
 30
0.0
 11
126.503404
 21
265.1
 31
0.0
  0
LINE
  5
275
100
AcDbEntity
  8
LAY-6
  6
CONTINUOUS
 62
     1
100
AcDbLine
 10
130.503404
 20
265.1
 30
0.0
 11
133.503404
 21
265.6
 31
0.0
  0
LINE
  5
276
100
AcDbEntity
  8
LAY-6
  6
CONTINUOUS
 62
     1
100
AcDbLine
 10
133.503404
 20
265.6
 30
0.0
 11
130.503404
 21
266.1
 31
0.0
  0
LINE
  5
277
100
AcDbEntity
  8
LAY-6
  6
CONTINUOUS
 62
     1
100
AcDbLine
 10
163.503412
 20
253.383972
 30
0.0
 11
163.503412
 21
267.1
 31
0.0
  0
TEXT
  5
278
100
AcDbEntity
  8
LAY-6
  6
CONTINUOUS
 62
     2
100
AcDbText
 10
144.503408
 20
266.1
 30
0.0
 40
5.0
  1
３０
 41
0.672
  7
EXCADSTD
 72
     5
 11
151.836208
 21
266.1
 31
0.0
100
AcDbText
  0
LINE
  5
279
100
AcDbEntity
  8
LAY-6
  6
CONTINUOUS
 62
     1
100
AcDbLine
 10
133.503404
 20
265.6
 30
0.0
 11
163.503412
 21
265.6
 31
0.0
  0
LINE
  5
27A
100
AcDbEntity
  8
LAY-6
  6
CONTINUOUS
 62
     1
100
AcDbLine
 10
136.503404
 20
266.1
 30
0.0
 11
133.503404
 21
265.6
 31
0.0
  0
LINE
  5
27B
100
AcDbEntity
  8
LAY-6
  6
CONTINUOUS
 62
     1
100
AcDbLine
 10
133.503404
 20
265.6
 30
0.0
 11
136.503404
 21
265.1
 31
0.0
  0
LINE
  5
27C
100
AcDbEntity
  8
LAY-6
  6
CONTINUOUS
 62
     1
100
AcDbLine
 10
160.503412
 20
265.1
 30
0.0
 11
163.503412
 21
265.6
 31
0.0
  0
LINE
  5
27D
100
AcDbEntity
  8
LAY-6
  6
CONTINUOUS
 62
     1
100
AcDbLine
 10
163.503412
 20
265.6
 30
0.0
 11
160.503412
 21
266.1
 31
0.0
  0
LINE
  5
27E
100
AcDbEntity
  8
LAY-6
  6
CONTINUOUS
 62
     1
100
AcDbLine
 10
173.503412
 20
249.06131
 30
0.0
 11
173.503412
 21
267.1
 31
0.0
  0
TEXT
  5
27F
100
AcDbEntity
  8
LAY-6
  6
CONTINUOUS
 62
     2
100
AcDbText
 10
164.503412
 20
266.1
 30
0.0
 40
5.0
  1
１０
 41
0.672
  7
EXCADSTD
 72
     5
 11
171.836212
 21
266.1
 31
0.0
100
AcDbText
  0
LINE
  5
280
100
AcDbEntity
  8
LAY-6
  6
CONTINUOUS
 62
     1
100
AcDbLine
 10
163.503412
 20
265.6
 30
0.0
 11
173.503412
 21
265.6
 31
0.0
  0
LINE
  5
281
100
AcDbEntity
  8
LAY-6
  6
CONTINUOUS
 62
     1
100
AcDbLine
 10
166.503412
 20
266.1
 30
0.0
 11
163.503412
 21
265.6
 31
0.0
  0
LINE
  5
282
100
AcDbEntity
  8
LAY-6
  6
CONTINUOUS
 62
     1
100
AcDbLine
 10
163.503412
 20
265.6
 30
0.0
 11
166.503412
 21
265.1
 31
0.0
  0
LINE
  5
283
100
AcDbEntity
  8
LAY-6
  6
CONTINUOUS
 62
     1
100
AcDbLine
 10
170.503412
 20
265.1
 30
0.0
 11
173.503412
 21
265.6
 31
0.0
  0
LINE
  5
284
100
AcDbEntity
  8
LAY-6
  6
CONTINUOUS
 62
     1
100
AcDbLine
 10
173.503412
 20
265.6
 30
0.0
 11
170.503412
 21
266.1
 31
0.0
  0
LINE
  5
285
100
AcDbEntity
  8
LAY-6
  6
CONTINUOUS
 62
     1
100
AcDbLine
 10
119.503394
 20
257.461584
 30
0.0
 11
119.503394
 21
278.4
 31
0.0
  0
LINE
  5
286
100
AcDbEntity
  8
LAY-6
  6
CONTINUOUS
 62
     1
100
AcDbLine
 10
123.503404
 20
267.1
 30
0.0
 11
123.503404
 21
278.4
 31
0.0
  0
TEXT
  5
287
100
AcDbEntity
  8
LAY-6
  6
CONTINUOUS
 62
     2
100
AcDbText
 10
119.503399
 20
277.4
 30
0.0
 40
5.0
  1
４
 41
0.672
  7
EXCADSTD
 72
     5
 11
122.703399
 21
277.4
 31
0.0
100
AcDbText
  0
LINE
  5
288
100
AcDbEntity
  8
LAY-6
  6
CONTINUOUS
 62
     1
100
AcDbLine
 10
114.503394
 20
276.9
 30
0.0
 11
119.503394
 21
276.9
 31
0.0
  0
LINE
  5
289
100
AcDbEntity
  8
LAY-6
  6
CONTINUOUS
 62
     1
100
AcDbLine
 10
123.503404
 20
276.9
 30
0.0
 11
128.503404
 21
276.9
 31
0.0
  0
LINE
  5
28A
100
AcDbEntity
  8
LAY-6
  6
CONTINUOUS
 62
     1
100
AcDbLine
 10
116.503394
 20
276.4
 30
0.0
 11
119.503394
 21
276.9
 31
0.0
  0
LINE
  5
28B
100
AcDbEntity
  8
LAY-6
  6
CONTINUOUS
 62
     1
100
AcDbLine
 10
119.503394
 20
276.9
 30
0.0
 11
116.503394
 21
277.4
 31
0.0
  0
LINE
  5
28C
100
AcDbEntity
  8
LAY-6
  6
CONTINUOUS
 62
     1
100
AcDbLine
 10
126.503404
 20
277.4
 30
0.0
 11
123.503404
 21
276.9
 31
0.0
  0
LINE
  5
28D
100
AcDbEntity
  8
LAY-6
  6
CONTINUOUS
 62
     1
100
AcDbLine
 10
123.503404
 20
276.9
 30
0.0
 11
126.503404
 21
276.4
 31
0.0
  0
LINE
  5
28E
100
AcDbEntity
  8
LAY-6
  6
CONTINUOUS
 62
     1
100
AcDbLine
 10
173.503412
 20
267.1
 30
0.0
 11
173.503412
 21
278.4
 31
0.0
  0
TEXT
  5
28F
100
AcDbEntity
  8
LAY-6
  6
CONTINUOUS
 62
     2
100
AcDbText
 10
144.503408
 20
277.4
 30
0.0
 40
5.0
  1
５０
 41
0.672
  7
EXCADSTD
 72
     5
 11
151.836208
 21
277.4
 31
0.0
100
AcDbText
  0
LINE
  5
290
100
AcDbEntity
  8
LAY-6
  6
CONTINUOUS
 62
     1
100
AcDbLine
 10
123.503404
 20
276.9
 30
0.0
 11
173.503412
 21
276.9
 31
0.0
  0
LINE
  5
291
100
AcDbEntity
  8
LAY-6
  6
CONTINUOUS
 62
     1
100
AcDbLine
 10
126.503404
 20
277.4
 30
0.0
 11
123.503404
 21
276.9
 31
0.0
  0
LINE
  5
292
100
AcDbEntity
  8
LAY-6
  6
CONTINUOUS
 62
     1
100
AcDbLine
 10
123.503404
 20
276.9
 30
0.0
 11
126.503404
 21
276.4
 31
0.0
  0
LINE
  5
293
100
AcDbEntity
  8
LAY-6
  6
CONTINUOUS
 62
     1
100
AcDbLine
 10
170.503412
 20
276.4
 30
0.0
 11
173.503412
 21
276.9
 31
0.0
  0
LINE
  5
294
100
AcDbEntity
  8
LAY-6
  6
CONTINUOUS
 62
     1
100
AcDbLine
 10
173.503412
 20
276.9
 30
0.0
 11
170.503412
 21
277.4
 31
0.0
  0
TEXT
  5
295
100
AcDbEntity
  8
LAY-6
  6
CONTINUOUS
 62
     2
100
AcDbText
 10
192.4
 20
220.061462
 30
0.0
 40
5.0
  1
１０
 50
90.0
 41
0.672
  7
EXCADSTD
 72
     5
 11
192.4
 21
227.394262
 31
0.0
100
AcDbText
  0
LINE
  5
296
100
AcDbEntity
  8
LAY-6
  6
CONTINUOUS
 62
     1
100
AcDbLine
 10
171.6
 20
229.061341
 30
0.0
 11
194.4
 21
229.061341
 31
0.0
  0
LINE
  5
297
100
AcDbEntity
  8
LAY-6
  6
CONTINUOUS
 62
     1
100
AcDbLine
 10
192.9
 20
219.061584
 30
0.0
 11
192.9
 21
229.061341
 31
0.0
  0
LINE
  5
298
100
AcDbEntity
  8
LAY-6
  6
CONTINUOUS
 62
     1
100
AcDbLine
 10
192.4
 20
222.061584
 30
0.0
 11
192.9
 21
219.061584
 31
0.0
  0
LINE
  5
299
100
AcDbEntity
  8
LAY-6
  6
CONTINUOUS
 62
     1
100
AcDbLine
 10
192.9
 20
219.061584
 30
0.0
 11
193.4
 21
222.061584
 31
0.0
  0
LINE
  5
29A
100
AcDbEntity
  8
LAY-6
  6
CONTINUOUS
 62
     1
100
AcDbLine
 10
193.4
 20
226.061341
 30
0.0
 11
192.9
 21
229.061341
 31
0.0
  0
LINE
  5
29B
100
AcDbEntity
  8
LAY-6
  6
CONTINUOUS
 62
     1
100
AcDbLine
 10
192.9
 20
229.061341
 30
0.0
 11
192.4
 21
226.061341
 31
0.0
  0
LINE
  5
29C
100
AcDbEntity
  8
LAY-6
  6
CONTINUOUS
 62
     1
100
AcDbLine
 10
171.6
 20
245.061341
 30
0.0
 11
194.4
 21
245.061341
 31
0.0
  0
TEXT
  5
29D
100
AcDbEntity
  8
LAY-6
  6
CONTINUOUS
 62
     2
100
AcDbText
 10
192.4
 20
233.061341
 30
0.0
 40
5.0
  1
１６
 50
90.0
 41
0.672
  7
EXCADSTD
 72
     5
 11
192.4
 21
240.394141
 31
0.0
100
AcDbText
  0
LINE
  5
29E
100
AcDbEntity
  8
LAY-6
  6
CONTINUOUS
 62
     1
100
AcDbLine
 10
192.9
 20
229.061341
 30
0.0
 11
192.9
 21
245.061341
 31
0.0
  0
LINE
  5
29F
100
AcDbEntity
  8
LAY-6
  6
CONTINUOUS
 62
     1
100
AcDbLine
 10
192.4
 20
232.061341
 30
0.0
 11
192.9
 21
229.061341
 31
0.0
  0
LINE
  5
2A0
100
AcDbEntity
  8
LAY-6
  6
CONTINUOUS
 62
     1
100
AcDbLine
 10
192.9
 20
229.061341
 30
0.0
 11
193.4
 21
232.061341
 31
0.0
  0
LINE
  5
2A1
100
AcDbEntity
  8
LAY-6
  6
CONTINUOUS
 62
     1
100
AcDbLine
 10
193.4
 20
242.061341
 30
0.0
 11
192.9
 21
245.061341
 31
0.0
  0
LINE
  5
2A2
100
AcDbEntity
  8
LAY-6
  6
CONTINUOUS
 62
     1
100
AcDbLine
 10
192.9
 20
245.061341
 30
0.0
 11
192.4
 21
242.061341
 31
0.0
  0
TEXT
  5
2A3
100
AcDbEntity
  8
LAY-6
  6
CONTINUOUS
 62
     2
100
AcDbText
 10
203.9
 20
204.061448
 30
0.0
 40
5.0
  1
２２
 50
90.0
 41
0.672
  7
EXCADSTD
 72
     5
 11
203.9
 21
211.394248
 31
0.0
100
AcDbText
  0
LINE
  5
2A4
100
AcDbEntity
  8
LAY-6
  6
CONTINUOUS
 62
     1
100
AcDbLine
 10
173.915419
 20
197.061312
 30
0.0
 11
205.9
 21
197.061312
 31
0.0
  0
LINE
  5
2A5
100
AcDbEntity
  8
LAY-6
  6
CONTINUOUS
 62
     1
100
AcDbLine
 10
204.4
 20
197.061312
 30
0.0
 11
204.4
 21
219.061584
 31
0.0
  0
LINE
  5
2A6
100
AcDbEntity
  8
LAY-6
  6
CONTINUOUS
 62
     1
100
AcDbLine
 10
203.9
 20
200.061312
 30
0.0
 11
204.4
 21
197.061312
 31
0.0
  0
LINE
  5
2A7
100
AcDbEntity
  8
LAY-6
  6
CONTINUOUS
 62
     1
100
AcDbLine
 10
204.4
 20
197.061312
 30
0.0
 11
204.9
 21
200.061312
 31
0.0
  0
LINE
  5
2A8
100
AcDbEntity
  8
LAY-6
  6
CONTINUOUS
 62
     1
100
AcDbLine
 10
204.9
 20
216.061584
 30
0.0
 11
204.4
 21
219.061584
 31
0.0
  0
LINE
  5
2A9
100
AcDbEntity
  8
LAY-6
  6
CONTINUOUS
 62
     1
100
AcDbLine
 10
204.4
 20
219.061584
 30
0.0
 11
203.9
 21
216.061584
 31
0.0
  0
TEXT
  5
2AA
100
AcDbEntity
  8
LAY-6
  6
CONTINUOUS
 62
     2
100
AcDbText
 10
203.9
 20
231.561447
 30
0.0
 40
5.0
  1
３３
 50
90.0
 41
0.672
  7
EXCADSTD
 72
     5
 11
203.9
 21
238.894247
 31
0.0
100
AcDbText
  0
LINE
  5
2AB
100
AcDbEntity
  8
LAY-6
  6
CONTINUOUS
 62
     1
100
AcDbLine
 10
170.503412
 20
252.06131
 30
0.0
 11
205.9
 21
252.06131
 31
0.0
  0
LINE
  5
2AC
100
AcDbEntity
  8
LAY-6
  6
CONTINUOUS
 62
     1
100
AcDbLine
 10
204.4
 20
219.061584
 30
0.0
 11
204.4
 21
252.06131
 31
0.0
  0
LINE
  5
2AD
100
AcDbEntity
  8
LAY-6
  6
CONTINUOUS
 62
     1
100
AcDbLine
 10
203.9
 20
222.061584
 30
0.0
 11
204.4
 21
219.061584
 31
0.0
  0
LINE
  5
2AE
100
AcDbEntity
  8
LAY-6
  6
CONTINUOUS
 62
     1
100
AcDbLine
 10
204.4
 20
219.061584
 30
0.0
 11
204.9
 21
222.061584
 31
0.0
  0
LINE
  5
2AF
100
AcDbEntity
  8
LAY-6
  6
CONTINUOUS
 62
     1
100
AcDbLine
 10
204.9
 20
249.06131
 30
0.0
 11
204.4
 21
252.06131
 31
0.0
  0
LINE
  5
2B0
100
AcDbEntity
  8
LAY-6
  6
CONTINUOUS
 62
     1
100
AcDbLine
 10
204.4
 20
252.06131
 30
0.0
 11
203.9
 21
249.06131
 31
0.0
  0
POLYLINE
  5
2B1
100
AcDbEntity
  8
LAY-6
  6
CONTINUOUS
 62
     1
100
AcDb2dPolyline
 66
     1
 10
0.0
 20
0.0
 30
0.0
 70
   128
  0
VERTEX
  5
2B2
100
AcDbEntity
  8
LAY-6
  6
CONTINUOUS
 62
     1
100
AcDbVertex
100
AcDb2dVertex
 10
105.213969
 20
205.311313
 30
0.0
  0
VERTEX
  5
2B3
100
AcDbEntity
  8
LAY-6
  6
CONTINUOUS
 62
     1
100
AcDbVertex
100
AcDb2dVertex
 10
96.9
 20
214.2
 30
0.0
  0
VERTEX
  5
2B4
100
AcDbEntity
  8
LAY-6
  6
CONTINUOUS
 62
     1
100
AcDbVertex
100
AcDb2dVertex
 10
75.0
 20
214.2
 30
0.0
  0
SEQEND
  5
2B5
100
AcDbEntity
  8
LAY-6
  6
CONTINUOUS
 62
     1
  0
LINE
  5
2B6
100
AcDbEntity
  8
LAY-6
  6
CONTINUOUS
 62
     1
100
AcDbLine
 10
102.799501
 20
207.16073
 30
0.0
 11
105.213969
 21
205.311313
 31
0.0
  0
LINE
  5
2B7
100
AcDbEntity
  8
LAY-6
  6
CONTINUOUS
 62
     1
100
AcDbLine
 10
105.213969
 20
205.311313
 30
0.0
 11
103.529824
 21
207.843833
 31
0.0
  0
TEXT
  5
2B8
100
AcDbEntity
  8
LAY-6
  6
CONTINUOUS
 62
     2
100
AcDbText
 10
75.0
 20
214.2
 30
0.0
 40
5.0
  1
セットネジ
 41
0.672
  7
EXCADSTD
 72
     5
 11
95.0
 21
214.2
 31
0.0
100
AcDbText
  0
TEXT
  5
2B9
100
AcDbEntity
  8
LAY-6
  6
CONTINUOUS
 62
     2
100
AcDbText
 10
354.503397
 20
388.5
 30
0.0
 40
5.0
  1
５０
 41
0.672
  7
EXCADSTD
 72
     5
 11
361.836197
 21
388.5
 31
0.0
100
AcDbText
  0
LINE
  5
2BA
100
AcDbEntity
  8
LAY-6
  6
CONTINUOUS
 62
     1
100
AcDbLine
 10
333.503397
 20
388.0
 30
0.0
 11
383.503397
 21
388.0
 31
0.0
  0
LINE
  5
2BB
100
AcDbEntity
  8
LAY-6
  6
CONTINUOUS
 62
     1
100
AcDbLine
 10
336.503397
 20
388.5
 30
0.0
 11
333.503397
 21
388.0
 31
0.0
  0
LINE
  5
2BC
100
AcDbEntity
  8
LAY-6
  6
CONTINUOUS
 62
     1
100
AcDbLine
 10
333.503397
 20
388.0
 30
0.0
 11
336.503397
 21
387.5
 31
0.0
  0
LINE
  5
2BD
100
AcDbEntity
  8
LAY-6
  6
CONTINUOUS
 62
     1
100
AcDbLine
 10
380.503397
 20
387.5
 30
0.0
 11
383.503397
 21
388.0
 31
0.0
  0
LINE
  5
2BE
100
AcDbEntity
  8
LAY-6
  6
CONTINUOUS
 62
     1
100
AcDbLine
 10
383.503397
 20
388.0
 30
0.0
 11
380.503397
 21
388.5
 31
0.0
  0
LINE
  5
2BF
100
AcDbEntity
  8
LAY-6
  6
CONTINUOUS
 62
     1
100
AcDbLine
 10
420.503397
 20
391.991089
 30
0.0
 11
435.8
 21
391.991089
 31
0.0
  0
TEXT
  5
2C0
100
AcDbEntity
  8
LAY-6
  6
CONTINUOUS
 62
     2
100
AcDbText
 10
434.7
 20
370.991227
 30
0.0
 40
5.0
  1
２２
 50
90.0
 41
0.672
  7
EXCADSTD
 72
     5
 11
434.7
 21
378.324027
 31
0.0
100
AcDbText
  0
LINE
  5
2C1
100
AcDbEntity
  8
LAY-6
  6
CONTINUOUS
 62
     1
100
AcDbLine
 10
383.415419
 20
363.991091
 30
0.0
 11
436.7
 21
363.991091
 31
0.0
  0
LINE
  5
2C2
100
AcDbEntity
  8
LAY-6
  6
CONTINUOUS
 62
     1
100
AcDbLine
 10
435.2
 20
363.991091
 30
0.0
 11
435.2
 21
385.991363
 31
0.0
  0
LINE
  5
2C3
100
AcDbEntity
  8
LAY-6
  6
CONTINUOUS
 62
     1
100
AcDbLine
 10
434.7
 20
366.991091
 30
0.0
 11
435.2
 21
363.991091
 31
0.0
  0
LINE
  5
2C4
100
AcDbEntity
  8
LAY-6
  6
CONTINUOUS
 62
     1
100
AcDbLine
 10
435.2
 20
363.991091
 30
0.0
 11
435.7
 21
366.991091
 31
0.0
  0
LINE
  5
2C5
100
AcDbEntity
  8
LAY-6
  6
CONTINUOUS
 62
     1
100
AcDbLine
 10
435.7
 20
382.991363
 30
0.0
 11
435.2
 21
385.991363
 31
0.0
  0
LINE
  5
2C6
100
AcDbEntity
  8
LAY-6
  6
CONTINUOUS
 62
     1
100
AcDbLine
 10
435.2
 20
385.991363
 30
0.0
 11
434.7
 21
382.991363
 31
0.0
  0
TEXT
  5
2C7
100
AcDbEntity
  8
LAY-6
  6
CONTINUOUS
 62
     2
100
AcDbText
 10
434.7
 20
386.991226
 30
0.0
 40
5.0
  1
６
 50
90.0
 41
0.672
  7
EXCADSTD
 72
     5
 11
434.7
 21
390.191226
 31
0.0
100
AcDbText
  0
LINE
  5
2C8
100
AcDbEntity
  8
LAY-6
  6
CONTINUOUS
 62
     1
100
AcDbLine
 10
420.503397
 20
391.991089
 30
0.0
 11
436.7
 21
391.991089
 31
0.0
  0
LINE
  5
2C9
100
AcDbEntity
  8
LAY-6
  6
CONTINUOUS
 62
     1
100
AcDbLine
 10
420.503397
 20
419.991089
 30
0.0
 11
436.7
 21
419.991089
 31
0.0
  0
TEXT
  5
2CA
100
AcDbEntity
  8
LAY-6
  6
CONTINUOUS
 62
     2
100
AcDbText
 10
434.7
 20
401.991089
 30
0.0
 40
5.0
  1
２８
 50
90.0
 41
0.672
  7
EXCADSTD
 72
     5
 11
434.7
 21
409.323889
 31
0.0
100
AcDbText
  0
LINE
  5
2CB
100
AcDbEntity
  8
LAY-6
  6
CONTINUOUS
 62
     1
100
AcDbLine
 10
435.2
 20
391.991089
 30
0.0
 11
435.2
 21
419.991089
 31
0.0
  0
LINE
  5
2CC
100
AcDbEntity
  8
LAY-6
  6
CONTINUOUS
 62
     1
100
AcDbLine
 10
434.7
 20
394.991089
 30
0.0
 11
435.2
 21
391.991089
 31
0.0
  0
LINE
  5
2CD
100
AcDbEntity
  8
LAY-6
  6
CONTINUOUS
 62
     1
100
AcDbLine
 10
435.2
 20
391.991089
 30
0.0
 11
435.7
 21
394.991089
 31
0.0
  0
LINE
  5
2CE
100
AcDbEntity
  8
LAY-6
  6
CONTINUOUS
 62
     1
100
AcDbLine
 10
435.7
 20
416.991089
 30
0.0
 11
435.2
 21
419.991089
 31
0.0
  0
LINE
  5
2CF
100
AcDbEntity
  8
LAY-6
  6
CONTINUOUS
 62
     1
100
AcDbLine
 10
435.2
 20
419.991089
 30
0.0
 11
434.7
 21
416.991089
 31
0.0
  0
LINE
  5
2D0
100
AcDbEntity
  8
LAY-6
  6
CONTINUOUS
 62
     1
100
AcDbLine
 10
333.503397
 20
409.991089
 30
0.0
 11
333.503397
 21
434.6
 31
0.0
  0
LINE
  5
2D1
100
AcDbEntity
  8
LAY-6
  6
CONTINUOUS
 62
     1
100
AcDbLine
 10
343.503397
 20
406.4
 30
0.0
 11
343.503397
 21
434.6
 31
0.0
  0
TEXT
  5
2D2
100
AcDbEntity
  8
LAY-6
  6
CONTINUOUS
 62
     2
100
AcDbText
 10
334.503397
 20
433.6
 30
0.0
 40
5.0
  1
１０
 41
0.672
  7
EXCADSTD
 72
     5
 11
341.836197
 21
433.6
 31
0.0
100
AcDbText
  0
LINE
  5
2D3
100
AcDbEntity
  8
LAY-6
  6
CONTINUOUS
 62
     1
100
AcDbLine
 10
333.503397
 20
433.1
 30
0.0
 11
343.503397
 21
433.1
 31
0.0
  0
LINE
  5
2D4
100
AcDbEntity
  8
LAY-6
  6
CONTINUOUS
 62
     1
100
AcDbLine
 10
336.503397
 20
433.6
 30
0.0
 11
333.503397
 21
433.1
 31
0.0
  0
LINE
  5
2D5
100
AcDbEntity
  8
LAY-6
  6
CONTINUOUS
 62
     1
100
AcDbLine
 10
333.503397
 20
433.1
 30
0.0
 11
336.503397
 21
432.6
 31
0.0
  0
LINE
  5
2D6
100
AcDbEntity
  8
LAY-6
  6
CONTINUOUS
 62
     1
100
AcDbLine
 10
340.503397
 20
432.6
 30
0.0
 11
343.503397
 21
433.1
 31
0.0
  0
LINE
  5
2D7
100
AcDbEntity
  8
LAY-6
  6
CONTINUOUS
 62
     1
100
AcDbLine
 10
343.503397
 20
433.1
 30
0.0
 11
340.503397
 21
433.6
 31
0.0
  0
LINE
  5
2D8
100
AcDbEntity
  8
LAY-6
  6
CONTINUOUS
 62
     1
100
AcDbLine
 10
366.503412
 20
418.4
 30
0.0
 11
366.503412
 21
434.6
 31
0.0
  0
TEXT
  5
2D9
100
AcDbEntity
  8
LAY-6
  6
CONTINUOUS
 62
     2
100
AcDbText
 10
351.003404
 20
433.6
 30
0.0
 40
5.0
  1
２３
 41
0.672
  7
EXCADSTD
 72
     5
 11
358.336205
 21
433.6
 31
0.0
100
AcDbText
  0
LINE
  5
2DA
100
AcDbEntity
  8
LAY-6
  6
CONTINUOUS
 62
     1
100
AcDbLine
 10
343.503397
 20
433.1
 30
0.0
 11
366.503412
 21
433.1
 31
0.0
  0
LINE
  5
2DB
100
AcDbEntity
  8
LAY-6
  6
CONTINUOUS
 62
     1
100
AcDbLine
 10
346.503397
 20
433.6
 30
0.0
 11
343.503397
 21
433.1
 31
0.0
  0
LINE
  5
2DC
100
AcDbEntity
  8
LAY-6
  6
CONTINUOUS
 62
     1
100
AcDbLine
 10
343.503397
 20
433.1
 30
0.0
 11
346.503397
 21
432.6
 31
0.0
  0
LINE
  5
2DD
100
AcDbEntity
  8
LAY-6
  6
CONTINUOUS
 62
     1
100
AcDbLine
 10
363.503412
 20
432.6
 30
0.0
 11
366.503412
 21
433.1
 31
0.0
  0
LINE
  5
2DE
100
AcDbEntity
  8
LAY-6
  6
CONTINUOUS
 62
     1
100
AcDbLine
 10
366.503412
 20
433.1
 30
0.0
 11
363.503412
 21
433.6
 31
0.0
  0
LINE
  5
2DF
100
AcDbEntity
  8
LAY-6
  6
CONTINUOUS
 62
     1
100
AcDbLine
 10
390.503397
 20
406.4
 30
0.0
 11
390.503397
 21
434.6
 31
0.0
  0
TEXT
  5
2E0
100
AcDbEntity
  8
LAY-6
  6
CONTINUOUS
 62
     2
100
AcDbText
 10
374.503404
 20
433.6
 30
0.0
 40
5.0
  1
２４
 41
0.672
  7
EXCADSTD
 72
     5
 11
381.836205
 21
433.6
 31
0.0
100
AcDbText
  0
LINE
  5
2E1
100
AcDbEntity
  8
LAY-6
  6
CONTINUOUS
 62
     1
100
AcDbLine
 10
366.503412
 20
433.1
 30
0.0
 11
390.503397
 21
433.1
 31
0.0
  0
LINE
  5
2E2
100
AcDbEntity
  8
LAY-6
  6
CONTINUOUS
 62
     1
100
AcDbLine
 10
369.503412
 20
433.6
 30
0.0
 11
366.503412
 21
433.1
 31
0.0
  0
LINE
  5
2E3
100
AcDbEntity
  8
LAY-6
  6
CONTINUOUS
 62
     1
100
AcDbLine
 10
366.503412
 20
433.1
 30
0.0
 11
369.503412
 21
432.6
 31
0.0
  0
LINE
  5
2E4
100
AcDbEntity
  8
LAY-6
  6
CONTINUOUS
 62
     1
100
AcDbLine
 10
387.503397
 20
432.6
 30
0.0
 11
390.503397
 21
433.1
 31
0.0
  0
LINE
  5
2E5
100
AcDbEntity
  8
LAY-6
  6
CONTINUOUS
 62
     1
100
AcDbLine
 10
390.503397
 20
433.1
 30
0.0
 11
387.503397
 21
433.6
 31
0.0
  0
LINE
  5
2E6
100
AcDbEntity
  8
LAY-6
  6
CONTINUOUS
 62
     1
100
AcDbLine
 10
413.503381
 20
410.991089
 30
0.0
 11
413.503381
 21
434.6
 31
0.0
  0
TEXT
  5
2E7
100
AcDbEntity
  8
LAY-6
  6
CONTINUOUS
 62
     2
100
AcDbText
 10
398.003389
 20
433.6
 30
0.0
 40
5.0
  1
２３
 41
0.672
  7
EXCADSTD
 72
     5
 11
405.336189
 21
433.6
 31
0.0
100
AcDbText
  0
LINE
  5
2E8
100
AcDbEntity
  8
LAY-6
  6
CONTINUOUS
 62
     1
100
AcDbLine
 10
390.503397
 20
433.1
 30
0.0
 11
413.503381
 21
433.1
 31
0.0
  0
LINE
  5
2E9
100
AcDbEntity
  8
LAY-6
  6
CONTINUOUS
 62
     1
100
AcDbLine
 10
393.503397
 20
433.6
 30
0.0
 11
390.503397
 21
433.1
 31
0.0
  0
LINE
  5
2EA
100
AcDbEntity
  8
LAY-6
  6
CONTINUOUS
 62
     1
100
AcDbLine
 10
390.503397
 20
433.1
 30
0.0
 11
393.503397
 21
432.6
 31
0.0
  0
LINE
  5
2EB
100
AcDbEntity
  8
LAY-6
  6
CONTINUOUS
 62
     1
100
AcDbLine
 10
410.503381
 20
432.6
 30
0.0
 11
413.503381
 21
433.1
 31
0.0
  0
LINE
  5
2EC
100
AcDbEntity
  8
LAY-6
  6
CONTINUOUS
 62
     1
100
AcDbLine
 10
413.503381
 20
433.1
 30
0.0
 11
410.503381
 21
433.6
 31
0.0
  0
LINE
  5
2ED
100
AcDbEntity
  8
LAY-6
  6
CONTINUOUS
 62
     1
100
AcDbLine
 10
423.503397
 20
416.991089
 30
0.0
 11
423.503397
 21
434.6
 31
0.0
  0
TEXT
  5
2EE
100
AcDbEntity
  8
LAY-6
  6
CONTINUOUS
 62
     2
100
AcDbText
 10
414.503389
 20
433.6
 30
0.0
 40
5.0
  1
１０
 41
0.672
  7
EXCADSTD
 72
     5
 11
421.836189
 21
433.6
 31
0.0
100
AcDbText
  0
LINE
  5
2EF
100
AcDbEntity
  8
LAY-6
  6
CONTINUOUS
 62
     1
100
AcDbLine
 10
413.503381
 20
433.1
 30
0.0
 11
423.503397
 21
433.1
 31
0.0
  0
LINE
  5
2F0
100
AcDbEntity
  8
LAY-6
  6
CONTINUOUS
 62
     1
100
AcDbLine
 10
416.503381
 20
433.6
 30
0.0
 11
413.503381
 21
433.1
 31
0.0
  0
LINE
  5
2F1
100
AcDbEntity
  8
LAY-6
  6
CONTINUOUS
 62
     1
100
AcDbLine
 10
413.503381
 20
433.1
 30
0.0
 11
416.503381
 21
432.6
 31
0.0
  0
LINE
  5
2F2
100
AcDbEntity
  8
LAY-6
  6
CONTINUOUS
 62
     1
100
AcDbLine
 10
420.503397
 20
432.6
 30
0.0
 11
423.503397
 21
433.1
 31
0.0
  0
LINE
  5
2F3
100
AcDbEntity
  8
LAY-6
  6
CONTINUOUS
 62
     1
100
AcDbLine
 10
423.503397
 20
433.1
 30
0.0
 11
420.503397
 21
433.6
 31
0.0
  0
LINE
  5
2F4
100
AcDbEntity
  8
LAY-6
  6
CONTINUOUS
 62
     1
100
AcDbLine
 10
329.503371
 20
424.391363
 30
0.0
 11
329.503371
 21
445.2
 31
0.0
  0
LINE
  5
2F5
100
AcDbEntity
  8
LAY-6
  6
CONTINUOUS
 62
     1
100
AcDbLine
 10
333.503397
 20
434.6
 30
0.0
 11
333.503397
 21
445.2
 31
0.0
  0
TEXT
  5
2F6
100
AcDbEntity
  8
LAY-6
  6
CONTINUOUS
 62
     2
100
AcDbText
 10
329.503384
 20
444.2
 30
0.0
 40
5.0
  1
４
 41
0.672
  7
EXCADSTD
 72
     5
 11
332.703384
 21
444.2
 31
0.0
100
AcDbText
  0
LINE
  5
2F7
100
AcDbEntity
  8
LAY-6
  6
CONTINUOUS
 62
     1
100
AcDbLine
 10
324.503371
 20
443.7
 30
0.0
 11
329.503371
 21
443.7
 31
0.0
  0
LINE
  5
2F8
100
AcDbEntity
  8
LAY-6
  6
CONTINUOUS
 62
     1
100
AcDbLine
 10
333.503397
 20
443.7
 30
0.0
 11
338.503397
 21
443.7
 31
0.0
  0
LINE
  5
2F9
100
AcDbEntity
  8
LAY-6
  6
CONTINUOUS
 62
     1
100
AcDbLine
 10
326.503371
 20
443.2
 30
0.0
 11
329.503371
 21
443.7
 31
0.0
  0
LINE
  5
2FA
100
AcDbEntity
  8
LAY-6
  6
CONTINUOUS
 62
     1
100
AcDbLine
 10
329.503371
 20
443.7
 30
0.0
 11
326.503371
 21
444.2
 31
0.0
  0
LINE
  5
2FB
100
AcDbEntity
  8
LAY-6
  6
CONTINUOUS
 62
     1
100
AcDbLine
 10
336.503397
 20
444.2
 30
0.0
 11
333.503397
 21
443.7
 31
0.0
  0
LINE
  5
2FC
100
AcDbEntity
  8
LAY-6
  6
CONTINUOUS
 62
     1
100
AcDbLine
 10
333.503397
 20
443.7
 30
0.0
 11
336.503397
 21
443.2
 31
0.0
  0
LINE
  5
2FD
100
AcDbEntity
  8
LAY-6
  6
CONTINUOUS
 62
     1
100
AcDbLine
 10
423.503397
 20
434.6
 30
0.0
 11
423.503397
 21
445.2
 31
0.0
  0
TEXT
  5
2FE
100
AcDbEntity
  8
LAY-6
  6
CONTINUOUS
 62
     2
100
AcDbText
 10
374.503397
 20
444.2
 30
0.0
 40
5.0
  1
９０
 41
0.672
  7
EXCADSTD
 72
     5
 11
381.836197
 21
444.2
 31
0.0
100
AcDbText
  0
LINE
  5
2FF
100
AcDbEntity
  8
LAY-6
  6
CONTINUOUS
 62
     1
100
AcDbLine
 10
333.503397
 20
443.7
 30
0.0
 11
423.503397
 21
443.7
 31
0.0
  0
LINE
  5
300
100
AcDbEntity
  8
LAY-6
  6
CONTINUOUS
 62
     1
100
AcDbLine
 10
336.503397
 20
444.2
 30
0.0
 11
333.503397
 21
443.7
 31
0.0
  0
LINE
  5
301
100
AcDbEntity
  8
LAY-6
  6
CONTINUOUS
 62
     1
100
AcDbLine
 10
333.503397
 20
443.7
 30
0.0
 11
336.503397
 21
443.2
 31
0.0
  0
LINE
  5
302
100
AcDbEntity
  8
LAY-6
  6
CONTINUOUS
 62
     1
100
AcDbLine
 10
420.503397
 20
443.2
 30
0.0
 11
423.503397
 21
443.7
 31
0.0
  0
LINE
  5
303
100
AcDbEntity
  8
LAY-6
  6
CONTINUOUS
 62
     1
100
AcDbLine
 10
423.503397
 20
443.7
 30
0.0
 11
420.503397
 21
444.2
 31
0.0
  0
TEXT
  5
304
100
AcDbEntity
  8
LAY-6
  6
CONTINUOUS
 62
     2
100
AcDbText
 10
404.2
 20
393.491089
 30
0.0
 40
5.0
  1
７
 50
90.0
 41
0.672
  7
EXCADSTD
 72
     5
 11
404.2
 21
396.691089
 31
0.0
100
AcDbText
  0
LINE
  5
305
100
AcDbEntity
  8
LAY-6
  6
CONTINUOUS
 62
     1
100
AcDbLine
 10
397.3
 20
398.991089
 30
0.0
 11
406.2
 21
398.991089
 31
0.0
  0
LINE
  5
306
100
AcDbEntity
  8
LAY-6
  6
CONTINUOUS
 62
     1
100
AcDbLine
 10
404.7
 20
391.991089
 30
0.0
 11
404.7
 21
398.991089
 31
0.0
  0
LINE
  5
307
100
AcDbEntity
  8
LAY-6
  6
CONTINUOUS
 62
     1
100
AcDbLine
 10
404.2
 20
394.991089
 30
0.0
 11
404.7
 21
391.991089
 31
0.0
  0
LINE
  5
308
100
AcDbEntity
  8
LAY-6
  6
CONTINUOUS
 62
     1
100
AcDbLine
 10
404.7
 20
391.991089
 30
0.0
 11
405.2
 21
394.991089
 31
0.0
  0
LINE
  5
309
100
AcDbEntity
  8
LAY-6
  6
CONTINUOUS
 62
     1
100
AcDbLine
 10
405.2
 20
395.991089
 30
0.0
 11
404.7
 21
398.991089
 31
0.0
  0
LINE
  5
30A
100
AcDbEntity
  8
LAY-6
  6
CONTINUOUS
 62
     1
100
AcDbLine
 10
404.7
 20
398.991089
 30
0.0
 11
404.2
 21
395.991089
 31
0.0
  0
LINE
  5
30B
100
AcDbEntity
  8
LAY-6
  6
CONTINUOUS
 62
     1
100
AcDbLine
 10
405.503397
 20
410.991089
 30
0.0
 11
403.2
 21
410.991089
 31
0.0
  0
TEXT
  5
30C
100
AcDbEntity
  8
LAY-6
  6
CONTINUOUS
 62
     2
100
AcDbText
 10
404.2
 20
400.991089
 30
0.0
 40
5.0
  1
１２
 50
90.0
 41
0.672
  7
EXCADSTD
 72
     5
 11
404.2
 21
408.323889
 31
0.0
100
AcDbText
  0
LINE
  5
30D
100
AcDbEntity
  8
LAY-6
  6
CONTINUOUS
 62
     1
100
AcDbLine
 10
404.7
 20
398.991089
 30
0.0
 11
404.7
 21
410.991089
 31
0.0
  0
LINE
  5
30E
100
AcDbEntity
  8
LAY-6
  6
CONTINUOUS
 62
     1
100
AcDbLine
 10
404.2
 20
401.991089
 30
0.0
 11
404.7
 21
398.991089
 31
0.0
  0
LINE
  5
30F
100
AcDbEntity
  8
LAY-6
  6
CONTINUOUS
 62
     1
100
AcDbLine
 10
404.7
 20
398.991089
 30
0.0
 11
405.2
 21
401.991089
 31
0.0
  0
LINE
  5
310
100
AcDbEntity
  8
LAY-6
  6
CONTINUOUS
 62
     1
100
AcDbLine
 10
405.2
 20
407.991089
 30
0.0
 11
404.7
 21
410.991089
 31
0.0
  0
LINE
  5
311
100
AcDbEntity
  8
LAY-6
  6
CONTINUOUS
 62
     1
100
AcDbLine
 10
404.7
 20
410.991089
 30
0.0
 11
404.2
 21
407.991089
 31
0.0
  0
LINE
  5
312
100
AcDbEntity
  8
LAY-6
  6
CONTINUOUS
 62
     1
100
AcDbLine
 10
329.503381
 20
341.991119
 30
0.0
 11
329.503381
 21
339.4
 31
0.0
  0
LINE
  5
313
100
AcDbEntity
  8
LAY-6
  6
CONTINUOUS
 62
     1
100
AcDbLine
 10
387.503427
 20
377.847504
 30
0.0
 11
387.503427
 21
339.4
 31
0.0
  0
TEXT
  5
314
100
AcDbEntity
  8
LAY-6
  6
CONTINUOUS
 62
     2
100
AcDbText
 10
354.503404
 20
341.4
 30
0.0
 40
5.0
  1
５８
 41
0.672
  7
EXCADSTD
 72
     5
 11
361.836204
 21
341.4
 31
0.0
100
AcDbText
  0
LINE
  5
315
100
AcDbEntity
  8
LAY-6
  6
CONTINUOUS
 62
     1
100
AcDbLine
 10
329.503381
 20
340.9
 30
0.0
 11
387.503427
 21
340.9
 31
0.0
  0
LINE
  5
316
100
AcDbEntity
  8
LAY-6
  6
CONTINUOUS
 62
     1
100
AcDbLine
 10
332.503381
 20
341.4
 30
0.0
 11
329.503381
 21
340.9
 31
0.0
  0
LINE
  5
317
100
AcDbEntity
  8
LAY-6
  6
CONTINUOUS
 62
     1
100
AcDbLine
 10
329.503381
 20
340.9
 30
0.0
 11
332.503381
 21
340.4
 31
0.0
  0
LINE
  5
318
100
AcDbEntity
  8
LAY-6
  6
CONTINUOUS
 62
     1
100
AcDbLine
 10
384.503427
 20
340.4
 30
0.0
 11
387.503427
 21
340.9
 31
0.0
  0
LINE
  5
319
100
AcDbEntity
  8
LAY-6
  6
CONTINUOUS
 62
     1
100
AcDbLine
 10
387.503427
 20
340.9
 30
0.0
 11
384.503427
 21
341.4
 31
0.0
  0
LINE
  5
31A
100
AcDbEntity
  8
LAY-6
  6
CONTINUOUS
 62
     1
100
AcDbLine
 10
329.503397
 20
176.616028
 30
0.0
 11
329.503397
 21
170.8
 31
0.0
  0
LINE
  5
31B
100
AcDbEntity
  8
LAY-6
  6
CONTINUOUS
 62
     1
100
AcDbLine
 10
387.503442
 20
210.917755
 30
0.0
 11
387.503442
 21
170.8
 31
0.0
  0
TEXT
  5
31C
100
AcDbEntity
  8
LAY-6
  6
CONTINUOUS
 62
     2
100
AcDbText
 10
354.503419
 20
172.8
 30
0.0
 40
5.0
  1
５８
 41
0.672
  7
EXCADSTD
 72
     5
 11
361.836219
 21
172.8
 31
0.0
100
AcDbText
  0
LINE
  5
31D
100
AcDbEntity
  8
LAY-6
  6
CONTINUOUS
 62
     1
100
AcDbLine
 10
329.503397
 20
172.3
 30
0.0
 11
387.503442
 21
172.3
 31
0.0
  0
LINE
  5
31E
100
AcDbEntity
  8
LAY-6
  6
CONTINUOUS
 62
     1
100
AcDbLine
 10
332.503397
 20
172.8
 30
0.0
 11
329.503397
 21
172.3
 31
0.0
  0
LINE
  5
31F
100
AcDbEntity
  8
LAY-6
  6
CONTINUOUS
 62
     1
100
AcDbLine
 10
329.503397
 20
172.3
 30
0.0
 11
332.503397
 21
171.8
 31
0.0
  0
LINE
  5
320
100
AcDbEntity
  8
LAY-6
  6
CONTINUOUS
 62
     1
100
AcDbLine
 10
384.503442
 20
171.8
 30
0.0
 11
387.503442
 21
172.3
 31
0.0
  0
LINE
  5
321
100
AcDbEntity
  8
LAY-6
  6
CONTINUOUS
 62
     1
100
AcDbLine
 10
387.503442
 20
172.3
 30
0.0
 11
384.503442
 21
172.8
 31
0.0
  0
TEXT
  5
322
100
AcDbEntity
  8
LAY-6
  6
CONTINUOUS
 62
     2
100
AcDbText
 10
410.1
 20
204.061314
 30
0.0
 40
5.0
  1
２２
 50
90.0
 41
0.672
  7
EXCADSTD
 72
     5
 11
410.1
 21
211.394114
 31
0.0
100
AcDbText
  0
LINE
  5
323
100
AcDbEntity
  8
LAY-6
  6
CONTINUOUS
 62
     1
100
AcDbLine
 10
383.415378
 20
197.061312
 30
0.0
 11
412.1
 21
197.061312
 31
0.0
  0
LINE
  5
324
100
AcDbEntity
  8
LAY-6
  6
CONTINUOUS
 62
     1
100
AcDbLine
 10
410.6
 20
197.061312
 30
0.0
 11
410.6
 21
219.061316
 31
0.0
  0
LINE
  5
325
100
AcDbEntity
  8
LAY-6
  6
CONTINUOUS
 62
     1
100
AcDbLine
 10
410.1
 20
200.061312
 30
0.0
 11
410.6
 21
197.061312
 31
0.0
  0
LINE
  5
326
100
AcDbEntity
  8
LAY-6
  6
CONTINUOUS
 62
     1
100
AcDbLine
 10
410.6
 20
197.061312
 30
0.0
 11
411.1
 21
200.061312
 31
0.0
  0
LINE
  5
327
100
AcDbEntity
  8
LAY-6
  6
CONTINUOUS
 62
     1
100
AcDbLine
 10
411.1
 20
216.061316
 30
0.0
 11
410.6
 21
219.061316
 31
0.0
  0
LINE
  5
328
100
AcDbEntity
  8
LAY-6
  6
CONTINUOUS
 62
     1
100
AcDbLine
 10
410.6
 20
219.061316
 30
0.0
 11
410.1
 21
216.061316
 31
0.0
  0
LINE
  5
329
100
AcDbEntity
  8
LAY-6
  6
CONTINUOUS
 62
     1
100
AcDbLine
 10
380.503412
 20
256.06131
 30
0.0
 11
412.1
 21
256.06131
 31
0.0
  0
TEXT
  5
32A
100
AcDbEntity
  8
LAY-6
  6
CONTINUOUS
 62
     2
100
AcDbText
 10
410.1
 20
233.561313
 30
0.0
 40
5.0
  1
３７
 50
90.0
 41
0.672
  7
EXCADSTD
 72
     5
 11
410.1
 21
240.894113
 31
0.0
100
AcDbText
  0
LINE
  5
32B
100
AcDbEntity
  8
LAY-6
  6
CONTINUOUS
 62
     1
100
AcDbLine
 10
410.6
 20
219.061316
 30
0.0
 11
410.6
 21
256.06131
 31
0.0
  0
LINE
  5
32C
100
AcDbEntity
  8
LAY-6
  6
CONTINUOUS
 62
     1
100
AcDbLine
 10
410.1
 20
222.061316
 30
0.0
 11
410.6
 21
219.061316
 31
0.0
  0
LINE
  5
32D
100
AcDbEntity
  8
LAY-6
  6
CONTINUOUS
 62
     1
100
AcDbLine
 10
410.6
 20
219.061316
 30
0.0
 11
411.1
 21
222.061316
 31
0.0
  0
LINE
  5
32E
100
AcDbEntity
  8
LAY-6
  6
CONTINUOUS
 62
     1
100
AcDbLine
 10
411.1
 20
253.06131
 30
0.0
 11
410.6
 21
256.06131
 31
0.0
  0
LINE
  5
32F
100
AcDbEntity
  8
LAY-6
  6
CONTINUOUS
 62
     1
100
AcDbLine
 10
410.6
 20
256.06131
 30
0.0
 11
410.1
 21
253.06131
 31
0.0
  0
LINE
  5
330
100
AcDbEntity
  8
LAY-6
  6
CONTINUOUS
 62
     1
100
AcDbLine
 10
628.354619
 20
410.750595
 30
0.0
 11
628.354619
 21
425.4
 31
0.0
  0
LINE
  5
331
100
AcDbEntity
  8
LAY-6
  6
CONTINUOUS
 62
     1
100
AcDbLine
 10
647.354589
 20
412.215201
 30
0.0
 11
647.354589
 21
425.4
 31
0.0
  0
TEXT
  5
332
100
AcDbEntity
  8
LAY-6
  6
CONTINUOUS
 62
     2
100
AcDbText
 10
633.854604
 20
424.4
 30
0.0
 40
5.0
  1
１９
 41
0.672
  7
EXCADSTD
 72
     5
 11
641.187404
 21
424.4
 31
0.0
100
AcDbText
  0
LINE
  5
333
100
AcDbEntity
  8
LAY-6
  6
CONTINUOUS
 62
     1
100
AcDbLine
 10
628.354619
 20
423.9
 30
0.0
 11
647.354589
 21
423.9
 31
0.0
  0
LINE
  5
334
100
AcDbEntity
  8
LAY-6
  6
CONTINUOUS
 62
     1
100
AcDbLine
 10
631.354619
 20
424.4
 30
0.0
 11
628.354619
 21
423.9
 31
0.0
  0
LINE
  5
335
100
AcDbEntity
  8
LAY-6
  6
CONTINUOUS
 62
     1
100
AcDbLine
 10
628.354619
 20
423.9
 30
0.0
 11
631.354619
 21
423.4
 31
0.0
  0
LINE
  5
336
100
AcDbEntity
  8
LAY-6
  6
CONTINUOUS
 62
     1
100
AcDbLine
 10
644.354589
 20
423.4
 30
0.0
 11
647.354589
 21
423.9
 31
0.0
  0
LINE
  5
337
100
AcDbEntity
  8
LAY-6
  6
CONTINUOUS
 62
     1
100
AcDbLine
 10
647.354589
 20
423.9
 30
0.0
 11
644.354589
 21
424.4
 31
0.0
  0
LINE
  5
338
100
AcDbEntity
  8
LAY-6
  6
CONTINUOUS
 62
     1
100
AcDbLine
 10
687.354619
 20
406.315201
 30
0.0
 11
687.354619
 21
425.4
 31
0.0
  0
TEXT
  5
339
100
AcDbEntity
  8
LAY-6
  6
CONTINUOUS
 62
     2
100
AcDbText
 10
663.354604
 20
424.4
 30
0.0
 40
5.0
  1
４０
 41
0.672
  7
EXCADSTD
 72
     5
 11
670.687404
 21
424.4
 31
0.0
100
AcDbText
  0
LINE
  5
33A
100
AcDbEntity
  8
LAY-6
  6
CONTINUOUS
 62
     1
100
AcDbLine
 10
647.354589
 20
423.9
 30
0.0
 11
687.354619
 21
423.9
 31
0.0
  0
LINE
  5
33B
100
AcDbEntity
  8
LAY-6
  6
CONTINUOUS
 62
     1
100
AcDbLine
 10
650.354589
 20
424.4
 30
0.0
 11
647.354589
 21
423.9
 31
0.0
  0
LINE
  5
33C
100
AcDbEntity
  8
LAY-6
  6
CONTINUOUS
 62
     1
100
AcDbLine
 10
647.354589
 20
423.9
 30
0.0
 11
650.354589
 21
423.4
 31
0.0
  0
LINE
  5
33D
100
AcDbEntity
  8
LAY-6
  6
CONTINUOUS
 62
     1
100
AcDbLine
 10
684.354619
 20
423.4
 30
0.0
 11
687.354619
 21
423.9
 31
0.0
  0
LINE
  5
33E
100
AcDbEntity
  8
LAY-6
  6
CONTINUOUS
 62
     1
100
AcDbLine
 10
687.354619
 20
423.9
 30
0.0
 11
684.354619
 21
424.4
 31
0.0
  0
TEXT
  5
33F
100
AcDbEntity
  8
LAY-6
  6
CONTINUOUS
 62
     2
100
AcDbText
 10
635.354818
 20
359.5
 30
0.0
 40
5.0
  1
２２
 41
0.672
  7
EXCADSTD
 72
     5
 11
642.687618
 21
359.5
 31
0.0
100
AcDbText
  0
LINE
  5
340
100
AcDbEntity
  8
LAY-6
  6
CONTINUOUS
 62
     1
100
AcDbLine
 10
628.354619
 20
373.866226
 30
0.0
 11
628.354619
 21
357.5
 31
0.0
  0
LINE
  5
341
100
AcDbEntity
  8
LAY-6
  6
CONTINUOUS
 62
     1
100
AcDbLine
 10
628.354619
 20
359.0
 30
0.0
 11
650.355016
 21
359.0
 31
0.0
  0
LINE
  5
342
100
AcDbEntity
  8
LAY-6
  6
CONTINUOUS
 62
     1
100
AcDbLine
 10
631.354619
 20
359.5
 30
0.0
 11
628.354619
 21
359.0
 31
0.0
  0
LINE
  5
343
100
AcDbEntity
  8
LAY-6
  6
CONTINUOUS
 62
     1
100
AcDbLine
 10
628.354619
 20
359.0
 30
0.0
 11
631.354619
 21
358.5
 31
0.0
  0
LINE
  5
344
100
AcDbEntity
  8
LAY-6
  6
CONTINUOUS
 62
     1
100
AcDbLine
 10
647.355016
 20
358.5
 30
0.0
 11
650.355016
 21
359.0
 31
0.0
  0
LINE
  5
345
100
AcDbEntity
  8
LAY-6
  6
CONTINUOUS
 62
     1
100
AcDbLine
 10
650.355016
 20
359.0
 30
0.0
 11
647.355016
 21
359.5
 31
0.0
  0
LINE
  5
346
100
AcDbEntity
  8
LAY-6
  6
CONTINUOUS
 62
     1
100
AcDbLine
 10
683.354619
 20
383.315231
 30
0.0
 11
683.354619
 21
357.5
 31
0.0
  0
TEXT
  5
347
100
AcDbEntity
  8
LAY-6
  6
CONTINUOUS
 62
     2
100
AcDbText
 10
662.854817
 20
359.5
 30
0.0
 40
5.0
  1
３３
 41
0.672
  7
EXCADSTD
 72
     5
 11
670.187617
 21
359.5
 31
0.0
100
AcDbText
  0
LINE
  5
348
100
AcDbEntity
  8
LAY-6
  6
CONTINUOUS
 62
     1
100
AcDbLine
 10
650.355016
 20
359.0
 30
0.0
 11
683.354619
 21
359.0
 31
0.0
  0
LINE
  5
349
100
AcDbEntity
  8
LAY-6
  6
CONTINUOUS
 62
     1
100
AcDbLine
 10
653.355016
 20
359.5
 30
0.0
 11
650.355016
 21
359.0
 31
0.0
  0
LINE
  5
34A
100
AcDbEntity
  8
LAY-6
  6
CONTINUOUS
 62
     1
100
AcDbLine
 10
650.355016
 20
359.0
 30
0.0
 11
653.355016
 21
358.5
 31
0.0
  0
LINE
  5
34B
100
AcDbEntity
  8
LAY-6
  6
CONTINUOUS
 62
     1
100
AcDbLine
 10
680.354619
 20
358.5
 30
0.0
 11
683.354619
 21
359.0
 31
0.0
  0
LINE
  5
34C
100
AcDbEntity
  8
LAY-6
  6
CONTINUOUS
 62
     1
100
AcDbLine
 10
683.354619
 20
359.0
 30
0.0
 11
680.354619
 21
359.5
 31
0.0
  0
TEXT
  5
34D
100
AcDbEntity
  8
LAY-6
  6
CONTINUOUS
 62
     2
100
AcDbText
 10
641.377294
 20
384.315231
 30
0.0
 40
5.0
  1
９
 50
90.0
 41
0.672
  7
EXCADSTD
 72
     5
 11
641.377294
 21
387.515231
 31
0.0
100
AcDbText
  0
LINE
  5
34E
100
AcDbEntity
  8
LAY-6
  6
CONTINUOUS
 62
     1
100
AcDbLine
 10
649.854589
 20
381.815231
 30
0.0
 11
640.377294
 21
381.815231
 31
0.0
  0
LINE
  5
34F
100
AcDbEntity
  8
LAY-6
  6
CONTINUOUS
 62
     1
100
AcDbLine
 10
641.877294
 20
390.815231
 30
0.0
 11
641.877294
 21
381.815231
 31
0.0
  0
LINE
  5
350
100
AcDbEntity
  8
LAY-6
  6
CONTINUOUS
 62
     1
100
AcDbLine
 10
642.377294
 20
387.815231
 30
0.0
 11
641.877294
 21
390.815231
 31
0.0
  0
LINE
  5
351
100
AcDbEntity
  8
LAY-6
  6
CONTINUOUS
 62
     1
100
AcDbLine
 10
641.877294
 20
390.815231
 30
0.0
 11
641.377294
 21
387.815231
 31
0.0
  0
LINE
  5
352
100
AcDbEntity
  8
LAY-6
  6
CONTINUOUS
 62
     1
100
AcDbLine
 10
641.377294
 20
384.815231
 30
0.0
 11
641.877294
 21
381.815231
 31
0.0
  0
LINE
  5
353
100
AcDbEntity
  8
LAY-6
  6
CONTINUOUS
 62
     1
100
AcDbLine
 10
641.877294
 20
381.815231
 30
0.0
 11
642.377294
 21
384.815231
 31
0.0
  0
LINE
  5
354
100
AcDbEntity
  8
LAY-6
  6
CONTINUOUS
 62
     1
100
AcDbLine
 10
611.354619
 20
376.815231
 30
0.0
 11
601.077294
 21
376.815231
 31
0.0
  0
LINE
  5
355
100
AcDbEntity
  8
LAY-6
  6
CONTINUOUS
 62
     1
100
AcDbLine
 10
610.354619
 20
390.815231
 30
0.0
 11
601.077294
 21
390.815231
 31
0.0
  0
TEXT
  5
356
100
AcDbEntity
  8
LAY-6
  6
CONTINUOUS
 62
     2
100
AcDbText
 10
602.077294
 20
379.815231
 30
0.0
 40
5.0
  1
１４
 50
90.0
 41
0.672
  7
EXCADSTD
 72
     5
 11
602.077294
 21
387.148031
 31
0.0
100
AcDbText
  0
LINE
  5
357
100
AcDbEntity
  8
LAY-6
  6
CONTINUOUS
 62
     1
100
AcDbLine
 10
602.577294
 20
376.815231
 30
0.0
 11
602.577294
 21
390.815231
 31
0.0
  0
LINE
  5
358
100
AcDbEntity
  8
LAY-6
  6
CONTINUOUS
 62
     1
100
AcDbLine
 10
602.077294
 20
379.815231
 30
0.0
 11
602.577294
 21
376.815231
 31
0.0
  0
LINE
  5
359
100
AcDbEntity
  8
LAY-6
  6
CONTINUOUS
 62
     1
100
AcDbLine
 10
602.577294
 20
376.815231
 30
0.0
 11
603.077294
 21
379.815231
 31
0.0
  0
LINE
  5
35A
100
AcDbEntity
  8
LAY-6
  6
CONTINUOUS
 62
     1
100
AcDbLine
 10
603.077294
 20
387.815231
 30
0.0
 11
602.577294
 21
390.815231
 31
0.0
  0
LINE
  5
35B
100
AcDbEntity
  8
LAY-6
  6
CONTINUOUS
 62
     1
100
AcDbLine
 10
602.577294
 20
390.815231
 30
0.0
 11
602.077294
 21
387.815231
 31
0.0
  0
LINE
  5
35C
100
AcDbEntity
  8
LAY-6
  6
CONTINUOUS
 62
     1
100
AcDbLine
 10
611.354589
 20
393.815201
 30
0.0
 11
601.077294
 21
393.815201
 31
0.0
  0
TEXT
  5
35D
100
AcDbEntity
  8
LAY-6
  6
CONTINUOUS
 62
     2
100
AcDbText
 10
595.277294
 20
378.215216
 30
0.0
 40
5.0
  1
２．５～４．５
 50
90.0
 41
0.672
  7
EXCADSTD
 72
     5
 11
595.277294
 21
406.215216
 31
0.0
100
AcDbText
  0
LINE
  5
35E
100
AcDbEntity
  8
LAY-6
  6
CONTINUOUS
 62
     1
100
AcDbLine
 10
610.354589
 20
407.815201
 30
0.0
 11
601.077294
 21
407.815201
 31
0.0
  0
TEXT
  5
35F
100
AcDbEntity
  8
LAY-6
  6
CONTINUOUS
 62
     2
100
AcDbText
 10
602.077294
 20
396.815201
 30
0.0
 40
5.0
  1
１４
 50
90.0
 41
0.672
  7
EXCADSTD
 72
     5
 11
602.077294
 21
404.148001
 31
0.0
100
AcDbText
  0
LINE
  5
360
100
AcDbEntity
  8
LAY-6
  6
CONTINUOUS
 62
     1
100
AcDbLine
 10
602.577294
 20
393.815201
 30
0.0
 11
602.577294
 21
407.815201
 31
0.0
  0
LINE
  5
361
100
AcDbEntity
  8
LAY-6
  6
CONTINUOUS
 62
     1
100
AcDbLine
 10
602.077294
 20
396.815201
 30
0.0
 11
602.577294
 21
393.815201
 31
0.0
  0
LINE
  5
362
100
AcDbEntity
  8
LAY-6
  6
CONTINUOUS
 62
     1
100
AcDbLine
 10
602.577294
 20
393.815201
 30
0.0
 11
603.077294
 21
396.815201
 31
0.0
  0
LINE
  5
363
100
AcDbEntity
  8
LAY-6
  6
CONTINUOUS
 62
     1
100
AcDbLine
 10
603.077294
 20
404.815201
 30
0.0
 11
602.577294
 21
407.815201
 31
0.0
  0
LINE
  5
364
100
AcDbEntity
  8
LAY-6
  6
CONTINUOUS
 62
     1
100
AcDbLine
 10
602.577294
 20
407.815201
 30
0.0
 11
602.077294
 21
404.815201
 31
0.0
  0
LINE
  5
365
100
AcDbEntity
  8
LAY-6
  6
CONTINUOUS
 62
     1
100
AcDbLine
 10
692.354589
 20
393.815201
 30
0.0
 11
705.077294
 21
393.815201
 31
0.0
  0
LINE
  5
366
100
AcDbEntity
  8
LAY-6
  6
CONTINUOUS
 62
     1
100
AcDbLine
 10
685.854619
 20
398.815201
 30
0.0
 11
705.077294
 21
398.815201
 31
0.0
  0
TEXT
  5
367
100
AcDbEntity
  8
LAY-6
  6
CONTINUOUS
 62
     2
100
AcDbText
 10
703.177294
 20
363.215201
 30
0.0
 40
5.0
  1
４．５～６．５
 50
90.0
 41
0.672
  7
EXCADSTD
 72
     5
 11
703.177294
 21
391.215201
 31
0.0
100
AcDbText
  0
LINE
  5
368
100
AcDbEntity
  8
LAY-6
  6
CONTINUOUS
 62
     1
100
AcDbLine
 10
703.577294
 20
388.815201
 30
0.0
 11
703.577294
 21
393.815201
 31
0.0
  0
LINE
  5
369
100
AcDbEntity
  8
LAY-6
  6
CONTINUOUS
 62
     1
100
AcDbLine
 10
703.577294
 20
398.815201
 30
0.0
 11
703.577294
 21
403.815201
 31
0.0
  0
LINE
  5
36A
100
AcDbEntity
  8
LAY-6
  6
CONTINUOUS
 62
     1
100
AcDbLine
 10
704.077294
 20
390.815201
 30
0.0
 11
703.577294
 21
393.815201
 31
0.0
  0
LINE
  5
36B
100
AcDbEntity
  8
LAY-6
  6
CONTINUOUS
 62
     1
100
AcDbLine
 10
703.577294
 20
393.815201
 30
0.0
 11
703.077294
 21
390.815201
 31
0.0
  0
LINE
  5
36C
100
AcDbEntity
  8
LAY-6
  6
CONTINUOUS
 62
     1
100
AcDbLine
 10
703.077294
 20
401.815201
 30
0.0
 11
703.577294
 21
398.815201
 31
0.0
  0
LINE
  5
36D
100
AcDbEntity
  8
LAY-6
  6
CONTINUOUS
 62
     1
100
AcDbLine
 10
703.577294
 20
398.815201
 30
0.0
 11
704.077294
 21
401.815201
 31
0.0
  0
LINE
  5
36E
100
AcDbEntity
  8
LAY-6
  6
CONTINUOUS
 62
     1
100
AcDbLine
 10
685.854619
 20
407.815201
 30
0.0
 11
705.077294
 21
407.815201
 31
0.0
  0
TEXT
  5
36F
100
AcDbEntity
  8
LAY-6
  6
CONTINUOUS
 62
     2
100
AcDbText
 10
703.077294
 20
401.315201
 30
0.0
 40
5.0
  1
９
 50
90.0
 41
0.672
  7
EXCADSTD
 72
     5
 11
703.077294
 21
404.515201
 31
0.0
100
AcDbText
  0
LINE
  5
370
100
AcDbEntity
  8
LAY-6
  6
CONTINUOUS
 62
     1
100
AcDbLine
 10
703.577294
 20
398.815201
 30
0.0
 11
703.577294
 21
407.815201
 31
0.0
  0
LINE
  5
371
100
AcDbEntity
  8
LAY-6
  6
CONTINUOUS
 62
     1
100
AcDbLine
 10
703.077294
 20
401.815201
 30
0.0
 11
703.577294
 21
398.815201
 31
0.0
  0
LINE
  5
372
100
AcDbEntity
  8
LAY-6
  6
CONTINUOUS
 62
     1
100
AcDbLine
 10
703.577294
 20
398.815201
 30
0.0
 11
704.077294
 21
401.815201
 31
0.0
  0
LINE
  5
373
100
AcDbEntity
  8
LAY-6
  6
CONTINUOUS
 62
     1
100
AcDbLine
 10
704.077294
 20
404.815201
 30
0.0
 11
703.577294
 21
407.815201
 31
0.0
  0
LINE
  5
374
100
AcDbEntity
  8
LAY-6
  6
CONTINUOUS
 62
     1
100
AcDbLine
 10
703.577294
 20
407.815201
 30
0.0
 11
703.077294
 21
404.815201
 31
0.0
  0
LINE
  5
375
100
AcDbEntity
  8
LAY-6
  6
CONTINUOUS
 62
     1
100
AcDbLine
 10
650.354588
 20
296.999909
 30
0.0
 11
650.354588
 21
258.3
 31
0.0
  0
LINE
  5
376
100
AcDbEntity
  8
LAY-6
  6
CONTINUOUS
 62
     1
100
AcDbLine
 10
690.354588
 20
296.999909
 30
0.0
 11
690.354588
 21
258.3
 31
0.0
  0
TEXT
  5
377
100
AcDbEntity
  8
LAY-6
  6
CONTINUOUS
 62
     2
100
AcDbText
 10
662.354588
 20
260.3
 30
0.0
 40
5.0
  1
４０以上
 41
0.672
  7
EXCADSTD
 72
     5
 11
678.354588
 21
260.3
 31
0.0
100
AcDbText
  0
LINE
  5
378
100
AcDbEntity
  8
LAY-6
  6
CONTINUOUS
 62
     1
100
AcDbLine
 10
650.354588
 20
259.8
 30
0.0
 11
690.354588
 21
259.8
 31
0.0
  0
LINE
  5
379
100
AcDbEntity
  8
LAY-6
  6
CONTINUOUS
 62
     1
100
AcDbLine
 10
653.354588
 20
260.3
 30
0.0
 11
650.354588
 21
259.8
 31
0.0
  0
LINE
  5
37A
100
AcDbEntity
  8
LAY-6
  6
CONTINUOUS
 62
     1
100
AcDbLine
 10
650.354588
 20
259.8
 30
0.0
 11
653.354588
 21
259.3
 31
0.0
  0
LINE
  5
37B
100
AcDbEntity
  8
LAY-6
  6
CONTINUOUS
 62
     1
100
AcDbLine
 10
687.354588
 20
259.3
 30
0.0
 11
690.354588
 21
259.8
 31
0.0
  0
LINE
  5
37C
100
AcDbEntity
  8
LAY-6
  6
CONTINUOUS
 62
     1
100
AcDbLine
 10
690.354588
 20
259.8
 30
0.0
 11
687.354588
 21
260.3
 31
0.0
  0
TEXT
  5
37D
100
AcDbEntity
  8
LAY-6
  6
CONTINUOUS
 62
     2
100
AcDbText
 10
635.354619
 20
232.1
 30
0.0
 40
5.0
  1
２２
 41
0.672
  7
EXCADSTD
 72
     5
 11
642.687419
 21
232.1
 31
0.0
100
AcDbText
  0
LINE
  5
37E
100
AcDbEntity
  8
LAY-6
  6
CONTINUOUS
 62
     1
100
AcDbLine
 10
628.35465
 20
211.056885
 30
0.0
 11
628.35465
 21
233.1
 31
0.0
  0
LINE
  5
37F
100
AcDbEntity
  8
LAY-6
  6
CONTINUOUS
 62
     1
100
AcDbLine
 10
628.35465
 20
231.6
 30
0.0
 11
650.354588
 21
231.6
 31
0.0
  0
LINE
  5
380
100
AcDbEntity
  8
LAY-6
  6
CONTINUOUS
 62
     1
100
AcDbLine
 10
631.35465
 20
232.1
 30
0.0
 11
628.35465
 21
231.6
 31
0.0
  0
LINE
  5
381
100
AcDbEntity
  8
LAY-6
  6
CONTINUOUS
 62
     1
100
AcDbLine
 10
628.35465
 20
231.6
 30
0.0
 11
631.35465
 21
231.1
 31
0.0
  0
LINE
  5
382
100
AcDbEntity
  8
LAY-6
  6
CONTINUOUS
 62
     1
100
AcDbLine
 10
647.354588
 20
231.1
 30
0.0
 11
650.354588
 21
231.6
 31
0.0
  0
LINE
  5
383
100
AcDbEntity
  8
LAY-6
  6
CONTINUOUS
 62
     1
100
AcDbLine
 10
650.354588
 20
231.6
 30
0.0
 11
647.354588
 21
232.1
 31
0.0
  0
TEXT
  5
384
100
AcDbEntity
  8
LAY-6
  6
CONTINUOUS
 62
     2
100
AcDbText
 10
663.354619
 20
232.1
 30
0.0
 40
5.0
  1
３４
 41
0.672
  7
EXCADSTD
 72
     5
 11
670.687419
 21
232.1
 31
0.0
100
AcDbText
  0
LINE
  5
385
100
AcDbEntity
  8
LAY-6
  6
CONTINUOUS
 62
     1
100
AcDbLine
 10
684.35465
 20
201.465485
 30
0.0
 11
684.35465
 21
233.1
 31
0.0
  0
LINE
  5
386
100
AcDbEntity
  8
LAY-6
  6
CONTINUOUS
 62
     1
100
AcDbLine
 10
650.354588
 20
231.6
 30
0.0
 11
684.35465
 21
231.6
 31
0.0
  0
LINE
  5
387
100
AcDbEntity
  8
LAY-6
  6
CONTINUOUS
 62
     1
100
AcDbLine
 10
653.354588
 20
232.1
 30
0.0
 11
650.354588
 21
231.6
 31
0.0
  0
LINE
  5
388
100
AcDbEntity
  8
LAY-6
  6
CONTINUOUS
 62
     1
100
AcDbLine
 10
650.354588
 20
231.6
 30
0.0
 11
653.354588
 21
231.1
 31
0.0
  0
LINE
  5
389
100
AcDbEntity
  8
LAY-6
  6
CONTINUOUS
 62
     1
100
AcDbLine
 10
681.35465
 20
231.1
 30
0.0
 11
684.35465
 21
231.6
 31
0.0
  0
LINE
  5
38A
100
AcDbEntity
  8
LAY-6
  6
CONTINUOUS
 62
     1
100
AcDbLine
 10
684.35465
 20
231.6
 30
0.0
 11
681.35465
 21
232.1
 31
0.0
  0
LINE
  5
38B
100
AcDbEntity
  8
LAY-6
  6
CONTINUOUS
 62
     1
100
AcDbLine
 10
628.35465
 20
168.453857
 30
0.0
 11
628.35465
 21
152.8
 31
0.0
  0
LINE
  5
38C
100
AcDbEntity
  8
LAY-6
  6
CONTINUOUS
 62
     1
100
AcDbLine
 10
650.255766
 20
162.965455
 30
0.0
 11
650.255766
 21
152.8
 31
0.0
  0
TEXT
  5
38D
100
AcDbEntity
  8
LAY-6
  6
CONTINUOUS
 62
     2
100
AcDbText
 10
635.305208
 20
154.8
 30
0.0
 40
5.0
  1
２２
 41
0.672
  7
EXCADSTD
 72
     5
 11
642.638008
 21
154.8
 31
0.0
100
AcDbText
  0
LINE
  5
38E
100
AcDbEntity
  8
LAY-6
  6
CONTINUOUS
 62
     1
100
AcDbLine
 10
628.35465
 20
154.3
 30
0.0
 11
650.255766
 21
154.3
 31
0.0
  0
LINE
  5
38F
100
AcDbEntity
  8
LAY-6
  6
CONTINUOUS
 62
     1
100
AcDbLine
 10
631.35465
 20
154.8
 30
0.0
 11
628.35465
 21
154.3
 31
0.0
  0
LINE
  5
390
100
AcDbEntity
  8
LAY-6
  6
CONTINUOUS
 62
     1
100
AcDbLine
 10
628.35465
 20
154.3
 30
0.0
 11
631.35465
 21
153.8
 31
0.0
  0
LINE
  5
391
100
AcDbEntity
  8
LAY-6
  6
CONTINUOUS
 62
     1
100
AcDbLine
 10
647.255766
 20
153.8
 30
0.0
 11
650.255766
 21
154.3
 31
0.0
  0
LINE
  5
392
100
AcDbEntity
  8
LAY-6
  6
CONTINUOUS
 62
     1
100
AcDbLine
 10
650.255766
 20
154.3
 30
0.0
 11
647.255766
 21
154.8
 31
0.0
  0
LINE
  5
393
100
AcDbEntity
  8
LAY-6
  6
CONTINUOUS
 62
     1
100
AcDbLine
 10
687.35465
 20
173.465546
 30
0.0
 11
687.35465
 21
152.8
 31
0.0
  0
TEXT
  5
394
100
AcDbEntity
  8
LAY-6
  6
CONTINUOUS
 62
     2
100
AcDbText
 10
664.805208
 20
154.8
 30
0.0
 40
5.0
  1
３７
 41
0.672
  7
EXCADSTD
 72
     5
 11
672.138008
 21
154.8
 31
0.0
100
AcDbText
  0
LINE
  5
395
100
AcDbEntity
  8
LAY-6
  6
CONTINUOUS
 62
     1
100
AcDbLine
 10
650.255766
 20
154.3
 30
0.0
 11
687.35465
 21
154.3
 31
0.0
  0
LINE
  5
396
100
AcDbEntity
  8
LAY-6
  6
CONTINUOUS
 62
     1
100
AcDbLine
 10
653.255766
 20
154.8
 30
0.0
 11
650.255766
 21
154.3
 31
0.0
  0
LINE
  5
397
100
AcDbEntity
  8
LAY-6
  6
CONTINUOUS
 62
     1
100
AcDbLine
 10
650.255766
 20
154.3
 30
0.0
 11
653.255766
 21
153.8
 31
0.0
  0
LINE
  5
398
100
AcDbEntity
  8
LAY-6
  6
CONTINUOUS
 62
     1
100
AcDbLine
 10
684.35465
 20
153.8
 30
0.0
 11
687.35465
 21
154.3
 31
0.0
  0
LINE
  5
399
100
AcDbEntity
  8
LAY-6
  6
CONTINUOUS
 62
     1
100
AcDbLine
 10
687.35465
 20
154.3
 30
0.0
 11
684.35465
 21
154.8
 31
0.0
  0
LINE
  5
39A
100
AcDbEntity
  8
LAY-6
  6
CONTINUOUS
 62
     1
100
AcDbLine
 10
610.354619
 20
171.965546
 30
0.0
 11
599.577294
 21
171.965546
 31
0.0
  0
LINE
  5
39B
100
AcDbEntity
  8
LAY-6
  6
CONTINUOUS
 62
     1
100
AcDbLine
 10
611.354619
 20
185.965546
 30
0.0
 11
599.577294
 21
185.965546
 31
0.0
  0
TEXT
  5
39C
100
AcDbEntity
  8
LAY-6
  6
CONTINUOUS
 62
     2
100
AcDbText
 10
600.577294
 20
174.965546
 30
0.0
 40
5.0
  1
１４
 50
90.0
 41
0.672
  7
EXCADSTD
 72
     5
 11
600.577294
 21
182.298346
 31
0.0
100
AcDbText
  0
LINE
  5
39D
100
AcDbEntity
  8
LAY-6
  6
CONTINUOUS
 62
     1
100
AcDbLine
 10
601.077294
 20
171.965546
 30
0.0
 11
601.077294
 21
185.965546
 31
0.0
  0
LINE
  5
39E
100
AcDbEntity
  8
LAY-6
  6
CONTINUOUS
 62
     1
100
AcDbLine
 10
600.577294
 20
174.965546
 30
0.0
 11
601.077294
 21
171.965546
 31
0.0
  0
LINE
  5
39F
100
AcDbEntity
  8
LAY-6
  6
CONTINUOUS
 62
     1
100
AcDbLine
 10
601.077294
 20
171.965546
 30
0.0
 11
601.577294
 21
174.965546
 31
0.0
  0
LINE
  5
3A0
100
AcDbEntity
  8
LAY-6
  6
CONTINUOUS
 62
     1
100
AcDbLine
 10
601.577294
 20
182.965546
 30
0.0
 11
601.077294
 21
185.965546
 31
0.0
  0
LINE
  5
3A1
100
AcDbEntity
  8
LAY-6
  6
CONTINUOUS
 62
     1
100
AcDbLine
 10
601.077294
 20
185.965546
 30
0.0
 11
600.577294
 21
182.965546
 31
0.0
  0
LINE
  5
3A2
100
AcDbEntity
  8
LAY-6
  6
CONTINUOUS
 62
     1
100
AcDbLine
 10
610.354619
 20
193.965485
 30
0.0
 11
599.577294
 21
193.965485
 31
0.0
  0
TEXT
  5
3A3
100
AcDbEntity
  8
LAY-6
  6
CONTINUOUS
 62
     2
100
AcDbText
 10
600.577294
 20
187.965516
 30
0.0
 40
5.0
  1
８
 50
90.0
 41
0.672
  7
EXCADSTD
 72
     5
 11
600.577294
 21
191.165516
 31
0.0
100
AcDbText
  0
LINE
  5
3A4
100
AcDbEntity
  8
LAY-6
  6
CONTINUOUS
 62
     1
100
AcDbLine
 10
601.077294
 20
185.965546
 30
0.0
 11
601.077294
 21
193.965485
 31
0.0
  0
LINE
  5
3A5
100
AcDbEntity
  8
LAY-6
  6
CONTINUOUS
 62
     1
100
AcDbLine
 10
600.577294
 20
188.965546
 30
0.0
 11
601.077294
 21
185.965546
 31
0.0
  0
LINE
  5
3A6
100
AcDbEntity
  8
LAY-6
  6
CONTINUOUS
 62
     1
100
AcDbLine
 10
601.077294
 20
185.965546
 30
0.0
 11
601.577294
 21
188.965546
 31
0.0
  0
LINE
  5
3A7
100
AcDbEntity
  8
LAY-6
  6
CONTINUOUS
 62
     1
100
AcDbLine
 10
601.577294
 20
190.965485
 30
0.0
 11
601.077294
 21
193.965485
 31
0.0
  0
LINE
  5
3A8
100
AcDbEntity
  8
LAY-6
  6
CONTINUOUS
 62
     1
100
AcDbLine
 10
601.077294
 20
193.965485
 30
0.0
 11
600.577294
 21
190.965485
 31
0.0
  0
LINE
  5
3A9
100
AcDbEntity
  8
LAY-6
  6
CONTINUOUS
 62
     1
100
AcDbLine
 10
611.354619
 20
207.965485
 30
0.0
 11
599.577294
 21
207.965485
 31
0.0
  0
TEXT
  5
3AA
100
AcDbEntity
  8
LAY-6
  6
CONTINUOUS
 62
     2
100
AcDbText
 10
600.577294
 20
196.965485
 30
0.0
 40
5.0
  1
１４
 50
90.0
 41
0.672
  7
EXCADSTD
 72
     5
 11
600.577294
 21
204.298285
 31
0.0
100
AcDbText
  0
LINE
  5
3AB
100
AcDbEntity
  8
LAY-6
  6
CONTINUOUS
 62
     1
100
AcDbLine
 10
601.077294
 20
193.965485
 30
0.0
 11
601.077294
 21
207.965485
 31
0.0
  0
LINE
  5
3AC
100
AcDbEntity
  8
LAY-6
  6
CONTINUOUS
 62
     1
100
AcDbLine
 10
600.577294
 20
196.965485
 30
0.0
 11
601.077294
 21
193.965485
 31
0.0
  0
LINE
  5
3AD
100
AcDbEntity
  8
LAY-6
  6
CONTINUOUS
 62
     1
100
AcDbLine
 10
601.077294
 20
193.965485
 30
0.0
 11
601.577294
 21
196.965485
 31
0.0
  0
LINE
  5
3AE
100
AcDbEntity
  8
LAY-6
  6
CONTINUOUS
 62
     1
100
AcDbLine
 10
601.577294
 20
204.965485
 30
0.0
 11
601.077294
 21
207.965485
 31
0.0
  0
LINE
  5
3AF
100
AcDbEntity
  8
LAY-6
  6
CONTINUOUS
 62
     1
100
AcDbLine
 10
601.077294
 20
207.965485
 30
0.0
 11
600.577294
 21
204.965485
 31
0.0
  0
LINE
  5
3B0
100
AcDbEntity
  8
LAY-6
  6
CONTINUOUS
 62
     1
100
AcDbLine
 10
650.354619
 20
180.965515
 30
0.0
 11
636.777294
 21
180.965515
 31
0.0
  0
TEXT
  5
3B1
100
AcDbEntity
  8
LAY-6
  6
CONTINUOUS
 62
     2
100
AcDbText
 10
637.777294
 20
181.465531
 30
0.0
 40
5.0
  1
５
 50
90.0
 41
0.672
  7
EXCADSTD
 72
     5
 11
637.777294
 21
184.66553
 31
0.0
100
AcDbText
  0
LINE
  5
3B2
100
AcDbEntity
  8
LAY-6
  6
CONTINUOUS
 62
     1
100
AcDbLine
 10
650.354619
 20
180.965515
 30
0.0
 11
636.777294
 21
180.965515
 31
0.0
  0
LINE
  5
3B3
100
AcDbEntity
  8
LAY-6
  6
CONTINUOUS
 62
     1
100
AcDbLine
 10
638.277294
 20
185.965546
 30
0.0
 11
638.277294
 21
180.965515
 31
0.0
  0
CIRCLE
  5
3B4
100
AcDbEntity
  8
LAY-6
  6
CONTINUOUS
 62
     1
100
AcDbCircle
 10
638.277294
 20
185.965546
 30
0.0
 40
0.5
  0
CIRCLE
  5
3B5
100
AcDbEntity
  8
LAY-6
  6
CONTINUOUS
 62
     1
100
AcDbCircle
 10
638.277294
 20
185.965546
 30
0.0
 40
0.25
  0
LINE
  5
3B6
100
AcDbEntity
  8
LAY-6
  6
CONTINUOUS
 62
     1
100
AcDbLine
 10
637.777294
 20
183.965515
 30
0.0
 11
638.277294
 21
180.965515
 31
0.0
  0
LINE
  5
3B7
100
AcDbEntity
  8
LAY-6
  6
CONTINUOUS
 62
     1
100
AcDbLine
 10
638.277294
 20
180.965515
 30
0.0
 11
638.777294
 21
183.965515
 31
0.0
  0
TEXT
  5
3B8
100
AcDbEntity
  8
LAY-6
  6
CONTINUOUS
 62
     2
100
AcDbText
 10
637.777294
 20
189.165501
 30
0.0
 40
5.0
  1
２
 50
90.0
 41
0.672
  7
EXCADSTD
 72
     5
 11
637.777294
 21
192.365501
 31
0.0
100
AcDbText
  0
LINE
  5
3B9
100
AcDbEntity
  8
LAY-6
  6
CONTINUOUS
 62
     1
100
AcDbLine
 10
651.854161
 20
187.965455
 30
0.0
 11
636.777294
 21
187.965455
 31
0.0
  0
LINE
  5
3BA
100
AcDbEntity
  8
LAY-6
  6
CONTINUOUS
 62
     1
100
AcDbLine
 10
638.277294
 20
180.965546
 30
0.0
 11
638.277294
 21
185.965546
 31
0.0
  0
LINE
  5
3BB
100
AcDbEntity
  8
LAY-6
  6
CONTINUOUS
 62
     1
100
AcDbLine
 10
638.277294
 20
187.965455
 30
0.0
 11
638.277294
 21
192.965455
 31
0.0
  0
CIRCLE
  5
3BC
100
AcDbEntity
  8
LAY-6
  6
CONTINUOUS
 62
     1
100
AcDbCircle
 10
638.277294
 20
185.965546
 30
0.0
 40
0.5
  0
CIRCLE
  5
3BD
100
AcDbEntity
  8
LAY-6
  6
CONTINUOUS
 62
     1
100
AcDbCircle
 10
638.277294
 20
185.965546
 30
0.0
 40
0.25
  0
LINE
  5
3BE
100
AcDbEntity
  8
LAY-6
  6
CONTINUOUS
 62
     1
100
AcDbLine
 10
637.777294
 20
190.965455
 30
0.0
 11
638.277294
 21
187.965455
 31
0.0
  0
LINE
  5
3BF
100
AcDbEntity
  8
LAY-6
  6
CONTINUOUS
 62
     1
100
AcDbLine
 10
638.277294
 20
187.965455
 30
0.0
 11
638.777294
 21
190.965455
 31
0.0
  0
TEXT
  5
3C0
100
AcDbEntity
  8
LAY-6
  6
CONTINUOUS
 62
     2
100
AcDbText
 10
643.577294
 20
196.465485
 30
0.0
 40
5.0
  1
９
 50
90.0
 41
0.672
  7
EXCADSTD
 72
     5
 11
643.577294
 21
199.665485
 31
0.0
100
AcDbText
  0
LINE
  5
3C1
100
AcDbEntity
  8
LAY-6
  6
CONTINUOUS
 62
     1
100
AcDbLine
 10
649.854619
 20
202.965485
 30
0.0
 11
642.577294
 21
202.965485
 31
0.0
  0
LINE
  5
3C2
100
AcDbEntity
  8
LAY-6
  6
CONTINUOUS
 62
     1
100
AcDbLine
 10
644.077294
 20
202.965485
 30
0.0
 11
644.077294
 21
193.965485
 31
0.0
  0
LINE
  5
3C3
100
AcDbEntity
  8
LAY-6
  6
CONTINUOUS
 62
     1
100
AcDbLine
 10
644.577294
 20
199.965485
 30
0.0
 11
644.077294
 21
202.965485
 31
0.0
  0
LINE
  5
3C4
100
AcDbEntity
  8
LAY-6
  6
CONTINUOUS
 62
     1
100
AcDbLine
 10
644.077294
 20
202.965485
 30
0.0
 11
643.577294
 21
199.965485
 31
0.0
  0
LINE
  5
3C5
100
AcDbEntity
  8
LAY-6
  6
CONTINUOUS
 62
     1
100
AcDbLine
 10
643.577294
 20
196.965485
 30
0.0
 11
644.077294
 21
193.965485
 31
0.0
  0
LINE
  5
3C6
100
AcDbEntity
  8
LAY-6
  6
CONTINUOUS
 62
     1
100
AcDbLine
 10
644.077294
 20
193.965485
 30
0.0
 11
644.577294
 21
196.965485
 31
0.0
  0
LINE
  5
3C7
100
AcDbEntity
  8
LAY-6
  6
CONTINUOUS
 62
     1
100
AcDbLine
 10
692.405766
 20
187.965455
 30
0.0
 11
715.377294
 21
187.965455
 31
0.0
  0
LINE
  5
3C8
100
AcDbEntity
  8
LAY-6
  6
CONTINUOUS
 62
     1
100
AcDbLine
 10
690.354588
 20
193.965485
 30
0.0
 11
715.377294
 21
193.965485
 31
0.0
  0
TEXT
  5
3C9
100
AcDbEntity
  8
LAY-6
  6
CONTINUOUS
 62
     2
100
AcDbText
 10
713.377294
 20
188.96547
 30
0.0
 40
5.0
  1
６
 50
90.0
 41
0.672
  7
EXCADSTD
 72
     5
 11
713.377294
 21
192.16547
 31
0.0
100
AcDbText
  0
LINE
  5
3CA
100
AcDbEntity
  8
LAY-6
  6
CONTINUOUS
 62
     1
100
AcDbLine
 10
713.877294
 20
182.965455
 30
0.0
 11
713.877294
 21
187.965455
 31
0.0
  0
LINE
  5
3CB
100
AcDbEntity
  8
LAY-6
  6
CONTINUOUS
 62
     1
100
AcDbLine
 10
713.877294
 20
193.965485
 30
0.0
 11
713.877294
 21
198.965485
 31
0.0
  0
LINE
  5
3CC
100
AcDbEntity
  8
LAY-6
  6
CONTINUOUS
 62
     1
100
AcDbLine
 10
714.377294
 20
184.965455
 30
0.0
 11
713.877294
 21
187.965455
 31
0.0
  0
LINE
  5
3CD
100
AcDbEntity
  8
LAY-6
  6
CONTINUOUS
 62
     1
100
AcDbLine
 10
713.877294
 20
187.965455
 30
0.0
 11
713.377294
 21
184.965455
 31
0.0
  0
LINE
  5
3CE
100
AcDbEntity
  8
LAY-6
  6
CONTINUOUS
 62
     1
100
AcDbLine
 10
713.377294
 20
196.965485
 30
0.0
 11
713.877294
 21
193.965485
 31
0.0
  0
LINE
  5
3CF
100
AcDbEntity
  8
LAY-6
  6
CONTINUOUS
 62
     1
100
AcDbLine
 10
713.877294
 20
193.965485
 30
0.0
 11
714.377294
 21
196.965485
 31
0.0
  0
LINE
  5
3D0
100
AcDbEntity
  8
LAY-6
  6
CONTINUOUS
 62
     1
100
AcDbLine
 10
688.755016
 20
390.815171
 30
0.0
 11
715.377294
 21
390.815171
 31
0.0
  0
TEXT
  5
3D1
100
AcDbEntity
  8
LAY-6
  6
CONTINUOUS
 62
     2
100
AcDbText
 10
713.377294
 20
288.390328
 30
0.0
 40
5.0
  1
ＤＨ
 50
90.0
 41
0.672
  7
EXCADSTD
 72
     5
 11
713.377294
 21
295.723128
 31
0.0
100
AcDbText
  0
LINE
  5
3D2
100
AcDbEntity
  8
LAY-6
  6
CONTINUOUS
 62
     1
100
AcDbLine
 10
713.877294
 20
193.965485
 30
0.0
 11
713.877294
 21
390.815171
 31
0.0
  0
LINE
  5
3D3
100
AcDbEntity
  8
LAY-6
  6
CONTINUOUS
 62
     1
100
AcDbLine
 10
713.377294
 20
196.965485
 30
0.0
 11
713.877294
 21
193.965485
 31
0.0
  0
LINE
  5
3D4
100
AcDbEntity
  8
LAY-6
  6
CONTINUOUS
 62
     1
100
AcDbLine
 10
713.877294
 20
193.965485
 30
0.0
 11
714.377294
 21
196.965485
 31
0.0
  0
LINE
  5
3D5
100
AcDbEntity
  8
LAY-6
  6
CONTINUOUS
 62
     1
100
AcDbLine
 10
714.377294
 20
387.815171
 30
0.0
 11
713.877294
 21
390.815171
 31
0.0
  0
LINE
  5
3D6
100
AcDbEntity
  8
LAY-6
  6
CONTINUOUS
 62
     1
100
AcDbLine
 10
713.877294
 20
390.815171
 30
0.0
 11
713.377294
 21
387.815171
 31
0.0
  0
LINE
  5
3D7
100
AcDbEntity
  8
LAY-6
  6
CONTINUOUS
 62
     1
100
AcDbLine
 10
692.354589
 20
393.815201
 30
0.0
 11
715.377294
 21
393.815201
 31
0.0
  0
TEXT
  5
3D8
100
AcDbEntity
  8
LAY-6
  6
CONTINUOUS
 62
     2
100
AcDbText
 10
713.377294
 20
390.315186
 30
0.0
 40
5.0
  1
３
 50
90.0
 41
0.672
  7
EXCADSTD
 72
     5
 11
713.377294
 21
393.515186
 31
0.0
100
AcDbText
  0
LINE
  5
3D9
100
AcDbEntity
  8
LAY-6
  6
CONTINUOUS
 62
     1
100
AcDbLine
 10
713.877294
 20
385.815171
 30
0.0
 11
713.877294
 21
390.815171
 31
0.0
  0
LINE
  5
3DA
100
AcDbEntity
  8
LAY-6
  6
CONTINUOUS
 62
     1
100
AcDbLine
 10
713.877294
 20
393.815201
 30
0.0
 11
713.877294
 21
398.815201
 31
0.0
  0
LINE
  5
3DB
100
AcDbEntity
  8
LAY-6
  6
CONTINUOUS
 62
     1
100
AcDbLine
 10
714.377294
 20
387.815171
 30
0.0
 11
713.877294
 21
390.815171
 31
0.0
  0
LINE
  5
3DC
100
AcDbEntity
  8
LAY-6
  6
CONTINUOUS
 62
     1
100
AcDbLine
 10
713.877294
 20
390.815171
 30
0.0
 11
713.377294
 21
387.815171
 31
0.0
  0
LINE
  5
3DD
100
AcDbEntity
  8
LAY-6
  6
CONTINUOUS
 62
     1
100
AcDbLine
 10
713.377294
 20
396.815201
 30
0.0
 11
713.877294
 21
393.815201
 31
0.0
  0
LINE
  5
3DE
100
AcDbEntity
  8
LAY-6
  6
CONTINUOUS
 62
     1
100
AcDbLine
 10
713.877294
 20
393.815201
 30
0.0
 11
714.377294
 21
396.815201
 31
0.0
  0
CIRCLE
  5
3DF
100
AcDbEntity
  8
LAY-6
  6
CONTINUOUS
 62
     1
100
AcDbCircle
 10
597.477294
 20
423.9
 30
0.0
 40
4.0
  0
TEXT
  5
3E0
100
AcDbEntity
  8
LAY-6
  6
CONTINUOUS
 62
     2
100
AcDbText
 10
594.648867
 20
421.071573
 30
0.0
 40
5.656854
  1
１
 41
0.84
  7
EXCADSTD
 72
     5
 11
599.17435
 21
421.071573
 31
0.0
100
AcDbText
  0
POLYLINE
  5
3E1
100
AcDbEntity
  8
LAY-6
  6
CONTINUOUS
 62
     1
100
AcDb2dPolyline
 66
     1
 10
0.0
 20
0.0
 30
0.0
 70
   128
  0
VERTEX
  5
3E2
100
AcDbEntity
  8
LAY-6
  6
CONTINUOUS
 62
     1
100
AcDbVertex
100
AcDb2dVertex
 10
614.077294
 20
407.815201
 30
0.0
  0
VERTEX
  5
3E3
100
AcDbEntity
  8
LAY-6
  6
CONTINUOUS
 62
     1
100
AcDbVertex
100
AcDb2dVertex
 10
600.349948
 20
421.116502
 30
0.0
  0
SEQEND
  5
3E4
100
AcDbEntity
  8
LAY-6
  6
CONTINUOUS
 62
     1
  0
LINE
  5
3E5
100
AcDbEntity
  8
LAY-6
  6
CONTINUOUS
 62
     1
100
AcDbLine
 10
611.574866
 20
409.543743
 30
0.0
 11
614.077294
 21
407.815201
 31
0.0
  0
LINE
  5
3E6
100
AcDbEntity
  8
LAY-6
  6
CONTINUOUS
 62
     1
100
AcDbLine
 10
614.077294
 20
407.815201
 30
0.0
 11
612.270741
 21
410.261906
 31
0.0
  0
CIRCLE
  5
3E7
100
AcDbEntity
  8
LAY-6
  6
CONTINUOUS
 62
     1
100
AcDbCircle
 10
602.477294
 20
358.9
 30
0.0
 40
4.0
  0
POLYLINE
  5
3E8
100
AcDbEntity
  8
LAY-6
  6
CONTINUOUS
 62
     1
100
AcDb2dPolyline
 66
     1
 10
0.0
 20
0.0
 30
0.0
 70
   128
  0
VERTEX
  5
3E9
100
AcDbEntity
  8
LAY-6
  6
CONTINUOUS
 62
     1
100
AcDbVertex
100
AcDb2dVertex
 10
618.877294
 20
376.815231
 30
0.0
  0
VERTEX
  5
3EA
100
AcDbEntity
  8
LAY-6
  6
CONTINUOUS
 62
     1
100
AcDbVertex
100
AcDb2dVertex
 10
605.178197
 20
361.850445
 30
0.0
  0
SEQEND
  5
3EB
100
AcDbEntity
  8
LAY-6
  6
CONTINUOUS
 62
     1
  0
LINE
  5
3EC
100
AcDbEntity
  8
LAY-6
  6
CONTINUOUS
 62
     1
100
AcDbLine
 10
617.220423
 20
374.264785
 30
0.0
 11
618.877294
 21
376.815231
 31
0.0
  0
LINE
  5
3ED
100
AcDbEntity
  8
LAY-6
  6
CONTINUOUS
 62
     1
100
AcDbLine
 10
618.877294
 20
376.815231
 30
0.0
 11
616.482811
 21
374.94001
 31
0.0
  0
TEXT
  5
3EE
100
AcDbEntity
  8
LAY-6
  6
CONTINUOUS
 62
     2
100
AcDbText
 10
599.648867
 20
356.071573
 30
0.0
 40
5.656854
  1
２
 41
0.84
  7
EXCADSTD
 72
     5
 11
604.17435
 21
356.071573
 31
0.0
100
AcDbText
  0
CIRCLE
  5
3EF
100
AcDbEntity
  8
LAY-6
  6
CONTINUOUS
 62
     1
100
AcDbCircle
 10
601.077294
 20
231.7
 30
0.0
 40
4.0
  0
POLYLINE
  5
3F0
100
AcDbEntity
  8
LAY-6
  6
CONTINUOUS
 62
     1
100
AcDb2dPolyline
 66
     1
 10
0.0
 20
0.0
 30
0.0
 70
   128
  0
VERTEX
  5
3F1
100
AcDbEntity
  8
LAY-6
  6
CONTINUOUS
 62
     1
100
AcDbVertex
100
AcDb2dVertex
 10
619.077294
 20
207.965485
 30
0.0
  0
VERTEX
  5
3F2
100
AcDbEntity
  8
LAY-6
  6
CONTINUOUS
 62
     1
100
AcDbVertex
100
AcDb2dVertex
 10
603.494372
 20
228.51288
 30
0.0
  0
SEQEND
  5
3F3
100
AcDbEntity
  8
LAY-6
  6
CONTINUOUS
 62
     1
  0
LINE
  5
3F4
100
AcDbEntity
  8
LAY-6
  6
CONTINUOUS
 62
     1
100
AcDbLine
 10
616.866096
 20
210.053691
 30
0.0
 11
619.077294
 21
207.965485
 31
0.0
  0
LINE
  5
3F5
100
AcDbEntity
  8
LAY-6
  6
CONTINUOUS
 62
     1
100
AcDbLine
 10
619.077294
 20
207.965485
 30
0.0
 11
617.662876
 21
210.65796
 31
0.0
  0
TEXT
  5
3F6
100
AcDbEntity
  8
LAY-6
  6
CONTINUOUS
 62
     2
100
AcDbText
 10
598.248867
 20
228.871573
 30
0.0
 40
5.656854
  1
３
 41
0.84
  7
EXCADSTD
 72
     5
 11
602.77435
 21
228.871573
 31
0.0
100
AcDbText
  0
CIRCLE
  5
3F7
100
AcDbEntity
  8
LAY-6
  6
CONTINUOUS
 62
     1
100
AcDbCircle
 10
601.077294
 20
154.3
 30
0.0
 40
4.0
  0
POLYLINE
  5
3F8
100
AcDbEntity
  8
LAY-6
  6
CONTINUOUS
 62
     1
100
AcDb2dPolyline
 66
     1
 10
0.0
 20
0.0
 30
0.0
 70
   128
  0
VERTEX
  5
3F9
100
AcDbEntity
  8
LAY-6
  6
CONTINUOUS
 62
     1
100
AcDbVertex
100
AcDb2dVertex
 10
619.477294
 20
171.965546
 30
0.0
  0
VERTEX
  5
3FA
100
AcDbEntity
  8
LAY-6
  6
CONTINUOUS
 62
     1
100
AcDbVertex
100
AcDb2dVertex
 10
603.962722
 20
157.070253
 30
0.0
  0
SEQEND
  5
3FB
100
AcDbEntity
  8
LAY-6
  6
CONTINUOUS
 62
     1
  0
LINE
  5
3FC
100
AcDbEntity
  8
LAY-6
  6
CONTINUOUS
 62
     1
100
AcDbLine
 10
617.659505
 20
169.527177
 30
0.0
 11
619.477294
 21
171.965546
 31
0.0
  0
LINE
  5
3FD
100
AcDbEntity
  8
LAY-6
  6
CONTINUOUS
 62
     1
100
AcDbLine
 10
619.477294
 20
171.965546
 30
0.0
 11
616.966941
 21
170.248534
 31
0.0
  0
TEXT
  5
3FE
100
AcDbEntity
  8
LAY-6
  6
CONTINUOUS
 62
     2
100
AcDbText
 10
598.248867
 20
151.471573
 30
0.0
 40
5.656854
  1
４
 41
0.84
  7
EXCADSTD
 72
     5
 11
602.77435
 21
151.471573
 31
0.0
100
AcDbText
  0
POLYLINE
  5
3FF
100
AcDbEntity
  8
LAY-6
  6
CONTINUOUS
 62
     1
100
AcDb2dPolyline
 66
     1
 10
0.0
 20
0.0
 30
0.0
 70
   128
  0
VERTEX
  5
400
100
AcDbEntity
  8
LAY-6
  6
CONTINUOUS
 62
     1
100
AcDbVertex
100
AcDb2dVertex
 10
660.354589
 20
370.815262
 30
0.0
  0
VERTEX
  5
401
100
AcDbEntity
  8
LAY-6
  6
CONTINUOUS
 62
     1
100
AcDbVertex
100
AcDb2dVertex
 10
654.977294
 20
340.2
 30
0.0
  0
VERTEX
  5
402
100
AcDbEntity
  8
LAY-6
  6
CONTINUOUS
 62
     1
100
AcDbVertex
100
AcDb2dVertex
 10
595.677294
 20
340.2
 30
0.0
  0
SEQEND
  5
403
100
AcDbEntity
  8
LAY-6
  6
CONTINUOUS
 62
     1
  0
LINE
  5
404
100
AcDbEntity
  8
LAY-6
  6
CONTINUOUS
 62
     1
100
AcDbLine
 10
660.328072
 20
367.773996
 30
0.0
 11
660.354589
 21
370.815262
 31
0.0
  0
LINE
  5
405
100
AcDbEntity
  8
LAY-6
  6
CONTINUOUS
 62
     1
100
AcDbLine
 10
660.354589
 20
370.815262
 30
0.0
 11
659.343149
 21
367.946989
 31
0.0
  0
TEXT
  5
406
100
AcDbEntity
  8
LAY-6
  6
CONTINUOUS
 62
     2
100
AcDbText
 10
595.677294
 20
340.2
 30
0.0
 40
5.0
  1
４－Ｍ６×２０皿小ネジ
 41
0.672
  7
EXCADSTD
 72
     5
 11
639.677294
 21
340.2
 31
0.0
100
AcDbText
  0
POLYLINE
  5
407
100
AcDbEntity
  8
LAY-6
  6
CONTINUOUS
 62
     1
100
AcDb2dPolyline
 66
     1
 10
0.0
 20
0.0
 30
0.0
 70
   128
  0
VERTEX
  5
408
100
AcDbEntity
  8
LAY-6
  6
CONTINUOUS
 62
     1
100
AcDbVertex
100
AcDb2dVertex
 10
663.35465
 20
213.96547
 30
0.0
  0
VERTEX
  5
409
100
AcDbEntity
  8
LAY-6
  6
CONTINUOUS
 62
     1
100
AcDbVertex
100
AcDb2dVertex
 10
655.777294
 20
242.5
 30
0.0
  0
VERTEX
  5
40A
100
AcDbEntity
  8
LAY-6
  6
CONTINUOUS
 62
     1
100
AcDbVertex
100
AcDb2dVertex
 10
596.677294
 20
242.5
 30
0.0
  0
SEQEND
  5
40B
100
AcDbEntity
  8
LAY-6
  6
CONTINUOUS
 62
     1
  0
LINE
  5
40C
100
AcDbEntity
  8
LAY-6
  6
CONTINUOUS
 62
     1
100
AcDbLine
 10
662.101433
 20
216.736651
 30
0.0
 11
663.35465
 21
213.96547
 31
0.0
  0
LINE
  5
40D
100
AcDbEntity
  8
LAY-6
  6
CONTINUOUS
 62
     1
100
AcDbLine
 10
663.35465
 20
213.96547
 30
0.0
 11
663.067936
 21
216.993306
 31
0.0
  0
TEXT
  5
40E
100
AcDbEntity
  8
LAY-6
  6
CONTINUOUS
 62
     2
100
AcDbText
 10
596.677294
 20
242.5
 30
0.0
 40
5.0
  1
４－Ｍ６×２０皿小ネジ
 41
0.672
  7
EXCADSTD
 72
     5
 11
640.677294
 21
242.5
 31
0.0
100
AcDbText
  0
LINE
  5
40F
100
AcDbEntity
  8
LAY-6
  6
CONTINUOUS
 62
     1
100
AcDbLine
 10
200.9
 20
422.991058
 30
0.0
 11
189.2
 21
422.991058
 31
0.0
  0
LINE
  5
410
100
AcDbEntity
  8
LAY-6
  6
CONTINUOUS
 62
     1
100
AcDbLine
 10
387.503442
 20
219.061316
 30
0.0
 11
401.3
 21
219.061316
 31
0.0
  0
LINE
  5
411
100
AcDbEntity
  8
LAY-6
  6
CONTINUOUS
 62
     1
100
AcDbLine
 10
410.1
 20
256.06131
 30
0.0
 11
399.3
 21
256.06131
 31
0.0
  0
TEXT
  5
412
100
AcDbEntity
  8
LAY-6
  6
CONTINUOUS
 62
     2
100
AcDbText
 10
181.43719
 20
442.811329
 30
0.0
 40
5.0
  1
（タップ穴加工付はオプション）
 41
0.672
  7
EXCADSTD
 72
     5
 11
241.43719
 21
442.811329
 31
0.0
100
AcDbText
  0
TEXT
  5
413
100
AcDbEntity
  8
LAY-6
  6
CONTINUOUS
 62
     2
100
AcDbText
 10
393.637202
 20
276.081553
 30
0.0
 40
5.0
  1
（タップ穴加工付はオプション）
 41
0.672
  7
EXCADSTD
 72
     5
 11
453.637202
 21
276.081554
 31
0.0
100
AcDbText
  0
TEXT
  5
414
100
AcDbEntity
  8
LAY-6
  6
CONTINUOUS
 62
     2
100
AcDbText
 10
590.93811
 20
428.886898
 30
0.0
 40
5.0
  1
キャップ
 41
0.672
  7
EXCADSTD
 72
     5
 11
606.93811
 21
428.886898
 31
0.0
100
AcDbText
  0
LINE
  5
415
100
AcDbEntity
  8
LAY-6
  6
CONTINUOUS
 62
     1
100
AcDbLine
 10
621.454619
 20
411.815201
 30
0.0
 11
601.077294
 21
411.815201
 31
0.0
  0
LINE
  5
416
100
AcDbEntity
  8
LAY-6
  6
CONTINUOUS
 62
     1
100
AcDbLine
 10
608.854589
 20
407.815201
 30
0.0
 11
601.077294
 21
407.815201
 31
0.0
  0
TEXT
  5
417
100
AcDbEntity
  8
LAY-6
  6
CONTINUOUS
 62
     2
100
AcDbText
 10
602.027294
 20
407.795201
 30
0.0
 40
5.0
  1
４
 50
90.0
 41
0.672
  7
EXCADSTD
 72
     5
 11
602.027294
 21
410.995201
 31
0.0
100
AcDbText
  0
LINE
  5
418
100
AcDbEntity
  8
LAY-6
  6
CONTINUOUS
 62
     1
100
AcDbLine
 10
602.577294
 20
416.72
 30
0.0
 11
602.577294
 21
402.815201
 31
0.0
  0
LINE
  5
419
100
AcDbEntity
  8
LAY-6
  6
CONTINUOUS
 62
     1
100
AcDbLine
 10
602.077294
 20
414.815201
 30
0.0
 11
602.577294
 21
411.815201
 31
0.0
  0
LINE
  5
41A
100
AcDbEntity
  8
LAY-6
  6
CONTINUOUS
 62
     1
100
AcDbLine
 10
602.577294
 20
411.815201
 30
0.0
 11
603.077294
 21
414.815201
 31
0.0
  0
LINE
  5
41B
100
AcDbEntity
  8
LAY-6
  6
CONTINUOUS
 62
     1
100
AcDbLine
 10
603.077294
 20
404.815201
 30
0.0
 11
602.577294
 21
407.815201
 31
0.0
  0
LINE
  5
41C
100
AcDbEntity
  8
LAY-6
  6
CONTINUOUS
 62
     1
100
AcDbLine
 10
602.577294
 20
407.815201
 30
0.0
 11
602.077294
 21
404.815201
 31
0.0
  0
LINE
  5
41D
100
AcDbEntity
  8
LAY-6
  6
CONTINUOUS
 62
     1
100
AcDbLine
 10
618.954619
 20
409.315201
 30
0.0
 11
618.954619
 21
418.9
 31
0.0
  0
LINE
  5
41E
100
AcDbEntity
  8
LAY-6
  6
CONTINUOUS
 62
     1
100
AcDbLine
 10
637.754619
 20
409.315201
 30
0.0
 11
637.754619
 21
418.9
 31
0.0
  0
TEXT
  5
41F
100
AcDbEntity
  8
LAY-6
  6
CONTINUOUS
 62
     2
100
AcDbText
 10
619.654619
 20
417.8
 30
0.0
 40
5.0
  1
φ
 41
0.672
  7
EXCADSTD
 72
     5
 11
622.854619
 21
417.8
 31
0.0
100
AcDbText
  0
TEXT
  5
420
100
AcDbEntity
  8
LAY-6
  6
CONTINUOUS
 62
     2
100
AcDbText
 10
623.654619
 20
417.8
 30
0.0
 40
5.0
  1
１８.８
 41
0.616
  7
EXCADSTD
 72
     5
 11
637.654619
 21
417.8
 31
0.0
100
AcDbText
  0
LINE
  5
421
100
AcDbEntity
  8
LAY-6
  6
CONTINUOUS
 62
     1
100
AcDbLine
 10
618.954619
 20
417.4
 30
0.0
 11
637.754619
 21
417.4
 31
0.0
  0
LINE
  5
422
100
AcDbEntity
  8
LAY-6
  6
CONTINUOUS
 62
     1
100
AcDbLine
 10
621.954619
 20
417.9
 30
0.0
 11
618.954619
 21
417.4
 31
0.0
  0
LINE
  5
423
100
AcDbEntity
  8
LAY-6
  6
CONTINUOUS
 62
     1
100
AcDbLine
 10
618.954619
 20
417.4
 30
0.0
 11
621.954619
 21
416.9
 31
0.0
  0
LINE
  5
424
100
AcDbEntity
  8
LAY-6
  6
CONTINUOUS
 62
     1
100
AcDbLine
 10
634.754619
 20
416.9
 30
0.0
 11
637.754619
 21
417.4
 31
0.0
  0
LINE
  5
425
100
AcDbEntity
  8
LAY-6
  6
CONTINUOUS
 62
     1
100
AcDbLine
 10
637.754619
 20
417.4
 30
0.0
 11
634.754619
 21
417.9
 31
0.0
  0
POLYLINE
  5
426
100
AcDbEntity
  8
LAY-6
  6
CONTINUOUS
 62
     1
100
AcDb2dPolyline
 66
     1
 10
0.0
 20
0.0
 30
0.0
 70
   128
  0
VERTEX
  5
427
100
AcDbEntity
  8
LAY-6
  6
CONTINUOUS
 62
     1
100
AcDbVertex
100
AcDb2dVertex
 10
689.677294
 20
180.965546
 30
0.0
  0
VERTEX
  5
428
100
AcDbEntity
  8
LAY-6
  6
CONTINUOUS
 62
     1
100
AcDbVertex
100
AcDb2dVertex
 10
699.510926
 20
144.265933
 30
0.0
  0
VERTEX
  5
429
100
AcDbEntity
  8
LAY-6
  6
CONTINUOUS
 62
     1
100
AcDbVertex
100
AcDb2dVertex
 10
727.777294
 20
144.265933
 30
0.0
  0
SEQEND
  5
42A
100
AcDbEntity
  8
LAY-6
  6
CONTINUOUS
 62
     1
  0
LINE
  5
42B
100
AcDbEntity
  8
LAY-6
  6
CONTINUOUS
 62
     1
100
AcDbLine
 10
690.936714
 20
178.197178
 30
0.0
 11
689.677294
 21
180.965546
 31
0.0
  0
LINE
  5
42C
100
AcDbEntity
  8
LAY-6
  6
CONTINUOUS
 62
     1
100
AcDbLine
 10
689.677294
 20
180.965546
 30
0.0
 11
689.970788
 21
177.938359
 31
0.0
  0
TEXT
  5
42D
100
AcDbEntity
  8
LAY-6
  6
CONTINUOUS
 62
     2
100
AcDbText
 10
701.64411
 20
144.765933
 30
0.0
 40
5.0
  1
裏板（別途）
 41
0.672
  7
EXCADSTD
 72
     5
 11
725.64411
 21
144.765933
 31
0.0
100
AcDbText
  0
POLYLINE
  5
42E
100
AcDbEntity
  8
LAY-6
  6
CONTINUOUS
 62
     1
100
AcDb2dPolyline
 66
     1
 10
0.0
 20
0.0
 30
0.0
 70
   128
  0
VERTEX
  5
42F
100
AcDbEntity
  8
LAY-6
  6
CONTINUOUS
 62
     1
100
AcDbVertex
100
AcDb2dVertex
 10
682.6666
 20
207.465485
 30
0.0
  0
VERTEX
  5
430
100
AcDbEntity
  8
LAY-6
  6
CONTINUOUS
 62
     1
100
AcDbVertex
100
AcDb2dVertex
 10
702.377294
 20
224.0
 30
0.0
  0
VERTEX
  5
431
100
AcDbEntity
  8
LAY-6
  6
CONTINUOUS
 62
     1
100
AcDbVertex
100
AcDb2dVertex
 10
755.177294
 20
224.0
 30
0.0
  0
SEQEND
  5
432
100
AcDbEntity
  8
LAY-6
  6
CONTINUOUS
 62
     1
  0
LINE
  5
433
100
AcDbEntity
  8
LAY-6
  6
CONTINUOUS
 62
     1
100
AcDbLine
 10
684.643664
 20
209.776592
 30
0.0
 11
682.6666
 21
207.465485
 31
0.0
  0
LINE
  5
434
100
AcDbEntity
  8
LAY-6
  6
CONTINUOUS
 62
     1
100
AcDbLine
 10
682.6666
 20
207.465485
 30
0.0
 11
685.286344
 21
209.010457
 31
0.0
  0
TEXT
  5
435
100
AcDbEntity
  8
LAY-6
  6
CONTINUOUS
 62
     2
100
AcDbText
 10
705.777294
 20
224.5
 30
0.0
 40
5.0
  1
裏板３.２ｔ以上（別途）
 41
0.654222
  7
EXCADSTD
 72
     5
 11
751.777294
 21
224.5
 31
0.0
100
AcDbText
  0
POLYLINE
  5
436
100
AcDbEntity
  8
LAY-6
  6
CONTINUOUS
 62
     1
100
AcDb2dPolyline
 66
     1
 10
0.0
 20
0.0
 30
0.0
 70
   128
  0
VERTEX
  5
437
100
AcDbEntity
  8
LAY-6
  6
CONTINUOUS
 62
     1
100
AcDbVertex
100
AcDb2dVertex
 10
681.923885
 20
377.315201
 30
0.0
  0
VERTEX
  5
438
100
AcDbEntity
  8
LAY-6
  6
CONTINUOUS
 62
     1
100
AcDbVertex
100
AcDb2dVertex
 10
699.020803
 20
347.70247
 30
0.0
  0
VERTEX
  5
439
100
AcDbEntity
  8
LAY-6
  6
CONTINUOUS
 62
     1
100
AcDbVertex
100
AcDb2dVertex
 10
746.777294
 20
347.70247
 30
0.0
  0
SEQEND
  5
43A
100
AcDbEntity
  8
LAY-6
  6
CONTINUOUS
 62
     1
  0
LINE
  5
43B
100
AcDbEntity
  8
LAY-6
  6
CONTINUOUS
 62
     1
100
AcDbLine
 10
683.856898
 20
374.967125
 30
0.0
 11
681.923885
 21
377.315201
 31
0.0
  0
LINE
  5
43C
100
AcDbEntity
  8
LAY-6
  6
CONTINUOUS
 62
     1
100
AcDbLine
 10
681.923885
 20
377.315201
 30
0.0
 11
682.990873
 21
374.467125
 31
0.0
  0
TEXT
  5
43D
100
AcDbEntity
  8
LAY-6
  6
CONTINUOUS
 62
     2
100
AcDbText
 10
700.199049
 20
348.20247
 30
0.0
 40
5.0
  1
裏板３.２ｔ以上（別途）
 41
0.654222
  7
EXCADSTD
 72
     5
 11
746.199049
 21
348.20247
 31
0.0
100
AcDbText
  0
LINE
  5
43E
100
AcDbEntity
  8
LAY-6
  6
CONTINUOUS
 62
     1
100
AcDbLine
 10
617.104589
 20
392.2
 30
0.0
 11
640.977289
 21
392.2
 31
0.0
  0
LINE
  5
43F
100
AcDbEntity
  8
LAY-6
  6
CONTINUOUS
 62
     1
100
AcDbLine
 10
620.104589
 20
391.866667
 30
0.0
 11
622.104589
 21
392.2
 31
0.0
  0
LINE
  5
440
100
AcDbEntity
  8
LAY-6
  6
CONTINUOUS
 62
     1
100
AcDbLine
 10
622.104589
 20
392.2
 30
0.0
 11
620.104589
 21
392.533333
 31
0.0
  0
LINE
  5
441
100
AcDbEntity
  8
LAY-6
  6
CONTINUOUS
 62
     1
100
AcDbLine
 10
636.604589
 20
392.533333
 30
0.0
 11
634.604589
 21
392.2
 31
0.0
  0
LINE
  5
442
100
AcDbEntity
  8
LAY-6
  6
CONTINUOUS
 62
     1
100
AcDbLine
 10
634.604589
 20
392.2
 30
0.0
 11
636.604589
 21
391.866667
 31
0.0
  0
TEXT
  5
443
100
AcDbEntity
  8
LAY-6
  6
CONTINUOUS
 62
     2
100
AcDbText
 10
706.44411
 20
427.665933
 30
0.0
 40
5.0
  1
裏板（別途）
 41
0.672
  7
EXCADSTD
 72
     5
 11
730.44411
 21
427.665933
 31
0.0
100
AcDbText
  0
LINE
  5
444
100
AcDbEntity
  8
LAY-6
  6
CONTINUOUS
 62
     1
100
AcDbLine
 10
92.632734
 20
348.477278
 30
0.0
 11
103.914932
 21
354.991058
 31
0.0
  0
LINE
  5
445
100
AcDbEntity
  8
LAY-6
  6
CONTINUOUS
 62
     1
100
AcDbLine
 10
92.632757
 20
181.547504
 30
0.0
 11
103.914955
 21
188.061284
 31
0.0
  0
TEXT
  5
446
100
AcDbEntity
  8
LAY-6
  6
CONTINUOUS
 62
     2
100
AcDbText
 10
96.599996
 20
413.177374
 30
0.0
 40
6.0
  1
竪　枠
 41
0.672
  7
EXCADSTD
 72
     5
 11
110.999997
 21
413.177374
 31
0.0
100
AcDbText
  0
TEXT
  5
447
100
AcDbEntity
  8
LAY-6
  6
CONTINUOUS
 62
     2
100
AcDbText
 10
213.399996
 20
390.477374
 30
0.0
 40
6.0
  1
上　枠
 41
0.672
  7
EXCADSTD
 72
     5
 11
227.799997
 21
390.477374
 31
0.0
100
AcDbText
  0
TEXT
  5
448
100
AcDbEntity
  8
LAY-6
  6
CONTINUOUS
 62
     2
100
AcDbText
 10
219.000011
 20
232.884353
 30
0.0
 40
6.0
  1
ド　ア
 41
0.672
  7
EXCADSTD
 72
     5
 11
233.400012
 21
232.884353
 31
0.0
100
AcDbText
  0
LINE
  5
449
100
AcDbEntity
  8
LAY-6
  6
CONTINUOUS
 62
     1
100
AcDbLine
 10
123.503404
 20
276.9
 30
0.0
 11
119.503394
 21
276.9
 31
0.0
  0
INSERT
  5
44A
100
AcDbEntity
  8
LAY-6
  6
CONTINUOUS
 62
     0
100
AcDbBlockReference
  2
SYM-1
 10
84.0
 20
457.0
 30
0.0
  0
LINE
  5
44B
100
AcDbEntity
  8
LAY-6
  6
CONTINUOUS
 62
     1
100
AcDbLine
 10
302.632746
 20
181.547504
 30
0.0
 11
313.914944
 21
188.061284
 31
0.0
  0
LINE
  5
44C
100
AcDbEntity
  8
LAY-6
  6
CONTINUOUS
 62
     1
100
AcDbLine
 10
302.632734
 20
348.477283
 30
0.0
 11
313.914932
 21
354.991063
 31
0.0
  0
INSERT
  5
44D
100
AcDbEntity
  8
LAY-6
  6
CONTINUOUS
 62
     0
100
AcDbBlockReference
  2
SYM-2
 10
310.0
 20
457.0
 30
0.0
  0
TEXT
  5
44E
100
AcDbEntity
  8
LAY-6
  6
CONTINUOUS
 62
     2
100
AcDbText
 10
443.999983
 20
399.577373
 30
0.0
 40
6.0
  1
ド　ア
 41
0.672
  7
EXCADSTD
 72
     5
 11
458.399984
 21
399.577373
 31
0.0
100
AcDbText
  0
TEXT
  5
44F
100
AcDbEntity
  8
LAY-6
  6
CONTINUOUS
 62
     2
100
AcDbText
 10
306.499987
 20
245.277343
 30
0.0
 40
6.0
  1
竪　枠
 41
0.672
  7
EXCADSTD
 72
     5
 11
320.899987
 21
245.277343
 31
0.0
100
AcDbText
  0
TEXT
  5
450
100
AcDbEntity
  8
LAY-6
  6
CONTINUOUS
 62
     2
100
AcDbText
 10
425.699987
 20
225.077343
 30
0.0
 40
6.0
  1
沓　摺
 41
0.672
  7
EXCADSTD
 72
     5
 11
440.099987
 21
225.077343
 31
0.0
100
AcDbText
  0
LINE
  5
451
100
AcDbEntity
  8
LAY-6
  6
CONTINUOUS
 62
     1
100
AcDbLine
 10
435.2
 20
391.991089
 30
0.0
 11
435.2
 21
385.991363
 31
0.0
  0
LINE
  5
452
100
AcDbEntity
  8
LAY-6
  6
CONTINUOUS
 62
     1
100
AcDbLine
 10
333.503397
 20
443.7
 30
0.0
 11
329.503371
 21
443.7
 31
0.0
  0
TEXT
  5
453
100
AcDbEntity
  8
LAY-6
  6
CONTINUOUS
 62
     2
100
AcDbText
 10
572.528441
 20
174.999909
 30
0.0
 40
6.0
  1
床　面
 41
0.672
  7
EXCADSTD
 72
     5
 11
586.928442
 21
174.999909
 31
0.0
100
AcDbText
  0
LINE
  5
454
100
AcDbEntity
  8
LAY-6
  6
CONTINUOUS
 62
     1
100
AcDbLine
 10
602.677294
 20
392.4
 30
0.0
 11
595.077294
 21
392.4
 31
0.0
  0
LINE
  5
455
100
AcDbEntity
  8
LAY-6
  6
CONTINUOUS
 62
     1
100
AcDbLine
 10
703.577294
 20
393.815201
 30
0.0
 11
703.577294
 21
363.7
 31
0.0
  0
TEXT
  5
456
100
AcDbEntity
  8
LAY-6
  6
CONTINUOUS
 62
     2
100
AcDbText
 10
665.228869
 20
309.349622
 30
0.0
 40
6.0
  1
ド　ア
 41
0.672
  7
EXCADSTD
 72
     5
 11
679.62887
 21
309.349622
 31
0.0
100
AcDbText
  0
TEXT
  5
457
100
AcDbEntity
  8
LAY-6
  6
CONTINUOUS
 62
     2
100
AcDbText
 10
703.128869
 20
412.149622
 30
0.0
 40
6.0
  1
上　枠
 41
0.672
  7
EXCADSTD
 72
     5
 11
717.52887
 21
412.149622
 31
0.0
100
AcDbText
  0
LINE
  5
458
100
AcDbEntity
  8
LAY-6
  6
CONTINUOUS
 62
     1
100
AcDbLine
 10
602.577294
 20
393.815201
 30
0.0
 11
602.577294
 21
390.815231
 31
0.0
  0
LINE
  5
459
100
AcDbEntity
  8
LAY-6
  6
CONTINUOUS
 62
     1
100
AcDbLine
 10
703.577294
 20
398.815201
 30
0.0
 11
703.577294
 21
393.815201
 31
0.0
  0
LINE
  5
45A
100
AcDbEntity
  8
LAY-6
  6
CONTINUOUS
 62
     1
100
AcDbLine
 10
713.877294
 20
393.815201
 30
0.0
 11
713.877294
 21
390.815171
 31
0.0
  0
LINE
  5
45B
100
AcDbEntity
  8
LAY-6
  6
CONTINUOUS
 62
     1
100
AcDbLine
 10
638.277294
 20
187.965455
 30
0.0
 11
638.277294
 21
180.965515
 31
0.0
  0
LINE
  5
45C
100
AcDbEntity
  8
LAY-6
  6
CONTINUOUS
 62
     1
100
AcDbLine
 10
713.877294
 20
193.965485
 30
0.0
 11
713.877294
 21
187.965455
 31
0.0
  0
TEXT
  5
45D
100
AcDbEntity
  8
LAY-6
  6
CONTINUOUS
 62
     2
100
AcDbText
 10
703.777294
 20
158.0
 30
0.0
 40
6.0
  1
沓　摺
 41
0.672
  7
EXCADSTD
 72
     5
 11
718.177295
 21
158.0
 31
0.0
100
AcDbText
  0
LINE
  5
45E
100
AcDbEntity
  8
LAY-6
  6
CONTINUOUS
 62
     1
100
AcDbLine
 10
650.255766
 20
162.965455
 30
0.0
 11
647.354161
 21
162.965455
 31
0.0
  0
POLYLINE
  5
45F
100
AcDbEntity
  8
LAY-6
  6
CONTINUOUS
 62
     1
100
AcDb2dPolyline
 66
     1
 10
0.0
 20
0.0
 30
0.0
 70
   128
  0
VERTEX
  5
460
100
AcDbEntity
  8
LAY-6
  6
CONTINUOUS
 62
     1
100
AcDbVertex
100
AcDb2dVertex
 10
689.777294
 20
398.815201
 30
0.0
  0
VERTEX
  5
461
100
AcDbEntity
  8
LAY-6
  6
CONTINUOUS
 62
     1
100
AcDbVertex
100
AcDb2dVertex
 10
704.177294
 20
426.9
 30
0.0
  0
VERTEX
  5
462
100
AcDbEntity
  8
LAY-6
  6
CONTINUOUS
 62
     1
100
AcDbVertex
100
AcDb2dVertex
 10
729.977294
 20
426.9
 30
0.0
  0
SEQEND
  5
463
100
AcDbEntity
  8
LAY-6
  6
CONTINUOUS
 62
     1
  0
LINE
  5
464
100
AcDbEntity
  8
LAY-6
  6
CONTINUOUS
 62
     1
100
AcDbLine
 10
690.701134
 20
401.712876
 30
0.0
 11
689.777294
 21
398.815201
 31
0.0
  0
LINE
  5
465
100
AcDbEntity
  8
LAY-6
  6
CONTINUOUS
 62
     1
100
AcDbLine
 10
689.777294
 20
398.815201
 30
0.0
 11
691.590983
 21
401.256621
 31
0.0
  0
POLYLINE
  5
466
100
AcDbEntity
  8
LAY-6
  6
CONTINUOUS
 62
     1
100
AcDb2dPolyline
 66
     1
 10
0.0
 20
0.0
 30
0.0
 70
   128
  0
VERTEX
  5
467
100
AcDbEntity
  8
LAY-6
  6
CONTINUOUS
 62
     1
100
AcDbVertex
100
AcDb2dVertex
 10
628.177294
 20
392.2
 30
0.0
  0
VERTEX
  5
468
100
AcDbEntity
  8
LAY-6
  6
CONTINUOUS
 62
     1
100
AcDbVertex
100
AcDb2dVertex
 10
615.577294
 20
350.2
 30
0.0
  0
VERTEX
  5
469
100
AcDbEntity
  8
LAY-6
  6
CONTINUOUS
 62
     1
100
AcDbVertex
100
AcDb2dVertex
 10
638.977294
 20
350.2
 30
0.0
  0
SEQEND
  5
46A
100
AcDbEntity
  8
LAY-6
  6
CONTINUOUS
 62
     1
  0
CIRCLE
  5
46B
100
AcDbEntity
  8
LAY-6
  6
CONTINUOUS
 62
     1
100
AcDbCircle
 10
628.177294
 20
392.2
 30
0.0
 40
1.0
  0
CIRCLE
  5
46C
100
AcDbEntity
  8
LAY-6
  6
CONTINUOUS
 62
     1
100
AcDbCircle
 10
628.177294
 20
392.2
 30
0.0
 40
0.5
  0
TEXT
  5
46D
100
AcDbEntity
  8
LAY-6
  6
CONTINUOUS
 62
     2
100
AcDbText
 10
618.477294
 20
350.4
 30
0.0
 40
5.0
  1
φ１２．５
 41
0.672
  7
EXCADSTD
 72
     5
 11
638.477294
 21
350.4
 31
0.0
100
AcDbText
  0
ARC
  5
46E
100
AcDbEntity
  8
LAY-6
  6
CONTINUOUS
 62
     4
100
AcDbCircle
 10
782.999999
 20
86.0
 30
0.0
 40
18.0
100
AcDbArc
 50
180.0
 51
225.487766
  0
ARC
  5
46F
100
AcDbEntity
  8
LAY-6
  6
CONTINUOUS
 62
     4
100
AcDbCircle
 10
747.0
 20
86.0
 30
0.0
 40
18.0
100
AcDbArc
 50
314.424746
 51
0.0
  0
LINE
  5
470
100
AcDbEntity
  8
LAY-6
  6
CONTINUOUS
 62
     4
100
AcDbLine
 10
768.658807
 20
75.122032
 30
0.0
 11
787.5
 21
86.0
 31
0.0
  0
LINE
  5
471
100
AcDbEntity
  8
LAY-6
  6
CONTINUOUS
 62
     4
100
AcDbLine
 10
761.341193
 20
75.122032
 30
0.0
 11
742.499999
 21
86.0
 31
0.0
  0
LINE
  5
472
100
AcDbEntity
  8
LAY-6
  6
CONTINUOUS
 62
     4
100
AcDbLine
 10
742.5
 20
86.0
 30
0.0
 11
787.5
 21
86.0
 31
0.0
  0
LINE
  5
473
100
AcDbEntity
  8
LAY-6
  6
CONTINUOUS
 62
     4
100
AcDbLine
 10
787.5
 20
89.75
 30
0.0
 11
795.0
 21
89.75
 31
0.0
  0
LINE
  5
474
100
AcDbEntity
  8
LAY-6
  6
CONTINUOUS
 62
     4
100
AcDbLine
 10
742.5
 20
89.75
 30
0.0
 11
735.0
 21
89.75
 31
0.0
  0
LINE
  5
475
100
AcDbEntity
  8
LAY-6
  6
CONTINUOUS
 62
     4
100
AcDbLine
 10
742.5
 20
82.25
 30
0.0
 11
735.0
 21
82.25
 31
0.0
  0
LINE
  5
476
100
AcDbEntity
  8
LAY-6
  6
CONTINUOUS
 62
     4
100
AcDbLine
 10
742.5
 20
82.25
 30
0.0
 11
742.5
 21
89.75
 31
0.0
  0
LINE
  5
477
100
AcDbEntity
  8
LAY-6
  6
CONTINUOUS
 62
     4
100
AcDbLine
 10
735.0
 20
82.25
 30
0.0
 11
735.0
 21
89.75
 31
0.0
  0
LINE
  5
478
100
AcDbEntity
  8
LAY-6
  6
CONTINUOUS
 62
     4
100
AcDbLine
 10
787.5
 20
82.25
 30
0.0
 11
795.0
 21
82.25
 31
0.0
  0
LINE
  5
479
100
AcDbEntity
  8
LAY-6
  6
CONTINUOUS
 62
     4
100
AcDbLine
 10
787.5
 20
82.25
 30
0.0
 11
787.5
 21
89.75
 31
0.0
  0
LINE
  5
47A
100
AcDbEntity
  8
LAY-6
  6
CONTINUOUS
 62
     4
100
AcDbLine
 10
795.0
 20
82.25
 30
0.0
 11
795.0
 21
89.75
 31
0.0
  0
LINE
  5
47B
100
AcDbEntity
  8
LAY-6
  6
CONTINUOUS
 62
     2
100
AcDbLine
 10
771.000003
 20
98.765001
 30
0.0
 11
765.0
 21
92.764998
 31
0.0
  0
LINE
  5
47C
100
AcDbEntity
  8
LAY-6
  6
CONTINUOUS
 62
     2
100
AcDbLine
 10
768.0
 20
98.765
 30
0.0
 11
771.000003
 21
98.765001
 31
0.0
  0
LINE
  5
47D
100
AcDbEntity
  8
LAY-6
  6
CONTINUOUS
 62
     2
100
AcDbLine
 10
759.000003
 20
98.764995
 30
0.0
 11
765.0
 21
92.764998
 31
0.0
  0
LINE
  5
47E
100
AcDbEntity
  8
LAY-6
  6
CONTINUOUS
 62
     2
100
AcDbLine
 10
759.000003
 20
98.764995
 30
0.0
 11
762.0
 21
98.764996
 31
0.0
  0
LINE
  5
47F
100
AcDbEntity
  8
LAY-6
  6
CONTINUOUS
 62
     2
100
AcDbLine
 10
768.0
 20
98.765
 30
0.0
 11
768.0
 21
104.765
 31
0.0
  0
LINE
  5
480
100
AcDbEntity
  8
LAY-6
  6
CONTINUOUS
 62
     2
100
AcDbLine
 10
768.0
 20
104.765
 30
0.0
 11
765.0
 21
104.765
 31
0.0
  0
LINE
  5
481
100
AcDbEntity
  8
LAY-6
  6
CONTINUOUS
 62
     2
100
AcDbLine
 10
765.0
 20
104.765
 30
0.0
 11
762.0
 21
104.765
 31
0.0
  0
LINE
  5
482
100
AcDbEntity
  8
LAY-6
  6
CONTINUOUS
 62
     2
100
AcDbLine
 10
762.0
 20
98.764996
 30
0.0
 11
762.0
 21
104.764999
 31
0.0
  0
TEXT
  5
483
100
AcDbEntity
  8
LAY-6
  6
CONTINUOUS
 62
     2
100
AcDbText
 10
731.322841
 20
111.108318
 30
0.0
 40
9.0
  1
ドアの開き勝手基準
 41
0.672
  7
EXCADSTD
 72
     5
 11
796.122844
 21
111.108318
 31
0.0
100
AcDbText
  0
LINE
  5
484
100
AcDbEntity
  8
LAY-6
  6
CONTINUOUS
 62
     2
100
AcDbLine
 10
730.113457
 20
109.279497
 30
0.0
 11
799.263457
 21
109.279497
 31
0.0
  0
TEXT
  5
485
100
AcDbEntity
  8
LAY-6
  6
CONTINUOUS
 62
     2
100
AcDbText
 10
727.244428
 20
56.110529
 30
0.0
 40
9.0
  1
本図は右開きを示します
 41
0.672
  7
EXCADSTD
 72
     5
 11
806.444431
 21
56.110529
 31
0.0
100
AcDbText
  0
TEXT
  5
486
100
AcDbEntity
  8
LAY-6
  6
CONTINUOUS
 62
     2
100
AcDbText
 10
756.813134
 20
77.896519
 30
0.0
 40
7.5
  1
右
 41
0.672
  7
EXCADSTD
 72
     5
 11
761.613134
 21
77.896519
 31
0.0
100
AcDbText
  0
TEXT
  5
487
100
AcDbEntity
  8
LAY-6
  6
CONTINUOUS
 62
     2
100
AcDbText
 10
767.528085
 20
77.885
 30
0.0
 40
7.5
  1
左
 41
0.672
  7
EXCADSTD
 72
     5
 11
772.328085
 21
77.885
 31
0.0
100
AcDbText
  0
TEXT
  5
488
100
AcDbEntity
  8
LAY-6
  6
CONTINUOUS
 62
     2
100
AcDbText
 10
109.503377
 20
439.6
 30
0.0
 40
5.0
  1
３
 41
0.672
  7
EXCADSTD
 72
     5
 11
112.703377
 21
439.6
 31
0.0
100
AcDbText
  0
LINE
  5
489
100
AcDbEntity
  8
LAY-6
  6
CONTINUOUS
 62
     1
100
AcDbLine
 10
119.503372
 20
395.6
 30
0.0
 11
119.503372
 21
440.6
 31
0.0
  0
LINE
  5
48A
100
AcDbEntity
  8
LAY-6
  6
CONTINUOUS
 62
     1
100
AcDbLine
 10
109.003377
 20
439.1
 30
0.0
 11
119.503372
 21
439.1
 31
0.0
  0
LINE
  5
48B
100
AcDbEntity
  8
LAY-6
  6
CONTINUOUS
 62
     1
100
AcDbLine
 10
113.503377
 20
438.6
 30
0.0
 11
116.503377
 21
439.1
 31
0.0
  0
LINE
  5
48C
100
AcDbEntity
  8
LAY-6
  6
CONTINUOUS
 62
     1
100
AcDbLine
 10
116.503377
 20
439.1
 30
0.0
 11
113.503377
 21
439.6
 31
0.0
  0
TEXT
  5
48D
100
AcDbEntity
  8
LAY-6
  6
CONTINUOUS
 62
     2
100
AcDbText
 10
119.503376
 20
439.6
 30
0.0
 40
5.0
  1
４
 41
0.672
  7
EXCADSTD
 72
     5
 11
122.703376
 21
439.6
 31
0.0
100
AcDbText
  0
LINE
  5
48E
100
AcDbEntity
  8
LAY-6
  6
CONTINUOUS
 62
     1
100
AcDbLine
 10
119.503372
 20
439.1
 30
0.0
 11
123.503381
 21
439.1
 31
0.0
  0
CIRCLE
  5
48F
100
AcDbEntity
  8
LAY-6
  6
CONTINUOUS
 62
     1
100
AcDbCircle
 10
119.503372
 20
439.1
 30
0.0
 40
0.5
  0
CIRCLE
  5
490
100
AcDbEntity
  8
LAY-6
  6
CONTINUOUS
 62
     1
100
AcDbCircle
 10
119.503372
 20
439.1
 30
0.0
 40
0.25
  0
LINE
  5
491
100
AcDbEntity
  8
LAY-6
  6
CONTINUOUS
 62
     1
100
AcDbLine
 10
173.503381
 20
420.491058
 30
0.0
 11
173.503381
 21
440.6
 31
0.0
  0
LINE
  5
492
100
AcDbEntity
  8
LAY-6
  6
CONTINUOUS
 62
     1
100
AcDbLine
 10
123.503381
 20
439.1
 30
0.0
 11
173.503381
 21
439.1
 31
0.0
  0
LINE
  5
493
100
AcDbEntity
  8
LAY-6
  6
CONTINUOUS
 62
     1
100
AcDbLine
 10
126.503381
 20
439.6
 30
0.0
 11
123.503381
 21
439.1
 31
0.0
  0
LINE
  5
494
100
AcDbEntity
  8
LAY-6
  6
CONTINUOUS
 62
     1
100
AcDbLine
 10
123.503381
 20
439.1
 30
0.0
 11
126.503381
 21
438.6
 31
0.0
  0
LINE
  5
495
100
AcDbEntity
  8
LAY-6
  6
CONTINUOUS
 62
     1
100
AcDbLine
 10
170.503381
 20
438.6
 30
0.0
 11
173.503381
 21
439.1
 31
0.0
  0
LINE
  5
496
100
AcDbEntity
  8
LAY-6
  6
CONTINUOUS
 62
     1
100
AcDbLine
 10
173.503381
 20
439.1
 30
0.0
 11
170.503381
 21
439.6
 31
0.0
  0
TEXT
  5
497
100
AcDbEntity
  8
LAY-6
  6
CONTINUOUS
 62
     2
100
AcDbText
 10
144.503381
 20
439.6
 30
0.0
 40
5.0
  1
５０
 41
0.672
  7
EXCADSTD
 72
     5
 11
151.836181
 21
439.6
 31
0.0
100
AcDbText
  0
LINE
  5
498
100
AcDbEntity
  8
LAY-6
  6
CONTINUOUS
 62
     1
100
AcDbLine
 10
116.503377
 20
428.49109
 30
0.0
 11
116.503377
 21
448.2
 31
0.0
  0
LINE
  5
499
100
AcDbEntity
  8
LAY-6
  6
CONTINUOUS
 62
     1
100
AcDbLine
 10
123.503381
 20
420.491054
 30
0.0
 11
123.503381
 21
448.2
 31
0.0
  0
LINE
  5
49A
100
AcDbEntity
  8
LAY-6
  6
CONTINUOUS
 62
     1
100
AcDbLine
 10
116.503377
 20
446.7
 30
0.0
 11
123.503381
 21
446.7
 31
0.0
  0
LINE
  5
49B
100
AcDbEntity
  8
LAY-6
  6
CONTINUOUS
 62
     1
100
AcDbLine
 10
119.503377
 20
447.2
 30
0.0
 11
116.503377
 21
446.7
 31
0.0
  0
LINE
  5
49C
100
AcDbEntity
  8
LAY-6
  6
CONTINUOUS
 62
     1
100
AcDbLine
 10
116.503377
 20
446.7
 30
0.0
 11
119.503377
 21
446.2
 31
0.0
  0
LINE
  5
49D
100
AcDbEntity
  8
LAY-6
  6
CONTINUOUS
 62
     1
100
AcDbLine
 10
120.503381
 20
446.2
 30
0.0
 11
123.503381
 21
446.7
 31
0.0
  0
LINE
  5
49E
100
AcDbEntity
  8
LAY-6
  6
CONTINUOUS
 62
     1
100
AcDbLine
 10
123.503381
 20
446.7
 30
0.0
 11
120.503381
 21
447.2
 31
0.0
  0
TEXT
  5
49F
100
AcDbEntity
  8
LAY-6
  6
CONTINUOUS
 62
     2
100
AcDbText
 10
118.003379
 20
447.2
 30
0.0
 40
5.0
  1
７
 41
0.672
  7
EXCADSTD
 72
     5
 11
121.203379
 21
447.2
 31
0.0
100
AcDbText
  0
LINE
  5
4A0
100
AcDbEntity
  8
LAY-6
  6
CONTINUOUS
 62
     1
100
AcDbLine
 10
123.503381
 20
420.491054
 30
0.0
 11
123.503381
 21
433.3
 31
0.0
  0
LINE
  5
4A1
100
AcDbEntity
  8
LAY-6
  6
CONTINUOUS
 62
     1
100
AcDbLine
 10
133.503381
 20
417.491028
 30
0.0
 11
133.503381
 21
433.3
 31
0.0
  0
LINE
  5
4A2
100
AcDbEntity
  8
LAY-6
  6
CONTINUOUS
 62
     1
100
AcDbLine
 10
123.503381
 20
431.8
 30
0.0
 11
133.503381
 21
431.8
 31
0.0
  0
LINE
  5
4A3
100
AcDbEntity
  8
LAY-6
  6
CONTINUOUS
 62
     1
100
AcDbLine
 10
126.503381
 20
432.3
 30
0.0
 11
123.503381
 21
431.8
 31
0.0
  0
LINE
  5
4A4
100
AcDbEntity
  8
LAY-6
  6
CONTINUOUS
 62
     1
100
AcDbLine
 10
123.503381
 20
431.8
 30
0.0
 11
126.503381
 21
431.3
 31
0.0
  0
LINE
  5
4A5
100
AcDbEntity
  8
LAY-6
  6
CONTINUOUS
 62
     1
100
AcDbLine
 10
130.503381
 20
431.3
 30
0.0
 11
133.503381
 21
431.8
 31
0.0
  0
LINE
  5
4A6
100
AcDbEntity
  8
LAY-6
  6
CONTINUOUS
 62
     1
100
AcDbLine
 10
133.503381
 20
431.8
 30
0.0
 11
130.503381
 21
432.3
 31
0.0
  0
TEXT
  5
4A7
100
AcDbEntity
  8
LAY-6
  6
CONTINUOUS
 62
     2
100
AcDbText
 10
123.203381
 20
432.3
 30
0.0
 40
5.0
  1
(
 41
0.4
  7
EXCADSTD
 72
     5
 11
124.503381
 21
432.3
 31
0.0
100
AcDbText
  0
TEXT
  5
4A8
100
AcDbEntity
  8
LAY-6
  6
CONTINUOUS
 62
     2
100
AcDbText
 10
125.203381
 20
432.3
 30
0.0
 40
5.0
  1
１０
 41
0.672
  7
EXCADSTD
 72
     5
 11
132.536181
 21
432.3
 31
0.0
100
AcDbText
  0
TEXT
  5
4A9
100
AcDbEntity
  8
LAY-6
  6
CONTINUOUS
 62
     2
100
AcDbText
 10
133.203381
 20
432.3
 30
0.0
 40
5.0
  1
)
 41
0.4
  7
EXCADSTD
 72
     5
 11
134.503381
 21
432.3
 31
0.0
100
AcDbText
  0
TEXT
  5
4AA
100
AcDbEntity
  8
LAY-6
  6
CONTINUOUS
 62
     2
100
AcDbText
 10
140.503381
 20
432.3
 30
0.0
 40
5.0
  1
（
 41
0.672
  7
EXCADSTD
 72
     5
 11
143.703381
 21
432.3
 31
0.0
100
AcDbText
  0
TEXT
  5
4AB
100
AcDbEntity
  8
LAY-6
  6
CONTINUOUS
 62
     2
100
AcDbText
 10
144.503381
 20
432.3
 30
0.0
 40
5.0
  1
３０
 41
0.672
  7
EXCADSTD
 72
     5
 11
151.836181
 21
432.3
 31
0.0
100
AcDbText
  0
TEXT
  5
4AC
100
AcDbEntity
  8
LAY-6
  6
CONTINUOUS
 62
     2
100
AcDbText
 10
152.503381
 20
432.3
 30
0.0
 40
5.0
  1
）
 41
0.672
  7
EXCADSTD
 72
     5
 11
155.703381
 21
432.3
 31
0.0
100
AcDbText
  0
LINE
  5
4AD
100
AcDbEntity
  8
LAY-6
  6
CONTINUOUS
 62
     1
100
AcDbLine
 10
163.503381
 20
417.491028
 30
0.0
 11
163.503381
 21
433.3
 31
0.0
  0
LINE
  5
4AE
100
AcDbEntity
  8
LAY-6
  6
CONTINUOUS
 62
     1
100
AcDbLine
 10
133.503381
 20
431.8
 30
0.0
 11
163.503381
 21
431.8
 31
0.0
  0
LINE
  5
4AF
100
AcDbEntity
  8
LAY-6
  6
CONTINUOUS
 62
     1
100
AcDbLine
 10
136.503381
 20
432.3
 30
0.0
 11
133.503381
 21
431.8
 31
0.0
  0
LINE
  5
4B0
100
AcDbEntity
  8
LAY-6
  6
CONTINUOUS
 62
     1
100
AcDbLine
 10
133.503381
 20
431.8
 30
0.0
 11
136.503381
 21
431.3
 31
0.0
  0
LINE
  5
4B1
100
AcDbEntity
  8
LAY-6
  6
CONTINUOUS
 62
     1
100
AcDbLine
 10
160.503381
 20
431.3
 30
0.0
 11
163.503381
 21
431.8
 31
0.0
  0
LINE
  5
4B2
100
AcDbEntity
  8
LAY-6
  6
CONTINUOUS
 62
     1
100
AcDbLine
 10
163.503381
 20
431.8
 30
0.0
 11
160.503381
 21
432.3
 31
0.0
  0
TEXT
  5
4B3
100
AcDbEntity
  8
LAY-6
  6
CONTINUOUS
 62
     2
100
AcDbText
 10
188.3
 20
381.491043
 30
0.0
 40
5.0
  1
（
 50
90.0
 41
0.672
  7
EXCADSTD
 72
     5
 11
188.3
 21
384.691043
 31
0.0
100
AcDbText
  0
TEXT
  5
4B4
100
AcDbEntity
  8
LAY-6
  6
CONTINUOUS
 62
     2
100
AcDbText
 10
188.3
 20
385.491043
 30
0.0
 40
5.0
  1
１３
 50
90.0
 41
0.672
  7
EXCADSTD
 72
     5
 11
188.3
 21
392.823843
 31
0.0
100
AcDbText
  0
TEXT
  5
4B5
100
AcDbEntity
  8
LAY-6
  6
CONTINUOUS
 62
     2
100
AcDbText
 10
188.3
 20
393.491043
 30
0.0
 40
5.0
  1
）
 50
90.0
 41
0.672
  7
EXCADSTD
 72
     5
 11
188.3
 21
396.691043
 31
0.0
100
AcDbText
  0
LINE
  5
4B6
100
AcDbEntity
  8
LAY-6
  6
CONTINUOUS
 62
     1
100
AcDbLine
 10
169.003381
 20
395.991028
 30
0.0
 11
190.3
 21
395.991028
 31
0.0
  0
LINE
  5
4B7
100
AcDbEntity
  8
LAY-6
  6
CONTINUOUS
 62
     1
100
AcDbLine
 10
188.8
 20
382.991058
 30
0.0
 11
188.8
 21
395.991028
 31
0.0
  0
LINE
  5
4B8
100
AcDbEntity
  8
LAY-6
  6
CONTINUOUS
 62
     1
100
AcDbLine
 10
188.3
 20
385.991058
 30
0.0
 11
188.8
 21
382.991058
 31
0.0
  0
LINE
  5
4B9
100
AcDbEntity
  8
LAY-6
  6
CONTINUOUS
 62
     1
100
AcDbLine
 10
188.8
 20
382.991058
 30
0.0
 11
189.3
 21
385.991058
 31
0.0
  0
LINE
  5
4BA
100
AcDbEntity
  8
LAY-6
  6
CONTINUOUS
 62
     1
100
AcDbLine
 10
189.3
 20
392.991028
 30
0.0
 11
188.8
 21
395.991028
 31
0.0
  0
LINE
  5
4BB
100
AcDbEntity
  8
LAY-6
  6
CONTINUOUS
 62
     1
100
AcDbLine
 10
188.8
 20
395.991028
 30
0.0
 11
188.3
 21
392.991028
 31
0.0
  0
TEXT
  5
4BC
100
AcDbEntity
  8
LAY-6
  6
CONTINUOUS
 62
     2
100
AcDbText
 10
188.3
 20
395.991028
 30
0.0
 40
5.0
  1
（
 50
90.0
 41
0.672
  7
EXCADSTD
 72
     5
 11
188.3
 21
399.191028
 31
0.0
100
AcDbText
  0
TEXT
  5
4BD
100
AcDbEntity
  8
LAY-6
  6
CONTINUOUS
 62
     2
100
AcDbText
 10
188.3
 20
399.991028
 30
0.0
 40
5.0
  1
１６
 50
90.0
 41
0.672
  7
EXCADSTD
 72
     5
 11
188.3
 21
407.323828
 31
0.0
100
AcDbText
  0
TEXT
  5
4BE
100
AcDbEntity
  8
LAY-6
  6
CONTINUOUS
 62
     2
100
AcDbText
 10
188.3
 20
407.991028
 30
0.0
 40
5.0
  1
）
 50
90.0
 41
0.672
  7
EXCADSTD
 72
     5
 11
188.3
 21
411.191028
 31
0.0
100
AcDbText
  0
LINE
  5
4BF
100
AcDbEntity
  8
LAY-6
  6
CONTINUOUS
 62
     1
100
AcDbLine
 10
169.003381
 20
411.991028
 30
0.0
 11
190.3
 21
411.991028
 31
0.0
  0
LINE
  5
4C0
100
AcDbEntity
  8
LAY-6
  6
CONTINUOUS
 62
     1
100
AcDbLine
 10
188.8
 20
395.991028
 30
0.0
 11
188.8
 21
411.991028
 31
0.0
  0
LINE
  5
4C1
100
AcDbEntity
  8
LAY-6
  6
CONTINUOUS
 62
     1
100
AcDbLine
 10
188.3
 20
398.991028
 30
0.0
 11
188.8
 21
395.991028
 31
0.0
  0
LINE
  5
4C2
100
AcDbEntity
  8
LAY-6
  6
CONTINUOUS
 62
     1
100
AcDbLine
 10
188.8
 20
395.991028
 30
0.0
 11
189.3
 21
398.991028
 31
0.0
  0
LINE
  5
4C3
100
AcDbEntity
  8
LAY-6
  6
CONTINUOUS
 62
     1
100
AcDbLine
 10
189.3
 20
408.991028
 30
0.0
 11
188.8
 21
411.991028
 31
0.0
  0
LINE
  5
4C4
100
AcDbEntity
  8
LAY-6
  6
CONTINUOUS
 62
     1
100
AcDbLine
 10
188.8
 20
411.991028
 30
0.0
 11
188.3
 21
408.991028
 31
0.0
  0
TEXT
  5
4C5
100
AcDbEntity
  8
LAY-6
  6
CONTINUOUS
 62
     2
100
AcDbText
 10
182.95
 20
448.7
 30
0.0
 40
5.0
  1
４－Ｍ５×２０皿小ネジ(P=0.8)(別途)
 41
0.576198
  7
EXCADSTD
 72
     5
 11
252.95
 21
448.7
 31
0.0
100
AcDbText
  0
POLYLINE
  5
4C6
100
AcDbEntity
  8
LAY-6
  6
CONTINUOUS
 62
     1
100
AcDb2dPolyline
 66
     1
 10
0.0
 20
0.0
 30
0.0
 70
   128
  0
VERTEX
  5
4C7
100
AcDbEntity
  8
LAY-6
  6
CONTINUOUS
 62
     1
100
AcDbVertex
100
AcDb2dVertex
 10
164.60613
 20
414.234773
 30
0.0
  0
VERTEX
  5
4C8
100
AcDbEntity
  8
LAY-6
  6
CONTINUOUS
 62
     1
100
AcDbVertex
100
AcDb2dVertex
 10
181.3
 20
448.2
 30
0.0
  0
VERTEX
  5
4C9
100
AcDbEntity
  8
LAY-6
  6
CONTINUOUS
 62
     1
100
AcDbVertex
100
AcDb2dVertex
 10
254.6
 20
448.2
 30
0.0
  0
SEQEND
  5
4CA
100
AcDbEntity
  8
LAY-6
  6
CONTINUOUS
 62
     1
  0
LINE
  5
4CB
100
AcDbEntity
  8
LAY-6
  6
CONTINUOUS
 62
     1
100
AcDbLine
 10
165.189177
 20
416.176722
 30
0.0
 11
164.60613
 21
414.234773
 31
0.0
  0
LINE
  5
4CC
100
AcDbEntity
  8
LAY-6
  6
CONTINUOUS
 62
     1
100
AcDbLine
 10
164.60613
 20
414.234773
 30
0.0
 11
165.787482
 21
415.882656
 31
0.0
  0
TEXT
  5
4CD
100
AcDbEntity
  8
LAY-6
  6
CONTINUOUS
 62
     2
100
AcDbText
 10
319.503389
 20
276.2
 30
0.0
 40
5.0
  1
３
 41
0.672
  7
EXCADSTD
 72
     5
 11
322.703389
 21
276.2
 31
0.0
100
AcDbText
  0
LINE
  5
4CE
100
AcDbEntity
  8
LAY-6
  6
CONTINUOUS
 62
     1
100
AcDbLine
 10
329.503375
 20
237.999999
 30
0.0
 11
329.503375
 21
277.2
 31
0.0
  0
LINE
  5
4CF
100
AcDbEntity
  8
LAY-6
  6
CONTINUOUS
 62
     1
100
AcDbLine
 10
319.003389
 20
275.7
 30
0.0
 11
329.503375
 21
275.7
 31
0.0
  0
LINE
  5
4D0
100
AcDbEntity
  8
LAY-6
  6
CONTINUOUS
 62
     1
100
AcDbLine
 10
323.503389
 20
275.2
 30
0.0
 11
326.503389
 21
275.7
 31
0.0
  0
LINE
  5
4D1
100
AcDbEntity
  8
LAY-6
  6
CONTINUOUS
 62
     1
100
AcDbLine
 10
326.503389
 20
275.7
 30
0.0
 11
323.503389
 21
276.2
 31
0.0
  0
TEXT
  5
4D2
100
AcDbEntity
  8
LAY-6
  6
CONTINUOUS
 62
     2
100
AcDbText
 10
329.503386
 20
276.2
 30
0.0
 40
5.0
  1
４
 41
0.672
  7
EXCADSTD
 72
     5
 11
332.703386
 21
276.2
 31
0.0
100
AcDbText
  0
LINE
  5
4D3
100
AcDbEntity
  8
LAY-6
  6
CONTINUOUS
 62
     1
100
AcDbLine
 10
329.503375
 20
275.7
 30
0.0
 11
333.503397
 21
275.7
 31
0.0
  0
CIRCLE
  5
4D4
100
AcDbEntity
  8
LAY-6
  6
CONTINUOUS
 62
     1
100
AcDbCircle
 10
329.503375
 20
275.7
 30
0.0
 40
0.5
  0
CIRCLE
  5
4D5
100
AcDbEntity
  8
LAY-6
  6
CONTINUOUS
 62
     1
100
AcDbCircle
 10
329.503375
 20
275.7
 30
0.0
 40
0.25
  0
LINE
  5
4D6
100
AcDbEntity
  8
LAY-6
  6
CONTINUOUS
 62
     1
100
AcDbLine
 10
383.503412
 20
253.56131
 30
0.0
 11
383.503412
 21
277.2
 31
0.0
  0
LINE
  5
4D7
100
AcDbEntity
  8
LAY-6
  6
CONTINUOUS
 62
     1
100
AcDbLine
 10
333.503397
 20
275.7
 30
0.0
 11
383.503412
 21
275.7
 31
0.0
  0
LINE
  5
4D8
100
AcDbEntity
  8
LAY-6
  6
CONTINUOUS
 62
     1
100
AcDbLine
 10
336.503397
 20
276.2
 30
0.0
 11
333.503397
 21
275.7
 31
0.0
  0
LINE
  5
4D9
100
AcDbEntity
  8
LAY-6
  6
CONTINUOUS
 62
     1
100
AcDbLine
 10
333.503397
 20
275.7
 30
0.0
 11
336.503397
 21
275.2
 31
0.0
  0
LINE
  5
4DA
100
AcDbEntity
  8
LAY-6
  6
CONTINUOUS
 62
     1
100
AcDbLine
 10
380.503412
 20
275.2
 30
0.0
 11
383.503412
 21
275.7
 31
0.0
  0
LINE
  5
4DB
100
AcDbEntity
  8
LAY-6
  6
CONTINUOUS
 62
     1
100
AcDbLine
 10
383.503412
 20
275.7
 30
0.0
 11
380.503412
 21
276.2
 31
0.0
  0
TEXT
  5
4DC
100
AcDbEntity
  8
LAY-6
  6
CONTINUOUS
 62
     2
100
AcDbText
 10
354.503404
 20
276.2
 30
0.0
 40
5.0
  1
５０
 41
0.672
  7
EXCADSTD
 72
     5
 11
361.836205
 21
276.2
 31
0.0
100
AcDbText
  0
LINE
  5
4DD
100
AcDbEntity
  8
LAY-6
  6
CONTINUOUS
 62
     1
100
AcDbLine
 10
326.503389
 20
261.561316
 30
0.0
 11
326.503389
 21
284.1
 31
0.0
  0
LINE
  5
4DE
100
AcDbEntity
  8
LAY-6
  6
CONTINUOUS
 62
     1
100
AcDbLine
 10
333.503397
 20
253.56134
 30
0.0
 11
333.503397
 21
284.1
 31
0.0
  0
LINE
  5
4DF
100
AcDbEntity
  8
LAY-6
  6
CONTINUOUS
 62
     1
100
AcDbLine
 10
326.503389
 20
282.6
 30
0.0
 11
333.503397
 21
282.6
 31
0.0
  0
LINE
  5
4E0
100
AcDbEntity
  8
LAY-6
  6
CONTINUOUS
 62
     1
100
AcDbLine
 10
329.503389
 20
283.1
 30
0.0
 11
326.503389
 21
282.6
 31
0.0
  0
LINE
  5
4E1
100
AcDbEntity
  8
LAY-6
  6
CONTINUOUS
 62
     1
100
AcDbLine
 10
326.503389
 20
282.6
 30
0.0
 11
329.503389
 21
282.1
 31
0.0
  0
LINE
  5
4E2
100
AcDbEntity
  8
LAY-6
  6
CONTINUOUS
 62
     1
100
AcDbLine
 10
330.503397
 20
282.1
 30
0.0
 11
333.503397
 21
282.6
 31
0.0
  0
LINE
  5
4E3
100
AcDbEntity
  8
LAY-6
  6
CONTINUOUS
 62
     1
100
AcDbLine
 10
333.503397
 20
282.6
 30
0.0
 11
330.503397
 21
283.1
 31
0.0
  0
TEXT
  5
4E4
100
AcDbEntity
  8
LAY-6
  6
CONTINUOUS
 62
     2
100
AcDbText
 10
328.003393
 20
283.1
 30
0.0
 40
5.0
  1
７
 41
0.672
  7
EXCADSTD
 72
     5
 11
331.203393
 21
283.1
 31
0.0
100
AcDbText
  0
INSERT
  5
4E5
100
AcDbEntity
  8
LAY-6
  6
CONTINUOUS
 62
     0
100
AcDbBlockReference
  2
SYM-3
 10
84.0
 20
293.5
 30
0.0
  0
INSERT
  5
4E6
100
AcDbEntity
  8
LAY-6
  6
CONTINUOUS
 62
     0
100
AcDbBlockReference
  2
SYM-4
 10
310.0
 20
293.5
 30
0.0
  0
LINE
  5
4E7
100
AcDbEntity
  8
LAY-6
  6
CONTINUOUS
 62
     1
100
AcDbLine
 10
343.503393
 20
250.561354
 30
0.0
 11
343.503393
 21
269.4
 31
0.0
  0
LINE
  5
4E8
100
AcDbEntity
  8
LAY-6
  6
CONTINUOUS
 62
     1
100
AcDbLine
 10
333.503397
 20
267.9
 30
0.0
 11
343.503393
 21
267.9
 31
0.0
  0
LINE
  5
4E9
100
AcDbEntity
  8
LAY-6
  6
CONTINUOUS
 62
     1
100
AcDbLine
 10
336.503397
 20
268.4
 30
0.0
 11
333.503397
 21
267.9
 31
0.0
  0
LINE
  5
4EA
100
AcDbEntity
  8
LAY-6
  6
CONTINUOUS
 62
     1
100
AcDbLine
 10
333.503397
 20
267.9
 30
0.0
 11
336.503397
 21
267.4
 31
0.0
  0
LINE
  5
4EB
100
AcDbEntity
  8
LAY-6
  6
CONTINUOUS
 62
     1
100
AcDbLine
 10
340.503393
 20
267.4
 30
0.0
 11
343.503393
 21
267.9
 31
0.0
  0
LINE
  5
4EC
100
AcDbEntity
  8
LAY-6
  6
CONTINUOUS
 62
     1
100
AcDbLine
 10
343.503393
 20
267.9
 30
0.0
 11
340.503393
 21
268.4
 31
0.0
  0
TEXT
  5
4ED
100
AcDbEntity
  8
LAY-6
  6
CONTINUOUS
 62
     2
100
AcDbText
 10
333.223395
 20
268.4
 30
0.0
 40
5.0
  1
(
 41
0.4
  7
EXCADSTD
 72
     5
 11
334.523395
 21
268.4
 31
0.0
100
AcDbText
  0
TEXT
  5
4EE
100
AcDbEntity
  8
LAY-6
  6
CONTINUOUS
 62
     2
100
AcDbText
 10
335.223395
 20
268.4
 30
0.0
 40
5.0
  1
１０
 41
0.672
  7
EXCADSTD
 72
     5
 11
342.556195
 21
268.4
 31
0.0
100
AcDbText
  0
TEXT
  5
4EF
100
AcDbEntity
  8
LAY-6
  6
CONTINUOUS
 62
     2
100
AcDbText
 10
343.223395
 20
268.4
 30
0.0
 40
5.0
  1
)
 41
0.4
  7
EXCADSTD
 72
     5
 11
344.523395
 21
268.4
 31
0.0
100
AcDbText
  0
TEXT
  5
4F0
100
AcDbEntity
  8
LAY-6
  6
CONTINUOUS
 62
     2
100
AcDbText
 10
350.503393
 20
268.4
 30
0.0
 40
5.0
  1
（
 41
0.672
  7
EXCADSTD
 72
     5
 11
353.703393
 21
268.4
 31
0.0
100
AcDbText
  0
TEXT
  5
4F1
100
AcDbEntity
  8
LAY-6
  6
CONTINUOUS
 62
     2
100
AcDbText
 10
354.503393
 20
268.4
 30
0.0
 40
5.0
  1
３０
 41
0.672
  7
EXCADSTD
 72
     5
 11
361.836193
 21
268.4
 31
0.0
100
AcDbText
  0
TEXT
  5
4F2
100
AcDbEntity
  8
LAY-6
  6
CONTINUOUS
 62
     2
100
AcDbText
 10
362.503393
 20
268.4
 30
0.0
 40
5.0
  1
）
 41
0.672
  7
EXCADSTD
 72
     5
 11
365.703393
 21
268.4
 31
0.0
100
AcDbText
  0
LINE
  5
4F3
100
AcDbEntity
  8
LAY-6
  6
CONTINUOUS
 62
     1
100
AcDbLine
 10
373.503393
 20
250.561354
 30
0.0
 11
373.503393
 21
269.4
 31
0.0
  0
LINE
  5
4F4
100
AcDbEntity
  8
LAY-6
  6
CONTINUOUS
 62
     1
100
AcDbLine
 10
343.503393
 20
267.9
 30
0.0
 11
373.503393
 21
267.9
 31
0.0
  0
LINE
  5
4F5
100
AcDbEntity
  8
LAY-6
  6
CONTINUOUS
 62
     1
100
AcDbLine
 10
346.503393
 20
268.4
 30
0.0
 11
343.503393
 21
267.9
 31
0.0
  0
LINE
  5
4F6
100
AcDbEntity
  8
LAY-6
  6
CONTINUOUS
 62
     1
100
AcDbLine
 10
343.503393
 20
267.9
 30
0.0
 11
346.503393
 21
267.4
 31
0.0
  0
LINE
  5
4F7
100
AcDbEntity
  8
LAY-6
  6
CONTINUOUS
 62
     1
100
AcDbLine
 10
370.503393
 20
267.4
 30
0.0
 11
373.503393
 21
267.9
 31
0.0
  0
LINE
  5
4F8
100
AcDbEntity
  8
LAY-6
  6
CONTINUOUS
 62
     1
100
AcDbLine
 10
373.503393
 20
267.9
 30
0.0
 11
370.503393
 21
268.4
 31
0.0
  0
TEXT
  5
4F9
100
AcDbEntity
  8
LAY-6
  6
CONTINUOUS
 62
     2
100
AcDbText
 10
400.7
 20
218.361335
 30
0.0
 40
5.0
  1
(
 50
90.0
 41
0.38
  7
EXCADSTD
 72
     5
 11
400.7
 21
219.596335
 31
0.0
100
AcDbText
  0
TEXT
  5
4FA
100
AcDbEntity
  8
LAY-6
  6
CONTINUOUS
 62
     2
100
AcDbText
 10
400.7
 20
220.261335
 30
0.0
 40
5.0
  1
１０
 50
90.0
 41
0.6384
  7
EXCADSTD
 72
     5
 11
400.7
 21
227.227495
 31
0.0
100
AcDbText
  0
TEXT
  5
4FB
100
AcDbEntity
  8
LAY-6
  6
CONTINUOUS
 62
     2
100
AcDbText
 10
400.7
 20
227.861335
 30
0.0
 40
5.0
  1
)
 50
90.0
 41
0.38
  7
EXCADSTD
 72
     5
 11
400.7
 21
229.096335
 31
0.0
100
AcDbText
  0
LINE
  5
4FC
100
AcDbEntity
  8
LAY-6
  6
CONTINUOUS
 62
     1
100
AcDbLine
 10
379.003393
 20
229.061354
 30
0.0
 11
402.7
 21
229.061354
 31
0.0
  0
LINE
  5
4FD
100
AcDbEntity
  8
LAY-6
  6
CONTINUOUS
 62
     1
100
AcDbLine
 10
401.2
 20
219.061316
 30
0.0
 11
401.2
 21
229.061354
 31
0.0
  0
LINE
  5
4FE
100
AcDbEntity
  8
LAY-6
  6
CONTINUOUS
 62
     1
100
AcDbLine
 10
400.7
 20
222.061316
 30
0.0
 11
401.2
 21
219.061316
 31
0.0
  0
LINE
  5
4FF
100
AcDbEntity
  8
LAY-6
  6
CONTINUOUS
 62
     1
100
AcDbLine
 10
401.2
 20
219.061316
 30
0.0
 11
401.7
 21
222.061316
 31
0.0
  0
LINE
  5
500
100
AcDbEntity
  8
LAY-6
  6
CONTINUOUS
 62
     1
100
AcDbLine
 10
401.7
 20
226.061354
 30
0.0
 11
401.2
 21
229.061354
 31
0.0
  0
LINE
  5
501
100
AcDbEntity
  8
LAY-6
  6
CONTINUOUS
 62
     1
100
AcDbLine
 10
401.2
 20
229.061354
 30
0.0
 11
400.7
 21
226.061354
 31
0.0
  0
TEXT
  5
502
100
AcDbEntity
  8
LAY-6
  6
CONTINUOUS
 62
     2
100
AcDbText
 10
400.7
 20
229.061354
 30
0.0
 40
5.0
  1
（
 50
90.0
 41
0.672
  7
EXCADSTD
 72
     5
 11
400.7
 21
232.261354
 31
0.0
100
AcDbText
  0
TEXT
  5
503
100
AcDbEntity
  8
LAY-6
  6
CONTINUOUS
 62
     2
100
AcDbText
 10
400.7
 20
233.061354
 30
0.0
 40
5.0
  1
１６
 50
90.0
 41
0.672
  7
EXCADSTD
 72
     5
 11
400.7
 21
240.394154
 31
0.0
100
AcDbText
  0
TEXT
  5
504
100
AcDbEntity
  8
LAY-6
  6
CONTINUOUS
 62
     2
100
AcDbText
 10
400.7
 20
241.061354
 30
0.0
 40
5.0
  1
）
 50
90.0
 41
0.672
  7
EXCADSTD
 72
     5
 11
400.7
 21
244.261354
 31
0.0
100
AcDbText
  0
LINE
  5
505
100
AcDbEntity
  8
LAY-6
  6
CONTINUOUS
 62
     1
100
AcDbLine
 10
379.003393
 20
245.061354
 30
0.0
 11
402.7
 21
245.061354
 31
0.0
  0
LINE
  5
506
100
AcDbEntity
  8
LAY-6
  6
CONTINUOUS
 62
     1
100
AcDbLine
 10
401.2
 20
229.061354
 30
0.0
 11
401.2
 21
245.061354
 31
0.0
  0
LINE
  5
507
100
AcDbEntity
  8
LAY-6
  6
CONTINUOUS
 62
     1
100
AcDbLine
 10
400.7
 20
232.061354
 30
0.0
 11
401.2
 21
229.061354
 31
0.0
  0
LINE
  5
508
100
AcDbEntity
  8
LAY-6
  6
CONTINUOUS
 62
     1
100
AcDbLine
 10
401.2
 20
229.061354
 30
0.0
 11
401.7
 21
232.061354
 31
0.0
  0
LINE
  5
509
100
AcDbEntity
  8
LAY-6
  6
CONTINUOUS
 62
     1
100
AcDbLine
 10
401.7
 20
242.061354
 30
0.0
 11
401.2
 21
245.061354
 31
0.0
  0
LINE
  5
50A
100
AcDbEntity
  8
LAY-6
  6
CONTINUOUS
 62
     1
100
AcDbLine
 10
401.2
 20
245.061354
 30
0.0
 11
400.7
 21
242.061354
 31
0.0
  0
TEXT
  5
50B
100
AcDbEntity
  8
LAY-6
  6
CONTINUOUS
 62
     2
100
AcDbText
 10
394.45
 20
282.0
 30
0.0
 40
5.0
  1
４－Ｍ５×２０皿小ネジ(P=0.8)(別途)
 41
0.576198
  7
EXCADSTD
 72
     5
 11
464.45
 21
282.0
 31
0.0
100
AcDbText
  0
POLYLINE
  5
50C
100
AcDbEntity
  8
LAY-6
  6
CONTINUOUS
 62
     1
100
AcDb2dPolyline
 66
     1
 10
0.0
 20
0.0
 30
0.0
 70
   128
  0
VERTEX
  5
50D
100
AcDbEntity
  8
LAY-6
  6
CONTINUOUS
 62
     1
100
AcDbVertex
100
AcDb2dVertex
 10
374.747083
 20
247.230049
 30
0.0
  0
VERTEX
  5
50E
100
AcDbEntity
  8
LAY-6
  6
CONTINUOUS
 62
     1
100
AcDbVertex
100
AcDb2dVertex
 10
394.4
 20
281.5
 30
0.0
  0
VERTEX
  5
50F
100
AcDbEntity
  8
LAY-6
  6
CONTINUOUS
 62
     1
100
AcDbVertex
100
AcDb2dVertex
 10
464.5
 20
281.5
 30
0.0
  0
SEQEND
  5
510
100
AcDbEntity
  8
LAY-6
  6
CONTINUOUS
 62
     1
  0
LINE
  5
511
100
AcDbEntity
  8
LAY-6
  6
CONTINUOUS
 62
     1
100
AcDbLine
 10
375.452875
 20
249.13083
 30
0.0
 11
374.747083
 21
247.230049
 31
0.0
  0
LINE
  5
512
100
AcDbEntity
  8
LAY-6
  6
CONTINUOUS
 62
     1
100
AcDbLine
 10
374.747083
 20
247.230049
 30
0.0
 11
376.031193
 21
248.79918
 31
0.0
  0
TEXT
  5
513
100
AcDbEntity
  8
LAY-6
  6
CONTINUOUS
 62
     2
100
AcDbText
 10
334.0
 20
87.0
 30
0.0
 40
9.0
  1
■タップ型(①④タ ップ穴加工付)は品番の後にＴＡＰを付けて下さい。(オプション)　発注例：１１ＡＴ ＴＡＰ
 41
0.651808
  7
EXCADSTD
 72
     5
 11
697.59999
 21
87.0
 31
0.0
100
AcDbText
  0
TEXT
  5
514
100
AcDbEntity
  8
LAY-6
  6
CONTINUOUS
 62
     2
100
AcDbText
 10
334.0
 20
78.0
 30
0.0
 40
9.0
  1
　タップ穴は(　)内寸法をご参照下さい。
 41
0.65056
  7
EXCADSTD
 72
     5
 11
470.799996
 21
78.0
 31
0.0
100
AcDbText
  0
TEXT
  5
515
100
AcDbEntity
  8
LAY-6
  6
CONTINUOUS
 62
     2
100
AcDbText
 10
334.0
 20
69.0
 30
0.0
 40
9.0
  1
■①カバー３㎜伸ばしは品番の後に①Ｔを付けて下さい。(オプション)　発注例：１１ＡＴ ①Ｔ
 41
0.657849
  7
EXCADSTD
 72
     5
 11
647.199992
 21
69.0
 31
0.0
100
AcDbText
  0
TEXT
  5
516
100
AcDbEntity
  8
LAY-6
  6
CONTINUOUS
 62
     2
100
AcDbText
 10
701.4
 20
174.4655
 30
0.0
 40
5.0
  1
９
 50
90.0
 41
0.672
  7
EXCADSTD
 72
     5
 11
701.4
 21
177.6655
 31
0.0
100
AcDbText
  0
LINE
  5
517
100
AcDbEntity
  8
LAY-6
  6
CONTINUOUS
 62
     1
100
AcDbLine
 10
692.905766
 20
180.965455
 30
0.0
 11
703.4
 21
180.965455
 31
0.0
  0
LINE
  5
518
100
AcDbEntity
  8
LAY-6
  6
CONTINUOUS
 62
     1
100
AcDbLine
 10
686.35465
 20
171.965546
 30
0.0
 11
703.4
 21
171.965546
 31
0.0
  0
LINE
  5
519
100
AcDbEntity
  8
LAY-6
  6
CONTINUOUS
 62
     1
100
AcDbLine
 10
701.9
 20
180.965455
 30
0.0
 11
701.9
 21
171.965546
 31
0.0
  0
LINE
  5
51A
100
AcDbEntity
  8
LAY-6
  6
CONTINUOUS
 62
     1
100
AcDbLine
 10
702.4
 20
177.965455
 30
0.0
 11
701.9
 21
180.965455
 31
0.0
  0
LINE
  5
51B
100
AcDbEntity
  8
LAY-6
  6
CONTINUOUS
 62
     1
100
AcDbLine
 10
701.9
 20
180.965455
 30
0.0
 11
701.4
 21
177.965455
 31
0.0
  0
LINE
  5
51C
100
AcDbEntity
  8
LAY-6
  6
CONTINUOUS
 62
     1
100
AcDbLine
 10
701.4
 20
174.965546
 30
0.0
 11
701.9
 21
171.965546
 31
0.0
  0
LINE
  5
51D
100
AcDbEntity
  8
LAY-6
  6
CONTINUOUS
 62
     1
100
AcDbLine
 10
701.9
 20
171.965546
 30
0.0
 11
702.4
 21
174.965546
 31
0.0
  0
POLYLINE
  5
51E
100
AcDbEntity
  8
LAY-6
  6
CONTINUOUS
 62
     1
100
AcDb2dPolyline
 66
     1
 10
0.0
 20
0.0
 30
0.0
 70
   128
  0
VERTEX
  5
51F
100
AcDbEntity
  8
LAY-6
  6
CONTINUOUS
 62
     1
100
AcDbVertex
100
AcDb2dVertex
 10
622.954619
 20
411.815201
 30
0.0
  0
VERTEX
  5
520
100
AcDbEntity
  8
LAY-6
  6
CONTINUOUS
 62
     1
100
AcDbVertex
100
AcDb2dVertex
 10
605.677294
 20
428.8
 30
0.0
  0
VERTEX
  5
521
100
AcDbEntity
  8
LAY-6
  6
CONTINUOUS
 62
     1
100
AcDbVertex
100
AcDb2dVertex
 10
590.1
 20
428.8
 30
0.0
  0
SEQEND
  5
522
100
AcDbEntity
  8
LAY-6
  6
CONTINUOUS
 62
     1
  0
LINE
  5
523
100
AcDbEntity
  8
LAY-6
  6
CONTINUOUS
 62
     1
100
AcDbLine
 10
621.294702
 20
412.979583
 30
0.0
 11
622.954619
 21
411.815201
 31
0.0
  0
LINE
  5
524
100
AcDbEntity
  8
LAY-6
  6
CONTINUOUS
 62
     1
100
AcDbLine
 10
622.954619
 20
411.815201
 30
0.0
 11
621.762064
 21
413.454995
 31
0.0
  0
LINE
  5
525
100
AcDbEntity
  8
LAY-9
  6
CONTINUOUS
 62
     1
100
AcDbLine
 10
692.251302
 20
395.415201
 30
0.0
 11
692.354589
 21
395.518488
 31
0.0
  0
LINE
  5
526
100
AcDbEntity
  8
LAY-9
  6
CONTINUOUS
 62
     1
100
AcDbLine
 10
655.48175
 20
395.415201
 30
0.0
 11
658.88175
 21
398.815201
 31
0.0
  0
LINE
  5
527
100
AcDbEntity
  8
LAY-9
  6
CONTINUOUS
 62
     1
100
AcDbLine
 10
658.310177
 20
395.415201
 30
0.0
 11
661.710177
 21
398.815201
 31
0.0
  0
LINE
  5
528
100
AcDbEntity
  8
LAY-9
  6
CONTINUOUS
 62
     1
100
AcDbLine
 10
682.109167
 20
395.415201
 30
0.0
 11
685.509167
 21
398.815201
 31
0.0
  0
LINE
  5
529
100
AcDbEntity
  8
LAY-9
  6
CONTINUOUS
 62
     1
100
AcDbLine
 10
684.937594
 20
395.415201
 30
0.0
 11
688.337594
 21
398.815201
 31
0.0
  0
LINE
  5
52A
100
AcDbEntity
  8
LAY-9
  6
CONTINUOUS
 62
     1
100
AcDbLine
 10
650.355016
 20
376.815231
 30
0.0
 11
650.355016
 21
356.949622
 31
0.0
  0
LINE
  5
52B
100
AcDbEntity
  8
LAY-9
  6
CONTINUOUS
 62
     1
100
AcDbLine
 10
659.095458
 20
377.315201
 30
0.0
 11
663.595477
 21
381.81522
 31
0.0
  0
LINE
  5
52C
100
AcDbEntity
  8
LAY-9
  6
CONTINUOUS
 62
     1
100
AcDbLine
 10
661.923885
 20
377.315201
 30
0.0
 11
666.423902
 21
381.815218
 31
0.0
  0
LINE
  5
52D
100
AcDbEntity
  8
LAY-9
  6
CONTINUOUS
 62
     1
100
AcDbLine
 10
658.1666
 20
202.965485
 30
0.0
 11
662.6666
 21
207.465485
 31
0.0
  0
LINE
  5
52E
100
AcDbEntity
  8
LAY-9
  6
CONTINUOUS
 62
     1
100
AcDbLine
 10
660.995027
 20
202.965485
 30
0.0
 11
665.495027
 21
207.465485
 31
0.0
  0
LINE
  5
52F
100
AcDbEntity
  8
LAY-9
  6
CONTINUOUS
 62
     1
100
AcDbLine
 10
655.252862
 20
180.965455
 30
0.0
 11
660.652862
 21
186.365455
 31
0.0
  0
LINE
  5
530
100
AcDbEntity
  8
LAY-9
  6
CONTINUOUS
 62
     1
100
AcDbLine
 10
658.081289
 20
180.965455
 30
0.0
 11
663.481289
 21
186.365455
 31
0.0
  0
LINE
  5
531
100
AcDbEntity
  8
LAY-9
  6
CONTINUOUS
 62
     1
100
AcDbLine
 10
681.880279
 20
180.965455
 30
0.0
 11
687.280279
 21
186.365455
 31
0.0
  0
LINE
  5
532
100
AcDbEntity
  8
LAY-9
  6
CONTINUOUS
 62
     1
100
AcDbLine
 10
684.708706
 20
180.965455
 30
0.0
 11
690.108706
 21
186.365455
 31
0.0
  0
LINE
  5
533
100
AcDbEntity
  8
LAY-9
  6
CONTINUOUS
 62
     1
100
AcDbLine
 10
679.095458
 20
377.315201
 30
0.0
 11
683.595477
 21
381.81522
 31
0.0
  0
LINE
  5
534
100
AcDbEntity
  8
LAY-9
  6
CONTINUOUS
 62
     1
100
AcDbLine
 10
681.923885
 20
377.315201
 30
0.0
 11
686.423902
 21
381.815218
 31
0.0
  0
LINE
  5
535
100
AcDbEntity
  8
LAY-9
  6
CONTINUOUS
 62
     1
100
AcDbLine
 10
678.1666
 20
202.965485
 30
0.0
 11
682.6666
 21
207.465485
 31
0.0
  0
LINE
  5
536
100
AcDbEntity
  8
LAY-9
  6
CONTINUOUS
 62
     1
100
AcDbLine
 10
680.995027
 20
202.965485
 30
0.0
 11
685.495027
 21
207.465485
 31
0.0
  0
LINE
  5
537
100
AcDbEntity
  8
LAY-9
  6
CONTINUOUS
 62
     1
100
AcDbLine
 10
116.503377
 20
384.59109
 30
0.0
 11
116.503377
 21
427.99109
 31
0.0
  0
LINE
  5
538
100
AcDbEntity
  8
LAY-9
  6
CONTINUOUS
 62
     1
100
AcDbLine
 10
116.503377
 20
427.99109
 30
0.0
 11
129.903377
 21
427.99109
 31
0.0
  0
LINE
  5
539
100
AcDbEntity
  8
LAY-9
  6
CONTINUOUS
 62
     1
100
AcDbLine
 10
91.503377
 20
384.59109
 30
0.0
 11
91.503377
 21
397.99109
 31
0.0
  0
LINE
  5
53A
100
AcDbEntity
  8
LAY-9
  6
CONTINUOUS
 62
     1
100
AcDbLine
 10
91.503377
 20
397.99109
 30
0.0
 11
93.103377
 21
397.99109
 31
0.0
  0
LINE
  5
53B
100
AcDbEntity
  8
LAY-9
  6
CONTINUOUS
 62
     1
100
AcDbLine
 10
93.103377
 20
384.59109
 30
0.0
 11
114.903377
 21
384.59109
 31
0.0
  0
LINE
  5
53C
100
AcDbEntity
  8
LAY-9
  6
CONTINUOUS
 62
     1
100
AcDbLine
 10
114.903377
 20
384.59109
 30
0.0
 11
114.903377
 21
427.99109
 31
0.0
  0
LINE
  5
53D
100
AcDbEntity
  8
LAY-9
  6
CONTINUOUS
 62
     1
100
AcDbLine
 10
116.503377
 20
429.59109
 30
0.0
 11
129.903377
 21
429.59109
 31
0.0
  0
LINE
  5
53E
100
AcDbEntity
  8
LAY-9
  6
CONTINUOUS
 62
     1
100
AcDbLine
 10
93.103377
 20
397.99109
 30
0.0
 11
93.103377
 21
384.59109
 31
0.0
  0
ARC
  5
53F
100
AcDbEntity
  8
LAY-9
  6
CONTINUOUS
 62
     1
100
AcDbCircle
 10
129.903377
 20
429.59109
 30
0.0
 40
1.6
100
AcDbArc
 50
270.0
 51
0.0
  0
ARC
  5
540
100
AcDbEntity
  8
LAY-9
  6
CONTINUOUS
 62
     1
100
AcDbCircle
 10
116.503377
 20
427.99109
 30
0.0
 40
1.6
100
AcDbArc
 50
90.0
 51
180.0
  0
ARC
  5
541
100
AcDbEntity
  8
LAY-9
  6
CONTINUOUS
 62
     1
100
AcDbCircle
 10
114.903377
 20
384.59109
 30
0.0
 40
1.6
100
AcDbArc
 50
270.0
 51
0.0
  0
ARC
  5
542
100
AcDbEntity
  8
LAY-9
  6
CONTINUOUS
 62
     1
100
AcDbCircle
 10
93.103377
 20
384.59109
 30
0.0
 40
1.6
100
AcDbArc
 50
180.0
 51
270.0
  0
POLYLINE
  5
543
100
AcDbEntity
  8
LAY-9
  6
CONTINUOUS
 62
     1
100
AcDb2dPolyline
 66
     1
 10
0.0
 20
0.0
 30
0.0
 70
   128
  0
VERTEX
  5
544
100
AcDbEntity
  8
LAY-9
  6
CONTINUOUS
 62
     1
100
AcDbVertex
100
AcDb2dVertex
 10
239.399996
 20
427.99109
 30
0.0
  0
VERTEX
  5
545
100
AcDbEntity
  8
LAY-9
  6
CONTINUOUS
 62
     1
100
AcDbVertex
100
AcDb2dVertex
 10
239.460455
 20
427.802201
 30
0.0
  0
VERTEX
  5
546
100
AcDbEntity
  8
LAY-9
  6
CONTINUOUS
 62
     1
100
AcDbVertex
100
AcDb2dVertex
 10
239.626904
 20
427.266088
 30
0.0
  0
VERTEX
  5
547
100
AcDbEntity
  8
LAY-9
  6
CONTINUOUS
 62
     1
100
AcDbVertex
100
AcDb2dVertex
 10
239.876953
 20
426.428577
 30
0.0
  0
VERTEX
  5
548
100
AcDbEntity
  8
LAY-9
  6
CONTINUOUS
 62
     1
100
AcDbVertex
100
AcDb2dVertex
 10
240.188209
 20
425.335494
 30
0.0
  0
VERTEX
  5
549
100
AcDbEntity
  8
LAY-9
  6
CONTINUOUS
 62
     1
100
AcDbVertex
100
AcDb2dVertex
 10
240.538283
 20
424.032666
 30
0.0
  0
VERTEX
  5
54A
100
AcDbEntity
  8
LAY-9
  6
CONTINUOUS
 62
     1
100
AcDbVertex
100
AcDb2dVertex
 10
240.904784
 20
422.565921
 30
0.0
  0
VERTEX
  5
54B
100
AcDbEntity
  8
LAY-9
  6
CONTINUOUS
 62
     1
100
AcDbVertex
100
AcDb2dVertex
 10
241.26532
 20
420.981086
 30
0.0
  0
VERTEX
  5
54C
100
AcDbEntity
  8
LAY-9
  6
CONTINUOUS
 62
     1
100
AcDbVertex
100
AcDb2dVertex
 10
241.5975
 20
419.323986
 30
0.0
  0
VERTEX
  5
54D
100
AcDbEntity
  8
LAY-9
  6
CONTINUOUS
 62
     1
100
AcDbVertex
100
AcDb2dVertex
 10
241.878933
 20
417.64045
 30
0.0
  0
VERTEX
  5
54E
100
AcDbEntity
  8
LAY-9
  6
CONTINUOUS
 62
     1
100
AcDbVertex
100
AcDb2dVertex
 10
242.087229
 20
415.976303
 30
0.0
  0
VERTEX
  5
54F
100
AcDbEntity
  8
LAY-9
  6
CONTINUOUS
 62
     1
100
AcDbVertex
100
AcDb2dVertex
 10
242.199996
 20
414.377374
 30
0.0
  0
VERTEX
  5
550
100
AcDbEntity
  8
LAY-9
  6
CONTINUOUS
 62
     1
100
AcDbVertex
100
AcDb2dVertex
 10
242.20936
 20
413.177208
 30
0.0
  0
VERTEX
  5
551
100
AcDbEntity
  8
LAY-9
  6
CONTINUOUS
 62
     1
100
AcDbVertex
100
AcDb2dVertex
 10
242.149522
 20
412.041154
 30
0.0
  0
VERTEX
  5
552
100
AcDbEntity
  8
LAY-9
  6
CONTINUOUS
 62
     1
100
AcDbVertex
100
AcDb2dVertex
 10
242.025956
 20
410.963005
 30
0.0
  0
VERTEX
  5
553
100
AcDbEntity
  8
LAY-9
  6
CONTINUOUS
 62
     1
100
AcDbVertex
100
AcDb2dVertex
 10
241.844135
 20
409.936551
 30
0.0
  0
VERTEX
  5
554
100
AcDbEntity
  8
LAY-9
  6
CONTINUOUS
 62
     1
100
AcDbVertex
100
AcDb2dVertex
 10
241.609533
 20
408.955585
 30
0.0
  0
VERTEX
  5
555
100
AcDbEntity
  8
LAY-9
  6
CONTINUOUS
 62
     1
100
AcDbVertex
100
AcDb2dVertex
 10
241.327621
 20
408.013898
 30
0.0
  0
VERTEX
  5
556
100
AcDbEntity
  8
LAY-9
  6
CONTINUOUS
 62
     1
100
AcDbVertex
100
AcDb2dVertex
 10
241.003875
 20
407.105283
 30
0.0
  0
VERTEX
  5
557
100
AcDbEntity
  8
LAY-9
  6
CONTINUOUS
 62
     1
100
AcDbVertex
100
AcDb2dVertex
 10
240.643765
 20
406.223531
 30
0.0
  0
VERTEX
  5
558
100
AcDbEntity
  8
LAY-9
  6
CONTINUOUS
 62
     1
100
AcDbVertex
100
AcDb2dVertex
 10
240.252767
 20
405.362434
 30
0.0
  0
VERTEX
  5
559
100
AcDbEntity
  8
LAY-9
  6
CONTINUOUS
 62
     1
100
AcDbVertex
100
AcDb2dVertex
 10
239.836353
 20
404.515784
 30
0.0
  0
VERTEX
  5
55A
100
AcDbEntity
  8
LAY-9
  6
CONTINUOUS
 62
     1
100
AcDbVertex
100
AcDb2dVertex
 10
239.399996
 20
403.677374
 30
0.0
  0
VERTEX
  5
55B
100
AcDbEntity
  8
LAY-9
  6
CONTINUOUS
 62
     1
100
AcDbVertex
100
AcDb2dVertex
 10
238.903392
 20
402.754681
 30
0.0
  0
VERTEX
  5
55C
100
AcDbEntity
  8
LAY-9
  6
CONTINUOUS
 62
     1
100
AcDbVertex
100
AcDb2dVertex
 10
238.404322
 20
401.826341
 30
0.0
  0
VERTEX
  5
55D
100
AcDbEntity
  8
LAY-9
  6
CONTINUOUS
 62
     1
100
AcDbVertex
100
AcDb2dVertex
 10
237.917928
 20
400.884232
 30
0.0
  0
VERTEX
  5
55E
100
AcDbEntity
  8
LAY-9
  6
CONTINUOUS
 62
     1
100
AcDbVertex
100
AcDb2dVertex
 10
237.45935
 20
399.920236
 30
0.0
  0
VERTEX
  5
55F
100
AcDbEntity
  8
LAY-9
  6
CONTINUOUS
 62
     1
100
AcDbVertex
100
AcDb2dVertex
 10
237.043729
 20
398.926233
 30
0.0
  0
VERTEX
  5
560
100
AcDbEntity
  8
LAY-9
  6
CONTINUOUS
 62
     1
100
AcDbVertex
100
AcDb2dVertex
 10
236.686206
 20
397.894103
 30
0.0
  0
VERTEX
  5
561
100
AcDbEntity
  8
LAY-9
  6
CONTINUOUS
 62
     1
100
AcDbVertex
100
AcDb2dVertex
 10
236.401922
 20
396.815727
 30
0.0
  0
VERTEX
  5
562
100
AcDbEntity
  8
LAY-9
  6
CONTINUOUS
 62
     1
100
AcDbVertex
100
AcDb2dVertex
 10
236.206018
 20
395.682986
 30
0.0
  0
VERTEX
  5
563
100
AcDbEntity
  8
LAY-9
  6
CONTINUOUS
 62
     1
100
AcDbVertex
100
AcDb2dVertex
 10
236.113635
 20
394.48776
 30
0.0
  0
VERTEX
  5
564
100
AcDbEntity
  8
LAY-9
  6
CONTINUOUS
 62
     1
100
AcDbVertex
100
AcDb2dVertex
 10
236.139914
 20
393.221929
 30
0.0
  0
VERTEX
  5
565
100
AcDbEntity
  8
LAY-9
  6
CONTINUOUS
 62
     1
100
AcDbVertex
100
AcDb2dVertex
 10
236.299996
 20
391.877374
 30
0.0
  0
VERTEX
  5
566
100
AcDbEntity
  8
LAY-9
  6
CONTINUOUS
 62
     1
100
AcDbVertex
100
AcDb2dVertex
 10
236.520123
 20
390.786396
 30
0.0
  0
VERTEX
  5
567
100
AcDbEntity
  8
LAY-9
  6
CONTINUOUS
 62
     1
100
AcDbVertex
100
AcDb2dVertex
 10
236.809808
 20
389.670816
 30
0.0
  0
VERTEX
  5
568
100
AcDbEntity
  8
LAY-9
  6
CONTINUOUS
 62
     1
100
AcDbVertex
100
AcDb2dVertex
 10
237.149979
 20
388.557711
 30
0.0
  0
VERTEX
  5
569
100
AcDbEntity
  8
LAY-9
  6
CONTINUOUS
 62
     1
100
AcDbVertex
100
AcDb2dVertex
 10
237.52156
 20
387.474156
 30
0.0
  0
VERTEX
  5
56A
100
AcDbEntity
  8
LAY-9
  6
CONTINUOUS
 62
     1
100
AcDbVertex
100
AcDb2dVertex
 10
237.905481
 20
386.447228
 30
0.0
  0
VERTEX
  5
56B
100
AcDbEntity
  8
LAY-9
  6
CONTINUOUS
 62
     1
100
AcDbVertex
100
AcDb2dVertex
 10
238.282666
 20
385.504003
 30
0.0
  0
VERTEX
  5
56C
100
AcDbEntity
  8
LAY-9
  6
CONTINUOUS
 62
     1
100
AcDbVertex
100
AcDb2dVertex
 10
238.634042
 20
384.671558
 30
0.0
  0
VERTEX
  5
56D
100
AcDbEntity
  8
LAY-9
  6
CONTINUOUS
 62
     1
100
AcDbVertex
100
AcDb2dVertex
 10
238.940537
 20
383.976967
 30
0.0
  0
VERTEX
  5
56E
100
AcDbEntity
  8
LAY-9
  6
CONTINUOUS
 62
     1
100
AcDbVertex
100
AcDb2dVertex
 10
239.183077
 20
383.447308
 30
0.0
  0
VERTEX
  5
56F
100
AcDbEntity
  8
LAY-9
  6
CONTINUOUS
 62
     1
100
AcDbVertex
100
AcDb2dVertex
 10
239.342587
 20
383.109657
 30
0.0
  0
VERTEX
  5
570
100
AcDbEntity
  8
LAY-9
  6
CONTINUOUS
 62
     1
100
AcDbVertex
100
AcDb2dVertex
 10
239.399996
 20
382.99109
 30
0.0
  0
SEQEND
  5
571
100
AcDbEntity
  8
LAY-9
  6
CONTINUOUS
 62
     1
  0
LINE
  5
572
100
AcDbEntity
  8
LAY-9
  6
CONTINUOUS
 62
     1
100
AcDbLine
 10
119.503398
 20
220.661584
 30
0.0
 11
119.503394
 21
257.461584
 31
0.0
  0
LINE
  5
573
100
AcDbEntity
  8
LAY-9
  6
CONTINUOUS
 62
     1
100
AcDbLine
 10
121.103394
 20
259.061584
 30
0.0
 11
244.503394
 21
259.061584
 31
0.0
  0
ARC
  5
574
100
AcDbEntity
  8
LAY-9
  6
CONTINUOUS
 62
     1
100
AcDbCircle
 10
121.103394
 20
257.461584
 30
0.0
 40
1.6
100
AcDbArc
 50
90.0
 51
180.000006
  0
ARC
  5
575
100
AcDbEntity
  8
LAY-9
  6
CONTINUOUS
 62
     1
100
AcDbCircle
 10
121.103398
 20
220.661584
 30
0.0
 40
1.6
100
AcDbArc
 50
180.000006
 51
270.0
  0
POLYLINE
  5
576
100
AcDbEntity
  8
LAY-9
  6
CONTINUOUS
 62
     1
100
AcDb2dPolyline
 66
     1
 10
0.0
 20
0.0
 30
0.0
 70
   128
  0
VERTEX
  5
577
100
AcDbEntity
  8
LAY-9
  6
CONTINUOUS
 62
     1
100
AcDbVertex
100
AcDb2dVertex
 10
244.503394
 20
259.061584
 30
0.0
  0
VERTEX
  5
578
100
AcDbEntity
  8
LAY-9
  6
CONTINUOUS
 62
     1
100
AcDbVertex
100
AcDb2dVertex
 10
244.553395
 20
258.920116
 30
0.0
  0
VERTEX
  5
579
100
AcDbEntity
  8
LAY-9
  6
CONTINUOUS
 62
     1
100
AcDbVertex
100
AcDb2dVertex
 10
244.691321
 20
258.518205
 30
0.0
  0
VERTEX
  5
57A
100
AcDbEntity
  8
LAY-9
  6
CONTINUOUS
 62
     1
100
AcDbVertex
100
AcDb2dVertex
 10
244.899054
 20
257.889586
 30
0.0
  0
VERTEX
  5
57B
100
AcDbEntity
  8
LAY-9
  6
CONTINUOUS
 62
     1
100
AcDbVertex
100
AcDb2dVertex
 10
245.158479
 20
257.067997
 30
0.0
  0
VERTEX
  5
57C
100
AcDbEntity
  8
LAY-9
  6
CONTINUOUS
 62
     1
100
AcDbVertex
100
AcDb2dVertex
 10
245.451478
 20
256.087174
 30
0.0
  0
VERTEX
  5
57D
100
AcDbEntity
  8
LAY-9
  6
CONTINUOUS
 62
     1
100
AcDbVertex
100
AcDb2dVertex
 10
245.759935
 20
254.980854
 30
0.0
  0
VERTEX
  5
57E
100
AcDbEntity
  8
LAY-9
  6
CONTINUOUS
 62
     1
100
AcDbVertex
100
AcDb2dVertex
 10
246.065733
 20
253.782775
 30
0.0
  0
VERTEX
  5
57F
100
AcDbEntity
  8
LAY-9
  6
CONTINUOUS
 62
     1
100
AcDbVertex
100
AcDb2dVertex
 10
246.350756
 20
252.526672
 30
0.0
  0
VERTEX
  5
580
100
AcDbEntity
  8
LAY-9
  6
CONTINUOUS
 62
     1
100
AcDbVertex
100
AcDb2dVertex
 10
246.596887
 20
251.246283
 30
0.0
  0
VERTEX
  5
581
100
AcDbEntity
  8
LAY-9
  6
CONTINUOUS
 62
     1
100
AcDbVertex
100
AcDb2dVertex
 10
246.786009
 20
249.975345
 30
0.0
  0
VERTEX
  5
582
100
AcDbEntity
  8
LAY-9
  6
CONTINUOUS
 62
     1
100
AcDbVertex
100
AcDb2dVertex
 10
246.900006
 20
248.747594
 30
0.0
  0
VERTEX
  5
583
100
AcDbEntity
  8
LAY-9
  6
CONTINUOUS
 62
     1
100
AcDbVertex
100
AcDb2dVertex
 10
246.926514
 20
247.673808
 30
0.0
  0
VERTEX
  5
584
100
AcDbEntity
  8
LAY-9
  6
CONTINUOUS
 62
     1
100
AcDbVertex
100
AcDb2dVertex
 10
246.880905
 20
246.659931
 30
0.0
  0
VERTEX
  5
585
100
AcDbEntity
  8
LAY-9
  6
CONTINUOUS
 62
     1
100
AcDbVertex
100
AcDb2dVertex
 10
246.770905
 20
245.700005
 30
0.0
  0
VERTEX
  5
586
100
AcDbEntity
  8
LAY-9
  6
CONTINUOUS
 62
     1
100
AcDbVertex
100
AcDb2dVertex
 10
246.604241
 20
244.788069
 30
0.0
  0
VERTEX
  5
587
100
AcDbEntity
  8
LAY-9
  6
CONTINUOUS
 62
     1
100
AcDbVertex
100
AcDb2dVertex
 10
246.388639
 20
243.918162
 30
0.0
  0
VERTEX
  5
588
100
AcDbEntity
  8
LAY-9
  6
CONTINUOUS
 62
     1
100
AcDbVertex
100
AcDb2dVertex
 10
246.131826
 20
243.084326
 30
0.0
  0
VERTEX
  5
589
100
AcDbEntity
  8
LAY-9
  6
CONTINUOUS
 62
     1
100
AcDbVertex
100
AcDb2dVertex
 10
245.841528
 20
242.2806
 30
0.0
  0
VERTEX
  5
58A
100
AcDbEntity
  8
LAY-9
  6
CONTINUOUS
 62
     1
100
AcDbVertex
100
AcDb2dVertex
 10
245.52547
 20
241.501023
 30
0.0
  0
VERTEX
  5
58B
100
AcDbEntity
  8
LAY-9
  6
CONTINUOUS
 62
     1
100
AcDbVertex
100
AcDb2dVertex
 10
245.19138
 20
240.739637
 30
0.0
  0
VERTEX
  5
58C
100
AcDbEntity
  8
LAY-9
  6
CONTINUOUS
 62
     1
100
AcDbVertex
100
AcDb2dVertex
 10
244.846983
 20
239.990481
 30
0.0
  0
VERTEX
  5
58D
100
AcDbEntity
  8
LAY-9
  6
CONTINUOUS
 62
     1
100
AcDbVertex
100
AcDb2dVertex
 10
244.500006
 20
239.247594
 30
0.0
  0
VERTEX
  5
58E
100
AcDbEntity
  8
LAY-9
  6
CONTINUOUS
 62
     1
100
AcDbVertex
100
AcDb2dVertex
 10
244.081884
 20
238.337804
 30
0.0
  0
VERTEX
  5
58F
100
AcDbEntity
  8
LAY-9
  6
CONTINUOUS
 62
     1
100
AcDbVertex
100
AcDb2dVertex
 10
243.68046
 20
237.420217
 30
0.0
  0
VERTEX
  5
590
100
AcDbEntity
  8
LAY-9
  6
CONTINUOUS
 62
     1
100
AcDbVertex
100
AcDb2dVertex
 10
243.304709
 20
236.486568
 30
0.0
  0
VERTEX
  5
591
100
AcDbEntity
  8
LAY-9
  6
CONTINUOUS
 62
     1
100
AcDbVertex
100
AcDb2dVertex
 10
242.963608
 20
235.528594
 30
0.0
  0
VERTEX
  5
592
100
AcDbEntity
  8
LAY-9
  6
CONTINUOUS
 62
     1
100
AcDbVertex
100
AcDb2dVertex
 10
242.66613
 20
234.538033
 30
0.0
  0
VERTEX
  5
593
100
AcDbEntity
  8
LAY-9
  6
CONTINUOUS
 62
     1
100
AcDbVertex
100
AcDb2dVertex
 10
242.421253
 20
233.506622
 30
0.0
  0
VERTEX
  5
594
100
AcDbEntity
  8
LAY-9
  6
CONTINUOUS
 62
     1
100
AcDbVertex
100
AcDb2dVertex
 10
242.237951
 20
232.426096
 30
0.0
  0
VERTEX
  5
595
100
AcDbEntity
  8
LAY-9
  6
CONTINUOUS
 62
     1
100
AcDbVertex
100
AcDb2dVertex
 10
242.1252
 20
231.288194
 30
0.0
  0
VERTEX
  5
596
100
AcDbEntity
  8
LAY-9
  6
CONTINUOUS
 62
     1
100
AcDbVertex
100
AcDb2dVertex
 10
242.091975
 20
230.084652
 30
0.0
  0
VERTEX
  5
597
100
AcDbEntity
  8
LAY-9
  6
CONTINUOUS
 62
     1
100
AcDbVertex
100
AcDb2dVertex
 10
242.147252
 20
228.807206
 30
0.0
  0
VERTEX
  5
598
100
AcDbEntity
  8
LAY-9
  6
CONTINUOUS
 62
     1
100
AcDbVertex
100
AcDb2dVertex
 10
242.300006
 20
227.447594
 30
0.0
  0
VERTEX
  5
599
100
AcDbEntity
  8
LAY-9
  6
CONTINUOUS
 62
     1
100
AcDbVertex
100
AcDb2dVertex
 10
242.473399
 20
226.414437
 30
0.0
  0
VERTEX
  5
59A
100
AcDbEntity
  8
LAY-9
  6
CONTINUOUS
 62
     1
100
AcDbVertex
100
AcDb2dVertex
 10
242.689798
 20
225.359431
 30
0.0
  0
VERTEX
  5
59B
100
AcDbEntity
  8
LAY-9
  6
CONTINUOUS
 62
     1
100
AcDbVertex
100
AcDb2dVertex
 10
242.936661
 20
224.307912
 30
0.0
  0
VERTEX
  5
59C
100
AcDbEntity
  8
LAY-9
  6
CONTINUOUS
 62
     1
100
AcDbVertex
100
AcDb2dVertex
 10
243.201449
 20
223.285214
 30
0.0
  0
VERTEX
  5
59D
100
AcDbEntity
  8
LAY-9
  6
CONTINUOUS
 62
     1
100
AcDbVertex
100
AcDb2dVertex
 10
243.471619
 20
222.316675
 30
0.0
  0
VERTEX
  5
59E
100
AcDbEntity
  8
LAY-9
  6
CONTINUOUS
 62
     1
100
AcDbVertex
100
AcDb2dVertex
 10
243.734631
 20
221.427631
 30
0.0
  0
VERTEX
  5
59F
100
AcDbEntity
  8
LAY-9
  6
CONTINUOUS
 62
     1
100
AcDbVertex
100
AcDb2dVertex
 10
243.977945
 20
220.643417
 30
0.0
  0
VERTEX
  5
5A0
100
AcDbEntity
  8
LAY-9
  6
CONTINUOUS
 62
     1
100
AcDbVertex
100
AcDb2dVertex
 10
244.18902
 20
219.989369
 30
0.0
  0
VERTEX
  5
5A1
100
AcDbEntity
  8
LAY-9
  6
CONTINUOUS
 62
     1
100
AcDbVertex
100
AcDb2dVertex
 10
244.355314
 20
219.490823
 30
0.0
  0
VERTEX
  5
5A2
100
AcDbEntity
  8
LAY-9
  6
CONTINUOUS
 62
     1
100
AcDbVertex
100
AcDb2dVertex
 10
244.464287
 20
219.173116
 30
0.0
  0
VERTEX
  5
5A3
100
AcDbEntity
  8
LAY-9
  6
CONTINUOUS
 62
     1
100
AcDbVertex
100
AcDb2dVertex
 10
244.503398
 20
219.061584
 30
0.0
  0
SEQEND
  5
5A4
100
AcDbEntity
  8
LAY-9
  6
CONTINUOUS
 62
     1
  0
LINE
  5
5A5
100
AcDbEntity
  8
LAY-9
  6
CONTINUOUS
 62
     1
100
AcDbLine
 10
123.503381
 20
382.99109
 30
0.0
 11
93.103377
 21
382.99109
 31
0.0
  0
LINE
  5
5A6
100
AcDbEntity
  8
LAY-9
  6
CONTINUOUS
 62
     1
100
AcDbLine
 10
329.503375
 20
387.591363
 30
0.0
 11
329.503371
 21
424.391363
 31
0.0
  0
LINE
  5
5A7
100
AcDbEntity
  8
LAY-9
  6
CONTINUOUS
 62
     1
100
AcDbLine
 10
331.103371
 20
425.991363
 30
0.0
 11
469.503371
 21
425.991363
 31
0.0
  0
ARC
  5
5A8
100
AcDbEntity
  8
LAY-9
  6
CONTINUOUS
 62
     1
100
AcDbCircle
 10
331.103371
 20
424.391363
 30
0.0
 40
1.6
100
AcDbArc
 50
90.0
 51
180.000006
  0
ARC
  5
5A9
100
AcDbEntity
  8
LAY-9
  6
CONTINUOUS
 62
     1
100
AcDbCircle
 10
331.103375
 20
387.591363
 30
0.0
 40
1.6
100
AcDbArc
 50
180.000006
 51
270.0
  0
POLYLINE
  5
5AA
100
AcDbEntity
  8
LAY-9
  6
CONTINUOUS
 62
     1
100
AcDb2dPolyline
 66
     1
 10
0.0
 20
0.0
 30
0.0
 70
   128
  0
VERTEX
  5
5AB
100
AcDbEntity
  8
LAY-9
  6
CONTINUOUS
 62
     1
100
AcDbVertex
100
AcDb2dVertex
 10
469.503371
 20
425.991363
 30
0.0
  0
VERTEX
  5
5AC
100
AcDbEntity
  8
LAY-9
  6
CONTINUOUS
 62
     1
100
AcDbVertex
100
AcDb2dVertex
 10
469.542158
 20
425.909746
 30
0.0
  0
VERTEX
  5
5AD
100
AcDbEntity
  8
LAY-9
  6
CONTINUOUS
 62
     1
100
AcDbVertex
100
AcDb2dVertex
 10
469.650926
 20
425.67667
 30
0.0
  0
VERTEX
  5
5AE
100
AcDbEntity
  8
LAY-9
  6
CONTINUOUS
 62
     1
100
AcDbVertex
100
AcDb2dVertex
 10
469.818288
 20
425.309795
 30
0.0
  0
VERTEX
  5
5AF
100
AcDbEntity
  8
LAY-9
  6
CONTINUOUS
 62
     1
100
AcDbVertex
100
AcDb2dVertex
 10
470.032856
 20
424.826783
 30
0.0
  0
VERTEX
  5
5B0
100
AcDbEntity
  8
LAY-9
  6
CONTINUOUS
 62
     1
100
AcDbVertex
100
AcDb2dVertex
 10
470.283241
 20
424.245295
 30
0.0
  0
VERTEX
  5
5B1
100
AcDbEntity
  8
LAY-9
  6
CONTINUOUS
 62
     1
100
AcDbVertex
100
AcDb2dVertex
 10
470.558055
 20
423.58299
 30
0.0
  0
VERTEX
  5
5B2
100
AcDbEntity
  8
LAY-9
  6
CONTINUOUS
 62
     1
100
AcDbVertex
100
AcDb2dVertex
 10
470.845911
 20
422.857532
 30
0.0
  0
VERTEX
  5
5B3
100
AcDbEntity
  8
LAY-9
  6
CONTINUOUS
 62
     1
100
AcDbVertex
100
AcDb2dVertex
 10
471.135419
 20
422.08658
 30
0.0
  0
VERTEX
  5
5B4
100
AcDbEntity
  8
LAY-9
  6
CONTINUOUS
 62
     1
100
AcDbVertex
100
AcDb2dVertex
 10
471.415193
 20
421.287795
 30
0.0
  0
VERTEX
  5
5B5
100
AcDbEntity
  8
LAY-9
  6
CONTINUOUS
 62
     1
100
AcDbVertex
100
AcDb2dVertex
 10
471.673844
 20
420.478839
 30
0.0
  0
VERTEX
  5
5B6
100
AcDbEntity
  8
LAY-9
  6
CONTINUOUS
 62
     1
100
AcDbVertex
100
AcDb2dVertex
 10
471.899983
 20
419.677373
 30
0.0
  0
VERTEX
  5
5B7
100
AcDbEntity
  8
LAY-9
  6
CONTINUOUS
 62
     1
100
AcDbVertex
100
AcDb2dVertex
 10
472.230888
 20
418.119982
 30
0.0
  0
VERTEX
  5
5B8
100
AcDbEntity
  8
LAY-9
  6
CONTINUOUS
 62
     1
100
AcDbVertex
100
AcDb2dVertex
 10
472.398621
 20
416.656852
 30
0.0
  0
VERTEX
  5
5B9
100
AcDbEntity
  8
LAY-9
  6
CONTINUOUS
 62
     1
100
AcDbVertex
100
AcDb2dVertex
 10
472.420967
 20
415.27857
 30
0.0
  0
VERTEX
  5
5BA
100
AcDbEntity
  8
LAY-9
  6
CONTINUOUS
 62
     1
100
AcDbVertex
100
AcDb2dVertex
 10
472.315711
 20
413.975724
 30
0.0
  0
VERTEX
  5
5BB
100
AcDbEntity
  8
LAY-9
  6
CONTINUOUS
 62
     1
100
AcDbVertex
100
AcDb2dVertex
 10
472.100637
 20
412.738901
 30
0.0
  0
VERTEX
  5
5BC
100
AcDbEntity
  8
LAY-9
  6
CONTINUOUS
 62
     1
100
AcDbVertex
100
AcDb2dVertex
 10
471.79353
 20
411.55869
 30
0.0
  0
VERTEX
  5
5BD
100
AcDbEntity
  8
LAY-9
  6
CONTINUOUS
 62
     1
100
AcDbVertex
100
AcDb2dVertex
 10
471.412176
 20
410.425678
 30
0.0
  0
VERTEX
  5
5BE
100
AcDbEntity
  8
LAY-9
  6
CONTINUOUS
 62
     1
100
AcDbVertex
100
AcDb2dVertex
 10
470.97436
 20
409.330453
 30
0.0
  0
VERTEX
  5
5BF
100
AcDbEntity
  8
LAY-9
  6
CONTINUOUS
 62
     1
100
AcDbVertex
100
AcDb2dVertex
 10
470.497865
 20
408.263602
 30
0.0
  0
VERTEX
  5
5C0
100
AcDbEntity
  8
LAY-9
  6
CONTINUOUS
 62
     1
100
AcDbVertex
100
AcDb2dVertex
 10
470.000478
 20
407.215713
 30
0.0
  0
VERTEX
  5
5C1
100
AcDbEntity
  8
LAY-9
  6
CONTINUOUS
 62
     1
100
AcDbVertex
100
AcDb2dVertex
 10
469.499983
 20
406.177373
 30
0.0
  0
VERTEX
  5
5C2
100
AcDbEntity
  8
LAY-9
  6
CONTINUOUS
 62
     1
100
AcDbVertex
100
AcDb2dVertex
 10
469.072724
 20
405.268516
 30
0.0
  0
VERTEX
  5
5C3
100
AcDbEntity
  8
LAY-9
  6
CONTINUOUS
 62
     1
100
AcDbVertex
100
AcDb2dVertex
 10
468.665262
 20
404.351545
 30
0.0
  0
VERTEX
  5
5C4
100
AcDbEntity
  8
LAY-9
  6
CONTINUOUS
 62
     1
100
AcDbVertex
100
AcDb2dVertex
 10
468.286151
 20
403.418239
 30
0.0
  0
VERTEX
  5
5C5
100
AcDbEntity
  8
LAY-9
  6
CONTINUOUS
 62
     1
100
AcDbVertex
100
AcDb2dVertex
 10
467.943941
 20
402.460379
 30
0.0
  0
VERTEX
  5
5C6
100
AcDbEntity
  8
LAY-9
  6
CONTINUOUS
 62
     1
100
AcDbVertex
100
AcDb2dVertex
 10
467.647183
 20
401.469745
 30
0.0
  0
VERTEX
  5
5C7
100
AcDbEntity
  8
LAY-9
  6
CONTINUOUS
 62
     1
100
AcDbVertex
100
AcDb2dVertex
 10
467.404427
 20
400.438117
 30
0.0
  0
VERTEX
  5
5C8
100
AcDbEntity
  8
LAY-9
  6
CONTINUOUS
 62
     1
100
AcDbVertex
100
AcDb2dVertex
 10
467.224226
 20
399.357275
 30
0.0
  0
VERTEX
  5
5C9
100
AcDbEntity
  8
LAY-9
  6
CONTINUOUS
 62
     1
100
AcDbVertex
100
AcDb2dVertex
 10
467.11513
 20
398.218999
 30
0.0
  0
VERTEX
  5
5CA
100
AcDbEntity
  8
LAY-9
  6
CONTINUOUS
 62
     1
100
AcDbVertex
100
AcDb2dVertex
 10
467.08569
 20
397.01507
 30
0.0
  0
VERTEX
  5
5CB
100
AcDbEntity
  8
LAY-9
  6
CONTINUOUS
 62
     1
100
AcDbVertex
100
AcDb2dVertex
 10
467.144457
 20
395.737268
 30
0.0
  0
VERTEX
  5
5CC
100
AcDbEntity
  8
LAY-9
  6
CONTINUOUS
 62
     1
100
AcDbVertex
100
AcDb2dVertex
 10
467.299983
 20
394.377373
 30
0.0
  0
VERTEX
  5
5CD
100
AcDbEntity
  8
LAY-9
  6
CONTINUOUS
 62
     1
100
AcDbVertex
100
AcDb2dVertex
 10
467.474732
 20
393.344078
 30
0.0
  0
VERTEX
  5
5CE
100
AcDbEntity
  8
LAY-9
  6
CONTINUOUS
 62
     1
100
AcDbVertex
100
AcDb2dVertex
 10
467.691971
 20
392.288986
 30
0.0
  0
VERTEX
  5
5CF
100
AcDbEntity
  8
LAY-9
  6
CONTINUOUS
 62
     1
100
AcDbVertex
100
AcDb2dVertex
 10
467.939241
 20
391.237425
 30
0.0
  0
VERTEX
  5
5D0
100
AcDbEntity
  8
LAY-9
  6
CONTINUOUS
 62
     1
100
AcDbVertex
100
AcDb2dVertex
 10
468.204083
 20
390.214722
 30
0.0
  0
VERTEX
  5
5D1
100
AcDbEntity
  8
LAY-9
  6
CONTINUOUS
 62
     1
100
AcDbVertex
100
AcDb2dVertex
 10
468.474036
 20
389.246205
 30
0.0
  0
VERTEX
  5
5D2
100
AcDbEntity
  8
LAY-9
  6
CONTINUOUS
 62
     1
100
AcDbVertex
100
AcDb2dVertex
 10
468.736642
 20
388.357202
 30
0.0
  0
VERTEX
  5
5D3
100
AcDbEntity
  8
LAY-9
  6
CONTINUOUS
 62
     1
100
AcDbVertex
100
AcDb2dVertex
 10
468.979441
 20
387.57304
 30
0.0
  0
VERTEX
  5
5D4
100
AcDbEntity
  8
LAY-9
  6
CONTINUOUS
 62
     1
100
AcDbVertex
100
AcDb2dVertex
 10
469.189973
 20
386.919048
 30
0.0
  0
VERTEX
  5
5D5
100
AcDbEntity
  8
LAY-9
  6
CONTINUOUS
 62
     1
100
AcDbVertex
100
AcDb2dVertex
 10
469.355779
 20
386.420553
 30
0.0
  0
VERTEX
  5
5D6
100
AcDbEntity
  8
LAY-9
  6
CONTINUOUS
 62
     1
100
AcDbVertex
100
AcDb2dVertex
 10
469.4644
 20
386.102882
 30
0.0
  0
VERTEX
  5
5D7
100
AcDbEntity
  8
LAY-9
  6
CONTINUOUS
 62
     1
100
AcDbVertex
100
AcDb2dVertex
 10
469.503375
 20
385.991363
 30
0.0
  0
SEQEND
  5
5D8
100
AcDbEntity
  8
LAY-9
  6
CONTINUOUS
 62
     1
  0
LINE
  5
5D9
100
AcDbEntity
  8
LAY-9
  6
CONTINUOUS
 62
     1
100
AcDbLine
 10
326.503389
 20
220.661316
 30
0.0
 11
326.503389
 21
261.061316
 31
0.0
  0
LINE
  5
5DA
100
AcDbEntity
  8
LAY-9
  6
CONTINUOUS
 62
     1
100
AcDbLine
 10
326.503389
 20
261.061316
 30
0.0
 11
339.903389
 21
261.061316
 31
0.0
  0
LINE
  5
5DB
100
AcDbEntity
  8
LAY-9
  6
CONTINUOUS
 62
     1
100
AcDbLine
 10
301.503389
 20
220.661316
 30
0.0
 11
301.503389
 21
231.061316
 31
0.0
  0
LINE
  5
5DC
100
AcDbEntity
  8
LAY-9
  6
CONTINUOUS
 62
     1
100
AcDbLine
 10
301.503389
 20
231.061316
 30
0.0
 11
303.103389
 21
231.061316
 31
0.0
  0
LINE
  5
5DD
100
AcDbEntity
  8
LAY-9
  6
CONTINUOUS
 62
     1
100
AcDbLine
 10
303.103389
 20
220.661316
 30
0.0
 11
324.903389
 21
220.661316
 31
0.0
  0
LINE
  5
5DE
100
AcDbEntity
  8
LAY-9
  6
CONTINUOUS
 62
     1
100
AcDbLine
 10
324.903389
 20
220.661316
 30
0.0
 11
324.903389
 21
261.061316
 31
0.0
  0
LINE
  5
5DF
100
AcDbEntity
  8
LAY-9
  6
CONTINUOUS
 62
     1
100
AcDbLine
 10
326.503389
 20
262.661316
 30
0.0
 11
339.903389
 21
262.661316
 31
0.0
  0
LINE
  5
5E0
100
AcDbEntity
  8
LAY-9
  6
CONTINUOUS
 62
     1
100
AcDbLine
 10
303.103389
 20
231.061316
 30
0.0
 11
303.103389
 21
220.661316
 31
0.0
  0
ARC
  5
5E1
100
AcDbEntity
  8
LAY-9
  6
CONTINUOUS
 62
     1
100
AcDbCircle
 10
339.903389
 20
262.661316
 30
0.0
 40
1.6
100
AcDbArc
 50
270.0
 51
0.0
  0
ARC
  5
5E2
100
AcDbEntity
  8
LAY-9
  6
CONTINUOUS
 62
     1
100
AcDbCircle
 10
326.503389
 20
261.061316
 30
0.0
 40
1.6
100
AcDbArc
 50
90.0
 51
180.0
  0
ARC
  5
5E3
100
AcDbEntity
  8
LAY-9
  6
CONTINUOUS
 62
     1
100
AcDbCircle
 10
324.903389
 20
220.661316
 30
0.0
 40
1.6
100
AcDbArc
 50
270.0
 51
0.0
  0
ARC
  5
5E4
100
AcDbEntity
  8
LAY-9
  6
CONTINUOUS
 62
     1
100
AcDbCircle
 10
303.103389
 20
220.661316
 30
0.0
 40
1.6
100
AcDbArc
 50
180.0
 51
270.0
  0
POLYLINE
  5
5E5
100
AcDbEntity
  8
LAY-9
  6
CONTINUOUS
 62
     1
100
AcDb2dPolyline
 66
     1
 10
0.0
 20
0.0
 30
0.0
 70
   128
  0
VERTEX
  5
5E6
100
AcDbEntity
  8
LAY-9
  6
CONTINUOUS
 62
     1
100
AcDbVertex
100
AcDb2dVertex
 10
454.400008
 20
257.061316
 30
0.0
  0
VERTEX
  5
5E7
100
AcDbEntity
  8
LAY-9
  6
CONTINUOUS
 62
     1
100
AcDbVertex
100
AcDb2dVertex
 10
454.452929
 20
256.931256
 30
0.0
  0
VERTEX
  5
5E8
100
AcDbEntity
  8
LAY-9
  6
CONTINUOUS
 62
     1
100
AcDbVertex
100
AcDb2dVertex
 10
454.599779
 20
256.56132
 30
0.0
  0
VERTEX
  5
5E9
100
AcDbEntity
  8
LAY-9
  6
CONTINUOUS
 62
     1
100
AcDbVertex
100
AcDb2dVertex
 10
454.822691
 20
255.981872
 30
0.0
  0
VERTEX
  5
5EA
100
AcDbEntity
  8
LAY-9
  6
CONTINUOUS
 62
     1
100
AcDbVertex
100
AcDb2dVertex
 10
455.103796
 20
255.223277
 30
0.0
  0
VERTEX
  5
5EB
100
AcDbEntity
  8
LAY-9
  6
CONTINUOUS
 62
     1
100
AcDbVertex
100
AcDb2dVertex
 10
455.425226
 20
254.315899
 30
0.0
  0
VERTEX
  5
5EC
100
AcDbEntity
  8
LAY-9
  6
CONTINUOUS
 62
     1
100
AcDbVertex
100
AcDb2dVertex
 10
455.769113
 20
253.290102
 30
0.0
  0
VERTEX
  5
5ED
100
AcDbEntity
  8
LAY-9
  6
CONTINUOUS
 62
     1
100
AcDbVertex
100
AcDb2dVertex
 10
456.117588
 20
252.176252
 30
0.0
  0
VERTEX
  5
5EE
100
AcDbEntity
  8
LAY-9
  6
CONTINUOUS
 62
     1
100
AcDbVertex
100
AcDb2dVertex
 10
456.452783
 20
251.004712
 30
0.0
  0
VERTEX
  5
5EF
100
AcDbEntity
  8
LAY-9
  6
CONTINUOUS
 62
     1
100
AcDbVertex
100
AcDb2dVertex
 10
456.756831
 20
249.805847
 30
0.0
  0
VERTEX
  5
5F0
100
AcDbEntity
  8
LAY-9
  6
CONTINUOUS
 62
     1
100
AcDbVertex
100
AcDb2dVertex
 10
457.011862
 20
248.610021
 30
0.0
  0
VERTEX
  5
5F1
100
AcDbEntity
  8
LAY-9
  6
CONTINUOUS
 62
     1
100
AcDbVertex
100
AcDb2dVertex
 10
457.200008
 20
247.4476
 30
0.0
  0
VERTEX
  5
5F2
100
AcDbEntity
  8
LAY-9
  6
CONTINUOUS
 62
     1
100
AcDbVertex
100
AcDb2dVertex
 10
457.313847
 20
246.23094
 30
0.0
  0
VERTEX
  5
5F3
100
AcDbEntity
  8
LAY-9
  6
CONTINUOUS
 62
     1
100
AcDbVertex
100
AcDb2dVertex
 10
457.331713
 20
245.084829
 30
0.0
  0
VERTEX
  5
5F4
100
AcDbEntity
  8
LAY-9
  6
CONTINUOUS
 62
     1
100
AcDbVertex
100
AcDb2dVertex
 10
457.261038
 20
244.002013
 30
0.0
  0
VERTEX
  5
5F5
100
AcDbEntity
  8
LAY-9
  6
CONTINUOUS
 62
     1
100
AcDbVertex
100
AcDb2dVertex
 10
457.109253
 20
242.975238
 30
0.0
  0
VERTEX
  5
5F6
100
AcDbEntity
  8
LAY-9
  6
CONTINUOUS
 62
     1
100
AcDbVertex
100
AcDb2dVertex
 10
456.883792
 20
241.997249
 30
0.0
  0
VERTEX
  5
5F7
100
AcDbEntity
  8
LAY-9
  6
CONTINUOUS
 62
     1
100
AcDbVertex
100
AcDb2dVertex
 10
456.592085
 20
241.060792
 30
0.0
  0
VERTEX
  5
5F8
100
AcDbEntity
  8
LAY-9
  6
CONTINUOUS
 62
     1
100
AcDbVertex
100
AcDb2dVertex
 10
456.241567
 20
240.158614
 30
0.0
  0
VERTEX
  5
5F9
100
AcDbEntity
  8
LAY-9
  6
CONTINUOUS
 62
     1
100
AcDbVertex
100
AcDb2dVertex
 10
455.839667
 20
239.283459
 30
0.0
  0
VERTEX
  5
5FA
100
AcDbEntity
  8
LAY-9
  6
CONTINUOUS
 62
     1
100
AcDbVertex
100
AcDb2dVertex
 10
455.39382
 20
238.428075
 30
0.0
  0
VERTEX
  5
5FB
100
AcDbEntity
  8
LAY-9
  6
CONTINUOUS
 62
     1
100
AcDbVertex
100
AcDb2dVertex
 10
454.911456
 20
237.585207
 30
0.0
  0
VERTEX
  5
5FC
100
AcDbEntity
  8
LAY-9
  6
CONTINUOUS
 62
     1
100
AcDbVertex
100
AcDb2dVertex
 10
454.400008
 20
236.7476
 30
0.0
  0
VERTEX
  5
5FD
100
AcDbEntity
  8
LAY-9
  6
CONTINUOUS
 62
     1
100
AcDbVertex
100
AcDb2dVertex
 10
453.812999
 20
235.821552
 30
0.0
  0
VERTEX
  5
5FE
100
AcDbEntity
  8
LAY-9
  6
CONTINUOUS
 62
     1
100
AcDbVertex
100
AcDb2dVertex
 10
453.22149
 20
234.886352
 30
0.0
  0
VERTEX
  5
5FF
100
AcDbEntity
  8
LAY-9
  6
CONTINUOUS
 62
     1
100
AcDbVertex
100
AcDb2dVertex
 10
452.647327
 20
233.935272
 30
0.0
  0
VERTEX
  5
600
100
AcDbEntity
  8
LAY-9
  6
CONTINUOUS
 62
     1
100
AcDbVertex
100
AcDb2dVertex
 10
452.112357
 20
232.961583
 30
0.0
  0
VERTEX
  5
601
100
AcDbEntity
  8
LAY-9
  6
CONTINUOUS
 62
     1
100
AcDbVertex
100
AcDb2dVertex
 10
451.638425
 20
231.958559
 30
0.0
  0
VERTEX
  5
602
100
AcDbEntity
  8
LAY-9
  6
CONTINUOUS
 62
     1
100
AcDbVertex
100
AcDb2dVertex
 10
451.247376
 20
230.919472
 30
0.0
  0
VERTEX
  5
603
100
AcDbEntity
  8
LAY-9
  6
CONTINUOUS
 62
     1
100
AcDbVertex
100
AcDb2dVertex
 10
450.961058
 20
229.837592
 30
0.0
  0
VERTEX
  5
604
100
AcDbEntity
  8
LAY-9
  6
CONTINUOUS
 62
     1
100
AcDbVertex
100
AcDb2dVertex
 10
450.801317
 20
228.706193
 30
0.0
  0
VERTEX
  5
605
100
AcDbEntity
  8
LAY-9
  6
CONTINUOUS
 62
     1
100
AcDbVertex
100
AcDb2dVertex
 10
450.789997
 20
227.518547
 30
0.0
  0
VERTEX
  5
606
100
AcDbEntity
  8
LAY-9
  6
CONTINUOUS
 62
     1
100
AcDbVertex
100
AcDb2dVertex
 10
450.948945
 20
226.267925
 30
0.0
  0
VERTEX
  5
607
100
AcDbEntity
  8
LAY-9
  6
CONTINUOUS
 62
     1
100
AcDbVertex
100
AcDb2dVertex
 10
451.300008
 20
224.9476
 30
0.0
  0
VERTEX
  5
608
100
AcDbEntity
  8
LAY-9
  6
CONTINUOUS
 62
     1
100
AcDbVertex
100
AcDb2dVertex
 10
451.576985
 20
224.198785
 30
0.0
  0
VERTEX
  5
609
100
AcDbEntity
  8
LAY-9
  6
CONTINUOUS
 62
     1
100
AcDbVertex
100
AcDb2dVertex
 10
451.901917
 20
223.443611
 30
0.0
  0
VERTEX
  5
60A
100
AcDbEntity
  8
LAY-9
  6
CONTINUOUS
 62
     1
100
AcDbVertex
100
AcDb2dVertex
 10
452.259142
 20
222.698444
 30
0.0
  0
VERTEX
  5
60B
100
AcDbEntity
  8
LAY-9
  6
CONTINUOUS
 62
     1
100
AcDbVertex
100
AcDb2dVertex
 10
452.632998
 20
221.97965
 30
0.0
  0
VERTEX
  5
60C
100
AcDbEntity
  8
LAY-9
  6
CONTINUOUS
 62
     1
100
AcDbVertex
100
AcDb2dVertex
 10
453.007822
 20
221.303596
 30
0.0
  0
VERTEX
  5
60D
100
AcDbEntity
  8
LAY-9
  6
CONTINUOUS
 62
     1
100
AcDbVertex
100
AcDb2dVertex
 10
453.367952
 20
220.686648
 30
0.0
  0
VERTEX
  5
60E
100
AcDbEntity
  8
LAY-9
  6
CONTINUOUS
 62
     1
100
AcDbVertex
100
AcDb2dVertex
 10
453.697726
 20
220.145172
 30
0.0
  0
VERTEX
  5
60F
100
AcDbEntity
  8
LAY-9
  6
CONTINUOUS
 62
     1
100
AcDbVertex
100
AcDb2dVertex
 10
453.981481
 20
219.695534
 30
0.0
  0
VERTEX
  5
610
100
AcDbEntity
  8
LAY-9
  6
CONTINUOUS
 62
     1
100
AcDbVertex
100
AcDb2dVertex
 10
454.203554
 20
219.354102
 30
0.0
  0
VERTEX
  5
611
100
AcDbEntity
  8
LAY-9
  6
CONTINUOUS
 62
     1
100
AcDbVertex
100
AcDb2dVertex
 10
454.348284
 20
219.13724
 30
0.0
  0
VERTEX
  5
612
100
AcDbEntity
  8
LAY-9
  6
CONTINUOUS
 62
     1
100
AcDbVertex
100
AcDb2dVertex
 10
454.400008
 20
219.061316
 30
0.0
  0
SEQEND
  5
613
100
AcDbEntity
  8
LAY-9
  6
CONTINUOUS
 62
     1
  0
LINE
  5
614
100
AcDbEntity
  8
LAY-9
  6
CONTINUOUS
 62
     1
100
AcDbLine
 10
333.503397
 20
219.061316
 30
0.0
 11
303.103389
 21
219.061316
 31
0.0
  0
LINE
  5
615
100
AcDbEntity
  8
LAY-9
  6
CONTINUOUS
 62
     1
100
AcDbLine
 10
648.954589
 20
418.815201
 30
0.0
 11
662.354589
 21
418.815201
 31
0.0
  0
LINE
  5
616
100
AcDbEntity
  8
LAY-9
  6
CONTINUOUS
 62
     1
100
AcDbLine
 10
662.354589
 20
418.815201
 30
0.0
 11
662.354589
 21
417.215201
 31
0.0
  0
LINE
  5
617
100
AcDbEntity
  8
LAY-9
  6
CONTINUOUS
 62
     1
100
AcDbLine
 10
648.954589
 20
393.815201
 30
0.0
 11
692.354589
 21
393.815201
 31
0.0
  0
LINE
  5
618
100
AcDbEntity
  8
LAY-9
  6
CONTINUOUS
 62
     1
100
AcDbLine
 10
693.954589
 20
378.315201
 30
0.0
 11
698.177294
 21
378.315201
 31
0.0
  0
LINE
  5
619
100
AcDbEntity
  8
LAY-9
  6
CONTINUOUS
 62
     1
100
AcDbLine
 10
648.954589
 20
395.415201
 30
0.0
 11
692.354589
 21
395.415201
 31
0.0
  0
LINE
  5
61A
100
AcDbEntity
  8
LAY-9
  6
CONTINUOUS
 62
     1
100
AcDbLine
 10
693.954589
 20
393.815201
 30
0.0
 11
693.954589
 21
379.915201
 31
0.0
  0
LINE
  5
61B
100
AcDbEntity
  8
LAY-9
  6
CONTINUOUS
 62
     1
100
AcDbLine
 10
693.954589
 20
379.915201
 30
0.0
 11
698.177294
 21
379.915201
 31
0.0
  0
LINE
  5
61C
100
AcDbEntity
  8
LAY-9
  6
CONTINUOUS
 62
     1
100
AcDbLine
 10
662.354589
 20
417.215201
 30
0.0
 11
648.954589
 21
417.215201
 31
0.0
  0
ARC
  5
61D
100
AcDbEntity
  8
LAY-9
  6
CONTINUOUS
 62
     1
100
AcDbCircle
 10
648.954589
 20
417.215201
 30
0.0
 40
1.6
100
AcDbArc
 50
90.0
 51
180.0
  0
ARC
  5
61E
100
AcDbEntity
  8
LAY-9
  6
CONTINUOUS
 62
     1
100
AcDbCircle
 10
648.954589
 20
395.415201
 30
0.0
 40
1.6
100
AcDbArc
 50
180.0
 51
270.0
  0
ARC
  5
61F
100
AcDbEntity
  8
LAY-9
  6
CONTINUOUS
 62
     1
100
AcDbCircle
 10
692.354589
 20
393.815201
 30
0.0
 40
1.6
100
AcDbArc
 50
0.0
 51
90.0
  0
ARC
  5
620
100
AcDbEntity
  8
LAY-9
  6
CONTINUOUS
 62
     1
100
AcDbCircle
 10
693.954589
 20
379.915201
 30
0.0
 40
1.6
100
AcDbArc
 50
180.0
 51
270.0
  0
LINE
  5
621
100
AcDbEntity
  8
LAY-9
  6
CONTINUOUS
 62
     1
100
AcDbLine
 10
688.755016
 20
389.215171
 30
0.0
 11
683.354619
 21
389.215171
 31
0.0
  0
LINE
  5
622
100
AcDbEntity
  8
LAY-9
  6
CONTINUOUS
 62
     1
100
AcDbLine
 10
686.455016
 20
386.915171
 30
0.0
 11
683.354619
 21
386.915171
 31
0.0
  0
LINE
  5
623
100
AcDbEntity
  8
LAY-9
  6
CONTINUOUS
 62
     1
100
AcDbLine
 10
654.255016
 20
381.815228
 30
0.0
 11
654.255016
 21
374.215171
 31
0.0
  0
LINE
  5
624
100
AcDbEntity
  8
LAY-9
  6
CONTINUOUS
 62
     1
100
AcDbLine
 10
686.455016
 20
374.215171
 30
0.0
 11
686.455016
 21
386.915171
 31
0.0
  0
LINE
  5
625
100
AcDbEntity
  8
LAY-9
  6
CONTINUOUS
 62
     1
100
AcDbLine
 10
686.455016
 20
374.215171
 30
0.0
 11
688.755016
 21
374.215171
 31
0.0
  0
LINE
  5
626
100
AcDbEntity
  8
LAY-9
  6
CONTINUOUS
 62
     1
100
AcDbLine
 10
654.255016
 20
374.215171
 30
0.0
 11
651.955016
 21
374.215171
 31
0.0
  0
ARC
  5
627
100
AcDbEntity
  8
LAY-9
  6
CONTINUOUS
 62
     1
100
AcDbCircle
 10
688.755016
 20
389.215171
 30
0.0
 40
1.6
100
AcDbArc
 50
0.0
 51
90.0
  0
ARC
  5
628
100
AcDbEntity
  8
LAY-9
  6
CONTINUOUS
 62
     1
100
AcDbCircle
 10
686.455016
 20
386.915171
 30
0.0
 40
2.3
100
AcDbArc
 50
0.0
 51
90.0
  0
LINE
  5
629
100
AcDbEntity
  8
LAY-9
  6
CONTINUOUS
 62
     1
100
AcDbLine
 10
681.854619
 20
381.815201
 30
0.0
 11
686.455016
 21
381.815201
 31
0.0
  0
LINE
  5
62A
100
AcDbEntity
  8
LAY-9
  6
CONTINUOUS
 62
     1
100
AcDbLine
 10
654.255016
 20
377.315201
 30
0.0
 11
686.455016
 21
377.315201
 31
0.0
  0
LINE
  5
62B
100
AcDbEntity
  8
LAY-9
  6
DIVIDE
 62
     1
100
AcDbLine
 10
645.928869
 20
302.049622
 30
0.0
 11
696.228869
 21
302.049622
 31
0.0
  0
LINE
  5
62C
100
AcDbEntity
  8
LAY-9
  6
CONTINUOUS
 62
     1
100
AcDbLine
 10
690.355016
 20
389.215171
 30
0.0
 11
690.355016
 21
302.049622
 31
0.0
  0
LINE
  5
62D
100
AcDbEntity
  8
LAY-9
  6
CONTINUOUS
 62
     1
100
AcDbLine
 10
688.755016
 20
302.049622
 30
0.0
 11
688.755016
 21
389.215171
 31
0.0
  0
LINE
  5
62E
100
AcDbEntity
  8
LAY-9
  6
CONTINUOUS
 62
     1
100
AcDbLine
 10
651.955016
 20
381.81523
 30
0.0
 11
651.955016
 21
302.049622
 31
0.0
  0
LINE
  5
62F
100
AcDbEntity
  8
LAY-9
  6
CONTINUOUS
 62
     1
100
AcDbLine
 10
648.954589
 20
417.215201
 30
0.0
 11
648.954589
 21
407.815201
 31
0.0
  0
LINE
  5
630
100
AcDbEntity
  8
LAY-9
  6
CONTINUOUS
 62
     1
100
AcDbLine
 10
648.954589
 20
398.815201
 30
0.0
 11
648.954589
 21
395.415201
 31
0.0
  0
LINE
  5
631
100
AcDbEntity
  8
LAY-9
  6
CONTINUOUS
 62
     1
100
AcDbLine
 10
692.354589
 20
398.815201
 30
0.0
 11
692.354589
 21
395.415201
 31
0.0
  0
LINE
  5
632
100
AcDbEntity
  8
LAY-9
  6
CONTINUOUS
 62
     1
100
AcDbLine
 10
692.354589
 20
393.815201
 30
0.0
 11
692.354589
 21
302.049622
 31
0.0
  0
LINE
  5
633
100
AcDbEntity
  8
LAY-9
  6
CONTINUOUS
 62
     1
100
AcDbLine
 10
647.354589
 20
302.049622
 30
0.0
 11
647.354589
 21
376.815231
 31
0.0
  0
LINE
  5
634
100
AcDbEntity
  8
LAY-9
  6
CONTINUOUS
 62
     1
100
AcDbLine
 10
651.854161
 20
187.965455
 30
0.0
 11
692.405766
 21
187.965455
 31
0.0
  0
LINE
  5
635
100
AcDbEntity
  8
LAY-9
  6
CONTINUOUS
 62
     1
100
AcDbLine
 10
692.405766
 20
187.965455
 30
0.0
 11
692.405766
 21
201.365455
 31
0.0
  0
LINE
  5
636
100
AcDbEntity
  8
LAY-9
  6
CONTINUOUS
 62
     1
100
AcDbLine
 10
694.005766
 20
202.965455
 30
0.0
 11
702.405766
 21
202.965455
 31
0.0
  0
LINE
  5
637
100
AcDbEntity
  8
LAY-9
  6
CONTINUOUS
 62
     1
100
AcDbLine
 10
694.005766
 20
201.365455
 30
0.0
 11
694.005766
 21
187.965455
 31
0.0
  0
LINE
  5
638
100
AcDbEntity
  8
LAY-9
  6
CONTINUOUS
 62
     1
100
AcDbLine
 10
692.405766
 20
186.365455
 30
0.0
 11
651.855766
 21
186.365455
 31
0.0
  0
LINE
  5
639
100
AcDbEntity
  8
LAY-9
  6
CONTINUOUS
 62
     1
100
AcDbLine
 10
702.405766
 20
201.365455
 30
0.0
 11
694.005766
 21
201.365455
 31
0.0
  0
LINE
  5
63A
100
AcDbEntity
  8
LAY-9
  6
CONTINUOUS
 62
     1
100
AcDbLine
 10
650.305766
 20
162.965455
 30
0.0
 11
651.855766
 21
162.965455
 31
0.0
  0
ARC
  5
63B
100
AcDbEntity
  8
LAY-9
  6
CONTINUOUS
 62
     1
100
AcDbCircle
 10
651.854161
 20
186.365455
 30
0.0
 40
1.6
100
AcDbArc
 50
90.0
 51
180.0
  0
ARC
  5
63C
100
AcDbEntity
  8
LAY-9
  6
CONTINUOUS
 62
     1
100
AcDbCircle
 10
692.405766
 20
187.965455
 30
0.0
 40
1.6
100
AcDbArc
 50
270.0
 51
0.0
  0
ARC
  5
63D
100
AcDbEntity
  8
LAY-9
  6
CONTINUOUS
 62
     1
100
AcDbCircle
 10
694.005766
 20
201.365455
 30
0.0
 40
1.6
100
AcDbArc
 50
90.0
 51
180.0
  0
LINE
  5
63E
100
AcDbEntity
  8
LAY-9
  6
CONTINUOUS
 62
     1
100
AcDbLine
 10
651.855766
 20
186.365455
 30
0.0
 11
651.855766
 21
180.965515
 31
0.0
  0
LINE
  5
63F
100
AcDbEntity
  8
LAY-9
  6
CONTINUOUS
 62
     1
100
AcDbLine
 10
651.855766
 20
171.965515
 30
0.0
 11
651.855766
 21
162.965455
 31
0.0
  0
LINE
  5
640
100
AcDbEntity
  8
LAY-9
  6
CONTINUOUS
 62
     1
100
AcDbLine
 10
690.354588
 20
193.965485
 30
0.0
 11
682.85465
 21
193.965485
 31
0.0
  0
LINE
  5
641
100
AcDbEntity
  8
LAY-9
  6
CONTINUOUS
 62
     1
100
AcDbLine
 10
681.446019
 20
202.965485
 30
0.0
 11
686.454588
 21
202.965485
 31
0.0
  0
LINE
  5
642
100
AcDbEntity
  8
LAY-9
  6
CONTINUOUS
 62
     1
100
AcDbLine
 10
654.254588
 20
207.465485
 30
0.0
 11
686.454588
 21
207.465485
 31
0.0
  0
LINE
  5
643
100
AcDbEntity
  8
LAY-9
  6
CONTINUOUS
 62
     1
100
AcDbLine
 10
654.254588
 20
209.765485
 30
0.0
 11
686.454588
 21
209.765485
 31
0.0
  0
LINE
  5
644
100
AcDbEntity
  8
LAY-9
  6
CONTINUOUS
 62
     1
100
AcDbLine
 10
654.254588
 20
207.465485
 30
0.0
 11
654.254588
 21
202.965485
 31
0.0
  0
ARC
  5
645
100
AcDbEntity
  8
LAY-9
  6
CONTINUOUS
 62
     1
100
AcDbCircle
 10
654.254588
 20
207.465485
 30
0.0
 40
2.3
100
AcDbArc
 50
90.0
 51
180.0
  0
LINE
  5
646
100
AcDbEntity
  8
LAY-9
  6
CONTINUOUS
 62
     1
100
AcDbLine
 10
686.454588
 20
207.465485
 30
0.0
 11
686.454588
 21
193.965485
 31
0.0
  0
ARC
  5
647
100
AcDbEntity
  8
LAY-9
  6
CONTINUOUS
 62
     1
100
AcDbCircle
 10
686.454588
 20
207.465485
 30
0.0
 40
2.3
100
AcDbArc
 50
0.0
 51
90.0
  0
LINE
  5
648
100
AcDbEntity
  8
LAY-9
  6
CONTINUOUS
 62
     1
100
AcDbLine
 10
692.405766
 20
180.965455
 30
0.0
 11
692.405766
 21
186.365455
 31
0.0
  0
LINE
  5
649
100
AcDbEntity
  8
LAY-9
  6
DIVIDE
 62
     1
100
AcDbLine
 10
645.928441
 20
296.999909
 30
0.0
 11
696.228441
 21
296.999909
 31
0.0
  0
LINE
  5
64A
100
AcDbEntity
  8
LAY-9
  6
CONTINUOUS
 62
     1
100
AcDbLine
 10
690.354588
 20
296.999909
 30
0.0
 11
690.354588
 21
193.965485
 31
0.0
  0
LINE
  5
64B
100
AcDbEntity
  8
LAY-9
  6
CONTINUOUS
 62
     1
100
AcDbLine
 10
688.754588
 20
193.965485
 30
0.0
 11
688.754588
 21
296.999909
 31
0.0
  0
LINE
  5
64C
100
AcDbEntity
  8
LAY-9
  6
CONTINUOUS
 62
     1
100
AcDbLine
 10
651.954588
 20
296.999909
 30
0.0
 11
651.954588
 21
202.965485
 31
0.0
  0
LINE
  5
64D
100
AcDbEntity
  8
LAY-9
  6
CONTINUOUS
 62
     1
100
AcDbLine
 10
692.354161
 20
296.999909
 30
0.0
 11
692.354161
 21
201.365455
 31
0.0
  0
LINE
  5
64E
100
AcDbEntity
  8
LAY-9
  6
CONTINUOUS
 62
     1
100
AcDbLine
 10
650.254161
 20
185.965546
 30
0.0
 11
650.254161
 21
193.965485
 31
0.0
  0
LINE
  5
64F
100
AcDbEntity
  8
LAY-9
  6
CONTINUOUS
 62
     1
100
AcDbLine
 10
615.355766
 20
185.965455
 30
0.0
 11
562.428441
 21
185.965455
 31
0.0
  0
LINE
  5
650
100
AcDbEntity
  8
LAY-9
  6
CONTINUOUS
 62
     1
100
AcDbLine
 10
685.854619
 20
398.815201
 30
0.0
 11
692.354589
 21
398.815201
 31
0.0
  0
LINE
  5
651
100
AcDbEntity
  8
LAY-9
  6
CONTINUOUS
 62
     1
100
AcDbLine
 10
650.255766
 20
171.965546
 30
0.0
 11
650.255766
 21
162.965455
 31
0.0
  0
LINE
  5
652
100
AcDbEntity
  8
LAY-9
  6
CONTINUOUS
 62
     1
100
AcDbLine
 10
647.354161
 20
207.965485
 30
0.0
 11
647.354161
 21
296.999909
 31
0.0
  0
LINE
  5
653
100
AcDbEntity
  8
LAY-9
  6
CONTINUOUS
 62
     1
100
AcDbLine
 10
647.354161
 20
162.965455
 30
0.0
 11
647.354161
 21
171.965546
 31
0.0
  0
LINE
  5
654
100
AcDbEntity
  8
LAY-9
  6
CONTINUOUS
 62
     1
100
AcDbLine
 10
647.354161
 20
185.965546
 30
0.0
 11
647.354161
 21
193.965485
 31
0.0
  0
POLYLINE
  5
655
100
AcDbEntity
  8
LAY-9
  6
CONTINUOUS
 62
     1
100
AcDb2dPolyline
 66
     1
 10
0.0
 20
0.0
 30
0.0
 70
   128
  0
VERTEX
  5
656
100
AcDbEntity
  8
LAY-9
  6
CONTINUOUS
 62
     1
100
AcDbVertex
100
AcDb2dVertex
 10
562.428441
 20
185.965455
 30
0.0
  0
VERTEX
  5
657
100
AcDbEntity
  8
LAY-9
  6
CONTINUOUS
 62
     1
100
AcDbVertex
100
AcDb2dVertex
 10
562.40135
 20
185.897278
 30
0.0
  0
VERTEX
  5
658
100
AcDbEntity
  8
LAY-9
  6
CONTINUOUS
 62
     1
100
AcDbVertex
100
AcDb2dVertex
 10
562.326617
 20
185.703602
 30
0.0
  0
VERTEX
  5
659
100
AcDbEntity
  8
LAY-9
  6
CONTINUOUS
 62
     1
100
AcDbVertex
100
AcDb2dVertex
 10
562.21405
 20
185.400711
 30
0.0
  0
VERTEX
  5
65A
100
AcDbEntity
  8
LAY-9
  6
CONTINUOUS
 62
     1
100
AcDbVertex
100
AcDb2dVertex
 10
562.073456
 20
185.00489
 30
0.0
  0
VERTEX
  5
65B
100
AcDbEntity
  8
LAY-9
  6
CONTINUOUS
 62
     1
100
AcDbVertex
100
AcDb2dVertex
 10
561.914645
 20
184.532421
 30
0.0
  0
VERTEX
  5
65C
100
AcDbEntity
  8
LAY-9
  6
CONTINUOUS
 62
     1
100
AcDbVertex
100
AcDb2dVertex
 10
561.747422
 20
183.999589
 30
0.0
  0
VERTEX
  5
65D
100
AcDbEntity
  8
LAY-9
  6
CONTINUOUS
 62
     1
100
AcDbVertex
100
AcDb2dVertex
 10
561.581598
 20
183.422677
 30
0.0
  0
VERTEX
  5
65E
100
AcDbEntity
  8
LAY-9
  6
CONTINUOUS
 62
     1
100
AcDbVertex
100
AcDb2dVertex
 10
561.42698
 20
182.817969
 30
0.0
  0
VERTEX
  5
65F
100
AcDbEntity
  8
LAY-9
  6
CONTINUOUS
 62
     1
100
AcDbVertex
100
AcDb2dVertex
 10
561.293375
 20
182.201749
 30
0.0
  0
VERTEX
  5
660
100
AcDbEntity
  8
LAY-9
  6
CONTINUOUS
 62
     1
100
AcDbVertex
100
AcDb2dVertex
 10
561.190593
 20
181.590301
 30
0.0
  0
VERTEX
  5
661
100
AcDbEntity
  8
LAY-9
  6
CONTINUOUS
 62
     1
100
AcDbVertex
100
AcDb2dVertex
 10
561.128441
 20
180.999909
 30
0.0
  0
VERTEX
  5
662
100
AcDbEntity
  8
LAY-9
  6
CONTINUOUS
 62
     1
100
AcDbVertex
100
AcDb2dVertex
 10
561.11337
 20
180.506478
 30
0.0
  0
VERTEX
  5
663
100
AcDbEntity
  8
LAY-9
  6
CONTINUOUS
 62
     1
100
AcDbVertex
100
AcDb2dVertex
 10
561.133588
 20
180.039584
 30
0.0
  0
VERTEX
  5
664
100
AcDbEntity
  8
LAY-9
  6
CONTINUOUS
 62
     1
100
AcDbVertex
100
AcDb2dVertex
 10
561.185002
 20
179.596608
 30
0.0
  0
VERTEX
  5
665
100
AcDbEntity
  8
LAY-9
  6
CONTINUOUS
 62
     1
100
AcDbVertex
100
AcDb2dVertex
 10
561.263521
 20
179.174935
 30
0.0
  0
VERTEX
  5
666
100
AcDbEntity
  8
LAY-9
  6
CONTINUOUS
 62
     1
100
AcDbVertex
100
AcDb2dVertex
 10
561.365055
 20
178.771949
 30
0.0
  0
VERTEX
  5
667
100
AcDbEntity
  8
LAY-9
  6
CONTINUOUS
 62
     1
100
AcDbVertex
100
AcDb2dVertex
 10
561.485512
 20
178.385032
 30
0.0
  0
VERTEX
  5
668
100
AcDbEntity
  8
LAY-9
  6
CONTINUOUS
 62
     1
100
AcDbVertex
100
AcDb2dVertex
 10
561.6208
 20
178.011568
 30
0.0
  0
VERTEX
  5
669
100
AcDbEntity
  8
LAY-9
  6
CONTINUOUS
 62
     1
100
AcDbVertex
100
AcDb2dVertex
 10
561.766828
 20
177.64894
 30
0.0
  0
VERTEX
  5
66A
100
AcDbEntity
  8
LAY-9
  6
CONTINUOUS
 62
     1
100
AcDbVertex
100
AcDb2dVertex
 10
561.919505
 20
177.294532
 30
0.0
  0
VERTEX
  5
66B
100
AcDbEntity
  8
LAY-9
  6
CONTINUOUS
 62
     1
100
AcDbVertex
100
AcDb2dVertex
 10
562.07474
 20
176.945727
 30
0.0
  0
VERTEX
  5
66C
100
AcDbEntity
  8
LAY-9
  6
CONTINUOUS
 62
     1
100
AcDbVertex
100
AcDb2dVertex
 10
562.228441
 20
176.599909
 30
0.0
  0
VERTEX
  5
66D
100
AcDbEntity
  8
LAY-9
  6
CONTINUOUS
 62
     1
100
AcDbVertex
100
AcDb2dVertex
 10
562.429926
 20
176.127771
 30
0.0
  0
VERTEX
  5
66E
100
AcDbEntity
  8
LAY-9
  6
CONTINUOUS
 62
     1
100
AcDbVertex
100
AcDb2dVertex
 10
562.618457
 20
175.652031
 30
0.0
  0
VERTEX
  5
66F
100
AcDbEntity
  8
LAY-9
  6
CONTINUOUS
 62
     1
100
AcDbVertex
100
AcDb2dVertex
 10
562.791587
 20
175.168395
 30
0.0
  0
VERTEX
  5
670
100
AcDbEntity
  8
LAY-9
  6
CONTINUOUS
 62
     1
100
AcDbVertex
100
AcDb2dVertex
 10
562.946867
 20
174.672572
 30
0.0
  0
VERTEX
  5
671
100
AcDbEntity
  8
LAY-9
  6
CONTINUOUS
 62
     1
100
AcDbVertex
100
AcDb2dVertex
 10
563.08185
 20
174.160267
 30
0.0
  0
VERTEX
  5
672
100
AcDbEntity
  8
LAY-9
  6
CONTINUOUS
 62
     1
100
AcDbVertex
100
AcDb2dVertex
 10
563.194089
 20
173.627187
 30
0.0
  0
VERTEX
  5
673
100
AcDbEntity
  8
LAY-9
  6
CONTINUOUS
 62
     1
100
AcDbVertex
100
AcDb2dVertex
 10
563.281135
 20
173.069039
 30
0.0
  0
VERTEX
  5
674
100
AcDbEntity
  8
LAY-9
  6
CONTINUOUS
 62
     1
100
AcDbVertex
100
AcDb2dVertex
 10
563.340541
 20
172.481531
 30
0.0
  0
VERTEX
  5
675
100
AcDbEntity
  8
LAY-9
  6
CONTINUOUS
 62
     1
100
AcDbVertex
100
AcDb2dVertex
 10
563.369859
 20
171.860369
 30
0.0
  0
VERTEX
  5
676
100
AcDbEntity
  8
LAY-9
  6
CONTINUOUS
 62
     1
100
AcDbVertex
100
AcDb2dVertex
 10
563.366642
 20
171.201259
 30
0.0
  0
VERTEX
  5
677
100
AcDbEntity
  8
LAY-9
  6
CONTINUOUS
 62
     1
100
AcDbVertex
100
AcDb2dVertex
 10
563.328441
 20
170.499909
 30
0.0
  0
VERTEX
  5
678
100
AcDbEntity
  8
LAY-9
  6
CONTINUOUS
 62
     1
100
AcDbVertex
100
AcDb2dVertex
 10
563.267718
 20
169.869434
 30
0.0
  0
VERTEX
  5
679
100
AcDbEntity
  8
LAY-9
  6
CONTINUOUS
 62
     1
100
AcDbVertex
100
AcDb2dVertex
 10
563.18559
 20
169.221547
 30
0.0
  0
VERTEX
  5
67A
100
AcDbEntity
  8
LAY-9
  6
CONTINUOUS
 62
     1
100
AcDbVertex
100
AcDb2dVertex
 10
563.087787
 20
168.57257
 30
0.0
  0
VERTEX
  5
67B
100
AcDbEntity
  8
LAY-9
  6
CONTINUOUS
 62
     1
100
AcDbVertex
100
AcDb2dVertex
 10
562.980035
 20
167.938822
 30
0.0
  0
VERTEX
  5
67C
100
AcDbEntity
  8
LAY-9
  6
CONTINUOUS
 62
     1
100
AcDbVertex
100
AcDb2dVertex
 10
562.868065
 20
167.336623
 30
0.0
  0
VERTEX
  5
67D
100
AcDbEntity
  8
LAY-9
  6
CONTINUOUS
 62
     1
100
AcDbVertex
100
AcDb2dVertex
 10
562.757604
 20
166.782295
 30
0.0
  0
VERTEX
  5
67E
100
AcDbEntity
  8
LAY-9
  6
CONTINUOUS
 62
     1
100
AcDbVertex
100
AcDb2dVertex
 10
562.654382
 20
166.292157
 30
0.0
  0
VERTEX
  5
67F
100
AcDbEntity
  8
LAY-9
  6
CONTINUOUS
 62
     1
100
AcDbVertex
100
AcDb2dVertex
 10
562.564125
 20
165.882529
 30
0.0
  0
VERTEX
  5
680
100
AcDbEntity
  8
LAY-9
  6
CONTINUOUS
 62
     1
100
AcDbVertex
100
AcDb2dVertex
 10
562.492564
 20
165.569731
 30
0.0
  0
VERTEX
  5
681
100
AcDbEntity
  8
LAY-9
  6
CONTINUOUS
 62
     1
100
AcDbVertex
100
AcDb2dVertex
 10
562.445427
 20
165.370085
 30
0.0
  0
VERTEX
  5
682
100
AcDbEntity
  8
LAY-9
  6
CONTINUOUS
 62
     1
100
AcDbVertex
100
AcDb2dVertex
 10
562.428441
 20
165.299909
 30
0.0
  0
SEQEND
  5
683
100
AcDbEntity
  8
LAY-9
  6
CONTINUOUS
 62
     1
  0
LINE
  5
684
100
AcDbEntity
  8
LAY-9
  6
CONTINUOUS
 62
     1
100
AcDbLine
 10
239.399996
 20
382.99109
 30
0.0
 11
177.503427
 21
382.99109
 31
0.0
  0
LINE
  5
685
100
AcDbEntity
  8
LAY-9
  6
CONTINUOUS
 62
     1
100
AcDbLine
 10
131.503377
 20
429.59109
 30
0.0
 11
131.503377
 21
430.8
 31
0.0
  0
LINE
  5
686
100
AcDbEntity
  8
LAY-9
  6
CONTINUOUS
 62
     1
100
AcDbLine
 10
131.503377
 20
437.3
 30
0.0
 11
131.503377
 21
442.99109
 31
0.0
  0
LINE
  5
687
100
AcDbEntity
  8
LAY-9
  6
CONTINUOUS
 62
     1
100
AcDbLine
 10
129.903377
 20
429.59109
 30
0.0
 11
129.903377
 21
430.8
 31
0.0
  0
LINE
  5
688
100
AcDbEntity
  8
LAY-9
  6
CONTINUOUS
 62
     1
100
AcDbLine
 10
129.903377
 20
437.3
 30
0.0
 11
129.903377
 21
442.99109
 31
0.0
  0
LINE
  5
689
100
AcDbEntity
  8
LAY-9
  6
CONTINUOUS
 62
     1
100
AcDbLine
 10
177.503427
 20
219.061584
 30
0.0
 11
244.503398
 21
219.061584
 31
0.0
  0
LINE
  5
68A
100
AcDbEntity
  8
LAY-9
  6
CONTINUOUS
 62
     1
100
AcDbLine
 10
121.103398
 20
219.061584
 30
0.0
 11
123.503404
 21
219.061584
 31
0.0
  0
LINE
  5
68B
100
AcDbEntity
  8
LAY-9
  6
CONTINUOUS
 62
     1
100
AcDbLine
 10
331.103375
 20
385.991363
 30
0.0
 11
333.503397
 21
385.991363
 31
0.0
  0
LINE
  5
68C
100
AcDbEntity
  8
LAY-9
  6
CONTINUOUS
 62
     1
100
AcDbLine
 10
387.503427
 20
385.991363
 30
0.0
 11
469.503375
 21
385.991363
 31
0.0
  0
LINE
  5
68D
100
AcDbEntity
  8
LAY-9
  6
CONTINUOUS
 62
     1
100
AcDbLine
 10
341.503389
 20
262.661316
 30
0.0
 11
341.503389
 21
267.27
 31
0.0
  0
LINE
  5
68E
100
AcDbEntity
  8
LAY-9
  6
CONTINUOUS
 62
     1
100
AcDbLine
 10
341.503389
 20
273.56
 30
0.0
 11
341.503389
 21
276.061316
 31
0.0
  0
LINE
  5
68F
100
AcDbEntity
  8
LAY-9
  6
CONTINUOUS
 62
     1
100
AcDbLine
 10
339.903389
 20
262.661316
 30
0.0
 11
339.903389
 21
267.27
 31
0.0
  0
LINE
  5
690
100
AcDbEntity
  8
LAY-9
  6
CONTINUOUS
 62
     1
100
AcDbLine
 10
339.903389
 20
273.56
 30
0.0
 11
339.903389
 21
276.061316
 31
0.0
  0
LINE
  5
691
100
AcDbEntity
  8
LAY-9
  6
CONTINUOUS
 62
     1
100
AcDbLine
 10
454.400008
 20
219.061316
 30
0.0
 11
389.9
 21
219.061316
 31
0.0
  0
LINE
  5
692
100
AcDbEntity
  8
LAY-9
  6
CONTINUOUS
 62
     1
100
AcDbLine
 10
650.354588
 20
296.999909
 30
0.0
 11
650.354588
 21
207.965485
 31
0.0
  0
LINE
  5
693
100
AcDbEntity
  8
LAY-9
  6
CONTINUOUS
 62
     1
100
AcDbLine
 10
685.85465
 20
180.965455
 30
0.0
 11
692.405766
 21
180.965455
 31
0.0
  0
LINE
  5
694
100
AcDbEntity
  8
LAY-9
  6
CONTINUOUS
 62
     1
100
AcDbLine
 10
681.868035
 20
390.815171
 30
0.0
 11
688.755016
 21
390.815171
 31
0.0
  0
LINE
  5
695
100
AcDbEntity
  8
LAY-9
  6
CONTINUOUS
 62
     1
100
AcDbLine
 10
647.354589
 20
407.815201
 30
0.0
 11
647.354589
 21
417.215201
 31
0.0
  0
LINE
  5
696
100
AcDbEntity
  8
LAY-9
  6
CONTINUOUS
 62
     1
100
AcDbLine
 10
650.355016
 20
366.6
 30
0.0
 11
650.355016
 21
302.049622
 31
0.0
  0
LINE
  5
697
100
AcDbEntity
  8
LAY-9
  6
CONTINUOUS
 62
     1
100
AcDbLine
 10
647.354589
 20
393.815201
 30
0.0
 11
647.354589
 21
390.815231
 31
0.0
  0
LINE
  5
698
100
AcDbEntity
  8
LAY-10
  6
CONTINUOUS
 62
     5
100
AcDbLine
 10
15.0
 20
15.0
 30
0.0
 11
826.0
 21
15.0
 31
0.0
  0
LINE
  5
699
100
AcDbEntity
  8
LAY-10
  6
CONTINUOUS
 62
     5
100
AcDbLine
 10
826.0
 20
15.0
 30
0.0
 11
826.0
 21
579.0
 31
0.0
  0
LINE
  5
69A
100
AcDbEntity
  8
LAY-10
  6
CONTINUOUS
 62
     5
100
AcDbLine
 10
15.0
 20
15.0
 30
0.0
 11
15.0
 21
579.0
 31
0.0
  0
LINE
  5
69B
100
AcDbEntity
  8
LAY-10
  6
CONTINUOUS
 62
     5
100
AcDbLine
 10
15.0
 20
579.0
 30
0.0
 11
826.0
 21
579.0
 31
0.0
  0
LINE
  5
69C
100
AcDbEntity
  8
LAY-10
  6
CONTINUOUS
 62
     5
100
AcDbLine
 10
15.0
 20
40.0
 30
0.0
 11
826.0
 21
40.0
 31
0.0
  0
LINE
  5
69D
100
AcDbEntity
  8
LAY-10
  6
CONTINUOUS
 62
     1
100
AcDbLine
 10
224.0
 20
40.0
 30
0.0
 11
224.0
 21
15.0
 31
0.0
  0
LINE
  5
69E
100
AcDbEntity
  8
LAY-10
  6
CONTINUOUS
 62
     1
100
AcDbLine
 10
249.5
 20
40.0
 30
0.0
 11
249.5
 21
15.0
 31
0.0
  0
LINE
  5
69F
100
AcDbEntity
  8
LAY-10
  6
CONTINUOUS
 62
     1
100
AcDbLine
 10
275.0
 20
40.0
 30
0.0
 11
275.0
 21
15.0
 31
0.0
  0
LINE
  5
6A0
100
AcDbEntity
  8
LAY-10
  6
CONTINUOUS
 62
     1
100
AcDbLine
 10
300.5
 20
40.0
 30
0.0
 11
300.5
 21
15.0
 31
0.0
  0
LINE
  5
6A1
100
AcDbEntity
  8
LAY-10
  6
CONTINUOUS
 62
     1
100
AcDbLine
 10
326.0
 20
40.0
 30
0.0
 11
326.0
 21
15.0
 31
0.0
  0
LINE
  5
6A2
100
AcDbEntity
  8
LAY-10
  6
CONTINUOUS
 62
     1
100
AcDbLine
 10
377.0
 20
40.0
 30
0.0
 11
377.0
 21
15.0
 31
0.0
  0
LINE
  5
6A3
100
AcDbEntity
  8
LAY-10
  6
CONTINUOUS
 62
     1
100
AcDbLine
 10
738.0
 20
40.0
 30
0.0
 11
738.0
 21
15.0
 31
0.0
  0
LINE
  5
6A4
100
AcDbEntity
  8
LAY-10
  6
CONTINUOUS
 62
     1
100
AcDbLine
 10
224.0
 20
32.0
 30
0.0
 11
377.0
 21
32.0
 31
0.0
  0
TEXT
  5
6A5
100
AcDbEntity
  8
LAY-10
  6
CONTINUOUS
 62
     4
100
AcDbText
 10
227.5
 20
33.0
 30
0.0
 40
6.0
  1
検　  図
 41
0.57856
  7
EXCADSTD
 72
     5
 11
246.700001
 21
33.0
 31
0.0
100
AcDbText
  0
TEXT
  5
6A6
100
AcDbEntity
  8
LAY-10
  6
CONTINUOUS
 62
     4
100
AcDbText
 10
253.2
 20
33.0
 30
0.0
 40
6.0
  1
担　　当
 41
0.672
  7
EXCADSTD
 72
     5
 11
272.400001
 21
33.0
 31
0.0
100
AcDbText
  0
TEXT
  5
6A7
100
AcDbEntity
  8
LAY-10
  6
CONTINUOUS
 62
     4
100
AcDbText
 10
278.4
 20
33.0
 30
0.0
 40
6.0
  1
製　　図
 41
0.672
  7
EXCADSTD
 72
     5
 11
297.600001
 21
33.0
 31
0.0
100
AcDbText
  0
TEXT
  5
6A8
100
AcDbEntity
  8
LAY-10
  6
CONTINUOUS
 62
     4
100
AcDbText
 10
303.9
 20
33.0
 30
0.0
 40
6.0
  1
尺　　度
 41
0.672
  7
EXCADSTD
 72
     5
 11
323.100001
 21
33.0
 31
0.0
100
AcDbText
  0
TEXT
  5
6A9
100
AcDbEntity
  8
LAY-10
  6
CONTINUOUS
 62
     4
100
AcDbText
 10
339.5
 20
33.0
 30
0.0
 40
6.0
  1
作成年月日
 41
0.672
  7
EXCADSTD
 72
     5
 11
363.500001
 21
33.0
 31
0.0
100
AcDbText
  0
TEXT
  5
6AA
100
AcDbEntity
  8
LAY-10
  6
CONTINUOUS
 62
   134
100
AcDbText
 10
42.98
 20
20.91
 30
0.0
 40
13.0
  1
日本ドアーチエック製造株式会社
 41
0.653908
  7
EXCADSTD
 72
     5
 11
194.779994
 21
20.91
 31
0.0
100
AcDbText
  0
LINE
  5
6AB
100
AcDbEntity
  8
LAY-10
  6
CONTINUOUS
 62
     1
100
AcDbLine
 10
841.0
 20
0.0
 30
0.0
 11
841.0
 21
2.0
 31
0.0
  0
LINE
  5
6AC
100
AcDbEntity
  8
LAY-10
  6
CONTINUOUS
 62
     1
100
AcDbLine
 10
841.0
 20
592.0
 30
0.0
 11
841.0
 21
594.0
 31
0.0
  0
LINE
  5
6AD
100
AcDbEntity
  8
LAY-10
  6
CONTINUOUS
 62
     1
100
AcDbLine
 10
841.0
 20
594.0
 30
0.0
 11
839.0
 21
594.0
 31
0.0
  0
LINE
  5
6AE
100
AcDbEntity
  8
LAY-10
  6
CONTINUOUS
 62
     1
100
AcDbLine
 10
2.0
 20
594.0
 30
0.0
 11
0.0
 21
594.0
 31
0.0
  0
LINE
  5
6AF
100
AcDbEntity
  8
LAY-10
  6
CONTINUOUS
 62
     1
100
AcDbLine
 10
0.0
 20
594.0
 30
0.0
 11
0.0
 21
592.0
 31
0.0
  0
LINE
  5
6B0
100
AcDbEntity
  8
LAY-10
  6
CONTINUOUS
 62
     1
100
AcDbLine
 10
0.0
 20
2.0
 30
0.0
 11
0.0
 21
0.0
 31
0.0
  0
LINE
  5
6B1
100
AcDbEntity
  8
LAY-10
  6
CONTINUOUS
 62
     1
100
AcDbLine
 10
0.0
 20
0.0
 30
0.0
 11
2.0
 21
0.0
 31
0.0
  0
LINE
  5
6B2
100
AcDbEntity
  8
LAY-10
  6
CONTINUOUS
 62
     1
100
AcDbLine
 10
839.0
 20
0.0
 30
0.0
 11
841.0
 21
0.0
 31
0.0
  0
TEXT
  5
6B3
100
AcDbEntity
  8
LAY-10
  6
CONTINUOUS
 62
     4
100
AcDbText
 10
383.0
 20
33.0
 30
0.0
 40
6.0
  1
図 面 名
 41
0.57856
  7
EXCADSTD
 72
     5
 11
402.200001
 21
33.0
 31
0.0
100
AcDbText
  0
TEXT
  5
6B4
100
AcDbEntity
  8
LAY-10
  6
CONTINUOUS
 62
     4
100
AcDbText
 10
744.0
 20
33.0
 30
0.0
 40
6.0
  1
図面番号
 41
0.672
  7
EXCADSTD
 72
     5
 11
763.200001
 21
33.0
 31
0.0
100
AcDbText
  0
TEXT
  5
6B5
100
AcDbEntity
  8
LAY-10
  6
CONTINUOUS
 62
     2
100
AcDbText
 10
306.5
 20
20.2
 30
0.0
 40
6.0
  1
１／１
 41
0.672
  7
EXCADSTD
 72
     5
 11
320.900001
 21
20.2
 31
0.0
100
AcDbText
  0
TEXT
  5
6B6
100
AcDbEntity
  8
LAY-10
  6
CONTINUOUS
 62
     2
100
AcDbText
 10
332.6
 20
20.2
 30
0.0
 40
6.0
  1
Ｈ１３.　７.　２
 41
0.622617
  7
EXCADSTD
 72
     5
 11
371.000002
 21
20.2
 31
0.0
100
AcDbText
  0
TEXT
  5
6B7
100
AcDbEntity
  8
LAY-10
  6
CONTINUOUS
 62
     2
100
AcDbText
 10
406.828367
 20
19.274519
 30
0.0
 40
10.0
  1
ピボットヒンジ　１１ＡＴ(沓摺挿入型 )　納まり図
 41
0.654222
  7
EXCADSTD
 72
     5
 11
590.828367
 21
19.274519
 31
0.0
100
AcDbText
  0
ENDSEC
  0
SECTION
  2
OBJECTS
  0
DICTIONARY
  5
19
100
AcDbDictionary
  3
ACAD_GROUP
350
1A
  3
ACAD_MLINESTYLE
350
1B
  0
DICTIONARY
  5
1A
102
{ACAD_REACTORS
330
19
102
}
100
AcDbDictionary
  0
DICTIONARY
  5
1B
102
{ACAD_REACTORS
330
19
102
}
100
AcDbDictionary
  3
STANDARD
350
1C
  0
MLINESTYLE
  5
1C
102
{ACAD_REACTORS
330
1B
102
}
100
AcDbMlineStyle
  2
Standard
 70
     0
  3

 62
     0
 51
90.0
 52
90.0
 71
     2
 49
0.5
 62
   256
  6
ByLayer
 49
-0.5
 62
   256
  6
ByLayer
  0
ENDSEC
  0
EOF
