  0
SECTION
  2
HEADER
  9
$ACADVER
  1
AC1014
  9
$ACADMAINTVER
 70
     0
  9
$DWGCODEPAGE
  3
ANSI_932
  9
$INSBASE
 10
0.0
 20
0.0
 30
0.0
  9
$EXTMIN
 10
1.0
 20
0.0
 30
0.0
  9
$EXTMAX
 10
842.0
 20
594.0
 30
0.0
  9
$LIMMIN
 10
0.0
 20
0.0
  9
$LIMMAX
 10
841.0
 20
594.0
  9
$ORTHOMODE
 70
     0
  9
$REGENMODE
 70
     1
  9
$FILLMODE
 70
     1
  9
$QTEXTMODE
 70
     0
  9
$MIRRTEXT
 70
     1
  9
$DRAGMODE
 70
     2
  9
$LTSCALE
 40
1.0
  9
$OSMODE
 70
     0
  9
$ATTMODE
 70
     1
  9
$TEXTSIZE
 40
0.2
  9
$TRACEWID
 40
0.05
  9
$TEXTSTYLE
  7
STANDARD
  9
$CLAYER
  8
LAY-1
  9
$CELTYPE
  6
CONTINUOUS
  9
$CECOLOR
 62
   256
  9
$CELTSCALE
 40
1.0
  9
$DELOBJ
 70
     1
  9
$DISPSILH
 70
     0
  9
$DIMSCALE
 40
1.0
  9
$DIMASZ
 40
0.18
  9
$DIMEXO
 40
0.0625
  9
$DIMDLI
 40
0.38
  9
$DIMRND
 40
0.0
  9
$DIMDLE
 40
0.0
  9
$DIMEXE
 40
0.18
  9
$DIMTP
 40
0.0
  9
$DIMTM
 40
0.0
  9
$DIMTXT
 40
0.18
  9
$DIMCEN
 40
0.09
  9
$DIMTSZ
 40
0.0
  9
$DIMTOL
 70
     0
  9
$DIMLIM
 70
     0
  9
$DIMTIH
 70
     1
  9
$DIMTOH
 70
     1
  9
$DIMSE1
 70
     0
  9
$DIMSE2
 70
     0
  9
$DIMTAD
 70
     0
  9
$DIMZIN
 70
     0
  9
$DIMBLK
  1

  9
$DIMASO
 70
     1
  9
$DIMSHO
 70
     1
  9
$DIMPOST
  1

  9
$DIMAPOST
  1

  9
$DIMALT
 70
     0
  9
$DIMALTD
 70
     2
  9
$DIMALTF
 40
25.4
  9
$DIMLFAC
 40
1.0
  9
$DIMTOFL
 70
     0
  9
$DIMTVP
 40
0.0
  9
$DIMTIX
 70
     0
  9
$DIMSOXD
 70
     0
  9
$DIMSAH
 70
     0
  9
$DIMBLK1
  1

  9
$DIMBLK2
  1

  9
$DIMSTYLE
  2
STANDARD
  9
$DIMCLRD
 70
     0
  9
$DIMCLRE
 70
     0
  9
$DIMCLRT
 70
     0
  9
$DIMTFAC
 40
1.0
  9
$DIMGAP
 40
0.09
  9
$DIMJUST
 70
     0
  9
$DIMSD1
 70
     0
  9
$DIMSD2
 70
     0
  9
$DIMTOLJ
 70
     1
  9
$DIMTZIN
 70
     0
  9
$DIMALTZ
 70
     0
  9
$DIMALTTZ
 70
     0
  9
$DIMFIT
 70
     3
  9
$DIMUPT
 70
     0
  9
$DIMUNIT
 70
     2
  9
$DIMDEC
 70
     4
  9
$DIMTDEC
 70
     4
  9
$DIMALTU
 70
     2
  9
$DIMALTTD
 70
     2
  9
$DIMTXSTY
  7
STANDARD
  9
$DIMAUNIT
 70
     0
  9
$LUNITS
 70
     2
  9
$LUPREC
 70
     4
  9
$SKETCHINC
 40
0.1
  9
$FILLETRAD
 40
0.0
  9
$AUNITS
 70
     0
  9
$AUPREC
 70
     0
  9
$MENU
  1
acad
  9
$ELEVATION
 40
0.0
  9
$PELEVATION
 40
0.0
  9
$THICKNESS
 40
0.0
  9
$LIMCHECK
 70
     0
  9
$BLIPMODE
 70
     1
  9
$CHAMFERA
 40
0.0
  9
$CHAMFERB
 40
0.0
  9
$CHAMFERC
 40
0.0
  9
$CHAMFERD
 40
0.0
  9
$SKPOLY
 70
     0
  9
$TDCREATE
 40
2454542.032953657
  9
$TDUPDATE
 40
2454542.032953657
  9
$TDINDWG
 40
0.0000000000
  9
$TDUSRTIMER
 40
0.0000000000
  9
$USRTIMER
 70
     1
  9
$ANGBASE
 50
0.0
  9
$ANGDIR
 70
     0
  9
$PDMODE
 70
     0
  9
$PDSIZE
 40
0.0
  9
$PLINEWID
 40
0.0
  9
$COORDS
 70
     1
  9
$SPLFRAME
 70
     0
  9
$SPLINETYPE
 70
     6
  9
$SPLINESEGS
 70
     8
  9
$ATTDIA
 70
     0
  9
$ATTREQ
 70
     1
  9
$HANDLING
 70
     1
  9
$HANDSEED
  5
839
  9
$SURFTAB1
 70
     6
  9
$SURFTAB2
 70
     6
  9
$SURFTYPE
 70
     6
  9
$SURFU
 70
     6
  9
$SURFV
 70
     6
  9
$UCSNAME
  2

  9
$UCSORG
 10
0.0
 20
0.0
 30
0.0
  9
$UCSXDIR
 10
1.0
 20
0.0
 30
0.0
  9
$UCSYDIR
 10
0.0
 20
1.0
 30
0.0
  9
$PUCSNAME
  2

  9
$PUCSORG
 10
0.0
 20
0.0
 30
0.0
  9
$PUCSXDIR
 10
1.0
 20
0.0
 30
0.0
  9
$PUCSYDIR
 10
0.0
 20
1.0
 30
0.0
  9
$USERI1
 70
     0
  9
$USERI2
 70
     0
  9
$USERI3
 70
     0
  9
$USERI4
 70
     0
  9
$USERI5
 70
     0
  9
$USERR1
 40
0.0
  9
$USERR2
 40
0.0
  9
$USERR3
 40
0.0
  9
$USERR4
 40
0.0
  9
$USERR5
 40
0.0
  9
$WORLDVIEW
 70
     1
  9
$SHADEDGE
 70
     3
  9
$SHADEDIF
 70
    70
  9
$TILEMODE
 70
     1
  9
$MAXACTVP
 70
    16
  9
$PINSBASE
 10
0.0
 20
0.0
 30
0.0
  9
$PLIMCHECK
 70
     0
  9
$PEXTMIN
 10
1.000000E+20
 20
1.000000E+20
 30
1.000000E+20
  9
$PEXTMAX
 10
-1.000000E+20
 20
-1.000000E+20
 30
-1.000000E+20
  9
$PLIMMIN
 10
0.0
 20
0.0
  9
$PLIMMAX
 10
12.0
 20
9.0
  9
$UNITMODE
 70
     0
  9
$VISRETAIN
 70
     0
  9
$PLINEGEN
 70
     1
  9
$PSLTSCALE
 70
     0
  9
$TREEDEPTH
 70
  3020
  9
$PICKSTYLE
 70
     1
  9
$CMLSTYLE
  2
Standard
  9
$CMLJUST
 70
     0
  9
$CMLSCALE
 40
1.0
  9
$PROXYGRAPHICS
 70
     0
  9
$MEASUREMENT
 70
     0
  0
ENDSEC
  0
SECTION
  2
CLASSES
  0
CLASS
  1
LWPOLYLINE
  2
AcDbPolyline
  3
"AutoCAD"
 90
        0
280
     0
281
     1
  0
CLASS
  1
IMAGE
  2
AcDbRasterImage
  3
ISM
 90
      127
280
     0
281
     1
  0
CLASS
  1
OLE2FRAME
  2
AcDbOle2Frame
  3
""
 90
        0
280
     0
281
     1
  0
CLASS
  1
HATCH
  2
AcDbHatch
  3
"ACAD_SEDONA"
 90
        0
280
     0
281
     1
  0
CLASS
  1
DICTIONARYVAR
  2
AcDbDictionaryVar
  3
"AutoCAD"
 90
        0
280
     0
281
     0
  0
CLASS
  1
RASTERVARIABLES
  2
AcDbRasterVariables
  3
ISM
 90
        0
280
     0
281
     0
  0
CLASS
  1
IMAGEDEF
  2
AcDbRasterImageDef
  3
ISM
 90
        0
280
     0
281
     0
  0
CLASS
  1
IMAGEDEF_REACTOR
  2
AcDbRasterImageDefReactor
  3
ISM
 90
        1
280
     0
281
     0
  0
CLASS
  1
IDBUFFER
  2
AcDbIdBuffer
  3
"Acad"
 90
        0
280
     0
281
     0
  0
CLASS
  1
SPATIAL_FILTER
  2
AcDbSpatialFilter
  3
"Acad"
 90
        0
280
     0
281
     0
  0
CLASS
  1
XRECORD
  2
AcDbXrecord
  3
"<Built In>"
 90
        0
280
     0
281
     0
  0
CLASS
  1
SORTENTSTABLE
  2
AcDbSortentsTable
  3
"AutoCAD"
 90
        0
280
     0
281
     0
  0
CLASS
  1
LAYER_INDEX
  2
AcDbLayerIndex
  3
"Acad"
 90
        0
280
     0
281
     0
  0
CLASS
  1
SPATIAL_INDEX
  2
AcDbSpatialIndex
  3
"Acad"
 90
        0
280
     0
281
     0
  0
CLASS
  1
OBJECT_PTR
  2
CAseDLPNTableRecord
  3
"ASE-LPNTableRecord"
 90
        1
280
     0
281
     0
  0
CLASS
  1
LAYOUT
  2
AcDbLayout
  3
"AutoCAD 2000"
 90
        0
280
     0
281
     0
  0
CLASS
  1
PLOTSETTINGS
  2
AcDbPlotSettings
  3
"AutoCAD 2000"
 90
        0
280
     0
281
     0
  0
CLASS
  1
ACDBDICTIONARYWDFLT
  2
AcDbDictionaryWithDefault
  3
"AutoCAD 2000"
 90
        0
280
     0
281
     0
  0
CLASS
  1
ACDBPLACEHOLDER
  2
AcDbPlaceHolder
  3
"AutoCAD 2000"
 90
        0
280
     0
281
     0
  0
CLASS
  1
VBA_PROJECT
  2
AcDbVbaProject
  3
"acadvba"
 90
        0
280
     0
281
     0
  0
CLASS
  1
WIPEOUT
  2
AcDbWipeout
  3
WipeOut|AutoCAD Express Tool|expresstools@autodesk.com
 90
      127
280
     0
281
     1
  0
CLASS
  1
WIPEOUTVARIABLES
  2
AcDbWipeoutVariables
  3
WipeOut|AutoCAD Express Tool|expresstools@autodesk.com
 90
        0
280
     0
281
     0
  0
CLASS
  1
RTEXT
  2
RText
  3
RText|AutoCAD Express Tool|expresstools@autodesk.com
 90
        0
280
     0
281
     1
  0
CLASS
  1
ARCALIGNEDTEXT
  2
AcDbArcAlignedText
  3
ATEXT|AutoCAD Express Tool|expresstools@autodesk.com
 90
        0
280
     0
281
     1
  0
ENDSEC
  0
SECTION
  2
TABLES
  0
TABLE
  2
VPORT
  5
7
100
AcDbSymbolTable
 70
     1
  0
VPORT
  5
15
100
AcDbSymbolTableRecord
100
AcDbViewportTableRecord
  2
*ACTIVE
 70
     0
 10
0.0
 20
0.0
 11
1.0
 21
1.0
 12
421.5
 22
297.0
 13
0.0
 23
0.0
 14
1.0
 24
1.0
 15
0.0
 25
0.0
 16
0.0
 26
0.0
 36
1.0
 17
0.0
 27
0.0
 37
0.0
 40
594.0
 41
1.722533
 42
50.0
 43
0.0
 44
0.0
 50
0.0
 51
0.0
 71
     0
 72
   100
 73
     1
 74
     1
 75
     0
 76
     0
 77
     0
 78
     0
  0
ENDTAB
  0
TABLE
  2
LTYPE
  5
4
100
AcDbSymbolTable
 70
     9
  0
LTYPE
  5
11
100
AcDbSymbolTableRecord
100
AcDbLinetypeTableRecord
  2
BYBLOCK
 70
    64
  3

 72
    65
 73
     0
 40
0.0
  0
LTYPE
  5
12
100
AcDbSymbolTableRecord
100
AcDbLinetypeTableRecord
  2
BYLAYER
 70
    64
  3

 72
    65
 73
     0
 40
0.0
  0
LTYPE
  5
13
100
AcDbSymbolTableRecord
100
AcDbLinetypeTableRecord
  2
CONTINUOUS
 70
    64
  3
実線
 72
    65
 73
     0
 40
0.0
  0
LTYPE
  5
1D
100
AcDbSymbolTableRecord
100
AcDbLinetypeTableRecord
  2
DASHED
 70
    64
  3
Dashed __ __ __ __ __ __ __ __ __ __ __ __ __ _
 72
    65
 73
     2
 40
19.05
 49
12.7
 74
     0
 49
-6.35
 74
     0
  0
LTYPE
  5
1E
100
AcDbSymbolTableRecord
100
AcDbLinetypeTableRecord
  2
DASHED2
 70
    64
  3
Dashed (.5x) _ _ _ _ _ _ _ _ _ _ _ _ _ _ _ _ _ 
 72
    65
 73
     2
 40
9.525
 49
6.35
 74
     0
 49
-3.175
 74
     0
  0
LTYPE
  5
1F
100
AcDbSymbolTableRecord
100
AcDbLinetypeTableRecord
  2
DASHDOT
 70
    64
  3
Dash dot __ . __ . __ . __ . __ . __ . __ . __
 72
    65
 73
     4
 40
25.4
 49
12.7
 74
     0
 49
-6.35
 74
     0
 49
0.0
 74
     0
 49
-6.35
 74
     0
  0
LTYPE
  5
20
100
AcDbSymbolTableRecord
100
AcDbLinetypeTableRecord
  2
DIVIDE
 70
    64
  3
Divide ____ . . ____ . . ____ . . ____ . . ____
 72
    65
 73
     6
 40
31.75
 49
12.7
 74
     0
 49
-6.35
 74
     0
 49
0.0
 74
     0
 49
-6.35
 74
     0
 49
0.0
 74
     0
 49
-6.35
 74
     0
  0
LTYPE
  5
21
100
AcDbSymbolTableRecord
100
AcDbLinetypeTableRecord
  2
ACAD_ISO06W100
 70
    64
  3
ISO long-dash triple-dot ____ ... ____ ... ____
 72
    65
 73
     8
 40
36.0
 49
24.0
 74
     0
 49
-3.0
 74
     0
 49
0.0
 74
     0
 49
-3.0
 74
     0
 49
0.0
 74
     0
 49
-3.0
 74
     0
 49
0.0
 74
     0
 49
-3.0
 74
     0
  0
LTYPE
  5
22
100
AcDbSymbolTableRecord
100
AcDbLinetypeTableRecord
  2
ACAD_ISO15W100
 70
    64
  3
ISO double-dash triple-dot __ __ . . . __ __ . .
 72
    65
 73
    10
 40
39.0
 49
12.0
 74
     0
 49
-3.0
 74
     0
 49
12.0
 74
     0
 49
-3.0
 74
     0
 49
0.0
 74
     0
 49
-3.0
 74
     0
 49
0.0
 74
     0
 49
-3.0
 74
     0
 49
0.0
 74
     0
 49
-3.0
 74
     0
  0
ENDTAB
  0
TABLE
  2
LAYER
  5
2
100
AcDbSymbolTable
 70
     9
  0
LAYER
  5
14
100
AcDbSymbolTableRecord
100
AcDbLayerTableRecord
  2
0
 70
     0
 62
     7
  6
CONTINUOUS
  0
LAYER
  5
25
100
AcDbSymbolTableRecord
100
AcDbLayerTableRecord
  2
LAY-1
 70
    64
 62
     3
  6
CONTINUOUS
  0
LAYER
  5
26
100
AcDbSymbolTableRecord
100
AcDbLayerTableRecord
  2
LAY-2
 70
    64
 62
     3
  6
CONTINUOUS
  0
LAYER
  5
27
100
AcDbSymbolTableRecord
100
AcDbLayerTableRecord
  2
LAY-3
 70
    64
 62
     3
  6
CONTINUOUS
  0
LAYER
  5
28
100
AcDbSymbolTableRecord
100
AcDbLayerTableRecord
  2
LAY-4
 70
    64
 62
     3
  6
CONTINUOUS
  0
LAYER
  5
29
100
AcDbSymbolTableRecord
100
AcDbLayerTableRecord
  2
LAY-5
 70
    64
 62
     1
  6
DASHDOT
  0
LAYER
  5
2A
100
AcDbSymbolTableRecord
100
AcDbLayerTableRecord
  2
LAY-6
 70
    64
 62
     1
  6
CONTINUOUS
  0
LAYER
  5
2B
100
AcDbSymbolTableRecord
100
AcDbLayerTableRecord
  2
LAY-9
 70
    64
 62
     1
  6
CONTINUOUS
  0
LAYER
  5
2C
100
AcDbSymbolTableRecord
100
AcDbLayerTableRecord
  2
LAY-10
 70
    64
 62
     5
  6
CONTINUOUS
  0
ENDTAB
  0
TABLE
  2
STYLE
  5
3
100
AcDbSymbolTable
 70
     3
  0
STYLE
  5
17
100
AcDbSymbolTableRecord
100
AcDbTextStyleTableRecord
  2
STANDARD
 70
     0
 40
0.0
 41
1.0
 50
0.0
 71
     0
 42
0.0
  3
monotxt
  4
extfont
  0
STYLE
  5
23
100
AcDbSymbolTableRecord
100
AcDbTextStyleTableRecord
  2
EXCADSTD
 70
    64
 40
0.0
 41
1.0
 50
0.0
 71
     0
 42
0.2
  3
monotxt
  4
extfont
  0
STYLE
  5
24
100
AcDbSymbolTableRecord
100
AcDbTextStyleTableRecord
  2
EXCADVERT
 70
    68
 40
0.0
 41
1.0
 50
0.0
 71
     0
 42
0.286885
  3
monotxt
  4
extfont
  0
ENDTAB
  0
TABLE
  2
VIEW
  5
5
100
AcDbSymbolTable
 70
     0
  0
ENDTAB
  0
TABLE
  2
UCS
  5
6
100
AcDbSymbolTable
 70
     0
  0
ENDTAB
  0
TABLE
  2
APPID
  5
8
100
AcDbSymbolTable
 70
     1
  0
APPID
  5
16
100
AcDbSymbolTableRecord
100
AcDbRegAppTableRecord
  2
ACAD
 70
     0
  0
ENDTAB
  0
TABLE
  2
DIMSTYLE
  5
9
100
AcDbSymbolTable
 70
     1
  0
DIMSTYLE
105
18
100
AcDbSymbolTableRecord
100
AcDbDimStyleTableRecord
  2
STANDARD
 70
     0
  3

  4

  5

  6

  7

 40
1.0
 41
0.18
 42
0.0625
 43
0.38
 44
0.18
 45
0.0
 46
0.0
 47
0.0
 48
0.0
 71
     0
 72
     0
 73
     1
 74
     1
 75
     0
 76
     0
 77
     0
 78
     0
140
0.18
141
0.09
142
0.0
143
25.4
144
1.0
145
0.0
146
1.0
147
0.09
170
     0
171
     2
172
     1
173
     0
174
     0
175
     0
176
     0
177
     0
178
     0
270
     2
271
     4
272
     4
273
     2
274
     2
275
     0
280
     0
281
     0
282
     0
283
     1
284
     0
285
     0
286
     0
287
     3
288
     0
340
17
  0
ENDTAB
  0
TABLE
  2
BLOCK_RECORD
  5
1
100
AcDbSymbolTable
 70
    15
  0
BLOCK_RECORD
  5
A
100
AcDbSymbolTableRecord
100
AcDbBlockTableRecord
  2
*MODEL_SPACE
  0
BLOCK_RECORD
  5
B
100
AcDbSymbolTableRecord
100
AcDbBlockTableRecord
  2
*PAPER_SPACE
  0
BLOCK_RECORD
  5
2D
100
AcDbSymbolTableRecord
100
AcDbBlockTableRecord
  2
_EX_NORM
  0
BLOCK_RECORD
  5
2E
100
AcDbSymbolTableRecord
100
AcDbBlockTableRecord
  2
_EX_BNORM
  0
BLOCK_RECORD
  5
2F
100
AcDbSymbolTableRecord
100
AcDbBlockTableRecord
  2
_EX_BCIR
  0
BLOCK_RECORD
  5
30
100
AcDbSymbolTableRecord
100
AcDbBlockTableRecord
  2
_EX_RCIVIL
  0
BLOCK_RECORD
  5
31
100
AcDbSymbolTableRecord
100
AcDbBlockTableRecord
  2
_EX_SLANT
  0
BLOCK_RECORD
  5
32
100
AcDbSymbolTableRecord
100
AcDbBlockTableRecord
  2
_EX_NONE
  0
BLOCK_RECORD
  5
33
100
AcDbSymbolTableRecord
100
AcDbBlockTableRecord
  2
_EX_CIVIL
  0
BLOCK_RECORD
  5
34
100
AcDbSymbolTableRecord
100
AcDbBlockTableRecord
  2
_EX_WCIR
  0
BLOCK_RECORD
  5
35
100
AcDbSymbolTableRecord
100
AcDbBlockTableRecord
  2
_EX_WCIR2
  0
BLOCK_RECORD
  5
36
100
AcDbSymbolTableRecord
100
AcDbBlockTableRecord
  2
_EX_WNORM
  0
BLOCK_RECORD
  5
37
100
AcDbSymbolTableRecord
100
AcDbBlockTableRecord
  2
_EX_NNORM
  0
BLOCK_RECORD
  5
38
100
AcDbSymbolTableRecord
100
AcDbBlockTableRecord
  2
_EX_BBOX
  0
BLOCK_RECORD
  5
39
100
AcDbSymbolTableRecord
100
AcDbBlockTableRecord
  2
_EX_WBOX
  0
BLOCK_RECORD
  5
3A
100
AcDbSymbolTableRecord
100
AcDbBlockTableRecord
  2
_EX_INTEGRAL
  0
BLOCK_RECORD
  5
3B
100
AcDbSymbolTableRecord
100
AcDbBlockTableRecord
  2
SYM-1
  0
ENDTAB
  0
ENDSEC
  0
SECTION
  2
BLOCKS
  0
BLOCK
  5
D
100
AcDbEntity
  8
0
100
AcDbBlockBegin
  2
*MODEL_SPACE
 70
     0
 10
0.0
 20
0.0
 30
0.0
  3
*MODEL_SPACE
  1

  0
ENDBLK
  5
E
100
AcDbEntity
  8
0
100
AcDbBlockEnd
  0
BLOCK
  5
F
100
AcDbEntity
 67
     1
  8
0
100
AcDbBlockBegin
  2
*PAPER_SPACE
 70
     0
 10
0.0
 20
0.0
 30
0.0
  3
*PAPER_SPACE
  1

  0
ENDBLK
  5
10
100
AcDbEntity
 67
     1
  8
0
100
AcDbBlockEnd
  0
BLOCK
  5
3C
100
AcDbEntity
  8
0
100
AcDbBlockBegin
  2
_EX_NORM
 70
     0
 10
0.0
 20
0.0
 30
0.0
  3
_EX_NORM
  1

  0
LINE
  5
3D
100
AcDbEntity
  8
0
  6
CONTINUOUS
 62
     0
100
AcDbLine
 10
0.0
 20
0.0
 30
0.0
 11
-1.0
 21
0.0
 31
0.0
  0
LINE
  5
3E
100
AcDbEntity
  8
0
  6
CONTINUOUS
 62
     0
100
AcDbLine
 10
0.0
 20
0.0
 30
0.0
 11
-1.0
 21
0.166667
 31
0.0
  0
LINE
  5
3F
100
AcDbEntity
  8
0
  6
CONTINUOUS
 62
     0
100
AcDbLine
 10
0.0
 20
0.0
 30
0.0
 11
-1.0
 21
-0.166667
 31
0.0
  0
ENDBLK
  5
40
100
AcDbEntity
  8
0
100
AcDbBlockEnd
  0
BLOCK
  5
41
100
AcDbEntity
  8
0
100
AcDbBlockBegin
  2
_EX_BNORM
 70
     0
 10
0.0
 20
0.0
 30
0.0
  3
_EX_BNORM
  1

  0
LINE
  5
42
100
AcDbEntity
  8
0
  6
CONTINUOUS
 62
     0
100
AcDbLine
 10
0.0
 20
0.0
 30
0.0
 11
-1.0
 21
0.0
 31
0.0
  0
LINE
  5
43
100
AcDbEntity
  8
0
  6
CONTINUOUS
 62
     0
100
AcDbLine
 10
0.0
 20
0.0
 30
0.0
 11
-1.0
 21
0.166667
 31
0.0
  0
LINE
  5
44
100
AcDbEntity
  8
0
  6
CONTINUOUS
 62
     0
100
AcDbLine
 10
0.0
 20
0.0
 30
0.0
 11
-1.0
 21
-0.166667
 31
0.0
  0
LINE
  5
45
100
AcDbEntity
  8
0
  6
CONTINUOUS
 62
     0
100
AcDbLine
 10
0.0
 20
0.0
 30
0.0
 11
-1.0
 21
0.083333
 31
0.0
  0
LINE
  5
46
100
AcDbEntity
  8
0
  6
CONTINUOUS
 62
     0
100
AcDbLine
 10
0.0
 20
0.0
 30
0.0
 11
-1.0
 21
-0.083333
 31
0.0
  0
LINE
  5
47
100
AcDbEntity
  8
0
  6
CONTINUOUS
 62
     0
100
AcDbLine
 10
-1.0
 20
0.166667
 30
0.0
 11
-1.0
 21
-0.166667
 31
0.0
  0
ENDBLK
  5
48
100
AcDbEntity
  8
0
100
AcDbBlockEnd
  0
BLOCK
  5
49
100
AcDbEntity
  8
0
100
AcDbBlockBegin
  2
_EX_BCIR
 70
     0
 10
0.0
 20
0.0
 30
0.0
  3
_EX_BCIR
  1

  0
LINE
  5
4A
100
AcDbEntity
  8
0
  6
CONTINUOUS
 62
     0
100
AcDbLine
 10
0.0
 20
0.0
 30
0.0
 11
-1.0
 21
0.0
 31
0.0
  0
CIRCLE
  5
4B
100
AcDbEntity
  8
0
  6
CONTINUOUS
 62
     0
100
AcDbCircle
 10
0.0
 20
0.0
 30
0.0
 40
0.5
  0
CIRCLE
  5
4C
100
AcDbEntity
  8
0
  6
CONTINUOUS
 62
     0
100
AcDbCircle
 10
0.0
 20
0.0
 30
0.0
 40
0.25
  0
ENDBLK
  5
4D
100
AcDbEntity
  8
0
100
AcDbBlockEnd
  0
BLOCK
  5
4E
100
AcDbEntity
  8
0
100
AcDbBlockBegin
  2
_EX_RCIVIL
 70
     0
 10
0.0
 20
0.0
 30
0.0
  3
_EX_RCIVIL
  1

  0
LINE
  5
4F
100
AcDbEntity
  8
0
  6
CONTINUOUS
 62
     0
100
AcDbLine
 10
0.0
 20
0.0
 30
0.0
 11
-1.0
 21
0.0
 31
0.0
  0
LINE
  5
50
100
AcDbEntity
  8
0
  6
CONTINUOUS
 62
     0
100
AcDbLine
 10
-1.0
 20
-0.25
 30
0.0
 11
0.0
 21
-0.25
 31
0.0
  0
LINE
  5
51
100
AcDbEntity
  8
0
  6
CONTINUOUS
 62
     0
100
AcDbLine
 10
-1.0
 20
-0.125
 30
0.0
 11
0.0
 21
-0.125
 31
0.0
  0
ENDBLK
  5
52
100
AcDbEntity
  8
0
100
AcDbBlockEnd
  0
BLOCK
  5
53
100
AcDbEntity
  8
0
100
AcDbBlockBegin
  2
_EX_SLANT
 70
     0
 10
0.0
 20
0.0
 30
0.0
  3
_EX_SLANT
  1

  0
LINE
  5
54
100
AcDbEntity
  8
0
  6
CONTINUOUS
 62
     0
100
AcDbLine
 10
0.0
 20
0.0
 30
0.0
 11
-1.0
 21
0.0
 31
0.0
  0
LINE
  5
55
100
AcDbEntity
  8
0
  6
CONTINUOUS
 62
     0
100
AcDbLine
 10
0.707107
 20
0.707107
 30
0.0
 11
-0.707107
 21
-0.707107
 31
0.0
  0
ENDBLK
  5
56
100
AcDbEntity
  8
0
100
AcDbBlockEnd
  0
BLOCK
  5
57
100
AcDbEntity
  8
0
100
AcDbBlockBegin
  2
_EX_NONE
 70
     0
 10
0.0
 20
0.0
 30
0.0
  3
_EX_NONE
  1

  0
LINE
  5
58
100
AcDbEntity
  8
0
  6
CONTINUOUS
 62
     0
100
AcDbLine
 10
0.0
 20
0.0
 30
0.0
 11
-1.0
 21
0.0
 31
0.0
  0
ENDBLK
  5
59
100
AcDbEntity
  8
0
100
AcDbBlockEnd
  0
BLOCK
  5
5A
100
AcDbEntity
  8
0
100
AcDbBlockBegin
  2
_EX_CIVIL
 70
     0
 10
0.0
 20
0.0
 30
0.0
  3
_EX_CIVIL
  1

  0
LINE
  5
5B
100
AcDbEntity
  8
0
  6
CONTINUOUS
 62
     0
100
AcDbLine
 10
0.0
 20
0.0
 30
0.0
 11
-1.0
 21
0.0
 31
0.0
  0
LINE
  5
5C
100
AcDbEntity
  8
0
  6
CONTINUOUS
 62
     0
100
AcDbLine
 10
-1.0
 20
0.25
 30
0.0
 11
0.0
 21
0.25
 31
0.0
  0
LINE
  5
5D
100
AcDbEntity
  8
0
  6
CONTINUOUS
 62
     0
100
AcDbLine
 10
-1.0
 20
0.125
 30
0.0
 11
0.0
 21
0.125
 31
0.0
  0
ENDBLK
  5
5E
100
AcDbEntity
  8
0
100
AcDbBlockEnd
  0
BLOCK
  5
5F
100
AcDbEntity
  8
0
100
AcDbBlockBegin
  2
_EX_WCIR
 70
     0
 10
0.0
 20
0.0
 30
0.0
  3
_EX_WCIR
  1

  0
LINE
  5
60
100
AcDbEntity
  8
0
  6
CONTINUOUS
 62
     0
100
AcDbLine
 10
0.0
 20
0.0
 30
0.0
 11
-1.0
 21
0.0
 31
0.0
  0
CIRCLE
  5
61
100
AcDbEntity
  8
0
  6
CONTINUOUS
 62
     0
100
AcDbCircle
 10
0.0
 20
0.0
 30
0.0
 40
0.5
  0
ENDBLK
  5
62
100
AcDbEntity
  8
0
100
AcDbBlockEnd
  0
BLOCK
  5
63
100
AcDbEntity
  8
0
100
AcDbBlockBegin
  2
_EX_WCIR2
 70
     0
 10
0.0
 20
0.0
 30
0.0
  3
_EX_WCIR2
  1

  0
LINE
  5
64
100
AcDbEntity
  8
0
  6
CONTINUOUS
 62
     0
100
AcDbLine
 10
-0.5
 20
0.0
 30
0.0
 11
-1.0
 21
0.0
 31
0.0
  0
CIRCLE
  5
65
100
AcDbEntity
  8
0
  6
CONTINUOUS
 62
     0
100
AcDbCircle
 10
0.0
 20
0.0
 30
0.0
 40
0.5
  0
ENDBLK
  5
66
100
AcDbEntity
  8
0
100
AcDbBlockEnd
  0
BLOCK
  5
67
100
AcDbEntity
  8
0
100
AcDbBlockBegin
  2
_EX_WNORM
 70
     0
 10
0.0
 20
0.0
 30
0.0
  3
_EX_WNORM
  1

  0
LINE
  5
68
100
AcDbEntity
  8
0
  6
CONTINUOUS
 62
     0
100
AcDbLine
 10
-1.0
 20
0.0
 30
0.0
 11
-1.0
 21
0.0
 31
0.0
  0
LINE
  5
69
100
AcDbEntity
  8
0
  6
CONTINUOUS
 62
     0
100
AcDbLine
 10
0.0
 20
0.0
 30
0.0
 11
-1.0
 21
0.166667
 31
0.0
  0
LINE
  5
6A
100
AcDbEntity
  8
0
  6
CONTINUOUS
 62
     0
100
AcDbLine
 10
0.0
 20
0.0
 30
0.0
 11
-1.0
 21
-0.166667
 31
0.0
  0
LINE
  5
6B
100
AcDbEntity
  8
0
  6
CONTINUOUS
 62
     0
100
AcDbLine
 10
-1.0
 20
0.166667
 30
0.0
 11
-1.0
 21
-0.166667
 31
0.0
  0
ENDBLK
  5
6C
100
AcDbEntity
  8
0
100
AcDbBlockEnd
  0
BLOCK
  5
6D
100
AcDbEntity
  8
0
100
AcDbBlockBegin
  2
_EX_NNORM
 70
     0
 10
0.0
 20
0.0
 30
0.0
  3
_EX_NNORM
  1

  0
LINE
  5
6E
100
AcDbEntity
  8
0
  6
CONTINUOUS
 62
     0
100
AcDbLine
 10
0.0
 20
0.0
 30
0.0
 11
-1.0
 21
0.0
 31
0.0
  0
LINE
  5
6F
100
AcDbEntity
  8
0
  6
CONTINUOUS
 62
     0
100
AcDbLine
 10
0.0
 20
0.0
 30
0.0
 11
-1.0
 21
0.166667
 31
0.0
  0
LINE
  5
70
100
AcDbEntity
  8
0
  6
CONTINUOUS
 62
     0
100
AcDbLine
 10
0.0
 20
0.0
 30
0.0
 11
-1.0
 21
-0.166667
 31
0.0
  0
LINE
  5
71
100
AcDbEntity
  8
0
  6
CONTINUOUS
 62
     0
100
AcDbLine
 10
-1.0
 20
0.166667
 30
0.0
 11
-1.0
 21
-0.166667
 31
0.0
  0
ENDBLK
  5
72
100
AcDbEntity
  8
0
100
AcDbBlockEnd
  0
BLOCK
  5
73
100
AcDbEntity
  8
0
100
AcDbBlockBegin
  2
_EX_BBOX
 70
     0
 10
0.0
 20
0.0
 30
0.0
  3
_EX_BBOX
  1

  0
LINE
  5
74
100
AcDbEntity
  8
0
  6
CONTINUOUS
 62
     0
100
AcDbLine
 10
0.0
 20
0.0
 30
0.0
 11
-1.0
 21
0.0
 31
0.0
  0
LINE
  5
75
100
AcDbEntity
  8
0
  6
CONTINUOUS
 62
     0
100
AcDbLine
 10
-0.5
 20
0.5
 30
0.0
 11
0.5
 21
0.5
 31
0.0
  0
LINE
  5
76
100
AcDbEntity
  8
0
  6
CONTINUOUS
 62
     0
100
AcDbLine
 10
0.5
 20
0.5
 30
0.0
 11
0.5
 21
-0.5
 31
0.0
  0
LINE
  5
77
100
AcDbEntity
  8
0
  6
CONTINUOUS
 62
     0
100
AcDbLine
 10
0.5
 20
-0.5
 30
0.0
 11
-0.5
 21
-0.5
 31
0.0
  0
LINE
  5
78
100
AcDbEntity
  8
0
  6
CONTINUOUS
 62
     0
100
AcDbLine
 10
-0.5
 20
-0.5
 30
0.0
 11
-0.5
 21
0.5
 31
0.0
  0
LINE
  5
79
100
AcDbEntity
  8
0
  6
CONTINUOUS
 62
     0
100
AcDbLine
 10
-0.25
 20
0.25
 30
0.0
 11
0.25
 21
0.25
 31
0.0
  0
LINE
  5
7A
100
AcDbEntity
  8
0
  6
CONTINUOUS
 62
     0
100
AcDbLine
 10
0.25
 20
0.25
 30
0.0
 11
0.25
 21
-0.25
 31
0.0
  0
LINE
  5
7B
100
AcDbEntity
  8
0
  6
CONTINUOUS
 62
     0
100
AcDbLine
 10
0.25
 20
-0.25
 30
0.0
 11
-0.25
 21
-0.25
 31
0.0
  0
LINE
  5
7C
100
AcDbEntity
  8
0
  6
CONTINUOUS
 62
     0
100
AcDbLine
 10
-0.25
 20
-0.25
 30
0.0
 11
-0.25
 21
0.25
 31
0.0
  0
ENDBLK
  5
7D
100
AcDbEntity
  8
0
100
AcDbBlockEnd
  0
BLOCK
  5
7E
100
AcDbEntity
  8
0
100
AcDbBlockBegin
  2
_EX_WBOX
 70
     0
 10
0.0
 20
0.0
 30
0.0
  3
_EX_WBOX
  1

  0
LINE
  5
7F
100
AcDbEntity
  8
0
  6
CONTINUOUS
 62
     0
100
AcDbLine
 10
-0.5
 20
0.0
 30
0.0
 11
-1.0
 21
0.0
 31
0.0
  0
LINE
  5
80
100
AcDbEntity
  8
0
  6
CONTINUOUS
 62
     0
100
AcDbLine
 10
-0.5
 20
0.5
 30
0.0
 11
0.5
 21
0.5
 31
0.0
  0
LINE
  5
81
100
AcDbEntity
  8
0
  6
CONTINUOUS
 62
     0
100
AcDbLine
 10
0.5
 20
0.5
 30
0.0
 11
0.5
 21
-0.5
 31
0.0
  0
LINE
  5
82
100
AcDbEntity
  8
0
  6
CONTINUOUS
 62
     0
100
AcDbLine
 10
0.5
 20
-0.5
 30
0.0
 11
-0.5
 21
-0.5
 31
0.0
  0
LINE
  5
83
100
AcDbEntity
  8
0
  6
CONTINUOUS
 62
     0
100
AcDbLine
 10
-0.5
 20
-0.5
 30
0.0
 11
-0.5
 21
0.5
 31
0.0
  0
ENDBLK
  5
84
100
AcDbEntity
  8
0
100
AcDbBlockEnd
  0
BLOCK
  5
85
100
AcDbEntity
  8
0
100
AcDbBlockBegin
  2
_EX_INTEGRAL
 70
     0
 10
0.0
 20
0.0
 30
0.0
  3
_EX_INTEGRAL
  1

  0
LINE
  5
86
100
AcDbEntity
  8
0
  6
CONTINUOUS
 62
     0
100
AcDbLine
 10
0.0
 20
0.0
 30
0.0
 11
-1.0
 21
0.0
 31
0.0
  0
ARC
  5
87
100
AcDbEntity
  8
0
  6
CONTINUOUS
 62
     0
100
AcDbCircle
 10
0.542115
 20
0.164992
 30
0.0
 40
0.56667
100
AcDbArc
 50
73.07249
 51
196.927513
  0
ARC
  5
88
100
AcDbEntity
  8
0
  6
CONTINUOUS
 62
     0
100
AcDbCircle
 10
-0.542115
 20
-0.164992
 30
0.0
 40
0.56667
100
AcDbArc
 50
253.072487
 51
16.927513
  0
ENDBLK
  5
89
100
AcDbEntity
  8
0
100
AcDbBlockEnd
  0
BLOCK
  5
8A
100
AcDbEntity
  8
0
100
AcDbBlockBegin
  2
SYM-1
 70
     0
 10
0.0
 20
0.0
 30
0.0
  3
SYM-1
  1

  0
TEXT
  5
8B
100
AcDbEntity
  8
0
  6
CONTINUOUS
 62
     2
100
AcDbText
 10
-2.7
 20
-1.0
 30
0.0
 40
5.0
  1
Ｐ
 41
0.672
  7
EXCADSTD
 72
     5
 11
0.5
 21
-1.0
 31
0.0
100
AcDbText
  0
TEXT
  5
8C
100
AcDbEntity
  8
0
  6
CONTINUOUS
 62
     2
100
AcDbText
 10
-1.8
 20
-0.9
 30
0.0
 40
5.0
  1
Ｌ
 41
0.672
  7
EXCADSTD
 72
     5
 11
1.4
 21
-0.9
 31
0.0
100
AcDbText
  0
ENDBLK
  5
8D
100
AcDbEntity
  8
0
100
AcDbBlockEnd
  0
ENDSEC
  0
SECTION
  2
ENTITIES
  0
LINE
  5
8E
100
AcDbEntity
  8
LAY-1
  6
DIVIDE
 62
     1
100
AcDbLine
 10
230.0
 20
525.7
 30
0.0
 11
230.0
 21
488.700061
 31
0.0
  0
LINE
  5
8F
100
AcDbEntity
  8
LAY-1
  6
CONTINUOUS
 62
     3
100
AcDbLine
 10
224.0
 20
523.2
 30
0.0
 11
224.0
 21
491.200061
 31
0.0
  0
CIRCLE
  5
90
100
AcDbEntity
  8
LAY-1
  6
DASHED2
 62
     3
100
AcDbCircle
 10
211.0
 20
498.200061
 30
0.0
 40
6.0
  0
CIRCLE
  5
91
100
AcDbEntity
  8
LAY-1
  6
CONTINUOUS
 62
     3
100
AcDbCircle
 10
211.0
 20
498.200061
 30
0.0
 40
3.35
  0
CIRCLE
  5
92
100
AcDbEntity
  8
LAY-1
  6
DASHED2
 62
     3
100
AcDbCircle
 10
211.0
 20
516.2
 30
0.0
 40
6.0
  0
CIRCLE
  5
93
100
AcDbEntity
  8
LAY-1
  6
CONTINUOUS
 62
     3
100
AcDbCircle
 10
211.0
 20
516.2
 30
0.0
 40
3.35
  0
CIRCLE
  5
94
100
AcDbEntity
  8
LAY-1
  6
CONTINUOUS
 62
     3
100
AcDbCircle
 10
89.0
 20
507.2
 30
0.0
 40
6.25
  0
LINE
  5
95
100
AcDbEntity
  8
LAY-1
  6
CONTINUOUS
 62
     3
100
AcDbLine
 10
201.0
 20
504.95
 30
0.0
 11
201.0
 21
509.45
 31
0.0
  0
LINE
  5
96
100
AcDbEntity
  8
LAY-1
  6
CONTINUOUS
 62
     3
100
AcDbLine
 10
98.229675
 20
509.45
 30
0.0
 11
201.0
 21
509.45
 31
0.0
  0
LINE
  5
97
100
AcDbEntity
  8
LAY-1
  6
CONTINUOUS
 62
     3
100
AcDbLine
 10
98.229675
 20
504.95
 30
0.0
 11
201.0
 21
504.95
 31
0.0
  0
ARC
  5
98
100
AcDbEntity
  8
LAY-1
  6
CONTINUOUS
 62
     3
100
AcDbCircle
 10
149.0
 20
507.2
 30
0.0
 40
5.0
100
AcDbArc
 50
26.743665
 51
153.256355
  0
ARC
  5
99
100
AcDbEntity
  8
LAY-1
  6
CONTINUOUS
 62
     3
100
AcDbCircle
 10
149.0
 20
507.2
 30
0.0
 40
5.0
100
AcDbArc
 50
205.468338
 51
331.882709
  0
ARC
  5
9A
100
AcDbEntity
  8
LAY-1
  6
CONTINUOUS
 62
     3
100
AcDbCircle
 10
190.0
 20
507.2
 30
0.0
 40
6.0
100
AcDbArc
 50
22.024383
 51
156.514709
  0
ARC
  5
9B
100
AcDbEntity
  8
LAY-1
  6
CONTINUOUS
 62
     3
100
AcDbCircle
 10
190.0
 20
507.2
 30
0.0
 40
6.0
100
AcDbArc
 50
203.485273
 51
337.366545
  0
LINE
  5
9C
100
AcDbEntity
  8
LAY-1
  6
CONTINUOUS
 62
     3
100
AcDbLine
 10
175.0
 20
504.650073
 30
0.0
 11
163.0
 21
504.650073
 31
0.0
  0
LINE
  5
9D
100
AcDbEntity
  8
LAY-1
  6
CONTINUOUS
 62
     3
100
AcDbLine
 10
175.0
 20
509.750048
 30
0.0
 11
163.0
 21
509.750048
 31
0.0
  0
LINE
  5
9E
100
AcDbEntity
  8
LAY-1
  6
CONTINUOUS
 62
     3
100
AcDbLine
 10
175.0
 20
512.950061
 30
0.0
 11
163.0
 21
512.950061
 31
0.0
  0
LINE
  5
9F
100
AcDbEntity
  8
LAY-1
  6
CONTINUOUS
 62
     3
100
AcDbLine
 10
163.0
 20
501.450061
 30
0.0
 11
175.0
 21
501.450061
 31
0.0
  0
LINE
  5
A0
100
AcDbEntity
  8
LAY-1
  6
CONTINUOUS
 62
     3
100
AcDbLine
 10
175.0
 20
513.050036
 30
0.0
 11
175.0
 21
509.850024
 31
0.0
  0
LINE
  5
A1
100
AcDbEntity
  8
LAY-1
  6
CONTINUOUS
 62
     3
100
AcDbLine
 10
163.0
 20
513.050036
 30
0.0
 11
163.0
 21
509.750048
 31
0.0
  0
LINE
  5
A2
100
AcDbEntity
  8
LAY-1
  6
CONTINUOUS
 62
     3
100
AcDbLine
 10
175.0
 20
501.349963
 30
0.0
 11
175.0
 21
504.549975
 31
0.0
  0
LINE
  5
A3
100
AcDbEntity
  8
LAY-1
  6
CONTINUOUS
 62
     3
100
AcDbLine
 10
163.0
 20
501.349963
 30
0.0
 11
163.0
 21
504.649951
 31
0.0
  0
LINE
  5
A4
100
AcDbEntity
  8
LAY-1
  6
CONTINUOUS
 62
     3
100
AcDbLine
 10
172.5
 20
509.750048
 30
0.0
 11
172.5
 21
509.45
 31
0.0
  0
LINE
  5
A5
100
AcDbEntity
  8
LAY-1
  6
CONTINUOUS
 62
     3
100
AcDbLine
 10
165.5
 20
509.750048
 30
0.0
 11
165.5
 21
509.45
 31
0.0
  0
LINE
  5
A6
100
AcDbEntity
  8
LAY-1
  6
CONTINUOUS
 62
     3
100
AcDbLine
 10
172.5
 20
504.95
 30
0.0
 11
172.5
 21
504.650073
 31
0.0
  0
LINE
  5
A7
100
AcDbEntity
  8
LAY-1
  6
CONTINUOUS
 62
     3
100
AcDbLine
 10
165.5
 20
504.95
 30
0.0
 11
165.5
 21
504.650073
 31
0.0
  0
CIRCLE
  5
A8
100
AcDbEntity
  8
LAY-1
  6
CONTINUOUS
 62
     3
100
AcDbCircle
 10
89.0
 20
507.199938
 30
0.0
 40
9.45
  0
CIRCLE
  5
A9
100
AcDbEntity
  8
LAY-1
  6
DASHED2
 62
     3
100
AcDbCircle
 10
114.0
 20
516.2
 30
0.0
 40
6.0
  0
CIRCLE
  5
AA
100
AcDbEntity
  8
LAY-1
  6
CONTINUOUS
 62
     3
100
AcDbCircle
 10
114.0
 20
516.2
 30
0.0
 40
3.35
  0
CIRCLE
  5
AB
100
AcDbEntity
  8
LAY-1
  6
DASHED2
 62
     3
100
AcDbCircle
 10
134.0
 20
498.2
 30
0.0
 40
6.0
  0
CIRCLE
  5
AC
100
AcDbEntity
  8
LAY-1
  6
CONTINUOUS
 62
     3
100
AcDbCircle
 10
134.0
 20
498.2
 30
0.0
 40
3.35
  0
LINE
  5
AD
100
AcDbEntity
  8
LAY-1
  6
CONTINUOUS
 62
     3
100
AcDbLine
 10
73.0
 20
491.200061
 30
0.0
 11
73.0
 21
523.2
 31
0.0
  0
LINE
  5
AE
100
AcDbEntity
  8
LAY-1
  6
CONTINUOUS
 62
     3
100
AcDbLine
 10
73.0
 20
523.2
 30
0.0
 11
224.0
 21
523.2
 31
0.0
  0
LINE
  5
AF
100
AcDbEntity
  8
LAY-1
  6
CONTINUOUS
 62
     3
100
AcDbLine
 10
73.0
 20
491.200061
 30
0.0
 11
224.0
 21
491.200061
 31
0.0
  0
LINE
  5
B0
100
AcDbEntity
  8
LAY-1
  6
DIVIDE
 62
     1
100
AcDbLine
 10
68.0
 20
525.7
 30
0.0
 11
68.0
 21
488.700061
 31
0.0
  0
LINE
  5
B1
100
AcDbEntity
  8
LAY-1
  6
DIVIDE
 62
     1
100
AcDbLine
 10
68.0
 20
525.700061
 30
0.0
 11
230.0
 21
525.7
 31
0.0
  0
LINE
  5
B2
100
AcDbEntity
  8
LAY-1
  6
DIVIDE
 62
     1
100
AcDbLine
 10
230.0
 20
488.7
 30
0.0
 11
68.0
 21
488.7
 31
0.0
  0
LINE
  5
B3
100
AcDbEntity
  8
LAY-1
  6
CONTINUOUS
 62
     3
100
AcDbLine
 10
224.0
 20
391.000078
 30
0.0
 11
224.0
 21
397.000078
 31
0.0
  0
ARC
  5
B4
100
AcDbEntity
  8
LAY-1
  6
CONTINUOUS
 62
     3
100
AcDbCircle
 10
168.99997
 20
408.500078
 30
0.0
 40
6.0
100
AcDbArc
 50
0.0
 51
180.00002
  0
ARC
  5
B5
100
AcDbEntity
  8
LAY-1
  6
CONTINUOUS
 62
     3
100
AcDbCircle
 10
189.99997
 20
412.500078
 30
0.0
 40
6.0
100
AcDbArc
 50
305.685646
 51
234.314969
  0
LINE
  5
B6
100
AcDbEntity
  8
LAY-1
  6
CONTINUOUS
 62
     3
100
AcDbLine
 10
184.899994
 20
397.000139
 30
0.0
 11
184.899994
 21
403.000139
 31
0.0
  0
LINE
  5
B7
100
AcDbEntity
  8
LAY-1
  6
CONTINUOUS
 62
     3
100
AcDbLine
 10
195.100007
 20
397.000139
 30
0.0
 11
195.100007
 21
403.000139
 31
0.0
  0
LINE
  5
B8
100
AcDbEntity
  8
LAY-1
  6
CONTINUOUS
 62
     3
100
AcDbLine
 10
184.899994
 20
403.000139
 30
0.0
 11
195.100007
 21
403.000139
 31
0.0
  0
LINE
  5
B9
100
AcDbEntity
  8
LAY-1
  6
CONTINUOUS
 62
     1
100
AcDbLine
 10
185.5
 20
397.000139
 30
0.0
 11
185.5
 21
403.000139
 31
0.0
  0
LINE
  5
BA
100
AcDbEntity
  8
LAY-1
  6
CONTINUOUS
 62
     1
100
AcDbLine
 10
194.5
 20
397.000139
 30
0.0
 11
194.5
 21
403.000139
 31
0.0
  0
LINE
  5
BB
100
AcDbEntity
  8
LAY-1
  6
CONTINUOUS
 62
     3
100
AcDbLine
 10
186.5
 20
407.626665
 30
0.0
 11
186.5
 21
403.000139
 31
0.0
  0
LINE
  5
BC
100
AcDbEntity
  8
LAY-1
  6
CONTINUOUS
 62
     3
100
AcDbLine
 10
193.5
 20
407.626665
 30
0.0
 11
193.5
 21
403.000139
 31
0.0
  0
LINE
  5
BD
100
AcDbEntity
  8
LAY-1
  6
CONTINUOUS
 62
     3
100
AcDbLine
 10
186.5
 20
407.626665
 30
0.0
 11
193.500031
 21
407.626665
 31
0.0
  0
LINE
  5
BE
100
AcDbEntity
  8
LAY-1
  6
CONTINUOUS
 62
     3
100
AcDbLine
 10
174.99997
 20
408.500078
 30
0.0
 11
174.99997
 21
397.000139
 31
0.0
  0
LINE
  5
BF
100
AcDbEntity
  8
LAY-1
  6
CONTINUOUS
 62
     3
100
AcDbLine
 10
162.99997
 20
408.500078
 30
0.0
 11
162.99997
 21
397.000139
 31
0.0
  0
ARC
  5
C0
100
AcDbEntity
  8
LAY-1
  6
CONTINUOUS
 62
     3
100
AcDbCircle
 10
189.99997
 20
412.500078
 30
0.0
 40
11.0
100
AcDbArc
 50
333.214091
 51
359.999982
  0
ARC
  5
C1
100
AcDbEntity
  8
LAY-1
  6
CONTINUOUS
 62
     3
100
AcDbCircle
 10
188.99997
 20
415.000078
 30
0.0
 40
12.0
100
AcDbArc
 50
0.0
 51
94.76361
  0
LINE
  5
C2
100
AcDbEntity
  8
LAY-1
  6
CONTINUOUS
 62
     3
100
AcDbLine
 10
200.99997
 20
415.000078
 30
0.0
 11
200.99997
 21
412.500078
 31
0.0
  0
ARC
  5
C3
100
AcDbEntity
  8
LAY-1
  6
CONTINUOUS
 62
     3
100
AcDbCircle
 10
197.606629
 20
408.896623
 30
0.0
 40
2.5
100
AcDbArc
 50
180.00002
 51
328.367269
  0
LINE
  5
C4
100
AcDbEntity
  8
LAY-1
  6
CONTINUOUS
 62
     3
100
AcDbLine
 10
187.99997
 20
427.000078
 30
0.0
 11
100.99997
 21
404.500078
 31
0.0
  0
LINE
  5
C5
100
AcDbEntity
  8
LAY-1
  6
CONTINUOUS
 62
     3
100
AcDbLine
 10
185.99997
 20
408.02791
 30
0.0
 11
185.99997
 21
405.292131
 31
0.0
  0
LINE
  5
C6
100
AcDbEntity
  8
LAY-1
  6
CONTINUOUS
 62
     3
100
AcDbLine
 10
174.99997
 20
401.911882
 30
0.0
 11
185.229004
 21
404.318681
 31
0.0
  0
ARC
  5
C7
100
AcDbEntity
  8
LAY-1
  6
CONTINUOUS
 62
     3
100
AcDbCircle
 10
184.99997
 20
405.292131
 30
0.0
 40
1.0
100
AcDbArc
 50
283.240597
 51
359.999982
  0
LINE
  5
C8
100
AcDbEntity
  8
LAY-1
  6
CONTINUOUS
 62
     3
100
AcDbLine
 10
162.99997
 20
400.323625
 30
0.0
 11
153.270569
 21
400.03737
 31
0.0
  0
LINE
  5
C9
100
AcDbEntity
  8
LAY-1
  6
CONTINUOUS
 62
     3
100
AcDbLine
 10
104.0
 20
398.588304
 30
0.0
 11
100.99997
 21
398.500078
 31
0.0
  0
ARC
  5
CA
100
AcDbEntity
  8
LAY-1
  6
CONTINUOUS
 62
     3
100
AcDbCircle
 10
153.299973
 20
399.037858
 30
0.0
 40
1.0
100
AcDbArc
 50
91.684764
 51
180.00002
  0
LINE
  5
CB
100
AcDbEntity
  8
LAY-1
  6
CONTINUOUS
 62
     3
100
AcDbLine
 10
152.299973
 20
399.037858
 30
0.0
 11
152.299973
 21
397.000078
 31
0.0
  0
LINE
  5
CC
100
AcDbEntity
  8
LAY-1
  6
CONTINUOUS
 62
     3
100
AcDbLine
 10
144.604187
 20
399.288286
 30
0.0
 11
146.038651
 21
397.000078
 31
0.0
  0
LINE
  5
CD
100
AcDbEntity
  8
LAY-1
  6
CONTINUOUS
 62
     3
100
AcDbLine
 10
100.99997
 20
404.500078
 30
0.0
 11
98.500016
 21
404.500078
 31
0.0
  0
LINE
  5
CE
100
AcDbEntity
  8
LAY-1
  6
CONTINUOUS
 62
     3
100
AcDbLine
 10
100.99997
 20
398.500078
 30
0.0
 11
98.500016
 21
398.500078
 31
0.0
  0
LINE
  5
CF
100
AcDbEntity
  8
LAY-1
  6
CONTINUOUS
 62
     3
100
AcDbLine
 10
79.550019
 20
397.000139
 30
0.0
 11
79.550019
 21
429.000139
 31
0.0
  0
LINE
  5
D0
100
AcDbEntity
  8
LAY-1
  6
CONTINUOUS
 62
     3
100
AcDbLine
 10
98.450013
 20
397.000139
 30
0.0
 11
98.450013
 21
429.000139
 31
0.0
  0
LINE
  5
D1
100
AcDbEntity
  8
LAY-1
  6
CONTINUOUS
 62
     3
100
AcDbLine
 10
79.550019
 20
429.000139
 30
0.0
 11
98.450013
 21
429.000139
 31
0.0
  0
LINE
  5
D2
100
AcDbEntity
  8
LAY-1
  6
DASHED2
 62
     3
100
AcDbLine
 10
108.0
 20
391.000078
 30
0.0
 11
119.999985
 21
391.000078
 31
0.0
  0
LINE
  5
D3
100
AcDbEntity
  8
LAY-1
  6
DASHED2
 62
     3
100
AcDbLine
 10
119.999985
 20
391.400102
 30
0.0
 11
108.0
 21
391.400102
 31
0.0
  0
LINE
  5
D4
100
AcDbEntity
  8
LAY-1
  6
DASHED2
 62
     3
100
AcDbLine
 10
117.349991
 20
394.400102
 30
0.0
 11
110.649964
 21
394.400102
 31
0.0
  0
LINE
  5
D5
100
AcDbEntity
  8
LAY-1
  6
DASHED2
 62
     3
100
AcDbLine
 10
110.649964
 20
394.400102
 30
0.0
 11
108.0
 21
391.400102
 31
0.0
  0
LINE
  5
D6
100
AcDbEntity
  8
LAY-1
  6
DASHED2
 62
     3
100
AcDbLine
 10
117.349991
 20
394.400102
 30
0.0
 11
119.999985
 21
391.400102
 31
0.0
  0
LINE
  5
D7
100
AcDbEntity
  8
LAY-1
  6
DASHED2
 62
     3
100
AcDbLine
 10
108.0
 20
391.400102
 30
0.0
 11
108.0
 21
391.000078
 31
0.0
  0
LINE
  5
D8
100
AcDbEntity
  8
LAY-1
  6
DASHED2
 62
     3
100
AcDbLine
 10
119.999985
 20
391.400102
 30
0.0
 11
119.999985
 21
391.000078
 31
0.0
  0
LINE
  5
D9
100
AcDbEntity
  8
LAY-1
  6
DASHED2
 62
     3
100
AcDbLine
 10
110.649964
 20
407.000078
 30
0.0
 11
117.349991
 21
407.000078
 31
0.0
  0
LINE
  5
DA
100
AcDbEntity
  8
LAY-1
  6
DASHED2
 62
     3
100
AcDbLine
 10
128.0
 20
391.000078
 30
0.0
 11
139.999985
 21
391.000078
 31
0.0
  0
LINE
  5
DB
100
AcDbEntity
  8
LAY-1
  6
DASHED2
 62
     3
100
AcDbLine
 10
139.999985
 20
391.400102
 30
0.0
 11
128.0
 21
391.400102
 31
0.0
  0
LINE
  5
DC
100
AcDbEntity
  8
LAY-1
  6
DASHED2
 62
     3
100
AcDbLine
 10
137.349991
 20
394.400102
 30
0.0
 11
130.649964
 21
394.400102
 31
0.0
  0
LINE
  5
DD
100
AcDbEntity
  8
LAY-1
  6
DASHED2
 62
     3
100
AcDbLine
 10
130.649964
 20
394.400102
 30
0.0
 11
128.0
 21
391.400102
 31
0.0
  0
LINE
  5
DE
100
AcDbEntity
  8
LAY-1
  6
DASHED2
 62
     3
100
AcDbLine
 10
137.349991
 20
394.400102
 30
0.0
 11
139.999985
 21
391.400102
 31
0.0
  0
LINE
  5
DF
100
AcDbEntity
  8
LAY-1
  6
DASHED2
 62
     3
100
AcDbLine
 10
128.0
 20
391.400102
 30
0.0
 11
128.0
 21
391.000078
 31
0.0
  0
LINE
  5
E0
100
AcDbEntity
  8
LAY-1
  6
DASHED2
 62
     3
100
AcDbLine
 10
139.999985
 20
391.400102
 30
0.0
 11
139.999985
 21
391.000078
 31
0.0
  0
LINE
  5
E1
100
AcDbEntity
  8
LAY-1
  6
CONTINUOUS
 62
     3
100
AcDbLine
 10
130.649964
 20
407.000078
 30
0.0
 11
137.349991
 21
407.000078
 31
0.0
  0
LINE
  5
E2
100
AcDbEntity
  8
LAY-1
  6
CONTINUOUS
 62
     3
100
AcDbLine
 10
130.649979
 20
401.500078
 30
0.0
 11
130.649964
 21
407.000078
 31
0.0
  0
LINE
  5
E3
100
AcDbEntity
  8
LAY-1
  6
CONTINUOUS
 62
     3
100
AcDbLine
 10
137.349991
 20
401.500078
 30
0.0
 11
137.349991
 21
407.000078
 31
0.0
  0
LINE
  5
E4
100
AcDbEntity
  8
LAY-1
  6
CONTINUOUS
 62
     1
100
AcDbLine
 10
131.399979
 20
401.500078
 30
0.0
 11
131.399964
 21
407.000078
 31
0.0
  0
LINE
  5
E5
100
AcDbEntity
  8
LAY-1
  6
CONTINUOUS
 62
     1
100
AcDbLine
 10
136.599976
 20
401.500078
 30
0.0
 11
136.599991
 21
407.000078
 31
0.0
  0
LINE
  5
E6
100
AcDbEntity
  8
LAY-1
  6
DASHED2
 62
     3
100
AcDbLine
 10
130.649979
 20
401.500078
 30
0.0
 11
130.649964
 21
394.400102
 31
0.0
  0
LINE
  5
E7
100
AcDbEntity
  8
LAY-1
  6
DASHED2
 62
     3
100
AcDbLine
 10
137.349991
 20
401.500078
 30
0.0
 11
137.349991
 21
394.400102
 31
0.0
  0
LINE
  5
E8
100
AcDbEntity
  8
LAY-1
  6
DASHED2
 62
     1
100
AcDbLine
 10
131.399979
 20
401.500078
 30
0.0
 11
131.399964
 21
394.400102
 31
0.0
  0
LINE
  5
E9
100
AcDbEntity
  8
LAY-1
  6
DASHED2
 62
     1
100
AcDbLine
 10
136.599976
 20
401.500078
 30
0.0
 11
136.599961
 21
394.400102
 31
0.0
  0
LINE
  5
EA
100
AcDbEntity
  8
LAY-1
  6
DASHED2
 62
     3
100
AcDbLine
 10
110.649979
 20
401.500078
 30
0.0
 11
110.649964
 21
407.000078
 31
0.0
  0
LINE
  5
EB
100
AcDbEntity
  8
LAY-1
  6
DASHED2
 62
     3
100
AcDbLine
 10
117.349991
 20
401.500078
 30
0.0
 11
117.349991
 21
407.000078
 31
0.0
  0
LINE
  5
EC
100
AcDbEntity
  8
LAY-1
  6
DASHED2
 62
     1
100
AcDbLine
 10
111.399979
 20
401.500078
 30
0.0
 11
111.399964
 21
407.000078
 31
0.0
  0
LINE
  5
ED
100
AcDbEntity
  8
LAY-1
  6
DASHED2
 62
     1
100
AcDbLine
 10
116.599976
 20
401.500078
 30
0.0
 11
116.599991
 21
407.000078
 31
0.0
  0
LINE
  5
EE
100
AcDbEntity
  8
LAY-1
  6
DASHED2
 62
     3
100
AcDbLine
 10
110.649994
 20
401.500078
 30
0.0
 11
110.649964
 21
394.400102
 31
0.0
  0
LINE
  5
EF
100
AcDbEntity
  8
LAY-1
  6
DASHED2
 62
     3
100
AcDbLine
 10
117.349991
 20
401.500078
 30
0.0
 11
117.349991
 21
394.400102
 31
0.0
  0
LINE
  5
F0
100
AcDbEntity
  8
LAY-1
  6
DASHED2
 62
     1
100
AcDbLine
 10
111.399994
 20
401.500078
 30
0.0
 11
111.399964
 21
394.400102
 31
0.0
  0
LINE
  5
F1
100
AcDbEntity
  8
LAY-1
  6
DASHED2
 62
     1
100
AcDbLine
 10
116.599991
 20
401.500078
 30
0.0
 11
116.599961
 21
394.400102
 31
0.0
  0
LINE
  5
F2
100
AcDbEntity
  8
LAY-1
  6
CONTINUOUS
 62
     1
100
AcDbLine
 10
205.0
 20
397.000047
 30
0.0
 11
205.0
 21
401.500078
 31
0.0
  0
LINE
  5
F3
100
AcDbEntity
  8
LAY-1
  6
CONTINUOUS
 62
     1
100
AcDbLine
 10
205.0
 20
401.500078
 30
0.0
 11
224.0
 21
401.500078
 31
0.0
  0
LINE
  5
F4
100
AcDbEntity
  8
LAY-1
  6
CONTINUOUS
 62
     1
100
AcDbLine
 10
224.0
 20
401.500078
 30
0.0
 11
224.0
 21
397.000078
 31
0.0
  0
LINE
  5
F5
100
AcDbEntity
  8
LAY-1
  6
CONTINUOUS
 62
     3
100
AcDbLine
 10
73.0
 20
391.000078
 30
0.0
 11
73.0
 21
397.000078
 31
0.0
  0
LINE
  5
F6
100
AcDbEntity
  8
LAY-1
  6
CONTINUOUS
 62
     3
100
AcDbLine
 10
73.0
 20
397.000078
 30
0.0
 11
224.0
 21
397.000078
 31
0.0
  0
LINE
  5
F7
100
AcDbEntity
  8
LAY-1
  6
CONTINUOUS
 62
     3
100
AcDbLine
 10
230.0
 20
391.000078
 30
0.0
 11
230.0
 21
390.200078
 31
0.0
  0
LINE
  5
F8
100
AcDbEntity
  8
LAY-1
  6
DASHED2
 62
     3
100
AcDbLine
 10
204.99997
 20
391.400041
 30
0.0
 11
216.99997
 21
391.400041
 31
0.0
  0
LINE
  5
F9
100
AcDbEntity
  8
LAY-1
  6
DASHED2
 62
     3
100
AcDbLine
 10
207.649964
 20
394.400041
 30
0.0
 11
214.350007
 21
394.400041
 31
0.0
  0
LINE
  5
FA
100
AcDbEntity
  8
LAY-1
  6
DASHED2
 62
     3
100
AcDbLine
 10
214.350007
 20
394.400041
 30
0.0
 11
216.99997
 21
391.400041
 31
0.0
  0
LINE
  5
FB
100
AcDbEntity
  8
LAY-1
  6
DASHED2
 62
     3
100
AcDbLine
 10
207.649964
 20
394.400041
 30
0.0
 11
204.99997
 21
391.400041
 31
0.0
  0
LINE
  5
FC
100
AcDbEntity
  8
LAY-1
  6
CONTINUOUS
 62
     3
100
AcDbLine
 10
214.349976
 20
407.000078
 30
0.0
 11
207.649964
 21
407.000078
 31
0.0
  0
LINE
  5
FD
100
AcDbEntity
  8
LAY-1
  6
CONTINUOUS
 62
     3
100
AcDbLine
 10
214.349976
 20
401.500078
 30
0.0
 11
214.349976
 21
407.000078
 31
0.0
  0
LINE
  5
FE
100
AcDbEntity
  8
LAY-1
  6
CONTINUOUS
 62
     3
100
AcDbLine
 10
207.649964
 20
401.500078
 30
0.0
 11
207.649964
 21
407.000078
 31
0.0
  0
LINE
  5
FF
100
AcDbEntity
  8
LAY-1
  6
CONTINUOUS
 62
     1
100
AcDbLine
 10
213.599994
 20
401.500078
 30
0.0
 11
213.599976
 21
407.000078
 31
0.0
  0
LINE
  5
100
100
AcDbEntity
  8
LAY-1
  6
CONTINUOUS
 62
     1
100
AcDbLine
 10
208.399982
 20
401.500078
 30
0.0
 11
208.399964
 21
407.000078
 31
0.0
  0
LINE
  5
101
100
AcDbEntity
  8
LAY-1
  6
DASHED2
 62
     3
100
AcDbLine
 10
214.349976
 20
401.500078
 30
0.0
 11
214.349976
 21
394.400041
 31
0.0
  0
LINE
  5
102
100
AcDbEntity
  8
LAY-1
  6
DASHED2
 62
     3
100
AcDbLine
 10
207.649964
 20
401.500078
 30
0.0
 11
207.649964
 21
394.400041
 31
0.0
  0
LINE
  5
103
100
AcDbEntity
  8
LAY-1
  6
DASHED2
 62
     1
100
AcDbLine
 10
213.600007
 20
401.500078
 30
0.0
 11
213.600007
 21
394.400041
 31
0.0
  0
LINE
  5
104
100
AcDbEntity
  8
LAY-1
  6
DASHED2
 62
     1
100
AcDbLine
 10
208.399994
 20
401.500078
 30
0.0
 11
208.399994
 21
394.400041
 31
0.0
  0
LINE
  5
105
100
AcDbEntity
  8
LAY-1
  6
DASHED2
 62
     3
100
AcDbLine
 10
216.99997
 20
391.000078
 30
0.0
 11
216.99997
 21
391.400041
 31
0.0
  0
LINE
  5
106
100
AcDbEntity
  8
LAY-1
  6
DASHED2
 62
     3
100
AcDbLine
 10
204.99997
 20
391.000078
 30
0.0
 11
204.99997
 21
391.400041
 31
0.0
  0
LINE
  5
107
100
AcDbEntity
  8
LAY-1
  6
CONTINUOUS
 62
     3
100
AcDbLine
 10
95.249985
 20
390.200012
 30
0.0
 11
95.249985
 21
388.0
 31
0.0
  0
LINE
  5
108
100
AcDbEntity
  8
LAY-1
  6
CONTINUOUS
 62
     3
100
AcDbLine
 10
82.749985
 20
390.200012
 30
0.0
 11
82.749985
 21
388.0
 31
0.0
  0
LINE
  5
109
100
AcDbEntity
  8
LAY-1
  6
CONTINUOUS
 62
     3
100
AcDbLine
 10
69.0
 20
391.000078
 30
0.0
 11
69.0
 21
390.200078
 31
0.0
  0
LINE
  5
10A
100
AcDbEntity
  8
LAY-1
  6
CONTINUOUS
 62
     3
100
AcDbLine
 10
230.0
 20
390.200078
 30
0.0
 11
69.0
 21
390.200078
 31
0.0
  0
LINE
  5
10B
100
AcDbEntity
  8
LAY-1
  6
CONTINUOUS
 62
     3
100
AcDbLine
 10
230.0
 20
391.000078
 30
0.0
 11
69.0
 21
391.000078
 31
0.0
  0
LINE
  5
10C
100
AcDbEntity
  8
LAY-1
  6
CONTINUOUS
 62
     3
100
AcDbLine
 10
744.1
 20
391.000163
 30
0.0
 11
707.1
 21
391.000163
 31
0.0
  0
LINE
  5
10D
100
AcDbEntity
  8
LAY-1
  6
CONTINUOUS
 62
     3
100
AcDbLine
 10
741.6
 20
397.000163
 30
0.0
 11
709.6
 21
397.000163
 31
0.0
  0
LINE
  5
10E
100
AcDbEntity
  8
LAY-1
  6
CONTINUOUS
 62
     3
100
AcDbLine
 10
744.1
 20
390.200163
 30
0.0
 11
707.1
 21
390.200163
 31
0.0
  0
LINE
  5
10F
100
AcDbEntity
  8
LAY-1
  6
CONTINUOUS
 62
     3
100
AcDbLine
 10
707.1
 20
390.200163
 30
0.0
 11
707.1
 21
391.000193
 31
0.0
  0
LINE
  5
110
100
AcDbEntity
  8
LAY-1
  6
CONTINUOUS
 62
     3
100
AcDbLine
 10
744.1
 20
390.200163
 30
0.0
 11
744.1
 21
391.000193
 31
0.0
  0
LINE
  5
111
100
AcDbEntity
  8
LAY-1
  6
CONTINUOUS
 62
     3
100
AcDbLine
 10
735.1
 20
429.000163
 30
0.0
 11
716.1
 21
429.000163
 31
0.0
  0
LINE
  5
112
100
AcDbEntity
  8
LAY-1
  6
CONTINUOUS
 62
     3
100
AcDbLine
 10
709.6
 20
397.000193
 30
0.0
 11
709.6
 21
391.000193
 31
0.0
  0
LINE
  5
113
100
AcDbEntity
  8
LAY-1
  6
CONTINUOUS
 62
     3
100
AcDbLine
 10
741.6
 20
397.000163
 30
0.0
 11
741.6
 21
391.000163
 31
0.0
  0
LINE
  5
114
100
AcDbEntity
  8
LAY-1
  6
CONTINUOUS
 62
     3
100
AcDbLine
 10
731.849985
 20
390.200097
 30
0.0
 11
731.849985
 21
388.000085
 31
0.0
  0
LINE
  5
115
100
AcDbEntity
  8
LAY-1
  6
CONTINUOUS
 62
     3
100
AcDbLine
 10
719.349985
 20
390.200097
 30
0.0
 11
719.349985
 21
388.000085
 31
0.0
  0
LINE
  5
116
100
AcDbEntity
  8
LAY-1
  6
CONTINUOUS
 62
     3
100
AcDbLine
 10
735.1
 20
397.000163
 30
0.0
 11
735.1
 21
429.000163
 31
0.0
  0
LINE
  5
117
100
AcDbEntity
  8
LAY-1
  6
CONTINUOUS
 62
     3
100
AcDbLine
 10
716.1
 20
397.000163
 30
0.0
 11
716.1
 21
429.000163
 31
0.0
  0
CIRCLE
  5
118
100
AcDbEntity
  8
LAY-2
  6
CONTINUOUS
 62
     3
100
AcDbCircle
 10
381.0
 20
507.199939
 30
0.0
 40
6.25
  0
LINE
  5
119
100
AcDbEntity
  8
LAY-2
  6
CONTINUOUS
 62
     3
100
AcDbLine
 10
365.0
 20
491.2
 30
0.0
 11
365.0
 21
523.2
 31
0.0
  0
LINE
  5
11A
100
AcDbEntity
  8
LAY-2
  6
CONTINUOUS
 62
     3
100
AcDbLine
 10
516.0
 20
523.2
 30
0.0
 11
516.0
 21
491.2
 31
0.0
  0
LINE
  5
11B
100
AcDbEntity
  8
LAY-2
  6
CONTINUOUS
 62
     3
100
AcDbLine
 10
365.0
 20
523.2
 30
0.0
 11
516.0
 21
523.2
 31
0.0
  0
LINE
  5
11C
100
AcDbEntity
  8
LAY-2
  6
CONTINUOUS
 62
     3
100
AcDbLine
 10
365.0
 20
491.2
 30
0.0
 11
516.0
 21
491.2
 31
0.0
  0
CIRCLE
  5
11D
100
AcDbEntity
  8
LAY-2
  6
CONTINUOUS
 62
     3
100
AcDbCircle
 10
411.0
 20
515.2
 30
0.0
 40
6.0
  0
CIRCLE
  5
11E
100
AcDbEntity
  8
LAY-2
  6
CONTINUOUS
 62
     3
100
AcDbCircle
 10
411.0
 20
515.2
 30
0.0
 40
3.0
  0
CIRCLE
  5
11F
100
AcDbEntity
  8
LAY-2
  6
CONTINUOUS
 62
     3
100
AcDbCircle
 10
457.0
 20
499.2
 30
0.0
 40
6.0
  0
CIRCLE
  5
120
100
AcDbEntity
  8
LAY-2
  6
CONTINUOUS
 62
     3
100
AcDbCircle
 10
457.0
 20
499.2
 30
0.0
 40
3.0
  0
CIRCLE
  5
121
100
AcDbEntity
  8
LAY-2
  6
CONTINUOUS
 62
     3
100
AcDbCircle
 10
503.0
 20
515.2
 30
0.0
 40
6.0
  0
CIRCLE
  5
122
100
AcDbEntity
  8
LAY-2
  6
CONTINUOUS
 62
     3
100
AcDbCircle
 10
503.0
 20
515.2
 30
0.0
 40
3.0
  0
CIRCLE
  5
123
100
AcDbEntity
  8
LAY-2
  6
CONTINUOUS
 62
     3
100
AcDbCircle
 10
381.000061
 20
507.2
 30
0.0
 40
12.0
  0
LINE
  5
124
100
AcDbEntity
  8
LAY-2
  6
CONTINUOUS
 62
     3
100
AcDbLine
 10
73.0
 20
388.000078
 30
0.0
 11
224.0
 21
388.000078
 31
0.0
  0
LINE
  5
125
100
AcDbEntity
  8
LAY-2
  6
DASHED2
 62
     3
100
AcDbLine
 10
158.99997
 20
387.600084
 30
0.0
 11
170.99997
 21
387.600084
 31
0.0
  0
LINE
  5
126
100
AcDbEntity
  8
LAY-2
  6
DASHED2
 62
     3
100
AcDbLine
 10
161.649964
 20
384.600084
 30
0.0
 11
168.350007
 21
384.600084
 31
0.0
  0
LINE
  5
127
100
AcDbEntity
  8
LAY-2
  6
DASHED2
 62
     3
100
AcDbLine
 10
168.350007
 20
384.600084
 30
0.0
 11
170.99997
 21
387.600084
 31
0.0
  0
LINE
  5
128
100
AcDbEntity
  8
LAY-2
  6
DASHED2
 62
     3
100
AcDbLine
 10
161.649964
 20
384.600084
 30
0.0
 11
158.99997
 21
387.600084
 31
0.0
  0
LINE
  5
129
100
AcDbEntity
  8
LAY-2
  6
CONTINUOUS
 62
     3
100
AcDbLine
 10
168.349976
 20
372.000047
 30
0.0
 11
161.649964
 21
372.000047
 31
0.0
  0
LINE
  5
12A
100
AcDbEntity
  8
LAY-2
  6
CONTINUOUS
 62
     3
100
AcDbLine
 10
168.349976
 20
377.500108
 30
0.0
 11
168.349976
 21
372.000047
 31
0.0
  0
LINE
  5
12B
100
AcDbEntity
  8
LAY-2
  6
CONTINUOUS
 62
     3
100
AcDbLine
 10
161.649964
 20
377.500108
 30
0.0
 11
161.649964
 21
372.000047
 31
0.0
  0
LINE
  5
12C
100
AcDbEntity
  8
LAY-2
  6
CONTINUOUS
 62
     1
100
AcDbLine
 10
167.599991
 20
377.500108
 30
0.0
 11
167.599976
 21
372.000047
 31
0.0
  0
LINE
  5
12D
100
AcDbEntity
  8
LAY-2
  6
CONTINUOUS
 62
     1
100
AcDbLine
 10
162.399979
 20
377.500108
 30
0.0
 11
162.399964
 21
372.000047
 31
0.0
  0
LINE
  5
12E
100
AcDbEntity
  8
LAY-2
  6
DASHED2
 62
     3
100
AcDbLine
 10
168.349976
 20
377.500108
 30
0.0
 11
168.349976
 21
384.600084
 31
0.0
  0
LINE
  5
12F
100
AcDbEntity
  8
LAY-2
  6
DASHED2
 62
     3
100
AcDbLine
 10
161.649964
 20
377.500108
 30
0.0
 11
161.649964
 21
384.600084
 31
0.0
  0
LINE
  5
130
100
AcDbEntity
  8
LAY-2
  6
DASHED2
 62
     1
100
AcDbLine
 10
167.600007
 20
377.500108
 30
0.0
 11
167.600007
 21
384.600084
 31
0.0
  0
LINE
  5
131
100
AcDbEntity
  8
LAY-2
  6
DASHED2
 62
     1
100
AcDbLine
 10
162.399994
 20
377.500108
 30
0.0
 11
162.399994
 21
384.600084
 31
0.0
  0
LINE
  5
132
100
AcDbEntity
  8
LAY-2
  6
DASHED2
 62
     3
100
AcDbLine
 10
170.99997
 20
388.000047
 30
0.0
 11
170.99997
 21
387.600084
 31
0.0
  0
LINE
  5
133
100
AcDbEntity
  8
LAY-2
  6
DASHED2
 62
     3
100
AcDbLine
 10
158.99997
 20
388.000078
 30
0.0
 11
158.99997
 21
387.600084
 31
0.0
  0
LINE
  5
134
100
AcDbEntity
  8
LAY-2
  6
DASHED2
 62
     3
100
AcDbLine
 10
112.99997
 20
387.600084
 30
0.0
 11
124.99997
 21
387.600084
 31
0.0
  0
LINE
  5
135
100
AcDbEntity
  8
LAY-2
  6
DASHED2
 62
     3
100
AcDbLine
 10
115.649964
 20
384.600084
 30
0.0
 11
122.350007
 21
384.600084
 31
0.0
  0
LINE
  5
136
100
AcDbEntity
  8
LAY-2
  6
DASHED2
 62
     3
100
AcDbLine
 10
122.350007
 20
384.600084
 30
0.0
 11
124.99997
 21
387.600084
 31
0.0
  0
LINE
  5
137
100
AcDbEntity
  8
LAY-2
  6
DASHED2
 62
     3
100
AcDbLine
 10
115.649964
 20
384.600084
 30
0.0
 11
112.99997
 21
387.600084
 31
0.0
  0
LINE
  5
138
100
AcDbEntity
  8
LAY-2
  6
CONTINUOUS
 62
     3
100
AcDbLine
 10
122.349976
 20
372.000047
 30
0.0
 11
115.649964
 21
372.000047
 31
0.0
  0
LINE
  5
139
100
AcDbEntity
  8
LAY-2
  6
CONTINUOUS
 62
     3
100
AcDbLine
 10
122.349976
 20
377.500108
 30
0.0
 11
122.349976
 21
372.000047
 31
0.0
  0
LINE
  5
13A
100
AcDbEntity
  8
LAY-2
  6
CONTINUOUS
 62
     3
100
AcDbLine
 10
115.649964
 20
377.500108
 30
0.0
 11
115.649964
 21
372.000047
 31
0.0
  0
LINE
  5
13B
100
AcDbEntity
  8
LAY-2
  6
CONTINUOUS
 62
     1
100
AcDbLine
 10
121.599991
 20
377.500108
 30
0.0
 11
121.599976
 21
372.000047
 31
0.0
  0
LINE
  5
13C
100
AcDbEntity
  8
LAY-2
  6
CONTINUOUS
 62
     1
100
AcDbLine
 10
116.399979
 20
377.500108
 30
0.0
 11
116.399964
 21
372.000047
 31
0.0
  0
LINE
  5
13D
100
AcDbEntity
  8
LAY-2
  6
DASHED2
 62
     3
100
AcDbLine
 10
122.349976
 20
377.500108
 30
0.0
 11
122.349976
 21
384.600084
 31
0.0
  0
LINE
  5
13E
100
AcDbEntity
  8
LAY-2
  6
DASHED2
 62
     3
100
AcDbLine
 10
115.649964
 20
377.500108
 30
0.0
 11
115.649964
 21
384.600084
 31
0.0
  0
LINE
  5
13F
100
AcDbEntity
  8
LAY-2
  6
DASHED2
 62
     1
100
AcDbLine
 10
121.600007
 20
377.500108
 30
0.0
 11
121.600007
 21
384.600084
 31
0.0
  0
LINE
  5
140
100
AcDbEntity
  8
LAY-2
  6
DASHED2
 62
     1
100
AcDbLine
 10
116.399994
 20
377.500108
 30
0.0
 11
116.399994
 21
384.600084
 31
0.0
  0
LINE
  5
141
100
AcDbEntity
  8
LAY-2
  6
DASHED2
 62
     3
100
AcDbLine
 10
124.99997
 20
388.000047
 30
0.0
 11
124.99997
 21
387.600084
 31
0.0
  0
LINE
  5
142
100
AcDbEntity
  8
LAY-2
  6
DASHED2
 62
     3
100
AcDbLine
 10
112.99997
 20
388.000047
 30
0.0
 11
112.99997
 21
387.600084
 31
0.0
  0
LINE
  5
143
100
AcDbEntity
  8
LAY-2
  6
DASHED2
 62
     3
100
AcDbLine
 10
204.99997
 20
387.600084
 30
0.0
 11
216.99997
 21
387.600084
 31
0.0
  0
LINE
  5
144
100
AcDbEntity
  8
LAY-2
  6
DASHED2
 62
     3
100
AcDbLine
 10
207.649964
 20
384.600084
 30
0.0
 11
214.350007
 21
384.600084
 31
0.0
  0
LINE
  5
145
100
AcDbEntity
  8
LAY-2
  6
DASHED2
 62
     3
100
AcDbLine
 10
214.350007
 20
384.600084
 30
0.0
 11
216.99997
 21
387.600084
 31
0.0
  0
LINE
  5
146
100
AcDbEntity
  8
LAY-2
  6
DASHED2
 62
     3
100
AcDbLine
 10
207.649964
 20
384.600084
 30
0.0
 11
204.99997
 21
387.600084
 31
0.0
  0
LINE
  5
147
100
AcDbEntity
  8
LAY-2
  6
CONTINUOUS
 62
     3
100
AcDbLine
 10
214.349976
 20
372.000047
 30
0.0
 11
207.649964
 21
372.000047
 31
0.0
  0
LINE
  5
148
100
AcDbEntity
  8
LAY-2
  6
CONTINUOUS
 62
     3
100
AcDbLine
 10
214.349976
 20
377.500108
 30
0.0
 11
214.349976
 21
372.000047
 31
0.0
  0
LINE
  5
149
100
AcDbEntity
  8
LAY-2
  6
CONTINUOUS
 62
     3
100
AcDbLine
 10
207.649964
 20
377.500108
 30
0.0
 11
207.649964
 21
372.000047
 31
0.0
  0
LINE
  5
14A
100
AcDbEntity
  8
LAY-2
  6
CONTINUOUS
 62
     1
100
AcDbLine
 10
213.599991
 20
377.500108
 30
0.0
 11
213.599976
 21
372.000047
 31
0.0
  0
LINE
  5
14B
100
AcDbEntity
  8
LAY-2
  6
CONTINUOUS
 62
     1
100
AcDbLine
 10
208.399979
 20
377.500108
 30
0.0
 11
208.399964
 21
372.000047
 31
0.0
  0
LINE
  5
14C
100
AcDbEntity
  8
LAY-2
  6
DASHED2
 62
     3
100
AcDbLine
 10
214.349976
 20
377.500108
 30
0.0
 11
214.349976
 21
384.600084
 31
0.0
  0
LINE
  5
14D
100
AcDbEntity
  8
LAY-2
  6
DASHED2
 62
     3
100
AcDbLine
 10
207.649964
 20
377.500108
 30
0.0
 11
207.649964
 21
384.600084
 31
0.0
  0
LINE
  5
14E
100
AcDbEntity
  8
LAY-2
  6
DASHED2
 62
     1
100
AcDbLine
 10
213.600007
 20
377.500108
 30
0.0
 11
213.600007
 21
384.600084
 31
0.0
  0
LINE
  5
14F
100
AcDbEntity
  8
LAY-2
  6
DASHED2
 62
     1
100
AcDbLine
 10
208.399994
 20
377.500108
 30
0.0
 11
208.399994
 21
384.600084
 31
0.0
  0
LINE
  5
150
100
AcDbEntity
  8
LAY-2
  6
DASHED2
 62
     3
100
AcDbLine
 10
216.99997
 20
388.000047
 30
0.0
 11
216.99997
 21
387.600084
 31
0.0
  0
LINE
  5
151
100
AcDbEntity
  8
LAY-2
  6
DASHED2
 62
     3
100
AcDbLine
 10
204.99997
 20
388.000047
 30
0.0
 11
204.99997
 21
387.600084
 31
0.0
  0
LINE
  5
152
100
AcDbEntity
  8
LAY-2
  6
CONTINUOUS
 62
     3
100
AcDbLine
 10
224.0
 20
388.0
 30
0.0
 11
72.999985
 21
388.0
 31
0.0
  0
LINE
  5
153
100
AcDbEntity
  8
LAY-2
  6
CONTINUOUS
 62
     3
100
AcDbLine
 10
224.0
 20
382.0
 30
0.0
 11
72.999985
 21
382.0
 31
0.0
  0
LINE
  5
154
100
AcDbEntity
  8
LAY-2
  6
CONTINUOUS
 62
     3
100
AcDbLine
 10
224.0
 20
388.0
 30
0.0
 11
224.0
 21
382.0
 31
0.0
  0
LINE
  5
155
100
AcDbEntity
  8
LAY-2
  6
CONTINUOUS
 62
     3
100
AcDbLine
 10
72.999985
 20
388.0
 30
0.0
 11
72.999985
 21
382.0
 31
0.0
  0
LINE
  5
156
100
AcDbEntity
  8
LAY-2
  6
CONTINUOUS
 62
     3
100
AcDbLine
 10
741.6
 20
382.000193
 30
0.0
 11
741.6
 21
388.000132
 31
0.0
  0
LINE
  5
157
100
AcDbEntity
  8
LAY-2
  6
CONTINUOUS
 62
     3
100
AcDbLine
 10
741.6
 20
388.000163
 30
0.0
 11
709.6
 21
388.000163
 31
0.0
  0
LINE
  5
158
100
AcDbEntity
  8
LAY-2
  6
CONTINUOUS
 62
     3
100
AcDbLine
 10
741.6
 20
382.000163
 30
0.0
 11
709.6
 21
382.000163
 31
0.0
  0
LINE
  5
159
100
AcDbEntity
  8
LAY-2
  6
CONTINUOUS
 62
     3
100
AcDbLine
 10
709.599985
 20
388.000085
 30
0.0
 11
709.599985
 21
382.000085
 31
0.0
  0
ARC
  5
15A
100
AcDbEntity
  8
LAY-2
  6
CONTINUOUS
 62
     3
100
AcDbCircle
 10
92.3
 20
372.2
 30
0.0
 40
5.2
100
AcDbArc
 50
270.0
 51
0.0
  0
LINE
  5
15B
100
AcDbEntity
  8
LAY-2
  6
CONTINUOUS
 62
     3
100
AcDbLine
 10
85.7
 20
367.0
 30
0.0
 11
92.3
 21
367.0
 31
0.0
  0
ARC
  5
15C
100
AcDbEntity
  8
LAY-2
  6
CONTINUOUS
 62
     3
100
AcDbCircle
 10
85.7
 20
372.2
 30
0.0
 40
5.2
100
AcDbArc
 50
180.0
 51
270.0
  0
LINE
  5
15D
100
AcDbEntity
  8
LAY-2
  6
CONTINUOUS
 62
     3
100
AcDbLine
 10
103.0
 20
382.0
 30
0.0
 11
103.0
 21
380.8
 31
0.0
  0
LINE
  5
15E
100
AcDbEntity
  8
LAY-2
  6
CONTINUOUS
 62
     3
100
AcDbLine
 10
75.0
 20
382.0
 30
0.0
 11
75.0
 21
380.8
 31
0.0
  0
LINE
  5
15F
100
AcDbEntity
  8
LAY-2
  6
CONTINUOUS
 62
     3
100
AcDbLine
 10
103.0
 20
380.8
 30
0.0
 11
75.0
 21
380.8
 31
0.0
  0
ARC
  5
160
100
AcDbEntity
  8
LAY-2
  6
CONTINUOUS
 62
     3
100
AcDbCircle
 10
100.85
 20
380.8
 30
0.0
 40
1.0
100
AcDbArc
 50
270.0
 51
0.0
  0
LINE
  5
161
100
AcDbEntity
  8
LAY-2
  6
CONTINUOUS
 62
     3
100
AcDbLine
 10
100.85
 20
379.8
 30
0.0
 11
77.15
 21
379.8
 31
0.0
  0
ARC
  5
162
100
AcDbEntity
  8
LAY-2
  6
CONTINUOUS
 62
     3
100
AcDbCircle
 10
77.15
 20
380.8
 30
0.0
 40
1.0
100
AcDbArc
 50
180.0
 51
270.0
  0
ARC
  5
163
100
AcDbEntity
  8
LAY-2
  6
CONTINUOUS
 62
     3
100
AcDbCircle
 10
98.0
 20
379.3
 30
0.0
 40
0.5
100
AcDbArc
 50
90.0
 51
180.0
  0
ARC
  5
164
100
AcDbEntity
  8
LAY-2
  6
CONTINUOUS
 62
     3
100
AcDbCircle
 10
80.0
 20
379.3
 30
0.0
 40
0.5
100
AcDbArc
 50
0.0
 51
90.0
  0
LINE
  5
165
100
AcDbEntity
  8
LAY-2
  6
CONTINUOUS
 62
     3
100
AcDbLine
 10
80.5
 20
379.3
 30
0.0
 11
80.5
 21
372.2
 31
0.0
  0
LINE
  5
166
100
AcDbEntity
  8
LAY-2
  6
CONTINUOUS
 62
     3
100
AcDbLine
 10
97.5
 20
379.3
 30
0.0
 11
97.5
 21
372.2
 31
0.0
  0
LINE
  5
167
100
AcDbEntity
  8
LAY-2
  6
CONTINUOUS
 62
     3
100
AcDbLine
 10
739.6
 20
382.000085
 30
0.0
 11
739.6
 21
380.800085
 31
0.0
  0
LINE
  5
168
100
AcDbEntity
  8
LAY-2
  6
CONTINUOUS
 62
     3
100
AcDbLine
 10
711.6
 20
382.000085
 30
0.0
 11
711.6
 21
380.800085
 31
0.0
  0
LINE
  5
169
100
AcDbEntity
  8
LAY-2
  6
CONTINUOUS
 62
     3
100
AcDbLine
 10
739.6
 20
380.800085
 30
0.0
 11
711.6
 21
380.800085
 31
0.0
  0
ARC
  5
16A
100
AcDbEntity
  8
LAY-2
  6
CONTINUOUS
 62
     3
100
AcDbCircle
 10
713.75
 20
380.800085
 30
0.0
 40
1.0
100
AcDbArc
 50
180.0
 51
270.0
  0
ARC
  5
16B
100
AcDbEntity
  8
LAY-2
  6
CONTINUOUS
 62
     3
100
AcDbCircle
 10
729.15
 20
372.200085
 30
0.0
 40
5.2
100
AcDbArc
 50
270.0
 51
0.0
  0
ARC
  5
16C
100
AcDbEntity
  8
LAY-2
  6
CONTINUOUS
 62
     3
100
AcDbCircle
 10
737.658686
 20
380.61232
 30
0.0
 40
0.813285
100
AcDbArc
 50
272.911787
 51
13.348418
  0
ARC
  5
16D
100
AcDbEntity
  8
LAY-2
  6
CONTINUOUS
 62
     3
100
AcDbCircle
 10
734.85
 20
379.300085
 30
0.0
 40
0.5
100
AcDbArc
 50
90.0
 51
180.0
  0
LINE
  5
16E
100
AcDbEntity
  8
LAY-2
  6
CONTINUOUS
 62
     3
100
AcDbLine
 10
734.35
 20
379.300085
 30
0.0
 11
734.35
 21
372.200085
 31
0.0
  0
ARC
  5
16F
100
AcDbEntity
  8
LAY-2
  6
CONTINUOUS
 62
     3
100
AcDbCircle
 10
722.05
 20
372.200085
 30
0.0
 40
5.2
100
AcDbArc
 50
180.0
 51
270.0
  0
ARC
  5
170
100
AcDbEntity
  8
LAY-2
  6
CONTINUOUS
 62
     3
100
AcDbCircle
 10
716.35
 20
379.300085
 30
0.0
 40
0.5
100
AcDbArc
 50
0.0
 51
90.0
  0
LINE
  5
171
100
AcDbEntity
  8
LAY-2
  6
CONTINUOUS
 62
     3
100
AcDbLine
 10
716.85
 20
379.300085
 30
0.0
 11
716.85
 21
372.200085
 31
0.0
  0
LINE
  5
172
100
AcDbEntity
  8
LAY-2
  6
CONTINUOUS
 62
     3
100
AcDbLine
 10
722.05
 20
367.000085
 30
0.0
 11
729.15
 21
367.000085
 31
0.0
  0
LINE
  5
173
100
AcDbEntity
  8
LAY-2
  6
CONTINUOUS
 62
     3
100
AcDbLine
 10
737.7
 20
379.800085
 30
0.0
 11
713.75
 21
379.800085
 31
0.0
  0
LINE
  5
174
100
AcDbEntity
  8
LAY-3
  6
CONTINUOUS
 62
     1
100
AcDbLine
 10
139.0
 20
225.7
 30
0.0
 11
132.878656
 21
225.7
 31
0.0
  0
LINE
  5
175
100
AcDbEntity
  8
LAY-3
  6
CONTINUOUS
 62
     1
100
AcDbLine
 10
139.0
 20
227.2
 30
0.0
 11
132.878656
 21
227.2
 31
0.0
  0
ARC
  5
176
100
AcDbEntity
  8
LAY-3
  6
DASHED2
 62
     3
100
AcDbCircle
 10
399.704093
 20
139.295887
 30
0.0
 40
0.99
100
AcDbArc
 50
270.0
 51
359.99998
  0
ARC
  5
177
100
AcDbEntity
  8
LAY-3
  6
DASHED2
 62
     3
100
AcDbCircle
 10
89.0
 20
122.0
 30
0.0
 40
33.0
100
AcDbArc
 50
130.749054
 51
139.250946
  0
LINE
  5
178
100
AcDbEntity
  8
LAY-3
  6
DASHED2
 62
     3
100
AcDbLine
 10
67.459341
 20
147.0
 30
0.0
 11
110.540659
 21
147.0
 31
0.0
  0
ARC
  5
179
100
AcDbEntity
  8
LAY-3
  6
DASHED2
 62
     3
100
AcDbCircle
 10
89.0
 20
122.0
 30
0.0
 40
33.0
100
AcDbArc
 50
40.749054
 51
49.250946
  0
LINE
  5
17A
100
AcDbEntity
  8
LAY-3
  6
DASHED2
 62
     3
100
AcDbLine
 10
114.0
 20
143.540659
 30
0.0
 11
114.0
 21
100.459341
 31
0.0
  0
ARC
  5
17B
100
AcDbEntity
  8
LAY-3
  6
DASHED2
 62
     3
100
AcDbCircle
 10
89.0
 20
122.0
 30
0.0
 40
33.0
100
AcDbArc
 50
310.749054
 51
319.250946
  0
LINE
  5
17C
100
AcDbEntity
  8
LAY-3
  6
DASHED2
 62
     3
100
AcDbLine
 10
67.459341
 20
97.0
 30
0.0
 11
110.540659
 21
97.0
 31
0.0
  0
ARC
  5
17D
100
AcDbEntity
  8
LAY-3
  6
DASHED2
 62
     3
100
AcDbCircle
 10
89.0
 20
122.0
 30
0.0
 40
33.0
100
AcDbArc
 50
220.749054
 51
229.250946
  0
LINE
  5
17E
100
AcDbEntity
  8
LAY-3
  6
DASHED2
 62
     3
100
AcDbLine
 10
64.0
 20
143.540659
 30
0.0
 11
64.0
 21
100.459341
 31
0.0
  0
LINE
  5
17F
100
AcDbEntity
  8
LAY-3
  6
CONTINUOUS
 62
     3
100
AcDbLine
 10
71.315239
 20
141.466729
 30
0.0
 11
72.206223
 21
141.466729
 31
0.0
  0
ARC
  5
180
100
AcDbEntity
  8
LAY-3
  6
CONTINUOUS
 62
     3
100
AcDbCircle
 10
71.315239
 20
142.456729
 30
0.0
 40
0.99
100
AcDbArc
 50
180.00002
 51
270.0
  0
LINE
  5
181
100
AcDbEntity
  8
LAY-3
  6
CONTINUOUS
 62
     1
100
AcDbLine
 10
73.732583
 20
137.267417
 30
0.0
 11
65.060983
 21
145.939017
 31
0.0
  0
ARC
  5
182
100
AcDbEntity
  8
LAY-3
  6
CONTINUOUS
 62
     3
100
AcDbCircle
 10
71.315219
 20
104.315219
 30
0.0
 40
0.99
100
AcDbArc
 50
180.00002
 51
270.0
  0
ARC
  5
183
100
AcDbEntity
  8
LAY-3
  6
CONTINUOUS
 62
     3
100
AcDbCircle
 10
71.315219
 20
101.543211
 30
0.0
 40
0.99
100
AcDbArc
 50
89.999981
 51
180.00002
  0
ARC
  5
184
100
AcDbEntity
  8
LAY-3
  6
DASHDOT
 62
     1
100
AcDbCircle
 10
89.0
 20
122.0
 30
0.0
 40
26.970149
100
AcDbArc
 50
215.356156
 51
235.757692
  0
LINE
  5
185
100
AcDbEntity
  8
LAY-3
  6
CONTINUOUS
 62
     1
100
AcDbLine
 10
65.060963
 20
98.060963
 30
0.0
 11
74.380485
 21
107.380485
 31
0.0
  0
LINE
  5
186
100
AcDbEntity
  8
LAY-3
  6
CONTINUOUS
 62
     1
100
AcDbLine
 10
104.160125
 20
137.160125
 30
0.0
 11
112.960155
 21
145.960155
 31
0.0
  0
ARC
  5
187
100
AcDbEntity
  8
LAY-3
  6
DASHDOT
 62
     1
100
AcDbCircle
 10
89.0
 20
122.0
 30
0.0
 40
26.999986
100
AcDbArc
 50
34.161739
 51
56.14832
  0
LINE
  5
188
100
AcDbEntity
  8
LAY-3
  6
CONTINUOUS
 62
     1
100
AcDbLine
 10
104.362203
 20
106.637797
 30
0.0
 11
112.960155
 21
98.039845
 31
0.0
  0
ARC
  5
189
100
AcDbEntity
  8
LAY-3
  6
DASHDOT
 62
     1
100
AcDbCircle
 10
89.0
 20
122.0
 30
0.0
 40
26.999986
100
AcDbArc
 50
303.725818
 51
325.994361
  0
ARC
  5
18A
100
AcDbEntity
  8
LAY-3
  6
CONTINUOUS
 62
     1
100
AcDbCircle
 10
89.0
 20
122.0
 30
0.0
 40
26.999986
100
AcDbArc
 50
315.0
 51
334.484445
  0
ARC
  5
18B
100
AcDbEntity
  8
LAY-3
  6
DASHDOT
 62
     1
100
AcDbCircle
 10
89.0
 20
122.0
 30
0.0
 40
26.970121
100
AcDbArc
 50
124.065115
 51
145.31602
  0
LINE
  5
18C
100
AcDbEntity
  8
LAY-3
  6
CONTINUOUS
 62
     3
100
AcDbLine
 10
59.0
 20
162.0
 30
0.0
 11
59.0
 21
82.0
 31
0.0
  0
LINE
  5
18D
100
AcDbEntity
  8
LAY-3
  6
CONTINUOUS
 62
     3
100
AcDbLine
 10
59.0
 20
162.0
 30
0.0
 11
139.0
 21
162.0
 31
0.0
  0
LINE
  5
18E
100
AcDbEntity
  8
LAY-3
  6
CONTINUOUS
 62
     3
100
AcDbLine
 10
139.0
 20
162.0
 30
0.0
 11
139.0
 21
82.0
 31
0.0
  0
LINE
  5
18F
100
AcDbEntity
  8
LAY-3
  6
CONTINUOUS
 62
     3
100
AcDbLine
 10
59.0
 20
82.0
 30
0.0
 11
139.0
 21
82.0
 31
0.0
  0
LINE
  5
190
100
AcDbEntity
  8
LAY-3
  6
DASHED2
 62
     3
100
AcDbLine
 10
107.695859
 20
143.368851
 30
0.0
 11
108.487867
 21
143.368851
 31
0.0
  0
LINE
  5
191
100
AcDbEntity
  8
LAY-3
  6
DASHED2
 62
     3
100
AcDbLine
 10
107.695859
 20
138.814875
 30
0.0
 11
108.487867
 21
138.814875
 31
0.0
  0
LINE
  5
192
100
AcDbEntity
  8
LAY-3
  6
DASHED2
 62
     3
100
AcDbLine
 10
105.814875
 20
140.695859
 30
0.0
 11
105.814875
 21
141.487867
 31
0.0
  0
LINE
  5
193
100
AcDbEntity
  8
LAY-3
  6
DASHED2
 62
     3
100
AcDbLine
 10
110.368871
 20
140.695859
 30
0.0
 11
110.368871
 21
141.487867
 31
0.0
  0
LINE
  5
194
100
AcDbEntity
  8
LAY-3
  6
DASHED2
 62
     3
100
AcDbLine
 10
107.695859
 20
142.477867
 30
0.0
 11
107.695859
 21
143.368851
 31
0.0
  0
LINE
  5
195
100
AcDbEntity
  8
LAY-3
  6
DASHED2
 62
     3
100
AcDbLine
 10
105.814855
 20
141.487867
 30
0.0
 11
106.705859
 21
141.487867
 31
0.0
  0
ARC
  5
196
100
AcDbEntity
  8
LAY-3
  6
DASHED2
 62
     3
100
AcDbCircle
 10
106.705859
 20
142.477867
 30
0.0
 40
0.99
100
AcDbArc
 50
270.0
 51
359.999982
  0
LINE
  5
197
100
AcDbEntity
  8
LAY-3
  6
DASHED2
 62
     3
100
AcDbLine
 10
109.477867
 20
141.487867
 30
0.0
 11
110.368851
 21
141.487867
 31
0.0
  0
LINE
  5
198
100
AcDbEntity
  8
LAY-3
  6
DASHED2
 62
     3
100
AcDbLine
 10
108.487867
 20
143.368891
 30
0.0
 11
108.487867
 21
142.477867
 31
0.0
  0
ARC
  5
199
100
AcDbEntity
  8
LAY-3
  6
DASHED2
 62
     3
100
AcDbCircle
 10
109.477867
 20
142.477867
 30
0.0
 40
0.99
100
AcDbArc
 50
180.00002
 51
270.0
  0
LINE
  5
19A
100
AcDbEntity
  8
LAY-3
  6
DASHED2
 62
     3
100
AcDbLine
 10
110.368871
 20
140.695859
 30
0.0
 11
109.477867
 21
140.695859
 31
0.0
  0
LINE
  5
19B
100
AcDbEntity
  8
LAY-3
  6
DASHED2
 62
     3
100
AcDbLine
 10
108.487867
 20
139.705859
 30
0.0
 11
108.487867
 21
138.814875
 31
0.0
  0
ARC
  5
19C
100
AcDbEntity
  8
LAY-3
  6
DASHED2
 62
     3
100
AcDbCircle
 10
109.477867
 20
139.705859
 30
0.0
 40
0.99
100
AcDbArc
 50
89.999981
 51
180.00002
  0
LINE
  5
19D
100
AcDbEntity
  8
LAY-3
  6
DASHED2
 62
     3
100
AcDbLine
 10
107.695859
 20
138.814875
 30
0.0
 11
107.695859
 21
139.705859
 31
0.0
  0
LINE
  5
19E
100
AcDbEntity
  8
LAY-3
  6
DASHED2
 62
     3
100
AcDbLine
 10
106.705859
 20
140.695859
 30
0.0
 11
105.814875
 21
140.695859
 31
0.0
  0
ARC
  5
19F
100
AcDbEntity
  8
LAY-3
  6
DASHED2
 62
     3
100
AcDbCircle
 10
106.705859
 20
139.705859
 30
0.0
 40
0.99
100
AcDbArc
 50
0.0
 51
89.999981
  0
ARC
  5
1A0
100
AcDbEntity
  8
LAY-3
  6
DASHED2
 62
     3
100
AcDbCircle
 10
109.477867
 20
142.477867
 30
0.0
 40
0.99
100
AcDbArc
 50
180.00002
 51
270.0
  0
ARC
  5
1A1
100
AcDbEntity
  8
LAY-3
  6
DASHED2
 62
     3
100
AcDbCircle
 10
109.477867
 20
139.705859
 30
0.0
 40
0.99
100
AcDbArc
 50
89.999981
 51
180.00002
  0
CIRCLE
  5
1A2
100
AcDbEntity
  8
LAY-3
  6
DASHED2
 62
     3
100
AcDbCircle
 10
108.091863
 20
141.091883
 30
0.0
 40
3.96
  0
CIRCLE
  5
1A3
100
AcDbEntity
  8
LAY-3
  6
DASHED2
 62
     3
100
AcDbCircle
 10
69.929235
 20
141.070745
 30
0.0
 40
3.96
  0
ARC
  5
1A4
100
AcDbEntity
  8
LAY-3
  6
DASHED2
 62
     3
100
AcDbCircle
 10
71.315239
 20
142.456729
 30
0.0
 40
0.99
100
AcDbArc
 50
180.00002
 51
270.0
  0
LINE
  5
1A5
100
AcDbEntity
  8
LAY-3
  6
DASHED2
 62
     3
100
AcDbLine
 10
69.533231
 20
143.347713
 30
0.0
 11
70.325239
 21
143.347713
 31
0.0
  0
LINE
  5
1A6
100
AcDbEntity
  8
LAY-3
  6
DASHED2
 62
     3
100
AcDbLine
 10
70.325239
 20
143.347753
 30
0.0
 11
70.325239
 21
142.456729
 31
0.0
  0
LINE
  5
1A7
100
AcDbEntity
  8
LAY-3
  6
DASHED2
 62
     3
100
AcDbLine
 10
69.533231
 20
142.456729
 30
0.0
 11
69.533231
 21
143.347713
 31
0.0
  0
LINE
  5
1A8
100
AcDbEntity
  8
LAY-3
  6
DASHED2
 62
     3
100
AcDbLine
 10
72.206243
 20
140.67472
 30
0.0
 11
72.206243
 21
141.466729
 31
0.0
  0
ARC
  5
1A9
100
AcDbEntity
  8
LAY-3
  6
DASHED2
 62
     3
100
AcDbCircle
 10
71.315239
 20
139.68472
 30
0.0
 40
0.99
100
AcDbArc
 50
89.999981
 51
180.00002
  0
ARC
  5
1AA
100
AcDbEntity
  8
LAY-3
  6
DASHED2
 62
     3
100
AcDbCircle
 10
71.315239
 20
139.68472
 30
0.0
 40
0.99
100
AcDbArc
 50
89.999981
 51
180.00002
  0
LINE
  5
1AB
100
AcDbEntity
  8
LAY-3
  6
DASHED2
 62
     3
100
AcDbLine
 10
72.206243
 20
140.67472
 30
0.0
 11
71.315239
 21
140.67472
 31
0.0
  0
LINE
  5
1AC
100
AcDbEntity
  8
LAY-3
  6
DASHED2
 62
     3
100
AcDbLine
 10
69.533231
 20
138.793737
 30
0.0
 11
70.325239
 21
138.793737
 31
0.0
  0
LINE
  5
1AD
100
AcDbEntity
  8
LAY-3
  6
DASHED2
 62
     3
100
AcDbLine
 10
69.533231
 20
138.793737
 30
0.0
 11
69.533231
 21
139.68472
 31
0.0
  0
LINE
  5
1AE
100
AcDbEntity
  8
LAY-3
  6
DASHED2
 62
     3
100
AcDbLine
 10
70.325239
 20
139.68472
 30
0.0
 11
70.325239
 21
138.793737
 31
0.0
  0
ARC
  5
1AF
100
AcDbEntity
  8
LAY-3
  6
DASHED2
 62
     3
100
AcDbCircle
 10
68.543231
 20
139.68472
 30
0.0
 40
0.99
100
AcDbArc
 50
0.0
 51
89.999981
  0
LINE
  5
1B0
100
AcDbEntity
  8
LAY-3
  6
DASHED2
 62
     3
100
AcDbLine
 10
67.652247
 20
140.67472
 30
0.0
 11
67.652247
 21
141.466729
 31
0.0
  0
LINE
  5
1B1
100
AcDbEntity
  8
LAY-3
  6
DASHED2
 62
     3
100
AcDbLine
 10
67.652227
 20
141.466729
 30
0.0
 11
68.543231
 21
141.466729
 31
0.0
  0
LINE
  5
1B2
100
AcDbEntity
  8
LAY-3
  6
DASHED2
 62
     3
100
AcDbLine
 10
68.543231
 20
140.67472
 30
0.0
 11
67.652247
 21
140.67472
 31
0.0
  0
ARC
  5
1B3
100
AcDbEntity
  8
LAY-3
  6
DASHED2
 62
     3
100
AcDbCircle
 10
68.543231
 20
142.456729
 30
0.0
 40
0.99
100
AcDbArc
 50
270.0
 51
359.999982
  0
LINE
  5
1B4
100
AcDbEntity
  8
LAY-3
  6
DASHED2
 62
     3
100
AcDbLine
 10
107.695859
 20
105.185085
 30
0.0
 11
108.487867
 21
105.185085
 31
0.0
  0
LINE
  5
1B5
100
AcDbEntity
  8
LAY-3
  6
DASHED2
 62
     3
100
AcDbLine
 10
107.695859
 20
100.631109
 30
0.0
 11
108.487867
 21
100.631109
 31
0.0
  0
LINE
  5
1B6
100
AcDbEntity
  8
LAY-3
  6
DASHED2
 62
     3
100
AcDbLine
 10
107.695859
 20
104.294101
 30
0.0
 11
107.695859
 21
105.185085
 31
0.0
  0
LINE
  5
1B7
100
AcDbEntity
  8
LAY-3
  6
DASHED2
 62
     3
100
AcDbLine
 10
108.487867
 20
105.185125
 30
0.0
 11
108.487867
 21
104.294101
 31
0.0
  0
LINE
  5
1B8
100
AcDbEntity
  8
LAY-3
  6
DASHED2
 62
     3
100
AcDbLine
 10
108.487867
 20
101.522092
 30
0.0
 11
108.487867
 21
100.631109
 31
0.0
  0
LINE
  5
1B9
100
AcDbEntity
  8
LAY-3
  6
DASHED2
 62
     3
100
AcDbLine
 10
107.695859
 20
100.631109
 30
0.0
 11
107.695859
 21
101.522092
 31
0.0
  0
LINE
  5
1BA
100
AcDbEntity
  8
LAY-3
  6
DASHED2
 62
     3
100
AcDbLine
 10
110.368871
 20
102.512092
 30
0.0
 11
110.368871
 21
103.304101
 31
0.0
  0
LINE
  5
1BB
100
AcDbEntity
  8
LAY-3
  6
DASHED2
 62
     3
100
AcDbLine
 10
109.477867
 20
103.304101
 30
0.0
 11
110.368851
 21
103.304101
 31
0.0
  0
ARC
  5
1BC
100
AcDbEntity
  8
LAY-3
  6
DASHED2
 62
     3
100
AcDbCircle
 10
109.477867
 20
104.294101
 30
0.0
 40
0.99
100
AcDbArc
 50
180.00002
 51
270.0
  0
LINE
  5
1BD
100
AcDbEntity
  8
LAY-3
  6
DASHED2
 62
     3
100
AcDbLine
 10
110.368871
 20
102.512092
 30
0.0
 11
109.477867
 21
102.512092
 31
0.0
  0
ARC
  5
1BE
100
AcDbEntity
  8
LAY-3
  6
DASHED2
 62
     3
100
AcDbCircle
 10
109.477867
 20
101.522092
 30
0.0
 40
0.99
100
AcDbArc
 50
89.999981
 51
180.00002
  0
ARC
  5
1BF
100
AcDbEntity
  8
LAY-3
  6
DASHED2
 62
     3
100
AcDbCircle
 10
109.477867
 20
104.294101
 30
0.0
 40
0.99
100
AcDbArc
 50
180.00002
 51
270.0
  0
ARC
  5
1C0
100
AcDbEntity
  8
LAY-3
  6
DASHED2
 62
     3
100
AcDbCircle
 10
109.477867
 20
101.522092
 30
0.0
 40
0.99
100
AcDbArc
 50
89.999981
 51
180.00002
  0
LINE
  5
1C1
100
AcDbEntity
  8
LAY-3
  6
DASHED2
 62
     3
100
AcDbLine
 10
105.814875
 20
102.512092
 30
0.0
 11
105.814875
 21
103.304101
 31
0.0
  0
LINE
  5
1C2
100
AcDbEntity
  8
LAY-3
  6
DASHED2
 62
     3
100
AcDbLine
 10
105.814855
 20
103.304101
 30
0.0
 11
106.705859
 21
103.304101
 31
0.0
  0
ARC
  5
1C3
100
AcDbEntity
  8
LAY-3
  6
DASHED2
 62
     3
100
AcDbCircle
 10
106.705859
 20
104.294101
 30
0.0
 40
0.99
100
AcDbArc
 50
270.0
 51
359.999982
  0
LINE
  5
1C4
100
AcDbEntity
  8
LAY-3
  6
DASHED2
 62
     3
100
AcDbLine
 10
106.705859
 20
102.512092
 30
0.0
 11
105.814875
 21
102.512092
 31
0.0
  0
ARC
  5
1C5
100
AcDbEntity
  8
LAY-3
  6
DASHED2
 62
     3
100
AcDbCircle
 10
106.705859
 20
101.522092
 30
0.0
 40
0.99
100
AcDbArc
 50
0.0
 51
89.999981
  0
CIRCLE
  5
1C6
100
AcDbEntity
  8
LAY-3
  6
DASHED2
 62
     3
100
AcDbCircle
 10
108.091863
 20
102.908117
 30
0.0
 40
3.96
  0
CIRCLE
  5
1C7
100
AcDbEntity
  8
LAY-3
  6
DASHED2
 62
     3
100
AcDbCircle
 10
69.929215
 20
102.929235
 30
0.0
 40
3.96
  0
LINE
  5
1C8
100
AcDbEntity
  8
LAY-3
  6
DASHED2
 62
     3
100
AcDbLine
 10
69.533211
 20
105.206203
 30
0.0
 11
70.325219
 21
105.206203
 31
0.0
  0
LINE
  5
1C9
100
AcDbEntity
  8
LAY-3
  6
DASHED2
 62
     3
100
AcDbLine
 10
69.533211
 20
104.315219
 30
0.0
 11
69.533211
 21
105.206203
 31
0.0
  0
ARC
  5
1CA
100
AcDbEntity
  8
LAY-3
  6
DASHED2
 62
     3
100
AcDbCircle
 10
68.543211
 20
104.315219
 30
0.0
 40
0.99
100
AcDbArc
 50
270.0
 51
359.999982
  0
LINE
  5
1CB
100
AcDbEntity
  8
LAY-3
  6
DASHED2
 62
     3
100
AcDbLine
 10
67.652207
 20
103.325219
 30
0.0
 11
68.543211
 21
103.325219
 31
0.0
  0
LINE
  5
1CC
100
AcDbEntity
  8
LAY-3
  6
DASHED2
 62
     3
100
AcDbLine
 10
67.652227
 20
102.533211
 30
0.0
 11
67.652227
 21
103.325219
 31
0.0
  0
LINE
  5
1CD
100
AcDbEntity
  8
LAY-3
  6
DASHED2
 62
     3
100
AcDbLine
 10
68.543211
 20
102.533211
 30
0.0
 11
67.652227
 21
102.533211
 31
0.0
  0
ARC
  5
1CE
100
AcDbEntity
  8
LAY-3
  6
DASHED2
 62
     3
100
AcDbCircle
 10
68.543211
 20
101.543211
 30
0.0
 40
0.99
100
AcDbArc
 50
0.0
 51
89.999981
  0
LINE
  5
1CF
100
AcDbEntity
  8
LAY-3
  6
DASHED2
 62
     3
100
AcDbLine
 10
69.533211
 20
100.652227
 30
0.0
 11
69.533211
 21
101.543211
 31
0.0
  0
LINE
  5
1D0
100
AcDbEntity
  8
LAY-3
  6
DASHED2
 62
     3
100
AcDbLine
 10
69.533211
 20
100.652227
 30
0.0
 11
70.325219
 21
100.652227
 31
0.0
  0
LINE
  5
1D1
100
AcDbEntity
  8
LAY-3
  6
DASHED2
 62
     3
100
AcDbLine
 10
70.325219
 20
101.543211
 30
0.0
 11
70.325219
 21
100.652227
 31
0.0
  0
ARC
  5
1D2
100
AcDbEntity
  8
LAY-3
  6
DASHED2
 62
     3
100
AcDbCircle
 10
71.315219
 20
101.543211
 30
0.0
 40
0.99
100
AcDbArc
 50
89.999981
 51
180.00002
  0
LINE
  5
1D3
100
AcDbEntity
  8
LAY-3
  6
DASHED2
 62
     3
100
AcDbLine
 10
72.206223
 20
102.533211
 30
0.0
 11
71.315219
 21
102.533211
 31
0.0
  0
LINE
  5
1D4
100
AcDbEntity
  8
LAY-3
  6
DASHED2
 62
     3
100
AcDbLine
 10
72.206223
 20
102.533211
 30
0.0
 11
72.206223
 21
103.325219
 31
0.0
  0
LINE
  5
1D5
100
AcDbEntity
  8
LAY-3
  6
DASHED2
 62
     3
100
AcDbLine
 10
71.315219
 20
103.325219
 30
0.0
 11
72.206203
 21
103.325219
 31
0.0
  0
ARC
  5
1D6
100
AcDbEntity
  8
LAY-3
  6
DASHED2
 62
     3
100
AcDbCircle
 10
71.315219
 20
104.315219
 30
0.0
 40
0.99
100
AcDbArc
 50
180.00002
 51
270.0
  0
LINE
  5
1D7
100
AcDbEntity
  8
LAY-3
  6
DASHED2
 62
     3
100
AcDbLine
 10
70.325219
 20
105.206243
 30
0.0
 11
70.325219
 21
104.315219
 31
0.0
  0
LINE
  5
1D8
100
AcDbEntity
  8
LAY-3
  6
DASHED2
 62
     3
100
AcDbLine
 10
395.459341
 20
147.0
 30
0.0
 11
438.540659
 21
147.0
 31
0.0
  0
ARC
  5
1D9
100
AcDbEntity
  8
LAY-3
  6
DASHED2
 62
     3
100
AcDbCircle
 10
417.0
 20
122.0
 30
0.0
 40
33.0
100
AcDbArc
 50
130.749054
 51
139.250946
  0
LINE
  5
1DA
100
AcDbEntity
  8
LAY-3
  6
DASHED2
 62
     3
100
AcDbLine
 10
392.0
 20
143.540659
 30
0.0
 11
392.0
 21
100.459341
 31
0.0
  0
ARC
  5
1DB
100
AcDbEntity
  8
LAY-3
  6
DASHED2
 62
     3
100
AcDbCircle
 10
417.0
 20
122.0
 30
0.0
 40
33.0
100
AcDbArc
 50
220.749054
 51
229.250946
  0
LINE
  5
1DC
100
AcDbEntity
  8
LAY-3
  6
DASHED2
 62
     3
100
AcDbLine
 10
395.459341
 20
97.0
 30
0.0
 11
438.540659
 21
97.0
 31
0.0
  0
ARC
  5
1DD
100
AcDbEntity
  8
LAY-3
  6
DASHED2
 62
     3
100
AcDbCircle
 10
417.0
 20
122.0
 30
0.0
 40
33.0
100
AcDbArc
 50
310.749054
 51
319.250946
  0
LINE
  5
1DE
100
AcDbEntity
  8
LAY-3
  6
DASHED2
 62
     3
100
AcDbLine
 10
442.0
 20
143.540659
 30
0.0
 11
442.0
 21
100.459341
 31
0.0
  0
ARC
  5
1DF
100
AcDbEntity
  8
LAY-3
  6
DASHED2
 62
     3
100
AcDbCircle
 10
417.0
 20
122.0
 30
0.0
 40
33.0
100
AcDbArc
 50
40.749054
 51
49.250946
  0
ARC
  5
1E0
100
AcDbEntity
  8
LAY-3
  6
DASHDOT
 62
     1
100
AcDbCircle
 10
417.0
 20
122.0
 30
0.0
 40
26.999986
100
AcDbArc
 50
34.161739
 51
56.14832
  0
LINE
  5
1E1
100
AcDbEntity
  8
LAY-3
  6
DASHED2
 62
     3
100
AcDbLine
 10
435.695859
 20
143.368851
 30
0.0
 11
436.487867
 21
143.368851
 31
0.0
  0
LINE
  5
1E2
100
AcDbEntity
  8
LAY-3
  6
DASHED2
 62
     3
100
AcDbLine
 10
435.695859
 20
138.814875
 30
0.0
 11
436.487867
 21
138.814875
 31
0.0
  0
LINE
  5
1E3
100
AcDbEntity
  8
LAY-3
  6
DASHED2
 62
     3
100
AcDbLine
 10
433.814875
 20
140.695859
 30
0.0
 11
433.814875
 21
141.487867
 31
0.0
  0
LINE
  5
1E4
100
AcDbEntity
  8
LAY-3
  6
DASHED2
 62
     3
100
AcDbLine
 10
438.368871
 20
140.695859
 30
0.0
 11
438.368871
 21
141.487867
 31
0.0
  0
LINE
  5
1E5
100
AcDbEntity
  8
LAY-3
  6
DASHED2
 62
     3
100
AcDbLine
 10
435.695859
 20
142.477867
 30
0.0
 11
435.695859
 21
143.368851
 31
0.0
  0
LINE
  5
1E6
100
AcDbEntity
  8
LAY-3
  6
DASHED2
 62
     3
100
AcDbLine
 10
433.814855
 20
141.487867
 30
0.0
 11
434.705859
 21
141.487867
 31
0.0
  0
ARC
  5
1E7
100
AcDbEntity
  8
LAY-3
  6
DASHED2
 62
     3
100
AcDbCircle
 10
434.705859
 20
142.477867
 30
0.0
 40
0.99
100
AcDbArc
 50
270.0
 51
359.999982
  0
LINE
  5
1E8
100
AcDbEntity
  8
LAY-3
  6
DASHED2
 62
     3
100
AcDbLine
 10
437.477867
 20
141.487867
 30
0.0
 11
438.368851
 21
141.487867
 31
0.0
  0
LINE
  5
1E9
100
AcDbEntity
  8
LAY-3
  6
DASHED2
 62
     3
100
AcDbLine
 10
436.487867
 20
143.368891
 30
0.0
 11
436.487867
 21
142.477867
 31
0.0
  0
ARC
  5
1EA
100
AcDbEntity
  8
LAY-3
  6
DASHED2
 62
     3
100
AcDbCircle
 10
437.477867
 20
142.477867
 30
0.0
 40
0.99
100
AcDbArc
 50
180.00002
 51
270.0
  0
LINE
  5
1EB
100
AcDbEntity
  8
LAY-3
  6
DASHED2
 62
     3
100
AcDbLine
 10
438.368871
 20
140.695859
 30
0.0
 11
437.477867
 21
140.695859
 31
0.0
  0
LINE
  5
1EC
100
AcDbEntity
  8
LAY-3
  6
DASHED2
 62
     3
100
AcDbLine
 10
436.487867
 20
139.705859
 30
0.0
 11
436.487867
 21
138.814875
 31
0.0
  0
ARC
  5
1ED
100
AcDbEntity
  8
LAY-3
  6
DASHED2
 62
     3
100
AcDbCircle
 10
437.477867
 20
139.705859
 30
0.0
 40
0.99
100
AcDbArc
 50
89.999981
 51
180.00002
  0
LINE
  5
1EE
100
AcDbEntity
  8
LAY-3
  6
DASHED2
 62
     3
100
AcDbLine
 10
435.695859
 20
138.814875
 30
0.0
 11
435.695859
 21
139.705859
 31
0.0
  0
LINE
  5
1EF
100
AcDbEntity
  8
LAY-3
  6
DASHED2
 62
     3
100
AcDbLine
 10
434.705859
 20
140.695859
 30
0.0
 11
433.814875
 21
140.695859
 31
0.0
  0
ARC
  5
1F0
100
AcDbEntity
  8
LAY-3
  6
DASHED2
 62
     3
100
AcDbCircle
 10
434.705859
 20
139.705859
 30
0.0
 40
0.99
100
AcDbArc
 50
0.0
 51
89.999981
  0
ARC
  5
1F1
100
AcDbEntity
  8
LAY-3
  6
DASHED2
 62
     3
100
AcDbCircle
 10
437.477867
 20
142.477867
 30
0.0
 40
0.99
100
AcDbArc
 50
180.00002
 51
270.0
  0
ARC
  5
1F2
100
AcDbEntity
  8
LAY-3
  6
DASHED2
 62
     3
100
AcDbCircle
 10
437.477867
 20
139.705859
 30
0.0
 40
0.99
100
AcDbArc
 50
89.999981
 51
180.00002
  0
CIRCLE
  5
1F3
100
AcDbEntity
  8
LAY-3
  6
DASHED2
 62
     3
100
AcDbCircle
 10
436.091863
 20
141.091883
 30
0.0
 40
3.96
  0
LINE
  5
1F4
100
AcDbEntity
  8
LAY-3
  6
DASHED2
 62
     3
100
AcDbLine
 10
398.304141
 20
143.368851
 30
0.0
 11
397.512133
 21
143.368851
 31
0.0
  0
LINE
  5
1F5
100
AcDbEntity
  8
LAY-3
  6
DASHED2
 62
     3
100
AcDbLine
 10
398.304141
 20
138.814875
 30
0.0
 11
397.512133
 21
138.814875
 31
0.0
  0
LINE
  5
1F6
100
AcDbEntity
  8
LAY-3
  6
DASHED2
 62
     3
100
AcDbLine
 10
400.185125
 20
140.695859
 30
0.0
 11
400.185125
 21
141.487867
 31
0.0
  0
LINE
  5
1F7
100
AcDbEntity
  8
LAY-3
  6
DASHED2
 62
     3
100
AcDbLine
 10
395.631129
 20
140.695859
 30
0.0
 11
395.631129
 21
141.487867
 31
0.0
  0
LINE
  5
1F8
100
AcDbEntity
  8
LAY-3
  6
DASHED2
 62
     3
100
AcDbLine
 10
398.304141
 20
142.477867
 30
0.0
 11
398.304141
 21
143.368851
 31
0.0
  0
LINE
  5
1F9
100
AcDbEntity
  8
LAY-3
  6
DASHED2
 62
     3
100
AcDbLine
 10
400.185145
 20
141.487867
 30
0.0
 11
399.294141
 21
141.487867
 31
0.0
  0
ARC
  5
1FA
100
AcDbEntity
  8
LAY-3
  6
DASHED2
 62
     3
100
AcDbCircle
 10
399.294141
 20
142.477867
 30
0.0
 40
0.99
100
AcDbArc
 50
180.000018
 51
270.0
  0
LINE
  5
1FB
100
AcDbEntity
  8
LAY-3
  6
DASHED2
 62
     3
100
AcDbLine
 10
396.522133
 20
141.487867
 30
0.0
 11
395.631149
 21
141.487867
 31
0.0
  0
LINE
  5
1FC
100
AcDbEntity
  8
LAY-3
  6
DASHED2
 62
     3
100
AcDbLine
 10
397.512133
 20
143.368891
 30
0.0
 11
397.512133
 21
142.477867
 31
0.0
  0
ARC
  5
1FD
100
AcDbEntity
  8
LAY-3
  6
DASHED2
 62
     3
100
AcDbCircle
 10
396.522133
 20
142.477867
 30
0.0
 40
0.99
100
AcDbArc
 50
270.0
 51
359.99998
  0
LINE
  5
1FE
100
AcDbEntity
  8
LAY-3
  6
DASHED2
 62
     3
100
AcDbLine
 10
395.631129
 20
140.695859
 30
0.0
 11
396.522133
 21
140.695859
 31
0.0
  0
LINE
  5
1FF
100
AcDbEntity
  8
LAY-3
  6
DASHED2
 62
     3
100
AcDbLine
 10
397.512133
 20
139.705859
 30
0.0
 11
397.512133
 21
138.814875
 31
0.0
  0
ARC
  5
200
100
AcDbEntity
  8
LAY-3
  6
DASHED2
 62
     3
100
AcDbCircle
 10
396.522133
 20
139.705859
 30
0.0
 40
0.99
100
AcDbArc
 50
359.99998
 51
90.000019
  0
LINE
  5
201
100
AcDbEntity
  8
LAY-3
  6
DASHED2
 62
     3
100
AcDbLine
 10
398.304141
 20
138.814875
 30
0.0
 11
398.304141
 21
139.705859
 31
0.0
  0
LINE
  5
202
100
AcDbEntity
  8
LAY-3
  6
DASHED2
 62
     3
100
AcDbLine
 10
399.294141
 20
140.695859
 30
0.0
 11
400.185125
 21
140.695859
 31
0.0
  0
ARC
  5
203
100
AcDbEntity
  8
LAY-3
  6
DASHED2
 62
     3
100
AcDbCircle
 10
399.294141
 20
139.705859
 30
0.0
 40
0.99
100
AcDbArc
 50
90.000019
 51
180.0
  0
ARC
  5
204
100
AcDbEntity
  8
LAY-3
  6
DASHED2
 62
     3
100
AcDbCircle
 10
396.522133
 20
142.477867
 30
0.0
 40
0.99
100
AcDbArc
 50
270.0
 51
359.99998
  0
ARC
  5
205
100
AcDbEntity
  8
LAY-3
  6
DASHED2
 62
     3
100
AcDbCircle
 10
396.522133
 20
139.705859
 30
0.0
 40
0.99
100
AcDbArc
 50
359.99998
 51
90.000019
  0
CIRCLE
  5
206
100
AcDbEntity
  8
LAY-3
  6
DASHED2
 62
     3
100
AcDbCircle
 10
397.908137
 20
141.091883
 30
0.0
 40
3.96
  0
ARC
  5
207
100
AcDbEntity
  8
LAY-3
  6
DASHDOT
 62
     1
100
AcDbCircle
 10
417.0
 20
122.0
 30
0.0
 40
26.999986
100
AcDbArc
 50
303.85168
 51
325.838261
  0
LINE
  5
208
100
AcDbEntity
  8
LAY-3
  6
DASHED2
 62
     3
100
AcDbLine
 10
435.695859
 20
100.631149
 30
0.0
 11
436.487867
 21
100.631149
 31
0.0
  0
LINE
  5
209
100
AcDbEntity
  8
LAY-3
  6
DASHED2
 62
     3
100
AcDbLine
 10
435.695859
 20
105.185125
 30
0.0
 11
436.487867
 21
105.185125
 31
0.0
  0
LINE
  5
20A
100
AcDbEntity
  8
LAY-3
  6
DASHED2
 62
     3
100
AcDbLine
 10
433.814875
 20
103.304141
 30
0.0
 11
433.814875
 21
102.512133
 31
0.0
  0
LINE
  5
20B
100
AcDbEntity
  8
LAY-3
  6
DASHED2
 62
     3
100
AcDbLine
 10
438.368871
 20
103.304141
 30
0.0
 11
438.368871
 21
102.512133
 31
0.0
  0
LINE
  5
20C
100
AcDbEntity
  8
LAY-3
  6
DASHED2
 62
     3
100
AcDbLine
 10
435.695859
 20
101.522133
 30
0.0
 11
435.695859
 21
100.631149
 31
0.0
  0
LINE
  5
20D
100
AcDbEntity
  8
LAY-3
  6
DASHED2
 62
     3
100
AcDbLine
 10
433.814855
 20
102.512133
 30
0.0
 11
434.705859
 21
102.512133
 31
0.0
  0
ARC
  5
20E
100
AcDbEntity
  8
LAY-3
  6
DASHED2
 62
     3
100
AcDbCircle
 10
434.705859
 20
101.522133
 30
0.0
 40
0.99
100
AcDbArc
 50
0.000018
 51
90.0
  0
LINE
  5
20F
100
AcDbEntity
  8
LAY-3
  6
DASHED2
 62
     3
100
AcDbLine
 10
437.477867
 20
102.512133
 30
0.0
 11
438.368851
 21
102.512133
 31
0.0
  0
LINE
  5
210
100
AcDbEntity
  8
LAY-3
  6
DASHED2
 62
     3
100
AcDbLine
 10
436.487867
 20
100.631109
 30
0.0
 11
436.487867
 21
101.522133
 31
0.0
  0
ARC
  5
211
100
AcDbEntity
  8
LAY-3
  6
DASHED2
 62
     3
100
AcDbCircle
 10
437.477867
 20
101.522133
 30
0.0
 40
0.99
100
AcDbArc
 50
90.0
 51
179.99998
  0
LINE
  5
212
100
AcDbEntity
  8
LAY-3
  6
DASHED2
 62
     3
100
AcDbLine
 10
438.368871
 20
103.304141
 30
0.0
 11
437.477867
 21
103.304141
 31
0.0
  0
LINE
  5
213
100
AcDbEntity
  8
LAY-3
  6
DASHED2
 62
     3
100
AcDbLine
 10
436.487867
 20
104.294141
 30
0.0
 11
436.487867
 21
105.185125
 31
0.0
  0
ARC
  5
214
100
AcDbEntity
  8
LAY-3
  6
DASHED2
 62
     3
100
AcDbCircle
 10
437.477867
 20
104.294141
 30
0.0
 40
0.99
100
AcDbArc
 50
179.99998
 51
270.000019
  0
LINE
  5
215
100
AcDbEntity
  8
LAY-3
  6
DASHED2
 62
     3
100
AcDbLine
 10
435.695859
 20
105.185125
 30
0.0
 11
435.695859
 21
104.294141
 31
0.0
  0
LINE
  5
216
100
AcDbEntity
  8
LAY-3
  6
DASHED2
 62
     3
100
AcDbLine
 10
434.705859
 20
103.304141
 30
0.0
 11
433.814875
 21
103.304141
 31
0.0
  0
ARC
  5
217
100
AcDbEntity
  8
LAY-3
  6
DASHED2
 62
     3
100
AcDbCircle
 10
434.705859
 20
104.294141
 30
0.0
 40
0.99
100
AcDbArc
 50
270.000019
 51
0.0
  0
ARC
  5
218
100
AcDbEntity
  8
LAY-3
  6
DASHED2
 62
     3
100
AcDbCircle
 10
437.477867
 20
101.522133
 30
0.0
 40
0.99
100
AcDbArc
 50
90.0
 51
179.99998
  0
ARC
  5
219
100
AcDbEntity
  8
LAY-3
  6
DASHED2
 62
     3
100
AcDbCircle
 10
437.477867
 20
104.294141
 30
0.0
 40
0.99
100
AcDbArc
 50
179.99998
 51
270.000019
  0
CIRCLE
  5
21A
100
AcDbEntity
  8
LAY-3
  6
DASHED2
 62
     3
100
AcDbCircle
 10
436.091863
 20
102.908117
 30
0.0
 40
3.96
  0
ARC
  5
21B
100
AcDbEntity
  8
LAY-3
  6
DASHDOT
 62
     1
100
AcDbCircle
 10
417.0
 20
122.0
 30
0.0
 40
26.999986
100
AcDbArc
 50
214.161739
 51
236.14832
  0
LINE
  5
21C
100
AcDbEntity
  8
LAY-3
  6
DASHED2
 62
     3
100
AcDbLine
 10
398.304141
 20
100.631149
 30
0.0
 11
397.512133
 21
100.631149
 31
0.0
  0
LINE
  5
21D
100
AcDbEntity
  8
LAY-3
  6
DASHED2
 62
     3
100
AcDbLine
 10
398.304141
 20
105.185125
 30
0.0
 11
397.512133
 21
105.185125
 31
0.0
  0
LINE
  5
21E
100
AcDbEntity
  8
LAY-3
  6
DASHED2
 62
     3
100
AcDbLine
 10
400.185125
 20
103.304141
 30
0.0
 11
400.185125
 21
102.512133
 31
0.0
  0
LINE
  5
21F
100
AcDbEntity
  8
LAY-3
  6
DASHED2
 62
     3
100
AcDbLine
 10
395.631129
 20
103.304141
 30
0.0
 11
395.631129
 21
102.512133
 31
0.0
  0
LINE
  5
220
100
AcDbEntity
  8
LAY-3
  6
DASHED2
 62
     3
100
AcDbLine
 10
398.304141
 20
101.522133
 30
0.0
 11
398.304141
 21
100.631149
 31
0.0
  0
LINE
  5
221
100
AcDbEntity
  8
LAY-3
  6
DASHED2
 62
     3
100
AcDbLine
 10
400.185145
 20
102.512133
 30
0.0
 11
399.294141
 21
102.512133
 31
0.0
  0
ARC
  5
222
100
AcDbEntity
  8
LAY-3
  6
DASHED2
 62
     3
100
AcDbCircle
 10
399.294141
 20
101.522133
 30
0.0
 40
0.99
100
AcDbArc
 50
90.0
 51
179.999982
  0
LINE
  5
223
100
AcDbEntity
  8
LAY-3
  6
DASHED2
 62
     3
100
AcDbLine
 10
396.522133
 20
102.512133
 30
0.0
 11
395.631149
 21
102.512133
 31
0.0
  0
LINE
  5
224
100
AcDbEntity
  8
LAY-3
  6
DASHED2
 62
     3
100
AcDbLine
 10
397.512133
 20
100.631109
 30
0.0
 11
397.512133
 21
101.522133
 31
0.0
  0
ARC
  5
225
100
AcDbEntity
  8
LAY-3
  6
DASHED2
 62
     3
100
AcDbCircle
 10
396.522133
 20
101.522133
 30
0.0
 40
0.99
100
AcDbArc
 50
0.00002
 51
90.0
  0
LINE
  5
226
100
AcDbEntity
  8
LAY-3
  6
DASHED2
 62
     3
100
AcDbLine
 10
395.631129
 20
103.304141
 30
0.0
 11
396.522133
 21
103.304141
 31
0.0
  0
LINE
  5
227
100
AcDbEntity
  8
LAY-3
  6
DASHED2
 62
     3
100
AcDbLine
 10
397.512133
 20
104.294141
 30
0.0
 11
397.512133
 21
105.185125
 31
0.0
  0
ARC
  5
228
100
AcDbEntity
  8
LAY-3
  6
DASHED2
 62
     3
100
AcDbCircle
 10
396.522133
 20
104.294141
 30
0.0
 40
0.99
100
AcDbArc
 50
269.999981
 51
0.00002
  0
LINE
  5
229
100
AcDbEntity
  8
LAY-3
  6
DASHED2
 62
     3
100
AcDbLine
 10
398.304141
 20
105.185125
 30
0.0
 11
398.304141
 21
104.294141
 31
0.0
  0
LINE
  5
22A
100
AcDbEntity
  8
LAY-3
  6
DASHED2
 62
     3
100
AcDbLine
 10
399.294141
 20
103.304141
 30
0.0
 11
400.185125
 21
103.304141
 31
0.0
  0
ARC
  5
22B
100
AcDbEntity
  8
LAY-3
  6
DASHED2
 62
     3
100
AcDbCircle
 10
399.294141
 20
104.294141
 30
0.0
 40
0.99
100
AcDbArc
 50
180.0
 51
269.999981
  0
ARC
  5
22C
100
AcDbEntity
  8
LAY-3
  6
DASHED2
 62
     3
100
AcDbCircle
 10
396.522133
 20
101.522133
 30
0.0
 40
0.99
100
AcDbArc
 50
0.00002
 51
90.0
  0
ARC
  5
22D
100
AcDbEntity
  8
LAY-3
  6
DASHED2
 62
     3
100
AcDbCircle
 10
396.522133
 20
104.294141
 30
0.0
 40
0.99
100
AcDbArc
 50
269.999981
 51
0.00002
  0
CIRCLE
  5
22E
100
AcDbEntity
  8
LAY-3
  6
DASHED2
 62
     3
100
AcDbCircle
 10
397.908137
 20
102.908117
 30
0.0
 40
3.96
  0
LINE
  5
22F
100
AcDbEntity
  8
LAY-3
  6
CONTINUOUS
 62
     3
100
AcDbLine
 10
387.0
 20
162.0
 30
0.0
 11
467.0
 21
162.0
 31
0.0
  0
LINE
  5
230
100
AcDbEntity
  8
LAY-3
  6
CONTINUOUS
 62
     3
100
AcDbLine
 10
387.0
 20
162.0
 30
0.0
 11
387.0
 21
82.0
 31
0.0
  0
LINE
  5
231
100
AcDbEntity
  8
LAY-3
  6
CONTINUOUS
 62
     3
100
AcDbLine
 10
387.0
 20
82.0
 30
0.0
 11
467.0
 21
82.0
 31
0.0
  0
LINE
  5
232
100
AcDbEntity
  8
LAY-3
  6
CONTINUOUS
 62
     3
100
AcDbLine
 10
467.0
 20
162.0
 30
0.0
 11
467.0
 21
82.0
 31
0.0
  0
LINE
  5
233
100
AcDbEntity
  8
LAY-3
  6
DASHDOT
 62
     1
100
AcDbLine
 10
431.1
 20
136.1
 30
0.0
 11
439.18473
 21
144.184731
 31
0.0
  0
LINE
  5
234
100
AcDbEntity
  8
LAY-3
  6
CONTINUOUS
 62
     1
100
AcDbLine
 10
432.160125
 20
137.160125
 30
0.0
 11
441.85
 21
146.85
 31
0.0
  0
LINE
  5
235
100
AcDbEntity
  8
LAY-3
  6
DASHDOT
 62
     1
100
AcDbLine
 10
402.95
 20
136.05
 30
0.0
 11
393.05
 21
145.95
 31
0.0
  0
ARC
  5
236
100
AcDbEntity
  8
LAY-3
  6
DASHDOT
 62
     1
100
AcDbCircle
 10
417.0
 20
122.0
 30
0.0
 40
26.999986
100
AcDbArc
 50
123.85168
 51
145.860815
  0
LINE
  5
237
100
AcDbEntity
  8
LAY-3
  6
DASHDOT
 62
     1
100
AcDbLine
 10
432.3
 20
106.7
 30
0.0
 11
439.65
 21
99.35
 31
0.0
  0
LINE
  5
238
100
AcDbEntity
  8
LAY-3
  6
DASHDOT
 62
     1
100
AcDbLine
 10
402.35
 20
107.35
 30
0.0
 11
393.665476
 21
98.665476
 31
0.0
  0
LINE
  5
239
100
AcDbEntity
  8
LAY-3
  6
CONTINUOUS
 62
     3
100
AcDbLine
 10
79.0
 20
235.2
 30
0.0
 11
99.0
 21
235.2
 31
0.0
  0
LINE
  5
23A
100
AcDbEntity
  8
LAY-3
  6
CONTINUOUS
 62
     3
100
AcDbLine
 10
76.5
 20
234.2
 30
0.0
 11
101.5
 21
234.2
 31
0.0
  0
LINE
  5
23B
100
AcDbEntity
  8
LAY-3
  6
CONTINUOUS
 62
     3
100
AcDbLine
 10
101.5
 20
234.2
 30
0.0
 11
101.5
 21
227.2
 31
0.0
  0
LINE
  5
23C
100
AcDbEntity
  8
LAY-3
  6
CONTINUOUS
 62
     3
100
AcDbLine
 10
76.5
 20
234.2
 30
0.0
 11
76.5
 21
227.2
 31
0.0
  0
LINE
  5
23D
100
AcDbEntity
  8
LAY-3
  6
DASHED2
 62
     3
100
AcDbLine
 10
100.35
 20
255.2
 30
0.0
 11
77.65
 21
255.2
 31
0.0
  0
LINE
  5
23E
100
AcDbEntity
  8
LAY-3
  6
DASHED2
 62
     3
100
AcDbLine
 10
77.65
 20
255.2
 30
0.0
 11
76.65
 21
254.2
 31
0.0
  0
LINE
  5
23F
100
AcDbEntity
  8
LAY-3
  6
DASHED2
 62
     3
100
AcDbLine
 10
101.35
 20
254.2
 30
0.0
 11
100.35
 21
255.2
 31
0.0
  0
LINE
  5
240
100
AcDbEntity
  8
LAY-3
  6
DASHED2
 62
     3
100
AcDbLine
 10
76.65
 20
254.2
 30
0.0
 11
77.968413
 21
254.2
 31
0.0
  0
LINE
  5
241
100
AcDbEntity
  8
LAY-3
  6
DASHED2
 62
     3
100
AcDbLine
 10
101.35
 20
254.2
 30
0.0
 11
100.031587
 21
254.2
 31
0.0
  0
LINE
  5
242
100
AcDbEntity
  8
LAY-3
  6
DASHED2
 62
     3
100
AcDbLine
 10
101.2
 20
254.2
 30
0.0
 11
100.031587
 21
254.2
 31
0.0
  0
LINE
  5
243
100
AcDbEntity
  8
LAY-3
  6
DASHED2
 62
     3
100
AcDbLine
 10
101.35
 20
237.199939
 30
0.0
 11
101.35
 21
254.2
 31
0.0
  0
LINE
  5
244
100
AcDbEntity
  8
LAY-3
  6
DASHED2
 62
     3
100
AcDbLine
 10
77.914119
 20
255.2
 30
0.0
 11
78.891415
 21
237.199939
 31
0.0
  0
LINE
  5
245
100
AcDbEntity
  8
LAY-3
  6
DASHED2
 62
     3
100
AcDbLine
 10
76.65
 20
237.199939
 30
0.0
 11
76.65
 21
254.2
 31
0.0
  0
LINE
  5
246
100
AcDbEntity
  8
LAY-3
  6
DASHED2
 62
     3
100
AcDbLine
 10
100.085881
 20
255.2
 30
0.0
 11
99.108585
 21
237.199939
 31
0.0
  0
LINE
  5
247
100
AcDbEntity
  8
LAY-3
  6
CONTINUOUS
 62
     3
100
AcDbLine
 10
101.35
 20
237.199939
 30
0.0
 11
101.35
 21
234.2
 31
0.0
  0
LINE
  5
248
100
AcDbEntity
  8
LAY-3
  6
CONTINUOUS
 62
     3
100
AcDbLine
 10
76.65
 20
237.199939
 30
0.0
 11
76.65
 21
234.2
 31
0.0
  0
LINE
  5
249
100
AcDbEntity
  8
LAY-3
  6
CONTINUOUS
 62
     3
100
AcDbLine
 10
99.0
 20
235.2
 30
0.0
 11
99.108585
 21
237.199939
 31
0.0
  0
LINE
  5
24A
100
AcDbEntity
  8
LAY-3
  6
CONTINUOUS
 62
     3
100
AcDbLine
 10
79.0
 20
235.2
 30
0.0
 11
78.891415
 21
237.199939
 31
0.0
  0
LINE
  5
24B
100
AcDbEntity
  8
LAY-3
  6
CONTINUOUS
 62
     3
100
AcDbLine
 10
59.0
 20
227.2
 30
0.0
 11
139.0
 21
227.2
 31
0.0
  0
LINE
  5
24C
100
AcDbEntity
  8
LAY-3
  6
CONTINUOUS
 62
     3
100
AcDbLine
 10
59.0
 20
225.7
 30
0.0
 11
139.0
 21
225.7
 31
0.0
  0
LINE
  5
24D
100
AcDbEntity
  8
LAY-3
  6
CONTINUOUS
 62
     3
100
AcDbLine
 10
59.0
 20
227.2
 30
0.0
 11
59.0
 21
225.7
 31
0.0
  0
LINE
  5
24E
100
AcDbEntity
  8
LAY-3
  6
CONTINUOUS
 62
     3
100
AcDbLine
 10
139.0
 20
227.2
 30
0.0
 11
139.0
 21
225.7
 31
0.0
  0
LINE
  5
24F
100
AcDbEntity
  8
LAY-3
  6
CONTINUOUS
 62
     3
100
AcDbLine
 10
64.0
 20
175.7
 30
0.0
 11
114.0
 21
175.7
 31
0.0
  0
LINE
  5
250
100
AcDbEntity
  8
LAY-3
  6
CONTINUOUS
 62
     3
100
AcDbLine
 10
64.0
 20
225.7
 30
0.0
 11
64.0
 21
175.7
 31
0.0
  0
LINE
  5
251
100
AcDbEntity
  8
LAY-3
  6
CONTINUOUS
 62
     3
100
AcDbLine
 10
114.0
 20
225.7
 30
0.0
 11
114.0
 21
175.7
 31
0.0
  0
LINE
  5
252
100
AcDbEntity
  8
LAY-3
  6
CONTINUOUS
 62
     3
100
AcDbLine
 10
67.5
 20
225.7
 30
0.0
 11
67.5
 21
175.7
 31
0.0
  0
LINE
  5
253
100
AcDbEntity
  8
LAY-3
  6
CONTINUOUS
 62
     3
100
AcDbLine
 10
110.5
 20
225.7
 30
0.0
 11
110.5
 21
175.7
 31
0.0
  0
LINE
  5
254
100
AcDbEntity
  8
LAY-3
  6
CONTINUOUS
 62
     3
100
AcDbLine
 10
685.6
 20
227.19981
 30
0.0
 11
765.6
 21
227.20019
 31
0.0
  0
LINE
  5
255
100
AcDbEntity
  8
LAY-3
  6
CONTINUOUS
 62
     3
100
AcDbLine
 10
685.6
 20
225.7
 30
0.0
 11
765.6
 21
225.7
 31
0.0
  0
LINE
  5
256
100
AcDbEntity
  8
LAY-3
  6
CONTINUOUS
 62
     3
100
AcDbLine
 10
685.6
 20
227.199822
 30
0.0
 11
685.6
 21
225.7
 31
0.0
  0
LINE
  5
257
100
AcDbEntity
  8
LAY-3
  6
CONTINUOUS
 62
     3
100
AcDbLine
 10
765.6
 20
227.200183
 30
0.0
 11
765.6
 21
225.7
 31
0.0
  0
LINE
  5
258
100
AcDbEntity
  8
LAY-3
  6
CONTINUOUS
 62
     3
100
AcDbLine
 10
700.6
 20
175.7
 30
0.0
 11
750.6
 21
175.7
 31
0.0
  0
LINE
  5
259
100
AcDbEntity
  8
LAY-3
  6
CONTINUOUS
 62
     3
100
AcDbLine
 10
700.6
 20
225.7
 30
0.0
 11
700.6
 21
175.7
 31
0.0
  0
LINE
  5
25A
100
AcDbEntity
  8
LAY-3
  6
CONTINUOUS
 62
     3
100
AcDbLine
 10
750.6
 20
225.7
 30
0.0
 11
750.6
 21
175.7
 31
0.0
  0
LINE
  5
25B
100
AcDbEntity
  8
LAY-3
  6
CONTINUOUS
 62
     3
100
AcDbLine
 10
704.1
 20
225.7
 30
0.0
 11
704.1
 21
175.7
 31
0.0
  0
LINE
  5
25C
100
AcDbEntity
  8
LAY-3
  6
CONTINUOUS
 62
     3
100
AcDbLine
 10
747.1
 20
225.7
 30
0.0
 11
747.1
 21
175.7
 31
0.0
  0
LINE
  5
25D
100
AcDbEntity
  8
LAY-3
  6
CONTINUOUS
 62
     3
100
AcDbLine
 10
731.85
 20
235.200178
 30
0.0
 11
737.95
 21
235.200178
 31
0.0
  0
LINE
  5
25E
100
AcDbEntity
  8
LAY-3
  6
CONTINUOUS
 62
     3
100
AcDbLine
 10
713.25
 20
235.200178
 30
0.0
 11
719.35
 21
235.200178
 31
0.0
  0
LINE
  5
25F
100
AcDbEntity
  8
LAY-3
  6
CONTINUOUS
 62
     3
100
AcDbLine
 10
713.25
 20
235.200178
 30
0.0
 11
713.25
 21
234.200178
 31
0.0
  0
LINE
  5
260
100
AcDbEntity
  8
LAY-3
  6
CONTINUOUS
 62
     3
100
AcDbLine
 10
737.95
 20
234.200178
 30
0.0
 11
737.95
 21
235.200178
 31
0.0
  0
LINE
  5
261
100
AcDbEntity
  8
LAY-3
  6
CONTINUOUS
 62
     3
100
AcDbLine
 10
713.1
 20
234.200178
 30
0.0
 11
738.1
 21
234.200178
 31
0.0
  0
LINE
  5
262
100
AcDbEntity
  8
LAY-3
  6
CONTINUOUS
 62
     3
100
AcDbLine
 10
738.1
 20
234.200178
 30
0.0
 11
738.1
 21
227.200059
 31
0.0
  0
LINE
  5
263
100
AcDbEntity
  8
LAY-3
  6
CONTINUOUS
 62
     3
100
AcDbLine
 10
713.1
 20
234.200178
 30
0.0
 11
713.1
 21
227.199941
 31
0.0
  0
LINE
  5
264
100
AcDbEntity
  8
LAY-3
  6
DASHED2
 62
     3
100
AcDbLine
 10
721.012285
 20
254.200178
 30
0.0
 11
730.187715
 21
254.200178
 31
0.0
  0
LINE
  5
265
100
AcDbEntity
  8
LAY-3
  6
CONTINUOUS
 62
     3
100
AcDbLine
 10
719.524962
 20
237.2
 30
0.0
 11
719.35
 21
235.200178
 31
0.0
  0
LINE
  5
266
100
AcDbEntity
  8
LAY-3
  6
CONTINUOUS
 62
     3
100
AcDbLine
 10
731.675038
 20
237.2
 30
0.0
 11
731.85
 21
235.200178
 31
0.0
  0
LINE
  5
267
100
AcDbEntity
  8
LAY-3
  6
DASHED2
 62
     3
100
AcDbLine
 10
730.100227
 20
255.200178
 30
0.0
 11
721.099773
 21
255.200178
 31
0.0
  0
LINE
  5
268
100
AcDbEntity
  8
LAY-3
  6
DASHED2
 62
     3
100
AcDbLine
 10
730.100227
 20
255.200178
 30
0.0
 11
731.675038
 21
237.2
 31
0.0
  0
LINE
  5
269
100
AcDbEntity
  8
LAY-3
  6
DASHED2
 62
     3
100
AcDbLine
 10
721.099773
 20
255.200178
 30
0.0
 11
719.524962
 21
237.2
 31
0.0
  0
LINE
  5
26A
100
AcDbEntity
  8
LAY-4
  6
DASHED2
 62
     3
100
AcDbLine
 10
170.35
 20
142.0
 30
0.0
 11
181.65
 21
142.0
 31
0.0
  0
LINE
  5
26B
100
AcDbEntity
  8
LAY-4
  6
DASHED2
 62
     3
100
AcDbLine
 10
173.0
 20
138.7
 30
0.0
 11
179.0
 21
138.7
 31
0.0
  0
LINE
  5
26C
100
AcDbEntity
  8
LAY-4
  6
DASHED2
 62
     3
100
AcDbLine
 10
179.0
 20
138.7
 30
0.0
 11
181.65
 21
141.35
 31
0.0
  0
LINE
  5
26D
100
AcDbEntity
  8
LAY-4
  6
DASHED2
 62
     3
100
AcDbLine
 10
173.0
 20
138.7
 30
0.0
 11
170.35
 21
141.35
 31
0.0
  0
LINE
  5
26E
100
AcDbEntity
  8
LAY-4
  6
DASHED2
 62
     3
100
AcDbLine
 10
181.65
 20
141.35
 30
0.0
 11
170.35
 21
141.35
 31
0.0
  0
LINE
  5
26F
100
AcDbEntity
  8
LAY-4
  6
DASHED2
 62
     3
100
AcDbLine
 10
181.65
 20
141.35
 30
0.0
 11
181.65
 21
142.0
 31
0.0
  0
LINE
  5
270
100
AcDbEntity
  8
LAY-4
  6
DASHED2
 62
     3
100
AcDbLine
 10
170.35
 20
141.35
 30
0.0
 11
170.35
 21
142.0
 31
0.0
  0
LINE
  5
271
100
AcDbEntity
  8
LAY-4
  6
DASHED2
 62
     3
100
AcDbLine
 10
173.0
 20
122.0
 30
0.0
 11
179.0
 21
122.0
 31
0.0
  0
LINE
  5
272
100
AcDbEntity
  8
LAY-4
  6
DASHED2
 62
     3
100
AcDbLine
 10
179.0
 20
122.0
 30
0.0
 11
179.0
 21
138.7
 31
0.0
  0
LINE
  5
273
100
AcDbEntity
  8
LAY-4
  6
DASHED2
 62
     3
100
AcDbLine
 10
173.0
 20
122.0
 30
0.0
 11
173.0
 21
138.7
 31
0.0
  0
LINE
  5
274
100
AcDbEntity
  8
LAY-4
  6
DASHED2
 62
     1
100
AcDbLine
 10
178.4
 20
122.0
 30
0.0
 11
178.4
 21
138.7
 31
0.0
  0
LINE
  5
275
100
AcDbEntity
  8
LAY-4
  6
DASHED2
 62
     1
100
AcDbLine
 10
173.6
 20
122.0
 30
0.0
 11
173.6
 21
138.7
 31
0.0
  0
LINE
  5
276
100
AcDbEntity
  8
LAY-4
  6
DASHED2
 62
     3
100
AcDbLine
 10
154.65
 20
102.0
 30
0.0
 11
143.35
 21
102.0
 31
0.0
  0
LINE
  5
277
100
AcDbEntity
  8
LAY-4
  6
DASHED2
 62
     3
100
AcDbLine
 10
152.0
 20
105.3
 30
0.0
 11
146.0
 21
105.3
 31
0.0
  0
LINE
  5
278
100
AcDbEntity
  8
LAY-4
  6
DASHED2
 62
     3
100
AcDbLine
 10
146.0
 20
105.3
 30
0.0
 11
143.35
 21
102.65
 31
0.0
  0
LINE
  5
279
100
AcDbEntity
  8
LAY-4
  6
DASHED2
 62
     3
100
AcDbLine
 10
152.0
 20
105.3
 30
0.0
 11
154.65
 21
102.65
 31
0.0
  0
LINE
  5
27A
100
AcDbEntity
  8
LAY-4
  6
DASHED2
 62
     3
100
AcDbLine
 10
143.35
 20
102.65
 30
0.0
 11
154.65
 21
102.65
 31
0.0
  0
LINE
  5
27B
100
AcDbEntity
  8
LAY-4
  6
DASHED2
 62
     3
100
AcDbLine
 10
143.35
 20
102.65
 30
0.0
 11
143.35
 21
102.0
 31
0.0
  0
LINE
  5
27C
100
AcDbEntity
  8
LAY-4
  6
DASHED2
 62
     3
100
AcDbLine
 10
154.65
 20
102.65
 30
0.0
 11
154.65
 21
102.0
 31
0.0
  0
LINE
  5
27D
100
AcDbEntity
  8
LAY-4
  6
DASHED2
 62
     3
100
AcDbLine
 10
152.0
 20
122.0
 30
0.0
 11
146.0
 21
122.0
 31
0.0
  0
LINE
  5
27E
100
AcDbEntity
  8
LAY-4
  6
DASHED2
 62
     3
100
AcDbLine
 10
152.0
 20
122.0
 30
0.0
 11
152.0
 21
105.3
 31
0.0
  0
LINE
  5
27F
100
AcDbEntity
  8
LAY-4
  6
DASHED2
 62
     1
100
AcDbLine
 10
151.4
 20
122.0
 30
0.0
 11
151.4
 21
105.3
 31
0.0
  0
LINE
  5
280
100
AcDbEntity
  8
LAY-4
  6
DASHED2
 62
     1
100
AcDbLine
 10
146.6
 20
122.0
 30
0.0
 11
146.6
 21
105.3
 31
0.0
  0
LINE
  5
281
100
AcDbEntity
  8
LAY-4
  6
DASHED2
 62
     3
100
AcDbLine
 10
146.0
 20
122.0
 30
0.0
 11
146.0
 21
105.3
 31
0.0
  0
LINE
  5
282
100
AcDbEntity
  8
LAY-4
  6
DASHED2
 62
     3
100
AcDbLine
 10
208.65
 20
102.0
 30
0.0
 11
197.35
 21
102.0
 31
0.0
  0
LINE
  5
283
100
AcDbEntity
  8
LAY-4
  6
DASHED2
 62
     3
100
AcDbLine
 10
206.0
 20
105.3
 30
0.0
 11
200.0
 21
105.3
 31
0.0
  0
LINE
  5
284
100
AcDbEntity
  8
LAY-4
  6
DASHED2
 62
     3
100
AcDbLine
 10
200.0
 20
105.3
 30
0.0
 11
197.35
 21
102.65
 31
0.0
  0
LINE
  5
285
100
AcDbEntity
  8
LAY-4
  6
DASHED2
 62
     3
100
AcDbLine
 10
206.0
 20
105.3
 30
0.0
 11
208.65
 21
102.65
 31
0.0
  0
LINE
  5
286
100
AcDbEntity
  8
LAY-4
  6
DASHED2
 62
     3
100
AcDbLine
 10
197.35
 20
102.65
 30
0.0
 11
208.65
 21
102.65
 31
0.0
  0
LINE
  5
287
100
AcDbEntity
  8
LAY-4
  6
DASHED2
 62
     3
100
AcDbLine
 10
197.35
 20
102.65
 30
0.0
 11
197.35
 21
102.0
 31
0.0
  0
LINE
  5
288
100
AcDbEntity
  8
LAY-4
  6
DASHED2
 62
     3
100
AcDbLine
 10
208.65
 20
102.65
 30
0.0
 11
208.65
 21
102.0
 31
0.0
  0
LINE
  5
289
100
AcDbEntity
  8
LAY-4
  6
DASHED2
 62
     3
100
AcDbLine
 10
206.0
 20
122.0
 30
0.0
 11
200.0
 21
122.0
 31
0.0
  0
LINE
  5
28A
100
AcDbEntity
  8
LAY-4
  6
DASHED2
 62
     3
100
AcDbLine
 10
206.0
 20
122.0
 30
0.0
 11
206.0
 21
105.3
 31
0.0
  0
LINE
  5
28B
100
AcDbEntity
  8
LAY-4
  6
DASHED2
 62
     1
100
AcDbLine
 10
205.4
 20
122.0
 30
0.0
 11
205.4
 21
105.3
 31
0.0
  0
LINE
  5
28C
100
AcDbEntity
  8
LAY-4
  6
DASHED2
 62
     1
100
AcDbLine
 10
200.6
 20
122.0
 30
0.0
 11
200.6
 21
105.3
 31
0.0
  0
LINE
  5
28D
100
AcDbEntity
  8
LAY-4
  6
DASHED2
 62
     3
100
AcDbLine
 10
200.0
 20
122.0
 30
0.0
 11
200.0
 21
105.3
 31
0.0
  0
LINE
  5
28E
100
AcDbEntity
  8
LAY-4
  6
DASHED2
 62
     3
100
AcDbLine
 10
224.35
 20
142.0
 30
0.0
 11
235.65
 21
142.0
 31
0.0
  0
LINE
  5
28F
100
AcDbEntity
  8
LAY-4
  6
DASHED2
 62
     3
100
AcDbLine
 10
227.0
 20
138.7
 30
0.0
 11
233.0
 21
138.7
 31
0.0
  0
LINE
  5
290
100
AcDbEntity
  8
LAY-4
  6
DASHED2
 62
     3
100
AcDbLine
 10
233.0
 20
138.7
 30
0.0
 11
235.65
 21
141.35
 31
0.0
  0
LINE
  5
291
100
AcDbEntity
  8
LAY-4
  6
DASHED2
 62
     3
100
AcDbLine
 10
227.0
 20
138.7
 30
0.0
 11
224.35
 21
141.35
 31
0.0
  0
LINE
  5
292
100
AcDbEntity
  8
LAY-4
  6
DASHED2
 62
     3
100
AcDbLine
 10
235.65
 20
141.35
 30
0.0
 11
224.35
 21
141.35
 31
0.0
  0
LINE
  5
293
100
AcDbEntity
  8
LAY-4
  6
DASHED2
 62
     3
100
AcDbLine
 10
235.65
 20
141.35
 30
0.0
 11
235.65
 21
142.0
 31
0.0
  0
LINE
  5
294
100
AcDbEntity
  8
LAY-4
  6
DASHED2
 62
     3
100
AcDbLine
 10
224.35
 20
141.35
 30
0.0
 11
224.35
 21
142.0
 31
0.0
  0
LINE
  5
295
100
AcDbEntity
  8
LAY-4
  6
DASHED2
 62
     3
100
AcDbLine
 10
227.0
 20
122.0
 30
0.0
 11
233.0
 21
122.0
 31
0.0
  0
LINE
  5
296
100
AcDbEntity
  8
LAY-4
  6
DASHED2
 62
     3
100
AcDbLine
 10
233.0
 20
122.0
 30
0.0
 11
233.0
 21
138.7
 31
0.0
  0
LINE
  5
297
100
AcDbEntity
  8
LAY-4
  6
DASHED2
 62
     3
100
AcDbLine
 10
227.0
 20
122.0
 30
0.0
 11
227.0
 21
138.7
 31
0.0
  0
LINE
  5
298
100
AcDbEntity
  8
LAY-4
  6
DASHED2
 62
     1
100
AcDbLine
 10
232.4
 20
122.0
 30
0.0
 11
232.4
 21
138.7
 31
0.0
  0
LINE
  5
299
100
AcDbEntity
  8
LAY-4
  6
DASHED2
 62
     1
100
AcDbLine
 10
227.6
 20
122.0
 30
0.0
 11
227.6
 21
138.7
 31
0.0
  0
LINE
  5
29A
100
AcDbEntity
  8
LAY-4
  6
DASHED2
 62
     3
100
AcDbLine
 10
482.65
 20
102.0
 30
0.0
 11
471.35
 21
102.0
 31
0.0
  0
LINE
  5
29B
100
AcDbEntity
  8
LAY-4
  6
DASHED2
 62
     3
100
AcDbLine
 10
480.0
 20
105.3
 30
0.0
 11
474.0
 21
105.3
 31
0.0
  0
LINE
  5
29C
100
AcDbEntity
  8
LAY-4
  6
DASHED2
 62
     3
100
AcDbLine
 10
474.0
 20
105.3
 30
0.0
 11
471.35
 21
102.65
 31
0.0
  0
LINE
  5
29D
100
AcDbEntity
  8
LAY-4
  6
DASHED2
 62
     3
100
AcDbLine
 10
480.0
 20
105.3
 30
0.0
 11
482.65
 21
102.65
 31
0.0
  0
LINE
  5
29E
100
AcDbEntity
  8
LAY-4
  6
DASHED2
 62
     3
100
AcDbLine
 10
471.35
 20
102.65
 30
0.0
 11
482.65
 21
102.65
 31
0.0
  0
LINE
  5
29F
100
AcDbEntity
  8
LAY-4
  6
DASHED2
 62
     3
100
AcDbLine
 10
471.35
 20
102.65
 30
0.0
 11
471.35
 21
102.0
 31
0.0
  0
LINE
  5
2A0
100
AcDbEntity
  8
LAY-4
  6
DASHED2
 62
     3
100
AcDbLine
 10
482.65
 20
102.65
 30
0.0
 11
482.65
 21
102.0
 31
0.0
  0
LINE
  5
2A1
100
AcDbEntity
  8
LAY-4
  6
DASHED2
 62
     3
100
AcDbLine
 10
480.0
 20
122.0
 30
0.0
 11
474.0
 21
122.0
 31
0.0
  0
LINE
  5
2A2
100
AcDbEntity
  8
LAY-4
  6
DASHED2
 62
     3
100
AcDbLine
 10
480.0
 20
122.0
 30
0.0
 11
480.0
 21
105.3
 31
0.0
  0
LINE
  5
2A3
100
AcDbEntity
  8
LAY-4
  6
DASHED2
 62
     1
100
AcDbLine
 10
479.4
 20
122.0
 30
0.0
 11
479.4
 21
105.3
 31
0.0
  0
LINE
  5
2A4
100
AcDbEntity
  8
LAY-4
  6
DASHED2
 62
     1
100
AcDbLine
 10
474.6
 20
122.0
 30
0.0
 11
474.6
 21
105.3
 31
0.0
  0
LINE
  5
2A5
100
AcDbEntity
  8
LAY-4
  6
DASHED2
 62
     3
100
AcDbLine
 10
474.0
 20
122.0
 30
0.0
 11
474.0
 21
105.3
 31
0.0
  0
LINE
  5
2A6
100
AcDbEntity
  8
LAY-4
  6
DASHED2
 62
     3
100
AcDbLine
 10
498.35
 20
142.0
 30
0.0
 11
509.65
 21
142.0
 31
0.0
  0
LINE
  5
2A7
100
AcDbEntity
  8
LAY-4
  6
DASHED2
 62
     3
100
AcDbLine
 10
501.0
 20
138.7
 30
0.0
 11
507.0
 21
138.7
 31
0.0
  0
LINE
  5
2A8
100
AcDbEntity
  8
LAY-4
  6
DASHED2
 62
     3
100
AcDbLine
 10
507.0
 20
138.7
 30
0.0
 11
509.65
 21
141.35
 31
0.0
  0
LINE
  5
2A9
100
AcDbEntity
  8
LAY-4
  6
DASHED2
 62
     3
100
AcDbLine
 10
501.0
 20
138.7
 30
0.0
 11
498.35
 21
141.35
 31
0.0
  0
LINE
  5
2AA
100
AcDbEntity
  8
LAY-4
  6
DASHED2
 62
     3
100
AcDbLine
 10
509.65
 20
141.35
 30
0.0
 11
498.35
 21
141.35
 31
0.0
  0
LINE
  5
2AB
100
AcDbEntity
  8
LAY-4
  6
DASHED2
 62
     3
100
AcDbLine
 10
509.65
 20
141.35
 30
0.0
 11
509.65
 21
142.0
 31
0.0
  0
LINE
  5
2AC
100
AcDbEntity
  8
LAY-4
  6
DASHED2
 62
     3
100
AcDbLine
 10
498.35
 20
141.35
 30
0.0
 11
498.35
 21
142.0
 31
0.0
  0
LINE
  5
2AD
100
AcDbEntity
  8
LAY-4
  6
DASHED2
 62
     3
100
AcDbLine
 10
501.0
 20
122.0
 30
0.0
 11
507.0
 21
122.0
 31
0.0
  0
LINE
  5
2AE
100
AcDbEntity
  8
LAY-4
  6
DASHED2
 62
     3
100
AcDbLine
 10
507.0
 20
122.0
 30
0.0
 11
507.0
 21
138.7
 31
0.0
  0
LINE
  5
2AF
100
AcDbEntity
  8
LAY-4
  6
DASHED2
 62
     3
100
AcDbLine
 10
501.0
 20
122.0
 30
0.0
 11
501.0
 21
138.7
 31
0.0
  0
LINE
  5
2B0
100
AcDbEntity
  8
LAY-4
  6
DASHED2
 62
     1
100
AcDbLine
 10
506.4
 20
122.0
 30
0.0
 11
506.4
 21
138.7
 31
0.0
  0
LINE
  5
2B1
100
AcDbEntity
  8
LAY-4
  6
DASHED2
 62
     1
100
AcDbLine
 10
501.6
 20
122.0
 30
0.0
 11
501.6
 21
138.7
 31
0.0
  0
LINE
  5
2B2
100
AcDbEntity
  8
LAY-4
  6
DASHED2
 62
     3
100
AcDbLine
 10
536.65
 20
102.0
 30
0.0
 11
525.35
 21
102.0
 31
0.0
  0
LINE
  5
2B3
100
AcDbEntity
  8
LAY-4
  6
DASHED2
 62
     3
100
AcDbLine
 10
534.0
 20
105.3
 30
0.0
 11
528.0
 21
105.3
 31
0.0
  0
LINE
  5
2B4
100
AcDbEntity
  8
LAY-4
  6
DASHED2
 62
     3
100
AcDbLine
 10
528.0
 20
105.3
 30
0.0
 11
525.35
 21
102.65
 31
0.0
  0
LINE
  5
2B5
100
AcDbEntity
  8
LAY-4
  6
DASHED2
 62
     3
100
AcDbLine
 10
534.0
 20
105.3
 30
0.0
 11
536.65
 21
102.65
 31
0.0
  0
LINE
  5
2B6
100
AcDbEntity
  8
LAY-4
  6
DASHED2
 62
     3
100
AcDbLine
 10
525.35
 20
102.65
 30
0.0
 11
536.65
 21
102.65
 31
0.0
  0
LINE
  5
2B7
100
AcDbEntity
  8
LAY-4
  6
DASHED2
 62
     3
100
AcDbLine
 10
525.35
 20
102.65
 30
0.0
 11
525.35
 21
102.0
 31
0.0
  0
LINE
  5
2B8
100
AcDbEntity
  8
LAY-4
  6
DASHED2
 62
     3
100
AcDbLine
 10
536.65
 20
102.65
 30
0.0
 11
536.65
 21
102.0
 31
0.0
  0
LINE
  5
2B9
100
AcDbEntity
  8
LAY-4
  6
DASHED2
 62
     3
100
AcDbLine
 10
534.0
 20
122.0
 30
0.0
 11
528.0
 21
122.0
 31
0.0
  0
LINE
  5
2BA
100
AcDbEntity
  8
LAY-4
  6
DASHED2
 62
     3
100
AcDbLine
 10
534.0
 20
122.0
 30
0.0
 11
534.0
 21
105.3
 31
0.0
  0
LINE
  5
2BB
100
AcDbEntity
  8
LAY-4
  6
DASHED2
 62
     1
100
AcDbLine
 10
533.4
 20
122.0
 30
0.0
 11
533.4
 21
105.3
 31
0.0
  0
LINE
  5
2BC
100
AcDbEntity
  8
LAY-4
  6
DASHED2
 62
     1
100
AcDbLine
 10
528.6
 20
122.0
 30
0.0
 11
528.6
 21
105.3
 31
0.0
  0
LINE
  5
2BD
100
AcDbEntity
  8
LAY-4
  6
DASHED2
 62
     3
100
AcDbLine
 10
528.0
 20
122.0
 30
0.0
 11
528.0
 21
105.3
 31
0.0
  0
LINE
  5
2BE
100
AcDbEntity
  8
LAY-4
  6
DASHED2
 62
     3
100
AcDbLine
 10
552.35
 20
142.0
 30
0.0
 11
563.65
 21
142.0
 31
0.0
  0
LINE
  5
2BF
100
AcDbEntity
  8
LAY-4
  6
DASHED2
 62
     3
100
AcDbLine
 10
555.0
 20
138.7
 30
0.0
 11
561.0
 21
138.7
 31
0.0
  0
LINE
  5
2C0
100
AcDbEntity
  8
LAY-4
  6
DASHED2
 62
     3
100
AcDbLine
 10
561.0
 20
138.7
 30
0.0
 11
563.65
 21
141.35
 31
0.0
  0
LINE
  5
2C1
100
AcDbEntity
  8
LAY-4
  6
DASHED2
 62
     3
100
AcDbLine
 10
555.0
 20
138.7
 30
0.0
 11
552.35
 21
141.35
 31
0.0
  0
LINE
  5
2C2
100
AcDbEntity
  8
LAY-4
  6
DASHED2
 62
     3
100
AcDbLine
 10
563.65
 20
141.35
 30
0.0
 11
552.35
 21
141.35
 31
0.0
  0
LINE
  5
2C3
100
AcDbEntity
  8
LAY-4
  6
DASHED2
 62
     3
100
AcDbLine
 10
563.65
 20
141.35
 30
0.0
 11
563.65
 21
142.0
 31
0.0
  0
LINE
  5
2C4
100
AcDbEntity
  8
LAY-4
  6
DASHED2
 62
     3
100
AcDbLine
 10
552.35
 20
141.35
 30
0.0
 11
552.35
 21
142.0
 31
0.0
  0
LINE
  5
2C5
100
AcDbEntity
  8
LAY-4
  6
DASHED2
 62
     3
100
AcDbLine
 10
555.0
 20
122.0
 30
0.0
 11
561.0
 21
122.0
 31
0.0
  0
LINE
  5
2C6
100
AcDbEntity
  8
LAY-4
  6
DASHED2
 62
     3
100
AcDbLine
 10
561.0
 20
122.0
 30
0.0
 11
561.0
 21
138.7
 31
0.0
  0
LINE
  5
2C7
100
AcDbEntity
  8
LAY-4
  6
DASHED2
 62
     3
100
AcDbLine
 10
555.0
 20
122.0
 30
0.0
 11
555.0
 21
138.7
 31
0.0
  0
LINE
  5
2C8
100
AcDbEntity
  8
LAY-4
  6
DASHED2
 62
     1
100
AcDbLine
 10
560.4
 20
122.0
 30
0.0
 11
560.4
 21
138.7
 31
0.0
  0
LINE
  5
2C9
100
AcDbEntity
  8
LAY-4
  6
DASHED2
 62
     1
100
AcDbLine
 10
555.6
 20
122.0
 30
0.0
 11
555.6
 21
138.7
 31
0.0
  0
LINE
  5
2CA
100
AcDbEntity
  8
LAY-4
  6
DASHED2
 62
     3
100
AcDbLine
 10
101.625
 20
237.199939
 30
0.0
 11
101.625
 21
259.2
 31
0.0
  0
LINE
  5
2CB
100
AcDbEntity
  8
LAY-4
  6
DASHED2
 62
     3
100
AcDbLine
 10
76.375
 20
237.199939
 30
0.0
 11
76.375
 21
259.2
 31
0.0
  0
LINE
  5
2CC
100
AcDbEntity
  8
LAY-4
  6
DASHED2
 62
     1
100
AcDbLine
 10
716.6
 20
253.2
 30
0.0
 11
734.6
 21
253.2
 31
0.0
  0
LINE
  5
2CD
100
AcDbEntity
  8
LAY-4
  6
DASHED2
 62
     1
100
AcDbLine
 10
734.6
 20
253.2
 30
0.0
 11
734.6
 21
237.2
 31
0.0
  0
LINE
  5
2CE
100
AcDbEntity
  8
LAY-4
  6
DASHED2
 62
     1
100
AcDbLine
 10
716.6
 20
253.2
 30
0.0
 11
716.6
 21
237.2
 31
0.0
  0
LINE
  5
2CF
100
AcDbEntity
  8
LAY-4
  6
CONTINUOUS
 62
     3
100
AcDbLine
 10
67.0
 20
258.2
 30
0.0
 11
67.0
 21
237.2
 31
0.0
  0
LINE
  5
2D0
100
AcDbEntity
  8
LAY-4
  6
CONTINUOUS
 62
     3
100
AcDbLine
 10
67.0
 20
237.2
 30
0.0
 11
367.0
 21
237.2
 31
0.0
  0
LINE
  5
2D1
100
AcDbEntity
  8
LAY-4
  6
CONTINUOUS
 62
     3
100
AcDbLine
 10
68.0
 20
259.2
 30
0.0
 11
366.0
 21
259.2
 31
0.0
  0
LINE
  5
2D2
100
AcDbEntity
  8
LAY-4
  6
CONTINUOUS
 62
     3
100
AcDbLine
 10
367.0
 20
258.2
 30
0.0
 11
367.0
 21
237.2
 31
0.0
  0
ARC
  5
2D3
100
AcDbEntity
  8
LAY-4
  6
CONTINUOUS
 62
     3
100
AcDbCircle
 10
68.0
 20
258.2
 30
0.0
 40
1.0
100
AcDbArc
 50
90.0
 51
180.0
  0
ARC
  5
2D4
100
AcDbEntity
  8
LAY-4
  6
CONTINUOUS
 62
     3
100
AcDbCircle
 10
366.0
 20
258.2
 30
0.0
 40
1.0
100
AcDbArc
 50
0.0
 51
90.0
  0
LINE
  5
2D5
100
AcDbEntity
  8
LAY-4
  6
DASHED2
 62
     3
100
AcDbLine
 10
114.0
 20
253.2
 30
0.0
 11
367.0
 21
253.2
 31
0.0
  0
ARC
  5
2D6
100
AcDbEntity
  8
LAY-4
  6
DASHED2
 62
     3
100
AcDbCircle
 10
114.0
 20
250.2
 30
0.0
 40
3.0
100
AcDbArc
 50
90.0
 51
180.0
  0
LINE
  5
2D7
100
AcDbEntity
  8
LAY-4
  6
DASHED2
 62
     3
100
AcDbLine
 10
111.0
 20
250.2
 30
0.0
 11
111.0
 21
237.2
 31
0.0
  0
CIRCLE
  5
2D8
100
AcDbEntity
  8
LAY-4
  6
CONTINUOUS
 62
     3
100
AcDbCircle
 10
149.0
 20
245.2
 30
0.0
 40
3.0
  0
CIRCLE
  5
2D9
100
AcDbEntity
  8
LAY-4
  6
CONTINUOUS
 62
     3
100
AcDbCircle
 10
149.0
 20
245.2
 30
0.0
 40
2.5
  0
CIRCLE
  5
2DA
100
AcDbEntity
  8
LAY-4
  6
DASHED2
 62
     1
100
AcDbCircle
 10
149.0
 20
245.2
 30
0.0
 40
6.0
  0
CIRCLE
  5
2DB
100
AcDbEntity
  8
LAY-4
  6
DASHED2
 62
     1
100
AcDbCircle
 10
176.0
 20
245.2
 30
0.0
 40
6.0
  0
CIRCLE
  5
2DC
100
AcDbEntity
  8
LAY-4
  6
DASHED2
 62
     1
100
AcDbCircle
 10
203.0
 20
245.2
 30
0.0
 40
6.0
  0
CIRCLE
  5
2DD
100
AcDbEntity
  8
LAY-4
  6
CONTINUOUS
 62
     3
100
AcDbCircle
 10
203.0
 20
245.2
 30
0.0
 40
3.0
  0
CIRCLE
  5
2DE
100
AcDbEntity
  8
LAY-4
  6
CONTINUOUS
 62
     3
100
AcDbCircle
 10
203.0
 20
245.2
 30
0.0
 40
2.5
  0
CIRCLE
  5
2DF
100
AcDbEntity
  8
LAY-4
  6
DASHED2
 62
     1
100
AcDbCircle
 10
230.0
 20
245.2
 30
0.0
 40
6.0
  0
CIRCLE
  5
2E0
100
AcDbEntity
  8
LAY-4
  6
DASHED2
 62
     1
100
AcDbCircle
 10
257.0
 20
245.2
 30
0.0
 40
6.0
  0
CIRCLE
  5
2E1
100
AcDbEntity
  8
LAY-4
  6
CONTINUOUS
 62
     3
100
AcDbCircle
 10
257.0
 20
245.2
 30
0.0
 40
3.0
  0
CIRCLE
  5
2E2
100
AcDbEntity
  8
LAY-4
  6
CONTINUOUS
 62
     3
100
AcDbCircle
 10
257.0
 20
245.2
 30
0.0
 40
2.5
  0
CIRCLE
  5
2E3
100
AcDbEntity
  8
LAY-4
  6
DASHED2
 62
     1
100
AcDbCircle
 10
284.0
 20
245.2
 30
0.0
 40
6.0
  0
CIRCLE
  5
2E4
100
AcDbEntity
  8
LAY-4
  6
DASHED2
 62
     1
100
AcDbCircle
 10
311.0
 20
245.2
 30
0.0
 40
6.0
  0
CIRCLE
  5
2E5
100
AcDbEntity
  8
LAY-4
  6
CONTINUOUS
 62
     3
100
AcDbCircle
 10
311.0
 20
245.2
 30
0.0
 40
3.0
  0
CIRCLE
  5
2E6
100
AcDbEntity
  8
LAY-4
  6
CONTINUOUS
 62
     3
100
AcDbCircle
 10
311.0
 20
245.2
 30
0.0
 40
2.5
  0
CIRCLE
  5
2E7
100
AcDbEntity
  8
LAY-4
  6
DASHED2
 62
     1
100
AcDbCircle
 10
338.0
 20
245.2
 30
0.0
 40
6.0
  0
CIRCLE
  5
2E8
100
AcDbEntity
  8
LAY-4
  6
DASHED2
 62
     3
100
AcDbCircle
 10
176.0
 20
245.2
 30
0.0
 40
3.0
  0
CIRCLE
  5
2E9
100
AcDbEntity
  8
LAY-4
  6
DASHED2
 62
     3
100
AcDbCircle
 10
176.0
 20
245.2
 30
0.0
 40
2.5
  0
CIRCLE
  5
2EA
100
AcDbEntity
  8
LAY-4
  6
DASHED2
 62
     3
100
AcDbCircle
 10
230.0
 20
245.2
 30
0.0
 40
3.0
  0
CIRCLE
  5
2EB
100
AcDbEntity
  8
LAY-4
  6
DASHED2
 62
     3
100
AcDbCircle
 10
230.0
 20
245.2
 30
0.0
 40
2.5
  0
CIRCLE
  5
2EC
100
AcDbEntity
  8
LAY-4
  6
DASHED2
 62
     3
100
AcDbCircle
 10
284.0
 20
245.2
 30
0.0
 40
3.0
  0
CIRCLE
  5
2ED
100
AcDbEntity
  8
LAY-4
  6
DASHED2
 62
     3
100
AcDbCircle
 10
284.0
 20
245.2
 30
0.0
 40
2.5
  0
CIRCLE
  5
2EE
100
AcDbEntity
  8
LAY-4
  6
DASHED2
 62
     3
100
AcDbCircle
 10
338.0
 20
245.2
 30
0.0
 40
2.5
  0
CIRCLE
  5
2EF
100
AcDbEntity
  8
LAY-4
  6
DASHED2
 62
     3
100
AcDbCircle
 10
338.0
 20
245.2
 30
0.0
 40
3.0
  0
LINE
  5
2F0
100
AcDbEntity
  8
LAY-4
  6
CONTINUOUS
 62
     3
100
AcDbLine
 10
739.6
 20
259.2
 30
0.0
 11
711.6
 21
259.2
 31
0.0
  0
LINE
  5
2F1
100
AcDbEntity
  8
LAY-4
  6
CONTINUOUS
 62
     3
100
AcDbLine
 10
740.6
 20
237.2
 30
0.0
 11
740.6
 21
258.2
 31
0.0
  0
LINE
  5
2F2
100
AcDbEntity
  8
LAY-4
  6
CONTINUOUS
 62
     3
100
AcDbLine
 10
710.6
 20
237.2
 30
0.0
 11
710.6
 21
258.2
 31
0.0
  0
ARC
  5
2F3
100
AcDbEntity
  8
LAY-4
  6
CONTINUOUS
 62
     3
100
AcDbCircle
 10
739.6
 20
258.2
 30
0.0
 40
1.0
100
AcDbArc
 50
0.0
 51
90.0
  0
ARC
  5
2F4
100
AcDbEntity
  8
LAY-4
  6
CONTINUOUS
 62
     3
100
AcDbCircle
 10
711.6
 20
258.2
 30
0.0
 40
1.0
100
AcDbArc
 50
90.0
 51
180.0
  0
LINE
  5
2F5
100
AcDbEntity
  8
LAY-4
  6
DASHED2
 62
     1
100
AcDbLine
 10
705.999916
 20
239.19997
 30
0.0
 11
705.999916
 21
251.19997
 31
0.0
  0
LINE
  5
2F6
100
AcDbEntity
  8
LAY-4
  6
DASHED2
 62
     1
100
AcDbLine
 10
708.999916
 20
241.849964
 30
0.0
 11
708.999916
 21
248.550007
 31
0.0
  0
LINE
  5
2F7
100
AcDbEntity
  8
LAY-4
  6
DASHED2
 62
     1
100
AcDbLine
 10
708.999916
 20
248.550007
 30
0.0
 11
705.999916
 21
251.19997
 31
0.0
  0
LINE
  5
2F8
100
AcDbEntity
  8
LAY-4
  6
DASHED2
 62
     1
100
AcDbLine
 10
708.999916
 20
241.849964
 30
0.0
 11
705.999916
 21
239.19997
 31
0.0
  0
LINE
  5
2F9
100
AcDbEntity
  8
LAY-4
  6
DASHED2
 62
     1
100
AcDbLine
 10
705.599953
 20
251.19997
 30
0.0
 11
705.999916
 21
251.19997
 31
0.0
  0
LINE
  5
2FA
100
AcDbEntity
  8
LAY-4
  6
DASHED2
 62
     1
100
AcDbLine
 10
705.599953
 20
239.19997
 30
0.0
 11
705.999916
 21
239.19997
 31
0.0
  0
LINE
  5
2FB
100
AcDbEntity
  8
LAY-4
  6
DASHED2
 62
     1
100
AcDbLine
 10
745.200084
 20
239.19997
 30
0.0
 11
745.200084
 21
251.19997
 31
0.0
  0
LINE
  5
2FC
100
AcDbEntity
  8
LAY-4
  6
DASHED2
 62
     1
100
AcDbLine
 10
742.200084
 20
241.849964
 30
0.0
 11
742.200084
 21
248.550007
 31
0.0
  0
LINE
  5
2FD
100
AcDbEntity
  8
LAY-4
  6
DASHED2
 62
     1
100
AcDbLine
 10
742.200084
 20
248.550007
 30
0.0
 11
745.200084
 21
251.19997
 31
0.0
  0
LINE
  5
2FE
100
AcDbEntity
  8
LAY-4
  6
DASHED2
 62
     1
100
AcDbLine
 10
742.200084
 20
241.849964
 30
0.0
 11
745.200084
 21
239.19997
 31
0.0
  0
LINE
  5
2FF
100
AcDbEntity
  8
LAY-4
  6
DASHED2
 62
     1
100
AcDbLine
 10
745.600047
 20
251.19997
 30
0.0
 11
745.200084
 21
251.19997
 31
0.0
  0
LINE
  5
300
100
AcDbEntity
  8
LAY-4
  6
DASHED2
 62
     1
100
AcDbLine
 10
745.600047
 20
239.19997
 30
0.0
 11
745.200084
 21
239.19997
 31
0.0
  0
LINE
  5
301
100
AcDbEntity
  8
LAY-4
  6
DASHED2
 62
     1
100
AcDbLine
 10
730.682044
 20
248.549976
 30
0.0
 11
742.200084
 21
248.549976
 31
0.0
  0
LINE
  5
302
100
AcDbEntity
  8
LAY-4
  6
DASHED2
 62
     1
100
AcDbLine
 10
730.747658
 20
247.800007
 30
0.0
 11
742.200084
 21
247.800007
 31
0.0
  0
LINE
  5
303
100
AcDbEntity
  8
LAY-4
  6
DASHED2
 62
     1
100
AcDbLine
 10
731.2026
 20
242.599994
 30
0.0
 11
742.200084
 21
242.599994
 31
0.0
  0
LINE
  5
304
100
AcDbEntity
  8
LAY-4
  6
DASHED2
 62
     1
100
AcDbLine
 10
731.268219
 20
241.849964
 30
0.0
 11
742.200084
 21
241.849964
 31
0.0
  0
LINE
  5
305
100
AcDbEntity
  8
LAY-4
  6
DASHED2
 62
     1
100
AcDbLine
 10
719.931781
 20
241.849964
 30
0.0
 11
708.999916
 21
241.849964
 31
0.0
  0
LINE
  5
306
100
AcDbEntity
  8
LAY-4
  6
DASHED2
 62
     1
100
AcDbLine
 10
719.9974
 20
242.599994
 30
0.0
 11
708.999916
 21
242.599994
 31
0.0
  0
LINE
  5
307
100
AcDbEntity
  8
LAY-4
  6
DASHED2
 62
     1
100
AcDbLine
 10
720.452342
 20
247.800007
 30
0.0
 11
708.999916
 21
247.800007
 31
0.0
  0
LINE
  5
308
100
AcDbEntity
  8
LAY-4
  6
DASHED2
 62
     1
100
AcDbLine
 10
720.517956
 20
248.549976
 30
0.0
 11
708.999916
 21
248.549976
 31
0.0
  0
LINE
  5
309
100
AcDbEntity
  8
LAY-4
  6
CONTINUOUS
 62
     3
100
AcDbLine
 10
68.0
 20
137.0
 30
0.0
 11
272.2
 21
137.0
 31
0.0
  0
LINE
  5
30A
100
AcDbEntity
  8
LAY-4
  6
CONTINUOUS
 62
     3
100
AcDbLine
 10
68.0
 20
107.0
 30
0.0
 11
272.2
 21
107.0
 31
0.0
  0
LINE
  5
30B
100
AcDbEntity
  8
LAY-4
  6
CONTINUOUS
 62
     3
100
AcDbLine
 10
67.0
 20
108.0
 30
0.0
 11
67.0
 21
136.0
 31
0.0
  0
ARC
  5
30C
100
AcDbEntity
  8
LAY-4
  6
CONTINUOUS
 62
     3
100
AcDbCircle
 10
68.0
 20
136.0
 30
0.0
 40
1.0
100
AcDbArc
 50
90.0
 51
180.0
  0
ARC
  5
30D
100
AcDbEntity
  8
LAY-4
  6
CONTINUOUS
 62
     3
100
AcDbCircle
 10
68.0
 20
108.0
 30
0.0
 40
1.0
100
AcDbArc
 50
180.0
 51
270.0
  0
POLYLINE
  5
30E
100
AcDbEntity
  8
LAY-4
  6
CONTINUOUS
 62
     3
100
AcDb2dPolyline
 66
     1
 10
0.0
 20
0.0
 30
0.0
 70
   128
  0
VERTEX
  5
30F
100
AcDbEntity
  8
LAY-4
  6
CONTINUOUS
 62
     3
100
AcDbVertex
100
AcDb2dVertex
 10
272.2
 20
137.0
 30
0.0
  0
VERTEX
  5
310
100
AcDbEntity
  8
LAY-4
  6
CONTINUOUS
 62
     3
100
AcDbVertex
100
AcDb2dVertex
 10
272.150731
 20
136.851262
 30
0.0
  0
VERTEX
  5
311
100
AcDbEntity
  8
LAY-4
  6
CONTINUOUS
 62
     3
100
AcDbVertex
100
AcDb2dVertex
 10
272.017344
 20
136.430824
 30
0.0
  0
VERTEX
  5
312
100
AcDbEntity
  8
LAY-4
  6
CONTINUOUS
 62
     3
100
AcDbVertex
100
AcDb2dVertex
 10
271.821464
 20
135.77735
 30
0.0
  0
VERTEX
  5
313
100
AcDbEntity
  8
LAY-4
  6
CONTINUOUS
 62
     3
100
AcDbVertex
100
AcDb2dVertex
 10
271.58472
 20
134.929506
 30
0.0
  0
VERTEX
  5
314
100
AcDbEntity
  8
LAY-4
  6
CONTINUOUS
 62
     3
100
AcDbVertex
100
AcDb2dVertex
 10
271.328739
 20
133.925954
 30
0.0
  0
VERTEX
  5
315
100
AcDbEntity
  8
LAY-4
  6
CONTINUOUS
 62
     3
100
AcDbVertex
100
AcDb2dVertex
 10
271.075148
 20
132.80536
 30
0.0
  0
VERTEX
  5
316
100
AcDbEntity
  8
LAY-4
  6
CONTINUOUS
 62
     3
100
AcDbVertex
100
AcDb2dVertex
 10
270.845574
 20
131.606387
 30
0.0
  0
VERTEX
  5
317
100
AcDbEntity
  8
LAY-4
  6
CONTINUOUS
 62
     3
100
AcDbVertex
100
AcDb2dVertex
 10
270.661645
 20
130.3677
 30
0.0
  0
VERTEX
  5
318
100
AcDbEntity
  8
LAY-4
  6
CONTINUOUS
 62
     3
100
AcDbVertex
100
AcDb2dVertex
 10
270.544988
 20
129.127964
 30
0.0
  0
VERTEX
  5
319
100
AcDbEntity
  8
LAY-4
  6
CONTINUOUS
 62
     3
100
AcDbVertex
100
AcDb2dVertex
 10
270.517231
 20
127.925843
 30
0.0
  0
VERTEX
  5
31A
100
AcDbEntity
  8
LAY-4
  6
CONTINUOUS
 62
     3
100
AcDbVertex
100
AcDb2dVertex
 10
270.6
 20
126.8
 30
0.0
  0
VERTEX
  5
31B
100
AcDbEntity
  8
LAY-4
  6
CONTINUOUS
 62
     3
100
AcDbVertex
100
AcDb2dVertex
 10
270.798603
 20
125.810394
 30
0.0
  0
VERTEX
  5
31C
100
AcDbEntity
  8
LAY-4
  6
CONTINUOUS
 62
     3
100
AcDbVertex
100
AcDb2dVertex
 10
271.097842
 20
124.909199
 30
0.0
  0
VERTEX
  5
31D
100
AcDbEntity
  8
LAY-4
  6
CONTINUOUS
 62
     3
100
AcDbVertex
100
AcDb2dVertex
 10
271.474568
 20
124.077161
 30
0.0
  0
VERTEX
  5
31E
100
AcDbEntity
  8
LAY-4
  6
CONTINUOUS
 62
     3
100
AcDbVertex
100
AcDb2dVertex
 10
271.905632
 20
123.295025
 30
0.0
  0
VERTEX
  5
31F
100
AcDbEntity
  8
LAY-4
  6
CONTINUOUS
 62
     3
100
AcDbVertex
100
AcDb2dVertex
 10
272.367885
 20
122.543538
 30
0.0
  0
VERTEX
  5
320
100
AcDbEntity
  8
LAY-4
  6
CONTINUOUS
 62
     3
100
AcDbVertex
100
AcDb2dVertex
 10
272.838177
 20
121.803445
 30
0.0
  0
VERTEX
  5
321
100
AcDbEntity
  8
LAY-4
  6
CONTINUOUS
 62
     3
100
AcDbVertex
100
AcDb2dVertex
 10
273.293359
 20
121.055492
 30
0.0
  0
VERTEX
  5
322
100
AcDbEntity
  8
LAY-4
  6
CONTINUOUS
 62
     3
100
AcDbVertex
100
AcDb2dVertex
 10
273.710282
 20
120.280425
 30
0.0
  0
VERTEX
  5
323
100
AcDbEntity
  8
LAY-4
  6
CONTINUOUS
 62
     3
100
AcDbVertex
100
AcDb2dVertex
 10
274.065796
 20
119.458991
 30
0.0
  0
VERTEX
  5
324
100
AcDbEntity
  8
LAY-4
  6
CONTINUOUS
 62
     3
100
AcDbVertex
100
AcDb2dVertex
 10
274.336751
 20
118.571933
 30
0.0
  0
VERTEX
  5
325
100
AcDbEntity
  8
LAY-4
  6
CONTINUOUS
 62
     3
100
AcDbVertex
100
AcDb2dVertex
 10
274.5
 20
117.6
 30
0.0
  0
VERTEX
  5
326
100
AcDbEntity
  8
LAY-4
  6
CONTINUOUS
 62
     3
100
AcDbVertex
100
AcDb2dVertex
 10
274.537646
 20
116.437377
 30
0.0
  0
VERTEX
  5
327
100
AcDbEntity
  8
LAY-4
  6
CONTINUOUS
 62
     3
100
AcDbVertex
100
AcDb2dVertex
 10
274.447317
 20
115.192682
 30
0.0
  0
VERTEX
  5
328
100
AcDbEntity
  8
LAY-4
  6
CONTINUOUS
 62
     3
100
AcDbVertex
100
AcDb2dVertex
 10
274.255223
 20
113.90654
 30
0.0
  0
VERTEX
  5
329
100
AcDbEntity
  8
LAY-4
  6
CONTINUOUS
 62
     3
100
AcDbVertex
100
AcDb2dVertex
 10
273.987571
 20
112.619572
 30
0.0
  0
VERTEX
  5
32A
100
AcDbEntity
  8
LAY-4
  6
CONTINUOUS
 62
     3
100
AcDbVertex
100
AcDb2dVertex
 10
273.670573
 20
111.372402
 30
0.0
  0
VERTEX
  5
32B
100
AcDbEntity
  8
LAY-4
  6
CONTINUOUS
 62
     3
100
AcDbVertex
100
AcDb2dVertex
 10
273.330436
 20
110.205652
 30
0.0
  0
VERTEX
  5
32C
100
AcDbEntity
  8
LAY-4
  6
CONTINUOUS
 62
     3
100
AcDbVertex
100
AcDb2dVertex
 10
272.99337
 20
109.159944
 30
0.0
  0
VERTEX
  5
32D
100
AcDbEntity
  8
LAY-4
  6
CONTINUOUS
 62
     3
100
AcDbVertex
100
AcDb2dVertex
 10
272.685585
 20
108.275903
 30
0.0
  0
VERTEX
  5
32E
100
AcDbEntity
  8
LAY-4
  6
CONTINUOUS
 62
     3
100
AcDbVertex
100
AcDb2dVertex
 10
272.433288
 20
107.59415
 30
0.0
  0
VERTEX
  5
32F
100
AcDbEntity
  8
LAY-4
  6
CONTINUOUS
 62
     3
100
AcDbVertex
100
AcDb2dVertex
 10
272.26269
 20
107.155308
 30
0.0
  0
VERTEX
  5
330
100
AcDbEntity
  8
LAY-4
  6
CONTINUOUS
 62
     3
100
AcDbVertex
100
AcDb2dVertex
 10
272.2
 20
107.0
 30
0.0
  0
SEQEND
  5
331
100
AcDbEntity
  8
LAY-4
  6
CONTINUOUS
 62
     3
  0
LINE
  5
332
100
AcDbEntity
  8
LAY-4
  6
DASHED2
 62
     3
100
AcDbLine
 10
112.0
 20
131.0
 30
0.0
 11
270.755534
 21
131.0
 31
0.0
  0
LINE
  5
333
100
AcDbEntity
  8
LAY-4
  6
DASHED2
 62
     3
100
AcDbLine
 10
112.0
 20
113.0
 30
0.0
 11
274.066689
 21
113.0
 31
0.0
  0
LINE
  5
334
100
AcDbEntity
  8
LAY-4
  6
DASHED2
 62
     3
100
AcDbLine
 10
111.0
 20
114.0
 30
0.0
 11
111.0
 21
130.0
 31
0.0
  0
ARC
  5
335
100
AcDbEntity
  8
LAY-4
  6
DASHED2
 62
     3
100
AcDbCircle
 10
112.0
 20
130.0
 30
0.0
 40
1.0
100
AcDbArc
 50
90.0
 51
180.0
  0
ARC
  5
336
100
AcDbEntity
  8
LAY-4
  6
DASHED2
 62
     3
100
AcDbCircle
 10
112.0
 20
114.0
 30
0.0
 40
1.0
100
AcDbArc
 50
180.0
 51
270.0
  0
LINE
  5
337
100
AcDbEntity
  8
LAY-4
  6
DASHED2
 62
     3
100
AcDbLine
 10
76.375
 20
115.75
 30
0.0
 11
101.625
 21
115.75
 31
0.0
  0
LINE
  5
338
100
AcDbEntity
  8
LAY-4
  6
DASHED2
 62
     3
100
AcDbLine
 10
76.375
 20
128.25
 30
0.0
 11
101.625
 21
128.25
 31
0.0
  0
LINE
  5
339
100
AcDbEntity
  8
LAY-4
  6
DASHED2
 62
     3
100
AcDbLine
 10
101.625
 20
115.75
 30
0.0
 11
101.625
 21
128.25
 31
0.0
  0
LINE
  5
33A
100
AcDbEntity
  8
LAY-4
  6
DASHED2
 62
     3
100
AcDbLine
 10
76.375
 20
115.75
 30
0.0
 11
76.375
 21
128.25
 31
0.0
  0
LINE
  5
33B
100
AcDbEntity
  8
LAY-4
  6
DASHED2
 62
     3
100
AcDbLine
 10
100.75832
 20
126.35
 30
0.0
 11
101.625
 21
128.25
 31
0.0
  0
LINE
  5
33C
100
AcDbEntity
  8
LAY-4
  6
DASHED2
 62
     3
100
AcDbLine
 10
77.24168
 20
126.35
 30
0.0
 11
76.375
 21
128.25
 31
0.0
  0
LINE
  5
33D
100
AcDbEntity
  8
LAY-4
  6
DASHED2
 62
     3
100
AcDbLine
 10
77.24168
 20
117.65
 30
0.0
 11
76.375
 21
115.75
 31
0.0
  0
LINE
  5
33E
100
AcDbEntity
  8
LAY-4
  6
DASHED2
 62
     3
100
AcDbLine
 10
100.75832
 20
117.65
 30
0.0
 11
101.625
 21
115.75
 31
0.0
  0
ARC
  5
33F
100
AcDbEntity
  8
LAY-4
  6
CONTINUOUS
 62
     3
100
AcDbCircle
 10
396.0
 20
136.0
 30
0.0
 40
1.0
100
AcDbArc
 50
90.0
 51
180.0
  0
LINE
  5
340
100
AcDbEntity
  8
LAY-4
  6
CONTINUOUS
 62
     3
100
AcDbLine
 10
395.0
 20
108.0
 30
0.0
 11
395.0
 21
136.0
 31
0.0
  0
ARC
  5
341
100
AcDbEntity
  8
LAY-4
  6
CONTINUOUS
 62
     3
100
AcDbCircle
 10
396.0
 20
108.0
 30
0.0
 40
1.0
100
AcDbArc
 50
180.0
 51
270.0
  0
LINE
  5
342
100
AcDbEntity
  8
LAY-4
  6
CONTINUOUS
 62
     3
100
AcDbLine
 10
396.0
 20
137.0
 30
0.0
 11
600.2
 21
137.0
 31
0.0
  0
LINE
  5
343
100
AcDbEntity
  8
LAY-4
  6
CONTINUOUS
 62
     3
100
AcDbLine
 10
396.0
 20
107.0
 30
0.0
 11
600.2
 21
107.0
 31
0.0
  0
POLYLINE
  5
344
100
AcDbEntity
  8
LAY-4
  6
CONTINUOUS
 62
     3
100
AcDb2dPolyline
 66
     1
 10
0.0
 20
0.0
 30
0.0
 70
   128
  0
VERTEX
  5
345
100
AcDbEntity
  8
LAY-4
  6
CONTINUOUS
 62
     3
100
AcDbVertex
100
AcDb2dVertex
 10
600.2
 20
137.0
 30
0.0
  0
VERTEX
  5
346
100
AcDbEntity
  8
LAY-4
  6
CONTINUOUS
 62
     3
100
AcDbVertex
100
AcDb2dVertex
 10
600.150731
 20
136.851262
 30
0.0
  0
VERTEX
  5
347
100
AcDbEntity
  8
LAY-4
  6
CONTINUOUS
 62
     3
100
AcDbVertex
100
AcDb2dVertex
 10
600.017344
 20
136.430824
 30
0.0
  0
VERTEX
  5
348
100
AcDbEntity
  8
LAY-4
  6
CONTINUOUS
 62
     3
100
AcDbVertex
100
AcDb2dVertex
 10
599.821464
 20
135.77735
 30
0.0
  0
VERTEX
  5
349
100
AcDbEntity
  8
LAY-4
  6
CONTINUOUS
 62
     3
100
AcDbVertex
100
AcDb2dVertex
 10
599.58472
 20
134.929506
 30
0.0
  0
VERTEX
  5
34A
100
AcDbEntity
  8
LAY-4
  6
CONTINUOUS
 62
     3
100
AcDbVertex
100
AcDb2dVertex
 10
599.328739
 20
133.925954
 30
0.0
  0
VERTEX
  5
34B
100
AcDbEntity
  8
LAY-4
  6
CONTINUOUS
 62
     3
100
AcDbVertex
100
AcDb2dVertex
 10
599.075148
 20
132.80536
 30
0.0
  0
VERTEX
  5
34C
100
AcDbEntity
  8
LAY-4
  6
CONTINUOUS
 62
     3
100
AcDbVertex
100
AcDb2dVertex
 10
598.845574
 20
131.606387
 30
0.0
  0
VERTEX
  5
34D
100
AcDbEntity
  8
LAY-4
  6
CONTINUOUS
 62
     3
100
AcDbVertex
100
AcDb2dVertex
 10
598.661645
 20
130.3677
 30
0.0
  0
VERTEX
  5
34E
100
AcDbEntity
  8
LAY-4
  6
CONTINUOUS
 62
     3
100
AcDbVertex
100
AcDb2dVertex
 10
598.544988
 20
129.127964
 30
0.0
  0
VERTEX
  5
34F
100
AcDbEntity
  8
LAY-4
  6
CONTINUOUS
 62
     3
100
AcDbVertex
100
AcDb2dVertex
 10
598.517231
 20
127.925843
 30
0.0
  0
VERTEX
  5
350
100
AcDbEntity
  8
LAY-4
  6
CONTINUOUS
 62
     3
100
AcDbVertex
100
AcDb2dVertex
 10
598.6
 20
126.8
 30
0.0
  0
VERTEX
  5
351
100
AcDbEntity
  8
LAY-4
  6
CONTINUOUS
 62
     3
100
AcDbVertex
100
AcDb2dVertex
 10
598.798603
 20
125.810394
 30
0.0
  0
VERTEX
  5
352
100
AcDbEntity
  8
LAY-4
  6
CONTINUOUS
 62
     3
100
AcDbVertex
100
AcDb2dVertex
 10
599.097842
 20
124.909199
 30
0.0
  0
VERTEX
  5
353
100
AcDbEntity
  8
LAY-4
  6
CONTINUOUS
 62
     3
100
AcDbVertex
100
AcDb2dVertex
 10
599.474568
 20
124.077161
 30
0.0
  0
VERTEX
  5
354
100
AcDbEntity
  8
LAY-4
  6
CONTINUOUS
 62
     3
100
AcDbVertex
100
AcDb2dVertex
 10
599.905632
 20
123.295025
 30
0.0
  0
VERTEX
  5
355
100
AcDbEntity
  8
LAY-4
  6
CONTINUOUS
 62
     3
100
AcDbVertex
100
AcDb2dVertex
 10
600.367885
 20
122.543538
 30
0.0
  0
VERTEX
  5
356
100
AcDbEntity
  8
LAY-4
  6
CONTINUOUS
 62
     3
100
AcDbVertex
100
AcDb2dVertex
 10
600.838177
 20
121.803445
 30
0.0
  0
VERTEX
  5
357
100
AcDbEntity
  8
LAY-4
  6
CONTINUOUS
 62
     3
100
AcDbVertex
100
AcDb2dVertex
 10
601.293359
 20
121.055492
 30
0.0
  0
VERTEX
  5
358
100
AcDbEntity
  8
LAY-4
  6
CONTINUOUS
 62
     3
100
AcDbVertex
100
AcDb2dVertex
 10
601.710282
 20
120.280425
 30
0.0
  0
VERTEX
  5
359
100
AcDbEntity
  8
LAY-4
  6
CONTINUOUS
 62
     3
100
AcDbVertex
100
AcDb2dVertex
 10
602.065796
 20
119.458991
 30
0.0
  0
VERTEX
  5
35A
100
AcDbEntity
  8
LAY-4
  6
CONTINUOUS
 62
     3
100
AcDbVertex
100
AcDb2dVertex
 10
602.336751
 20
118.571933
 30
0.0
  0
VERTEX
  5
35B
100
AcDbEntity
  8
LAY-4
  6
CONTINUOUS
 62
     3
100
AcDbVertex
100
AcDb2dVertex
 10
602.5
 20
117.6
 30
0.0
  0
VERTEX
  5
35C
100
AcDbEntity
  8
LAY-4
  6
CONTINUOUS
 62
     3
100
AcDbVertex
100
AcDb2dVertex
 10
602.537646
 20
116.437377
 30
0.0
  0
VERTEX
  5
35D
100
AcDbEntity
  8
LAY-4
  6
CONTINUOUS
 62
     3
100
AcDbVertex
100
AcDb2dVertex
 10
602.447317
 20
115.192682
 30
0.0
  0
VERTEX
  5
35E
100
AcDbEntity
  8
LAY-4
  6
CONTINUOUS
 62
     3
100
AcDbVertex
100
AcDb2dVertex
 10
602.255223
 20
113.90654
 30
0.0
  0
VERTEX
  5
35F
100
AcDbEntity
  8
LAY-4
  6
CONTINUOUS
 62
     3
100
AcDbVertex
100
AcDb2dVertex
 10
601.987571
 20
112.619572
 30
0.0
  0
VERTEX
  5
360
100
AcDbEntity
  8
LAY-4
  6
CONTINUOUS
 62
     3
100
AcDbVertex
100
AcDb2dVertex
 10
601.670573
 20
111.372402
 30
0.0
  0
VERTEX
  5
361
100
AcDbEntity
  8
LAY-4
  6
CONTINUOUS
 62
     3
100
AcDbVertex
100
AcDb2dVertex
 10
601.330436
 20
110.205652
 30
0.0
  0
VERTEX
  5
362
100
AcDbEntity
  8
LAY-4
  6
CONTINUOUS
 62
     3
100
AcDbVertex
100
AcDb2dVertex
 10
600.99337
 20
109.159944
 30
0.0
  0
VERTEX
  5
363
100
AcDbEntity
  8
LAY-4
  6
CONTINUOUS
 62
     3
100
AcDbVertex
100
AcDb2dVertex
 10
600.685585
 20
108.275903
 30
0.0
  0
VERTEX
  5
364
100
AcDbEntity
  8
LAY-4
  6
CONTINUOUS
 62
     3
100
AcDbVertex
100
AcDb2dVertex
 10
600.433288
 20
107.59415
 30
0.0
  0
VERTEX
  5
365
100
AcDbEntity
  8
LAY-4
  6
CONTINUOUS
 62
     3
100
AcDbVertex
100
AcDb2dVertex
 10
600.26269
 20
107.155308
 30
0.0
  0
VERTEX
  5
366
100
AcDbEntity
  8
LAY-4
  6
CONTINUOUS
 62
     3
100
AcDbVertex
100
AcDb2dVertex
 10
600.2
 20
107.0
 30
0.0
  0
SEQEND
  5
367
100
AcDbEntity
  8
LAY-4
  6
CONTINUOUS
 62
     3
  0
ARC
  5
368
100
AcDbEntity
  8
LAY-4
  6
DASHED2
 62
     3
100
AcDbCircle
 10
440.0
 20
130.0
 30
0.0
 40
1.0
100
AcDbArc
 50
90.0
 51
180.0
  0
LINE
  5
369
100
AcDbEntity
  8
LAY-4
  6
DASHED2
 62
     3
100
AcDbLine
 10
439.0
 20
114.0
 30
0.0
 11
439.0
 21
130.0
 31
0.0
  0
ARC
  5
36A
100
AcDbEntity
  8
LAY-4
  6
DASHED2
 62
     3
100
AcDbCircle
 10
440.0
 20
114.0
 30
0.0
 40
1.0
100
AcDbArc
 50
180.0
 51
270.0
  0
LINE
  5
36B
100
AcDbEntity
  8
LAY-4
  6
DASHED2
 62
     3
100
AcDbLine
 10
440.0
 20
131.0
 30
0.0
 11
598.755534
 21
131.0
 31
0.0
  0
LINE
  5
36C
100
AcDbEntity
  8
LAY-4
  6
DASHED2
 62
     3
100
AcDbLine
 10
440.0
 20
113.0
 30
0.0
 11
602.066689
 21
113.0
 31
0.0
  0
LINE
  5
36D
100
AcDbEntity
  8
LAY-4
  6
DASHED2
 62
     3
100
AcDbLine
 10
404.375
 20
115.75
 30
0.0
 11
429.625
 21
115.75
 31
0.0
  0
LINE
  5
36E
100
AcDbEntity
  8
LAY-4
  6
DASHED2
 62
     3
100
AcDbLine
 10
404.375
 20
128.25
 30
0.0
 11
429.625
 21
128.25
 31
0.0
  0
LINE
  5
36F
100
AcDbEntity
  8
LAY-4
  6
DASHED2
 62
     3
100
AcDbLine
 10
429.625
 20
115.75
 30
0.0
 11
429.625
 21
128.25
 31
0.0
  0
LINE
  5
370
100
AcDbEntity
  8
LAY-4
  6
DASHED2
 62
     3
100
AcDbLine
 10
404.375
 20
115.75
 30
0.0
 11
404.375
 21
128.25
 31
0.0
  0
LINE
  5
371
100
AcDbEntity
  8
LAY-4
  6
DASHED2
 62
     3
100
AcDbLine
 10
428.75832
 20
126.35
 30
0.0
 11
429.625
 21
128.25
 31
0.0
  0
LINE
  5
372
100
AcDbEntity
  8
LAY-4
  6
DASHED2
 62
     3
100
AcDbLine
 10
405.24168
 20
126.35
 30
0.0
 11
404.375
 21
128.25
 31
0.0
  0
LINE
  5
373
100
AcDbEntity
  8
LAY-4
  6
DASHED2
 62
     3
100
AcDbLine
 10
405.24168
 20
117.65
 30
0.0
 11
404.375
 21
115.75
 31
0.0
  0
LINE
  5
374
100
AcDbEntity
  8
LAY-4
  6
DASHED2
 62
     3
100
AcDbLine
 10
428.75832
 20
117.65
 30
0.0
 11
429.625
 21
115.75
 31
0.0
  0
LINE
  5
375
100
AcDbEntity
  8
LAY-4
  6
CONTINUOUS
 62
     3
100
AcDbLine
 10
740.6
 20
237.2
 30
0.0
 11
710.6
 21
237.2
 31
0.0
  0
LINE
  5
376
100
AcDbEntity
  8
LAY-4
  6
DASHED2
 62
     3
100
AcDbLine
 10
729.750288
 20
259.2
 30
0.0
 11
730.100227
 21
255.200178
 31
0.0
  0
LINE
  5
377
100
AcDbEntity
  8
LAY-4
  6
DASHED2
 62
     3
100
AcDbLine
 10
721.449712
 20
259.2
 30
0.0
 11
721.099773
 21
255.200178
 31
0.0
  0
LINE
  5
378
100
AcDbEntity
  8
LAY-4
  6
CONTINUOUS
 62
     3
100
AcDbLine
 10
77.24168
 20
126.35
 30
0.0
 11
100.75832
 21
126.35
 31
0.0
  0
ARC
  5
379
100
AcDbEntity
  8
LAY-4
  6
CONTINUOUS
 62
     3
100
AcDbCircle
 10
90.275
 20
122.0
 30
0.0
 40
11.35
100
AcDbArc
 50
337.464244
 51
22.535756
  0
LINE
  5
37A
100
AcDbEntity
  8
LAY-4
  6
CONTINUOUS
 62
     3
100
AcDbLine
 10
77.24168
 20
117.65
 30
0.0
 11
100.75832
 21
117.65
 31
0.0
  0
ARC
  5
37B
100
AcDbEntity
  8
LAY-4
  6
CONTINUOUS
 62
     3
100
AcDbCircle
 10
87.725
 20
122.0
 30
0.0
 40
11.35
100
AcDbArc
 50
157.464244
 51
202.535756
  0
LINE
  5
37C
100
AcDbEntity
  8
LAY-4
  6
CONTINUOUS
 62
     3
100
AcDbLine
 10
405.24168
 20
126.35
 30
0.0
 11
428.75832
 21
126.35
 31
0.0
  0
ARC
  5
37D
100
AcDbEntity
  8
LAY-4
  6
CONTINUOUS
 62
     3
100
AcDbCircle
 10
418.275
 20
122.0
 30
0.0
 40
11.35
100
AcDbArc
 50
337.464244
 51
22.535756
  0
ARC
  5
37E
100
AcDbEntity
  8
LAY-4
  6
CONTINUOUS
 62
     3
100
AcDbCircle
 10
415.725
 20
122.0
 30
0.0
 40
11.35
100
AcDbArc
 50
157.464244
 51
202.535756
  0
LINE
  5
37F
100
AcDbEntity
  8
LAY-4
  6
CONTINUOUS
 62
     3
100
AcDbLine
 10
405.24168
 20
117.65
 30
0.0
 11
428.75832
 21
117.65
 31
0.0
  0
LINE
  5
380
100
AcDbEntity
  8
LAY-5
  6
DASHDOT
 62
     1
100
AcDbLine
 10
58.302368
 20
507.2
 30
0.0
 11
234.283325
 21
507.2
 31
0.0
  0
LINE
  5
381
100
AcDbEntity
  8
LAY-5
  6
DASHDOT
 62
     1
100
AcDbLine
 10
211.0
 20
491.199939
 30
0.0
 11
211.0
 21
506.784107
 31
0.0
  0
LINE
  5
382
100
AcDbEntity
  8
LAY-5
  6
DASHDOT
 62
     1
100
AcDbLine
 10
211.0
 20
523.199878
 30
0.0
 11
211.0
 21
508.367481
 31
0.0
  0
LINE
  5
383
100
AcDbEntity
  8
LAY-5
  6
DASHDOT
 62
     1
100
AcDbLine
 10
201.90155
 20
498.2
 30
0.0
 11
221.8
 21
498.2
 31
0.0
  0
LINE
  5
384
100
AcDbEntity
  8
LAY-5
  6
DASHDOT
 62
     1
100
AcDbLine
 10
201.90155
 20
516.2
 30
0.0
 11
221.8
 21
516.2
 31
0.0
  0
LINE
  5
385
100
AcDbEntity
  8
LAY-5
  6
DASHDOT
 62
     1
100
AcDbLine
 10
190.0
 20
518.206958
 30
0.0
 11
190.0
 21
496.890918
 31
0.0
  0
LINE
  5
386
100
AcDbEntity
  8
LAY-5
  6
DASHDOT
 62
     1
100
AcDbLine
 10
169.0
 20
518.206958
 30
0.0
 11
169.0
 21
496.890918
 31
0.0
  0
LINE
  5
387
100
AcDbEntity
  8
LAY-5
  6
DASHDOT
 62
     1
100
AcDbLine
 10
149.0
 20
518.206958
 30
0.0
 11
149.0
 21
496.890918
 31
0.0
  0
LINE
  5
388
100
AcDbEntity
  8
LAY-5
  6
DASHDOT
 62
     1
100
AcDbLine
 10
89.0
 20
532.6
 30
0.0
 11
89.0
 21
483.7
 31
0.0
  0
LINE
  5
389
100
AcDbEntity
  8
LAY-5
  6
DASHDOT
 62
     1
100
AcDbLine
 10
124.90155
 20
498.2
 30
0.0
 11
142.575256
 21
498.2
 31
0.0
  0
LINE
  5
38A
100
AcDbEntity
  8
LAY-5
  6
DASHDOT
 62
     1
100
AcDbLine
 10
104.90155
 20
516.2
 30
0.0
 11
122.575256
 21
516.2
 31
0.0
  0
LINE
  5
38B
100
AcDbEntity
  8
LAY-5
  6
DASHDOT
 62
     1
100
AcDbLine
 10
114.0
 20
523.200061
 30
0.0
 11
114.0
 21
507.615893
 31
0.0
  0
LINE
  5
38C
100
AcDbEntity
  8
LAY-5
  6
DASHDOT
 62
     1
100
AcDbLine
 10
134.0
 20
505.200061
 30
0.0
 11
134.0
 21
489.615893
 31
0.0
  0
LINE
  5
38D
100
AcDbEntity
  8
LAY-5
  6
DASHDOT
 62
     1
100
AcDbLine
 10
381.0
 20
527.697803
 30
0.0
 11
381.0
 21
488.9
 31
0.0
  0
LINE
  5
38E
100
AcDbEntity
  8
LAY-5
  6
DASHDOT
 62
     1
100
AcDbLine
 10
523.283325
 20
507.2
 30
0.0
 11
356.967285
 21
507.2
 31
0.0
  0
LINE
  5
38F
100
AcDbEntity
  8
LAY-5
  6
DASHDOT
 62
     1
100
AcDbLine
 10
419.818237
 20
515.2
 30
0.0
 11
402.292114
 21
515.2
 31
0.0
  0
LINE
  5
390
100
AcDbEntity
  8
LAY-5
  6
DASHDOT
 62
     1
100
AcDbLine
 10
411.0
 20
505.6
 30
0.0
 11
411.0
 21
524.748828
 31
0.0
  0
LINE
  5
391
100
AcDbEntity
  8
LAY-5
  6
DASHDOT
 62
     1
100
AcDbLine
 10
448.430664
 20
499.2
 30
0.0
 11
466.192505
 21
499.2
 31
0.0
  0
LINE
  5
392
100
AcDbEntity
  8
LAY-5
  6
DASHDOT
 62
     1
100
AcDbLine
 10
457.0
 20
488.9
 30
0.0
 11
457.0
 21
509.427967
 31
0.0
  0
LINE
  5
393
100
AcDbEntity
  8
LAY-5
  6
DASHDOT
 62
     1
100
AcDbLine
 10
511.818237
 20
515.2
 30
0.0
 11
494.292114
 21
515.2
 31
0.0
  0
LINE
  5
394
100
AcDbEntity
  8
LAY-5
  6
DASHDOT
 62
     1
100
AcDbLine
 10
503.0
 20
505.6
 30
0.0
 11
503.0
 21
524.748828
 31
0.0
  0
LINE
  5
395
100
AcDbEntity
  8
LAY-5
  6
DASHDOT
 62
     1
100
AcDbLine
 10
56.4
 20
122.0
 30
0.0
 11
319.5
 21
122.0
 31
0.0
  0
LINE
  5
396
100
AcDbEntity
  8
LAY-5
  6
DASHDOT
 62
     1
100
AcDbLine
 10
417.0
 20
78.447922
 30
0.0
 11
417.0
 21
166.2
 31
0.0
  0
LINE
  5
397
100
AcDbEntity
  8
LAY-5
  6
DASHDOT
 62
     1
100
AcDbLine
 10
384.4
 20
122.0
 30
0.0
 11
647.5
 21
122.0
 31
0.0
  0
LINE
  5
398
100
AcDbEntity
  8
LAY-5
  6
DASHDOT
 62
     1
100
AcDbLine
 10
89.0
 20
271.1
 30
0.0
 11
89.0
 21
168.4
 31
0.0
  0
LINE
  5
399
100
AcDbEntity
  8
LAY-5
  6
DASHDOT
 62
     1
100
AcDbLine
 10
149.0
 20
258.2
 30
0.0
 11
149.0
 21
228.7
 31
0.0
  0
LINE
  5
39A
100
AcDbEntity
  8
LAY-5
  6
DASHDOT
 62
     1
100
AcDbLine
 10
725.6
 20
158.2
 30
0.0
 11
725.6
 21
436.1
 31
0.0
  0
LINE
  5
39B
100
AcDbEntity
  8
LAY-5
  6
DASHDOT
 62
     1
100
AcDbLine
 10
176.0
 20
258.2
 30
0.0
 11
176.0
 21
228.7
 31
0.0
  0
LINE
  5
39C
100
AcDbEntity
  8
LAY-5
  6
DASHDOT
 62
     1
100
AcDbLine
 10
203.0
 20
258.2
 30
0.0
 11
203.0
 21
228.7
 31
0.0
  0
LINE
  5
39D
100
AcDbEntity
  8
LAY-5
  6
DASHDOT
 62
     1
100
AcDbLine
 10
230.0
 20
258.2
 30
0.0
 11
230.0
 21
228.7
 31
0.0
  0
LINE
  5
39E
100
AcDbEntity
  8
LAY-5
  6
DASHDOT
 62
     1
100
AcDbLine
 10
257.0
 20
258.2
 30
0.0
 11
257.0
 21
228.7
 31
0.0
  0
LINE
  5
39F
100
AcDbEntity
  8
LAY-5
  6
DASHDOT
 62
     1
100
AcDbLine
 10
284.0
 20
258.2
 30
0.0
 11
284.0
 21
228.7
 31
0.0
  0
LINE
  5
3A0
100
AcDbEntity
  8
LAY-5
  6
DASHDOT
 62
     1
100
AcDbLine
 10
311.0
 20
258.2
 30
0.0
 11
311.0
 21
228.7
 31
0.0
  0
LINE
  5
3A1
100
AcDbEntity
  8
LAY-5
  6
DASHDOT
 62
     1
100
AcDbLine
 10
338.0
 20
258.2
 30
0.0
 11
338.0
 21
228.7
 31
0.0
  0
LINE
  5
3A2
100
AcDbEntity
  8
LAY-5
  6
DASHDOT
 62
     1
100
AcDbLine
 10
176.0
 20
145.4
 30
0.0
 11
176.0
 21
119.0
 31
0.0
  0
LINE
  5
3A3
100
AcDbEntity
  8
LAY-5
  6
DASHDOT
 62
     1
100
AcDbLine
 10
230.0
 20
145.4
 30
0.0
 11
230.0
 21
119.0
 31
0.0
  0
LINE
  5
3A4
100
AcDbEntity
  8
LAY-5
  6
DASHDOT
 62
     1
100
AcDbLine
 10
477.0
 20
125.8
 30
0.0
 11
477.0
 21
94.8
 31
0.0
  0
LINE
  5
3A5
100
AcDbEntity
  8
LAY-5
  6
DASHDOT
 62
     1
100
AcDbLine
 10
504.0
 20
145.4
 30
0.0
 11
504.0
 21
119.0
 31
0.0
  0
LINE
  5
3A6
100
AcDbEntity
  8
LAY-5
  6
DASHDOT
 62
     1
100
AcDbLine
 10
531.0
 20
125.8
 30
0.0
 11
531.0
 21
94.8
 31
0.0
  0
LINE
  5
3A7
100
AcDbEntity
  8
LAY-5
  6
DASHDOT
 62
     1
100
AcDbLine
 10
558.0
 20
145.4
 30
0.0
 11
558.0
 21
119.0
 31
0.0
  0
LINE
  5
3A8
100
AcDbEntity
  8
LAY-5
  6
DASHDOT
 62
     1
100
AcDbLine
 10
177.630188
 20
408.500078
 30
0.0
 11
160.022553
 21
408.500078
 31
0.0
  0
LINE
  5
3A9
100
AcDbEntity
  8
LAY-5
  6
DASHDOT
 62
     1
100
AcDbLine
 10
181.731965
 20
412.500078
 30
0.0
 11
198.839417
 21
412.500078
 31
0.0
  0
LINE
  5
3AA
100
AcDbEntity
  8
LAY-5
  6
DASHDOT
 62
     1
100
AcDbLine
 10
210.99997
 20
389.031145
 30
0.0
 11
210.99997
 21
410.740556
 31
0.0
  0
LINE
  5
3AB
100
AcDbEntity
  8
LAY-5
  6
DASHDOT
 62
     1
100
AcDbLine
 10
168.99997
 20
417.896989
 30
0.0
 11
168.99997
 21
394.733598
 31
0.0
  0
LINE
  5
3AC
100
AcDbEntity
  8
LAY-5
  6
DASHDOT
 62
     1
100
AcDbLine
 10
189.99997
 20
394.733598
 30
0.0
 11
189.99997
 21
420.946245
 31
0.0
  0
LINE
  5
3AD
100
AcDbEntity
  8
LAY-5
  6
DASHDOT
 62
     1
100
AcDbLine
 10
114.0
 20
388.831071
 30
0.0
 11
114.0
 21
410.740556
 31
0.0
  0
LINE
  5
3AE
100
AcDbEntity
  8
LAY-5
  6
DASHDOT
 62
     1
100
AcDbLine
 10
134.0
 20
388.831071
 30
0.0
 11
134.0
 21
410.740556
 31
0.0
  0
LINE
  5
3AF
100
AcDbEntity
  8
LAY-5
  6
DASHDOT
 62
     1
100
AcDbLine
 10
119.0
 20
370.216783
 30
0.0
 11
119.0
 21
388.831071
 31
0.0
  0
LINE
  5
3B0
100
AcDbEntity
  8
LAY-5
  6
DASHDOT
 62
     1
100
AcDbLine
 10
165.0
 20
370.216783
 30
0.0
 11
165.0
 21
388.831071
 31
0.0
  0
LINE
  5
3B1
100
AcDbEntity
  8
LAY-5
  6
DASHDOT
 62
     1
100
AcDbLine
 10
211.0
 20
370.216783
 30
0.0
 11
211.0
 21
388.831071
 31
0.0
  0
LINE
  5
3B2
100
AcDbEntity
  8
LAY-5
  6
DASHDOT
 62
     1
100
AcDbLine
 10
89.0
 20
340.9
 30
0.0
 11
89.0
 21
436.4
 31
0.0
  0
LINE
  5
3B3
100
AcDbEntity
  8
LAY-5
  6
DASHDOT
 62
     1
100
AcDbLine
 10
747.6
 20
245.2
 30
0.0
 11
704.1
 21
245.2
 31
0.0
  0
LINE
  5
3B4
100
AcDbEntity
  8
LAY-5
  6
DASHDOT
 62
     1
100
AcDbLine
 10
133.4
 20
245.2
 30
0.0
 11
165.4
 21
245.2
 31
0.0
  0
LINE
  5
3B5
100
AcDbEntity
  8
LAY-5
  6
DASHDOT
 62
     1
100
AcDbLine
 10
160.4
 20
245.2
 30
0.0
 11
192.4
 21
245.2
 31
0.0
  0
LINE
  5
3B6
100
AcDbEntity
  8
LAY-5
  6
DASHDOT
 62
     1
100
AcDbLine
 10
187.4
 20
245.2
 30
0.0
 11
219.4
 21
245.2
 31
0.0
  0
LINE
  5
3B7
100
AcDbEntity
  8
LAY-5
  6
DASHDOT
 62
     1
100
AcDbLine
 10
214.4
 20
245.2
 30
0.0
 11
246.4
 21
245.2
 31
0.0
  0
LINE
  5
3B8
100
AcDbEntity
  8
LAY-5
  6
DASHDOT
 62
     1
100
AcDbLine
 10
241.4
 20
245.2
 30
0.0
 11
273.4
 21
245.2
 31
0.0
  0
LINE
  5
3B9
100
AcDbEntity
  8
LAY-5
  6
DASHDOT
 62
     1
100
AcDbLine
 10
268.4
 20
245.2
 30
0.0
 11
300.4
 21
245.2
 31
0.0
  0
LINE
  5
3BA
100
AcDbEntity
  8
LAY-5
  6
DASHDOT
 62
     1
100
AcDbLine
 10
295.4
 20
245.2
 30
0.0
 11
327.4
 21
245.2
 31
0.0
  0
LINE
  5
3BB
100
AcDbEntity
  8
LAY-5
  6
DASHDOT
 62
     1
100
AcDbLine
 10
322.4
 20
245.2
 30
0.0
 11
354.4
 21
245.2
 31
0.0
  0
LINE
  5
3BC
100
AcDbEntity
  8
LAY-5
  6
DASHDOT
 62
     1
100
AcDbLine
 10
89.0
 20
65.447922
 30
0.0
 11
89.0
 21
166.2
 31
0.0
  0
LINE
  5
3BD
100
AcDbEntity
  8
LAY-5
  6
DASHDOT
 62
     1
100
AcDbLine
 10
203.0
 20
125.8
 30
0.0
 11
203.0
 21
98.6
 31
0.0
  0
LINE
  5
3BE
100
AcDbEntity
  8
LAY-5
  6
DASHDOT
 62
     1
100
AcDbLine
 10
149.0
 20
125.8
 30
0.0
 11
149.0
 21
98.6
 31
0.0
  0
LINE
  5
3BF
100
AcDbEntity
  8
LAY-6
  6
CONTINUOUS
 62
     1
100
AcDbLine
 10
89.0
 20
432.551286
 30
0.0
 11
89.0
 21
442.9
 31
0.0
  0
LINE
  5
3C0
100
AcDbEntity
  8
LAY-6
  6
CONTINUOUS
 62
     1
100
AcDbLine
 10
104.0
 20
401.500078
 30
0.0
 11
104.0
 21
442.9
 31
0.0
  0
TEXT
  5
3C1
100
AcDbEntity
  8
LAY-6
  6
CONTINUOUS
 62
     2
100
AcDbText
 10
92.5
 20
441.9
 30
0.0
 40
5.0
  1
１５
 41
0.672
  7
EXCADSTD
 72
     5
 11
99.8328
 21
441.9
 31
0.0
100
AcDbText
  0
LINE
  5
3C2
100
AcDbEntity
  8
LAY-6
  6
CONTINUOUS
 62
     1
100
AcDbLine
 10
89.0
 20
441.4
 30
0.0
 11
104.0
 21
441.4
 31
0.0
  0
LINE
  5
3C3
100
AcDbEntity
  8
LAY-6
  6
CONTINUOUS
 62
     1
100
AcDbLine
 10
91.0
 20
441.733333
 30
0.0
 11
89.0
 21
441.4
 31
0.0
  0
LINE
  5
3C4
100
AcDbEntity
  8
LAY-6
  6
CONTINUOUS
 62
     1
100
AcDbLine
 10
89.0
 20
441.4
 30
0.0
 11
91.0
 21
441.066667
 31
0.0
  0
LINE
  5
3C5
100
AcDbEntity
  8
LAY-6
  6
CONTINUOUS
 62
     1
100
AcDbLine
 10
102.0
 20
441.066667
 30
0.0
 11
104.0
 21
441.4
 31
0.0
  0
LINE
  5
3C6
100
AcDbEntity
  8
LAY-6
  6
CONTINUOUS
 62
     1
100
AcDbLine
 10
104.0
 20
441.4
 30
0.0
 11
102.0
 21
441.733333
 31
0.0
  0
LINE
  5
3C7
100
AcDbEntity
  8
LAY-6
  6
CONTINUOUS
 62
     1
100
AcDbLine
 10
144.0
 20
401.500078
 30
0.0
 11
144.0
 21
442.9
 31
0.0
  0
TEXT
  5
3C8
100
AcDbEntity
  8
LAY-6
  6
CONTINUOUS
 62
     2
100
AcDbText
 10
120.0
 20
441.9
 30
0.0
 40
5.0
  1
４０
 41
0.672
  7
EXCADSTD
 72
     5
 11
127.3328
 21
441.9
 31
0.0
100
AcDbText
  0
LINE
  5
3C9
100
AcDbEntity
  8
LAY-6
  6
CONTINUOUS
 62
     1
100
AcDbLine
 10
104.0
 20
441.4
 30
0.0
 11
144.0
 21
441.4
 31
0.0
  0
LINE
  5
3CA
100
AcDbEntity
  8
LAY-6
  6
CONTINUOUS
 62
     1
100
AcDbLine
 10
106.0
 20
441.733333
 30
0.0
 11
104.0
 21
441.4
 31
0.0
  0
LINE
  5
3CB
100
AcDbEntity
  8
LAY-6
  6
CONTINUOUS
 62
     1
100
AcDbLine
 10
104.0
 20
441.4
 30
0.0
 11
106.0
 21
441.066667
 31
0.0
  0
LINE
  5
3CC
100
AcDbEntity
  8
LAY-6
  6
CONTINUOUS
 62
     1
100
AcDbLine
 10
142.0
 20
441.066667
 30
0.0
 11
144.0
 21
441.4
 31
0.0
  0
LINE
  5
3CD
100
AcDbEntity
  8
LAY-6
  6
CONTINUOUS
 62
     1
100
AcDbLine
 10
144.0
 20
441.4
 30
0.0
 11
142.0
 21
441.733333
 31
0.0
  0
LINE
  5
3CE
100
AcDbEntity
  8
LAY-6
  6
CONTINUOUS
 62
     1
100
AcDbLine
 10
205.0
 20
401.500078
 30
0.0
 11
205.0
 21
442.9
 31
0.0
  0
TEXT
  5
3CF
100
AcDbEntity
  8
LAY-6
  6
CONTINUOUS
 62
     2
100
AcDbText
 10
170.5
 20
441.9
 30
0.0
 40
5.0
  1
６１
 41
0.672
  7
EXCADSTD
 72
     5
 11
177.8328
 21
441.9
 31
0.0
100
AcDbText
  0
LINE
  5
3D0
100
AcDbEntity
  8
LAY-6
  6
CONTINUOUS
 62
     1
100
AcDbLine
 10
144.0
 20
441.4
 30
0.0
 11
205.0
 21
441.4
 31
0.0
  0
LINE
  5
3D1
100
AcDbEntity
  8
LAY-6
  6
CONTINUOUS
 62
     1
100
AcDbLine
 10
146.0
 20
441.733333
 30
0.0
 11
144.0
 21
441.4
 31
0.0
  0
LINE
  5
3D2
100
AcDbEntity
  8
LAY-6
  6
CONTINUOUS
 62
     1
100
AcDbLine
 10
144.0
 20
441.4
 30
0.0
 11
146.0
 21
441.066667
 31
0.0
  0
LINE
  5
3D3
100
AcDbEntity
  8
LAY-6
  6
CONTINUOUS
 62
     1
100
AcDbLine
 10
203.0
 20
441.066667
 30
0.0
 11
205.0
 21
441.4
 31
0.0
  0
LINE
  5
3D4
100
AcDbEntity
  8
LAY-6
  6
CONTINUOUS
 62
     1
100
AcDbLine
 10
205.0
 20
441.4
 30
0.0
 11
203.0
 21
441.733333
 31
0.0
  0
LINE
  5
3D5
100
AcDbEntity
  8
LAY-6
  6
CONTINUOUS
 62
     1
100
AcDbLine
 10
224.0
 20
401.500078
 30
0.0
 11
224.0
 21
442.9
 31
0.0
  0
TEXT
  5
3D6
100
AcDbEntity
  8
LAY-6
  6
CONTINUOUS
 62
     2
100
AcDbText
 10
210.5
 20
441.9
 30
0.0
 40
5.0
  1
１９
 41
0.672
  7
EXCADSTD
 72
     5
 11
217.8328
 21
441.9
 31
0.0
100
AcDbText
  0
LINE
  5
3D7
100
AcDbEntity
  8
LAY-6
  6
CONTINUOUS
 62
     1
100
AcDbLine
 10
205.0
 20
441.4
 30
0.0
 11
224.0
 21
441.4
 31
0.0
  0
LINE
  5
3D8
100
AcDbEntity
  8
LAY-6
  6
CONTINUOUS
 62
     1
100
AcDbLine
 10
207.0
 20
441.733333
 30
0.0
 11
205.0
 21
441.4
 31
0.0
  0
LINE
  5
3D9
100
AcDbEntity
  8
LAY-6
  6
CONTINUOUS
 62
     1
100
AcDbLine
 10
205.0
 20
441.4
 30
0.0
 11
207.0
 21
441.066667
 31
0.0
  0
LINE
  5
3DA
100
AcDbEntity
  8
LAY-6
  6
CONTINUOUS
 62
     1
100
AcDbLine
 10
222.0
 20
441.066667
 30
0.0
 11
224.0
 21
441.4
 31
0.0
  0
LINE
  5
3DB
100
AcDbEntity
  8
LAY-6
  6
CONTINUOUS
 62
     1
100
AcDbLine
 10
224.0
 20
441.4
 30
0.0
 11
222.0
 21
441.733333
 31
0.0
  0
LINE
  5
3DC
100
AcDbEntity
  8
LAY-6
  6
CONTINUOUS
 62
     1
100
AcDbLine
 10
89.0
 20
350.9
 30
0.0
 11
89.0
 21
346.0
 31
0.0
  0
LINE
  5
3DD
100
AcDbEntity
  8
LAY-6
  6
CONTINUOUS
 62
     1
100
AcDbLine
 10
109.0
 20
377.500108
 30
0.0
 11
109.0
 21
346.0
 31
0.0
  0
TEXT
  5
3DE
100
AcDbEntity
  8
LAY-6
  6
CONTINUOUS
 62
     2
100
AcDbText
 10
95.0
 20
348.0
 30
0.0
 40
5.0
  1
２０
 41
0.672
  7
EXCADSTD
 72
     5
 11
102.3328
 21
348.0
 31
0.0
100
AcDbText
  0
LINE
  5
3DF
100
AcDbEntity
  8
LAY-6
  6
CONTINUOUS
 62
     1
100
AcDbLine
 10
89.0
 20
347.5
 30
0.0
 11
109.0
 21
347.5
 31
0.0
  0
LINE
  5
3E0
100
AcDbEntity
  8
LAY-6
  6
CONTINUOUS
 62
     1
100
AcDbLine
 10
91.0
 20
347.833333
 30
0.0
 11
89.0
 21
347.5
 31
0.0
  0
LINE
  5
3E1
100
AcDbEntity
  8
LAY-6
  6
CONTINUOUS
 62
     1
100
AcDbLine
 10
89.0
 20
347.5
 30
0.0
 11
91.0
 21
347.166667
 31
0.0
  0
LINE
  5
3E2
100
AcDbEntity
  8
LAY-6
  6
CONTINUOUS
 62
     1
100
AcDbLine
 10
107.0
 20
347.166667
 30
0.0
 11
109.0
 21
347.5
 31
0.0
  0
LINE
  5
3E3
100
AcDbEntity
  8
LAY-6
  6
CONTINUOUS
 62
     1
100
AcDbLine
 10
109.0
 20
347.5
 30
0.0
 11
107.0
 21
347.833333
 31
0.0
  0
LINE
  5
3E4
100
AcDbEntity
  8
LAY-6
  6
CONTINUOUS
 62
     1
100
AcDbLine
 10
224.0
 20
377.500108
 30
0.0
 11
224.0
 21
346.0
 31
0.0
  0
TEXT
  5
3E5
100
AcDbEntity
  8
LAY-6
  6
CONTINUOUS
 62
     2
100
AcDbText
 10
160.5
 20
348.0
 30
0.0
 40
5.0
  1
１１５
 41
0.672
  7
EXCADSTD
 72
     5
 11
172.5
 21
348.0
 31
0.0
100
AcDbText
  0
LINE
  5
3E6
100
AcDbEntity
  8
LAY-6
  6
CONTINUOUS
 62
     1
100
AcDbLine
 10
109.0
 20
347.5
 30
0.0
 11
224.0
 21
347.5
 31
0.0
  0
LINE
  5
3E7
100
AcDbEntity
  8
LAY-6
  6
CONTINUOUS
 62
     1
100
AcDbLine
 10
111.0
 20
347.833333
 30
0.0
 11
109.0
 21
347.5
 31
0.0
  0
LINE
  5
3E8
100
AcDbEntity
  8
LAY-6
  6
CONTINUOUS
 62
     1
100
AcDbLine
 10
109.0
 20
347.5
 30
0.0
 11
111.0
 21
347.166667
 31
0.0
  0
LINE
  5
3E9
100
AcDbEntity
  8
LAY-6
  6
CONTINUOUS
 62
     1
100
AcDbLine
 10
222.0
 20
347.166667
 30
0.0
 11
224.0
 21
347.5
 31
0.0
  0
LINE
  5
3EA
100
AcDbEntity
  8
LAY-6
  6
CONTINUOUS
 62
     1
100
AcDbLine
 10
224.0
 20
347.5
 30
0.0
 11
222.0
 21
347.833333
 31
0.0
  0
POLYLINE
  5
3EB
100
AcDbEntity
  8
LAY-6
  6
CONTINUOUS
 62
     1
100
AcDb2dPolyline
 66
     1
 10
0.0
 20
0.0
 30
0.0
 70
   128
  0
VERTEX
  5
3EC
100
AcDbEntity
  8
LAY-6
  6
CONTINUOUS
 62
     1
100
AcDbVertex
100
AcDb2dVertex
 10
210.99997
 20
407.000078
 30
0.0
  0
VERTEX
  5
3ED
100
AcDbEntity
  8
LAY-6
  6
CONTINUOUS
 62
     1
100
AcDbVertex
100
AcDb2dVertex
 10
244.9
 20
430.500078
 30
0.0
  0
VERTEX
  5
3EE
100
AcDbEntity
  8
LAY-6
  6
CONTINUOUS
 62
     1
100
AcDbVertex
100
AcDb2dVertex
 10
292.7
 20
430.500078
 30
0.0
  0
SEQEND
  5
3EF
100
AcDbEntity
  8
LAY-6
  6
CONTINUOUS
 62
     1
  0
LINE
  5
3F0
100
AcDbEntity
  8
LAY-6
  6
CONTINUOUS
 62
     1
100
AcDbLine
 10
212.453752
 20
408.413453
 30
0.0
 11
210.99997
 21
407.000078
 31
0.0
  0
LINE
  5
3F1
100
AcDbEntity
  8
LAY-6
  6
CONTINUOUS
 62
     1
100
AcDbLine
 10
210.99997
 20
407.000078
 30
0.0
 11
212.833561
 21
407.865558
 31
0.0
  0
TEXT
  5
3F2
100
AcDbEntity
  8
LAY-6
  6
CONTINUOUS
 62
     2
100
AcDbText
 10
248.7
 20
430.500078
 30
0.0
 40
5.0
  1
４－Ｍ６×１６皿小ネジ
 41
0.672
  7
EXCADSTD
 72
     5
 11
292.7
 21
430.500078
 31
0.0
100
AcDbText
  0
POLYLINE
  5
3F3
100
AcDbEntity
  8
LAY-6
  6
CONTINUOUS
 62
     1
100
AcDb2dPolyline
 66
     1
 10
0.0
 20
0.0
 30
0.0
 70
   128
  0
VERTEX
  5
3F4
100
AcDbEntity
  8
LAY-6
  6
CONTINUOUS
 62
     1
100
AcDbVertex
100
AcDb2dVertex
 10
219.5
 20
401.500078
 30
0.0
  0
VERTEX
  5
3F5
100
AcDbEntity
  8
LAY-6
  6
CONTINUOUS
 62
     1
100
AcDbVertex
100
AcDb2dVertex
 10
244.9
 20
418.700078
 30
0.0
  0
VERTEX
  5
3F6
100
AcDbEntity
  8
LAY-6
  6
CONTINUOUS
 62
     1
100
AcDbVertex
100
AcDb2dVertex
 10
295.5
 20
418.700078
 30
0.0
  0
SEQEND
  5
3F7
100
AcDbEntity
  8
LAY-6
  6
CONTINUOUS
 62
     1
  0
LINE
  5
3F8
100
AcDbEntity
  8
LAY-6
  6
CONTINUOUS
 62
     1
100
AcDbLine
 10
220.969131
 20
402.897491
 30
0.0
 11
219.5
 21
401.500078
 31
0.0
  0
LINE
  5
3F9
100
AcDbEntity
  8
LAY-6
  6
CONTINUOUS
 62
     1
100
AcDbLine
 10
219.5
 20
401.500078
 30
0.0
 11
221.342934
 21
402.345481
 31
0.0
  0
TEXT
  5
3FA
100
AcDbEntity
  8
LAY-6
  6
CONTINUOUS
 62
     2
100
AcDbText
 10
250.0
 20
418.700078
 30
0.0
 40
5.0
  1
裏板４.５ｔ以上（別途）
 41
0.654222
  7
EXCADSTD
 72
     5
 11
296.0
 21
418.700078
 31
0.0
100
AcDbText
  0
POLYLINE
  5
3FB
100
AcDbEntity
  8
LAY-6
  6
CONTINUOUS
 62
     1
100
AcDb2dPolyline
 66
     1
 10
0.0
 20
0.0
 30
0.0
 70
   128
  0
VERTEX
  5
3FC
100
AcDbEntity
  8
LAY-6
  6
CONTINUOUS
 62
     1
100
AcDbVertex
100
AcDb2dVertex
 10
218.7
 20
377.500108
 30
0.0
  0
VERTEX
  5
3FD
100
AcDbEntity
  8
LAY-6
  6
CONTINUOUS
 62
     1
100
AcDbVertex
100
AcDb2dVertex
 10
239.5
 20
365.300108
 30
0.0
  0
VERTEX
  5
3FE
100
AcDbEntity
  8
LAY-6
  6
CONTINUOUS
 62
     1
100
AcDbVertex
100
AcDb2dVertex
 10
289.8
 20
365.300108
 30
0.0
  0
SEQEND
  5
3FF
100
AcDbEntity
  8
LAY-6
  6
CONTINUOUS
 62
     1
  0
LINE
  5
400
100
AcDbEntity
  8
LAY-6
  6
CONTINUOUS
 62
     1
100
AcDbLine
 10
220.59379
 20
376.775768
 30
0.0
 11
218.7
 21
377.500108
 31
0.0
  0
LINE
  5
401
100
AcDbEntity
  8
LAY-6
  6
CONTINUOUS
 62
     1
100
AcDbLine
 10
218.7
 20
377.500108
 30
0.0
 11
220.256502
 21
376.200719
 31
0.0
  0
POLYLINE
  5
402
100
AcDbEntity
  8
LAY-6
  6
CONTINUOUS
 62
     1
100
AcDb2dPolyline
 66
     1
 10
0.0
 20
0.0
 30
0.0
 70
   128
  0
VERTEX
  5
403
100
AcDbEntity
  8
LAY-6
  6
CONTINUOUS
 62
     1
100
AcDbVertex
100
AcDb2dVertex
 10
211.0
 20
372.000047
 30
0.0
  0
VERTEX
  5
404
100
AcDbEntity
  8
LAY-6
  6
CONTINUOUS
 62
     1
100
AcDbVertex
100
AcDb2dVertex
 10
237.0
 20
353.500047
 30
0.0
  0
VERTEX
  5
405
100
AcDbEntity
  8
LAY-6
  6
CONTINUOUS
 62
     1
100
AcDbVertex
100
AcDb2dVertex
 10
284.9
 20
353.500047
 30
0.0
  0
SEQEND
  5
406
100
AcDbEntity
  8
LAY-6
  6
CONTINUOUS
 62
     1
  0
LINE
  5
407
100
AcDbEntity
  8
LAY-6
  6
CONTINUOUS
 62
     1
100
AcDbLine
 10
212.822833
 20
371.112134
 30
0.0
 11
211.0
 21
372.000047
 31
0.0
  0
LINE
  5
408
100
AcDbEntity
  8
LAY-6
  6
CONTINUOUS
 62
     1
100
AcDbLine
 10
211.0
 20
372.000047
 30
0.0
 11
212.43633
 21
370.56894
 31
0.0
  0
TEXT
  5
409
100
AcDbEntity
  8
LAY-6
  6
CONTINUOUS
 62
     2
100
AcDbText
 10
240.9
 20
353.500047
 30
0.0
 40
5.0
  1
３－Ｍ６×１６皿小ネジ
 41
0.672
  7
EXCADSTD
 72
     5
 11
284.9
 21
353.500047
 31
0.0
100
AcDbText
  0
LINE
  5
40A
100
AcDbEntity
  8
LAY-6
  6
CONTINUOUS
 62
     1
100
AcDbLine
 10
67.0
 20
391.000078
 30
0.0
 11
150.5
 21
391.000078
 31
0.0
  0
LINE
  5
40B
100
AcDbEntity
  8
LAY-6
  6
CONTINUOUS
 62
     1
100
AcDbLine
 10
709.6
 20
397.000163
 30
0.0
 11
709.6
 21
439.8001
 31
0.0
  0
LINE
  5
40C
100
AcDbEntity
  8
LAY-6
  6
CONTINUOUS
 62
     1
100
AcDbLine
 10
741.6
 20
397.000163
 30
0.0
 11
741.6
 21
439.8001
 31
0.0
  0
TEXT
  5
40D
100
AcDbEntity
  8
LAY-6
  6
CONTINUOUS
 62
     2
100
AcDbText
 10
721.6
 20
438.8001
 30
0.0
 40
5.0
  1
３２
 41
0.672
  7
EXCADSTD
 72
     5
 11
728.9328
 21
438.8001
 31
0.0
100
AcDbText
  0
LINE
  5
40E
100
AcDbEntity
  8
LAY-6
  6
CONTINUOUS
 62
     1
100
AcDbLine
 10
709.6
 20
438.3001
 30
0.0
 11
741.6
 21
438.3001
 31
0.0
  0
LINE
  5
40F
100
AcDbEntity
  8
LAY-6
  6
CONTINUOUS
 62
     1
100
AcDbLine
 10
711.6
 20
438.633433
 30
0.0
 11
709.6
 21
438.3001
 31
0.0
  0
LINE
  5
410
100
AcDbEntity
  8
LAY-6
  6
CONTINUOUS
 62
     1
100
AcDbLine
 10
709.6
 20
438.3001
 30
0.0
 11
711.6
 21
437.966767
 31
0.0
  0
LINE
  5
411
100
AcDbEntity
  8
LAY-6
  6
CONTINUOUS
 62
     1
100
AcDbLine
 10
739.6
 20
437.966767
 30
0.0
 11
741.6
 21
438.3001
 31
0.0
  0
LINE
  5
412
100
AcDbEntity
  8
LAY-6
  6
CONTINUOUS
 62
     1
100
AcDbLine
 10
741.6
 20
438.3001
 30
0.0
 11
739.6
 21
438.633433
 31
0.0
  0
LINE
  5
413
100
AcDbEntity
  8
LAY-6
  6
CONTINUOUS
 62
     1
100
AcDbLine
 10
709.6
 20
382.000193
 30
0.0
 11
709.6
 21
346.2
 31
0.0
  0
LINE
  5
414
100
AcDbEntity
  8
LAY-6
  6
CONTINUOUS
 62
     1
100
AcDbLine
 10
741.6
 20
382.000193
 30
0.0
 11
741.6
 21
346.2
 31
0.0
  0
TEXT
  5
415
100
AcDbEntity
  8
LAY-6
  6
CONTINUOUS
 62
     2
100
AcDbText
 10
721.6
 20
348.2
 30
0.0
 40
5.0
  1
３２
 41
0.672
  7
EXCADSTD
 72
     5
 11
728.9328
 21
348.2
 31
0.0
100
AcDbText
  0
LINE
  5
416
100
AcDbEntity
  8
LAY-6
  6
CONTINUOUS
 62
     1
100
AcDbLine
 10
709.6
 20
347.7
 30
0.0
 11
741.6
 21
347.7
 31
0.0
  0
LINE
  5
417
100
AcDbEntity
  8
LAY-6
  6
CONTINUOUS
 62
     1
100
AcDbLine
 10
711.6
 20
348.033333
 30
0.0
 11
709.6
 21
347.7
 31
0.0
  0
LINE
  5
418
100
AcDbEntity
  8
LAY-6
  6
CONTINUOUS
 62
     1
100
AcDbLine
 10
709.6
 20
347.7
 30
0.0
 11
711.6
 21
347.366667
 31
0.0
  0
LINE
  5
419
100
AcDbEntity
  8
LAY-6
  6
CONTINUOUS
 62
     1
100
AcDbLine
 10
739.6
 20
347.366667
 30
0.0
 11
741.6
 21
347.7
 31
0.0
  0
LINE
  5
41A
100
AcDbEntity
  8
LAY-6
  6
CONTINUOUS
 62
     1
100
AcDbLine
 10
741.6
 20
347.7
 30
0.0
 11
739.6
 21
348.033333
 31
0.0
  0
LINE
  5
41B
100
AcDbEntity
  8
LAY-6
  6
CONTINUOUS
 62
     1
100
AcDbLine
 10
68.0
 20
525.7
 30
0.0
 11
68.0
 21
539.9
 31
0.0
  0
LINE
  5
41C
100
AcDbEntity
  8
LAY-6
  6
CONTINUOUS
 62
     1
100
AcDbLine
 10
89.0
 20
530.7
 30
0.0
 11
89.0
 21
539.9
 31
0.0
  0
TEXT
  5
41D
100
AcDbEntity
  8
LAY-6
  6
CONTINUOUS
 62
     2
100
AcDbText
 10
77.5
 20
538.9
 30
0.0
 40
5.0
  1
２１
 41
0.672
  7
EXCADSTD
 72
     5
 11
84.8328
 21
538.9
 31
0.0
100
AcDbText
  0
LINE
  5
41E
100
AcDbEntity
  8
LAY-6
  6
CONTINUOUS
 62
     1
100
AcDbLine
 10
68.0
 20
538.4
 30
0.0
 11
89.0
 21
538.4
 31
0.0
  0
LINE
  5
41F
100
AcDbEntity
  8
LAY-6
  6
CONTINUOUS
 62
     1
100
AcDbLine
 10
70.0
 20
538.733333
 30
0.0
 11
68.0
 21
538.4
 31
0.0
  0
LINE
  5
420
100
AcDbEntity
  8
LAY-6
  6
CONTINUOUS
 62
     1
100
AcDbLine
 10
68.0
 20
538.4
 30
0.0
 11
70.0
 21
538.066667
 31
0.0
  0
LINE
  5
421
100
AcDbEntity
  8
LAY-6
  6
CONTINUOUS
 62
     1
100
AcDbLine
 10
87.0
 20
538.066667
 30
0.0
 11
89.0
 21
538.4
 31
0.0
  0
LINE
  5
422
100
AcDbEntity
  8
LAY-6
  6
CONTINUOUS
 62
     1
100
AcDbLine
 10
89.0
 20
538.4
 30
0.0
 11
87.0
 21
538.733333
 31
0.0
  0
LINE
  5
423
100
AcDbEntity
  8
LAY-6
  6
CONTINUOUS
 62
     1
100
AcDbLine
 10
230.0
 20
525.7
 30
0.0
 11
230.0
 21
539.9
 31
0.0
  0
TEXT
  5
424
100
AcDbEntity
  8
LAY-6
  6
CONTINUOUS
 62
     2
100
AcDbText
 10
156.5
 20
538.9
 30
0.0
 40
5.0
  1
１４１
 41
0.672
  7
EXCADSTD
 72
     5
 11
168.5
 21
538.9
 31
0.0
100
AcDbText
  0
LINE
  5
425
100
AcDbEntity
  8
LAY-6
  6
CONTINUOUS
 62
     1
100
AcDbLine
 10
89.0
 20
538.4
 30
0.0
 11
230.0
 21
538.4
 31
0.0
  0
LINE
  5
426
100
AcDbEntity
  8
LAY-6
  6
CONTINUOUS
 62
     1
100
AcDbLine
 10
91.0
 20
538.733333
 30
0.0
 11
89.0
 21
538.4
 31
0.0
  0
LINE
  5
427
100
AcDbEntity
  8
LAY-6
  6
CONTINUOUS
 62
     1
100
AcDbLine
 10
89.0
 20
538.4
 30
0.0
 11
91.0
 21
538.066667
 31
0.0
  0
LINE
  5
428
100
AcDbEntity
  8
LAY-6
  6
CONTINUOUS
 62
     1
100
AcDbLine
 10
228.0
 20
538.066667
 30
0.0
 11
230.0
 21
538.4
 31
0.0
  0
LINE
  5
429
100
AcDbEntity
  8
LAY-6
  6
CONTINUOUS
 62
     1
100
AcDbLine
 10
230.0
 20
538.4
 30
0.0
 11
228.0
 21
538.733333
 31
0.0
  0
LINE
  5
42A
100
AcDbEntity
  8
LAY-6
  6
CONTINUOUS
 62
     1
100
AcDbLine
 10
89.0
 20
481.8
 30
0.0
 11
89.0
 21
471.8
 31
0.0
  0
LINE
  5
42B
100
AcDbEntity
  8
LAY-6
  6
CONTINUOUS
 62
     1
100
AcDbLine
 10
114.0
 20
507.615893
 30
0.0
 11
114.0
 21
471.8
 31
0.0
  0
TEXT
  5
42C
100
AcDbEntity
  8
LAY-6
  6
CONTINUOUS
 62
     2
100
AcDbText
 10
97.5
 20
473.8
 30
0.0
 40
5.0
  1
２５
 41
0.672
  7
EXCADSTD
 72
     5
 11
104.8328
 21
473.8
 31
0.0
100
AcDbText
  0
LINE
  5
42D
100
AcDbEntity
  8
LAY-6
  6
CONTINUOUS
 62
     1
100
AcDbLine
 10
89.0
 20
473.3
 30
0.0
 11
114.0
 21
473.3
 31
0.0
  0
LINE
  5
42E
100
AcDbEntity
  8
LAY-6
  6
CONTINUOUS
 62
     1
100
AcDbLine
 10
91.0
 20
473.633333
 30
0.0
 11
89.0
 21
473.3
 31
0.0
  0
LINE
  5
42F
100
AcDbEntity
  8
LAY-6
  6
CONTINUOUS
 62
     1
100
AcDbLine
 10
89.0
 20
473.3
 30
0.0
 11
91.0
 21
472.966667
 31
0.0
  0
LINE
  5
430
100
AcDbEntity
  8
LAY-6
  6
CONTINUOUS
 62
     1
100
AcDbLine
 10
112.0
 20
472.966667
 30
0.0
 11
114.0
 21
473.3
 31
0.0
  0
LINE
  5
431
100
AcDbEntity
  8
LAY-6
  6
CONTINUOUS
 62
     1
100
AcDbLine
 10
114.0
 20
473.3
 30
0.0
 11
112.0
 21
473.633333
 31
0.0
  0
LINE
  5
432
100
AcDbEntity
  8
LAY-6
  6
CONTINUOUS
 62
     1
100
AcDbLine
 10
134.0
 20
489.615893
 30
0.0
 11
134.0
 21
471.8
 31
0.0
  0
TEXT
  5
433
100
AcDbEntity
  8
LAY-6
  6
CONTINUOUS
 62
     2
100
AcDbText
 10
120.0
 20
473.8
 30
0.0
 40
5.0
  1
２０
 41
0.672
  7
EXCADSTD
 72
     5
 11
127.3328
 21
473.8
 31
0.0
100
AcDbText
  0
LINE
  5
434
100
AcDbEntity
  8
LAY-6
  6
CONTINUOUS
 62
     1
100
AcDbLine
 10
114.0
 20
473.3
 30
0.0
 11
134.0
 21
473.3
 31
0.0
  0
LINE
  5
435
100
AcDbEntity
  8
LAY-6
  6
CONTINUOUS
 62
     1
100
AcDbLine
 10
116.0
 20
473.633333
 30
0.0
 11
114.0
 21
473.3
 31
0.0
  0
LINE
  5
436
100
AcDbEntity
  8
LAY-6
  6
CONTINUOUS
 62
     1
100
AcDbLine
 10
114.0
 20
473.3
 30
0.0
 11
116.0
 21
472.966667
 31
0.0
  0
LINE
  5
437
100
AcDbEntity
  8
LAY-6
  6
CONTINUOUS
 62
     1
100
AcDbLine
 10
132.0
 20
472.966667
 30
0.0
 11
134.0
 21
473.3
 31
0.0
  0
LINE
  5
438
100
AcDbEntity
  8
LAY-6
  6
CONTINUOUS
 62
     1
100
AcDbLine
 10
134.0
 20
473.3
 30
0.0
 11
132.0
 21
473.633333
 31
0.0
  0
LINE
  5
439
100
AcDbEntity
  8
LAY-6
  6
CONTINUOUS
 62
     1
100
AcDbLine
 10
211.0
 20
491.200122
 30
0.0
 11
211.0
 21
471.8
 31
0.0
  0
TEXT
  5
43A
100
AcDbEntity
  8
LAY-6
  6
CONTINUOUS
 62
     2
100
AcDbText
 10
168.5
 20
473.8
 30
0.0
 40
5.0
  1
７７
 41
0.672
  7
EXCADSTD
 72
     5
 11
175.8328
 21
473.8
 31
0.0
100
AcDbText
  0
LINE
  5
43B
100
AcDbEntity
  8
LAY-6
  6
CONTINUOUS
 62
     1
100
AcDbLine
 10
134.0
 20
473.3
 30
0.0
 11
211.0
 21
473.3
 31
0.0
  0
LINE
  5
43C
100
AcDbEntity
  8
LAY-6
  6
CONTINUOUS
 62
     1
100
AcDbLine
 10
136.0
 20
473.633333
 30
0.0
 11
134.0
 21
473.3
 31
0.0
  0
LINE
  5
43D
100
AcDbEntity
  8
LAY-6
  6
CONTINUOUS
 62
     1
100
AcDbLine
 10
134.0
 20
473.3
 30
0.0
 11
136.0
 21
472.966667
 31
0.0
  0
LINE
  5
43E
100
AcDbEntity
  8
LAY-6
  6
CONTINUOUS
 62
     1
100
AcDbLine
 10
209.0
 20
472.966667
 30
0.0
 11
211.0
 21
473.3
 31
0.0
  0
LINE
  5
43F
100
AcDbEntity
  8
LAY-6
  6
CONTINUOUS
 62
     1
100
AcDbLine
 10
211.0
 20
473.3
 30
0.0
 11
209.0
 21
473.633333
 31
0.0
  0
LINE
  5
440
100
AcDbEntity
  8
LAY-6
  6
CONTINUOUS
 62
     1
100
AcDbLine
 10
73.0
 20
491.200061
 30
0.0
 11
73.0
 21
456.7
 31
0.0
  0
LINE
  5
441
100
AcDbEntity
  8
LAY-6
  6
CONTINUOUS
 62
     1
100
AcDbLine
 10
89.0
 20
488.699999
 30
0.0
 11
89.0
 21
456.7
 31
0.0
  0
TEXT
  5
442
100
AcDbEntity
  8
LAY-6
  6
CONTINUOUS
 62
     2
100
AcDbText
 10
77.0
 20
458.7
 30
0.0
 40
5.0
  1
１６
 41
0.672
  7
EXCADSTD
 72
     5
 11
84.3328
 21
458.7
 31
0.0
100
AcDbText
  0
LINE
  5
443
100
AcDbEntity
  8
LAY-6
  6
CONTINUOUS
 62
     1
100
AcDbLine
 10
73.0
 20
458.2
 30
0.0
 11
89.0
 21
458.2
 31
0.0
  0
LINE
  5
444
100
AcDbEntity
  8
LAY-6
  6
CONTINUOUS
 62
     1
100
AcDbLine
 10
75.0
 20
458.533333
 30
0.0
 11
73.0
 21
458.2
 31
0.0
  0
LINE
  5
445
100
AcDbEntity
  8
LAY-6
  6
CONTINUOUS
 62
     1
100
AcDbLine
 10
73.0
 20
458.2
 30
0.0
 11
75.0
 21
457.866667
 31
0.0
  0
LINE
  5
446
100
AcDbEntity
  8
LAY-6
  6
CONTINUOUS
 62
     1
100
AcDbLine
 10
87.0
 20
457.866667
 30
0.0
 11
89.0
 21
458.2
 31
0.0
  0
LINE
  5
447
100
AcDbEntity
  8
LAY-6
  6
CONTINUOUS
 62
     1
100
AcDbLine
 10
89.0
 20
458.2
 30
0.0
 11
87.0
 21
458.533333
 31
0.0
  0
LINE
  5
448
100
AcDbEntity
  8
LAY-6
  6
CONTINUOUS
 62
     1
100
AcDbLine
 10
224.0
 20
491.200061
 30
0.0
 11
224.0
 21
456.7
 31
0.0
  0
TEXT
  5
449
100
AcDbEntity
  8
LAY-6
  6
CONTINUOUS
 62
     2
100
AcDbText
 10
150.5
 20
458.7
 30
0.0
 40
5.0
  1
１３５
 41
0.672
  7
EXCADSTD
 72
     5
 11
162.5
 21
458.7
 31
0.0
100
AcDbText
  0
LINE
  5
44A
100
AcDbEntity
  8
LAY-6
  6
CONTINUOUS
 62
     1
100
AcDbLine
 10
89.0
 20
458.2
 30
0.0
 11
224.0
 21
458.2
 31
0.0
  0
LINE
  5
44B
100
AcDbEntity
  8
LAY-6
  6
CONTINUOUS
 62
     1
100
AcDbLine
 10
91.0
 20
458.533333
 30
0.0
 11
89.0
 21
458.2
 31
0.0
  0
LINE
  5
44C
100
AcDbEntity
  8
LAY-6
  6
CONTINUOUS
 62
     1
100
AcDbLine
 10
89.0
 20
458.2
 30
0.0
 11
91.0
 21
457.866667
 31
0.0
  0
LINE
  5
44D
100
AcDbEntity
  8
LAY-6
  6
CONTINUOUS
 62
     1
100
AcDbLine
 10
222.0
 20
457.866667
 30
0.0
 11
224.0
 21
458.2
 31
0.0
  0
LINE
  5
44E
100
AcDbEntity
  8
LAY-6
  6
CONTINUOUS
 62
     1
100
AcDbLine
 10
224.0
 20
458.2
 30
0.0
 11
222.0
 21
458.533333
 31
0.0
  0
LINE
  5
44F
100
AcDbEntity
  8
LAY-6
  6
CONTINUOUS
 62
     1
100
AcDbLine
 10
66.0
 20
488.7
 30
0.0
 11
57.3
 21
488.7
 31
0.0
  0
LINE
  5
450
100
AcDbEntity
  8
LAY-6
  6
CONTINUOUS
 62
     1
100
AcDbLine
 10
66.0
 20
525.700061
 30
0.0
 11
57.3
 21
525.700061
 31
0.0
  0
TEXT
  5
451
100
AcDbEntity
  8
LAY-6
  6
CONTINUOUS
 62
     2
100
AcDbText
 10
58.3
 20
503.60003
 30
0.0
 40
5.0
  1
３７
 50
90.0
 41
0.672
  7
EXCADSTD
 72
     5
 11
58.3
 21
510.93283
 31
0.0
100
AcDbText
  0
LINE
  5
452
100
AcDbEntity
  8
LAY-6
  6
CONTINUOUS
 62
     1
100
AcDbLine
 10
58.8
 20
488.7
 30
0.0
 11
58.8
 21
525.700061
 31
0.0
  0
LINE
  5
453
100
AcDbEntity
  8
LAY-6
  6
CONTINUOUS
 62
     1
100
AcDbLine
 10
58.466667
 20
490.7
 30
0.0
 11
58.8
 21
488.7
 31
0.0
  0
LINE
  5
454
100
AcDbEntity
  8
LAY-6
  6
CONTINUOUS
 62
     1
100
AcDbLine
 10
58.8
 20
488.7
 30
0.0
 11
59.133333
 21
490.7
 31
0.0
  0
LINE
  5
455
100
AcDbEntity
  8
LAY-6
  6
CONTINUOUS
 62
     1
100
AcDbLine
 10
59.133333
 20
523.700061
 30
0.0
 11
58.8
 21
525.700061
 31
0.0
  0
LINE
  5
456
100
AcDbEntity
  8
LAY-6
  6
CONTINUOUS
 62
     1
100
AcDbLine
 10
58.8
 20
525.700061
 30
0.0
 11
58.466667
 21
523.700061
 31
0.0
  0
LINE
  5
457
100
AcDbEntity
  8
LAY-6
  6
CONTINUOUS
 62
     1
100
AcDbLine
 10
221.8
 20
498.2
 30
0.0
 11
246.5
 21
498.2
 31
0.0
  0
LINE
  5
458
100
AcDbEntity
  8
LAY-6
  6
CONTINUOUS
 62
     1
100
AcDbLine
 10
221.8
 20
516.2
 30
0.0
 11
246.5
 21
516.2
 31
0.0
  0
TEXT
  5
459
100
AcDbEntity
  8
LAY-6
  6
CONTINUOUS
 62
     2
100
AcDbText
 10
244.5
 20
503.2
 30
0.0
 40
5.0
  1
１８
 50
90.0
 41
0.672
  7
EXCADSTD
 72
     5
 11
244.5
 21
510.5328
 31
0.0
100
AcDbText
  0
LINE
  5
45A
100
AcDbEntity
  8
LAY-6
  6
CONTINUOUS
 62
     1
100
AcDbLine
 10
245.0
 20
498.2
 30
0.0
 11
245.0
 21
516.2
 31
0.0
  0
LINE
  5
45B
100
AcDbEntity
  8
LAY-6
  6
CONTINUOUS
 62
     1
100
AcDbLine
 10
244.666667
 20
500.2
 30
0.0
 11
245.0
 21
498.2
 31
0.0
  0
LINE
  5
45C
100
AcDbEntity
  8
LAY-6
  6
CONTINUOUS
 62
     1
100
AcDbLine
 10
245.0
 20
498.2
 30
0.0
 11
245.333333
 21
500.2
 31
0.0
  0
LINE
  5
45D
100
AcDbEntity
  8
LAY-6
  6
CONTINUOUS
 62
     1
100
AcDbLine
 10
245.333333
 20
514.2
 30
0.0
 11
245.0
 21
516.2
 31
0.0
  0
LINE
  5
45E
100
AcDbEntity
  8
LAY-6
  6
CONTINUOUS
 62
     1
100
AcDbLine
 10
245.0
 20
516.2
 30
0.0
 11
244.666667
 21
514.2
 31
0.0
  0
LINE
  5
45F
100
AcDbEntity
  8
LAY-6
  6
CONTINUOUS
 62
     1
100
AcDbLine
 10
224.0
 20
491.200061
 30
0.0
 11
259.2
 21
491.200061
 31
0.0
  0
LINE
  5
460
100
AcDbEntity
  8
LAY-6
  6
CONTINUOUS
 62
     1
100
AcDbLine
 10
224.0
 20
523.2
 30
0.0
 11
259.2
 21
523.2
 31
0.0
  0
TEXT
  5
461
100
AcDbEntity
  8
LAY-6
  6
CONTINUOUS
 62
     2
100
AcDbText
 10
257.2
 20
503.20003
 30
0.0
 40
5.0
  1
３２
 50
90.0
 41
0.672
  7
EXCADSTD
 72
     5
 11
257.2
 21
510.53283
 31
0.0
100
AcDbText
  0
LINE
  5
462
100
AcDbEntity
  8
LAY-6
  6
CONTINUOUS
 62
     1
100
AcDbLine
 10
257.7
 20
491.200061
 30
0.0
 11
257.7
 21
523.2
 31
0.0
  0
LINE
  5
463
100
AcDbEntity
  8
LAY-6
  6
CONTINUOUS
 62
     1
100
AcDbLine
 10
257.366667
 20
493.200061
 30
0.0
 11
257.7
 21
491.200061
 31
0.0
  0
LINE
  5
464
100
AcDbEntity
  8
LAY-6
  6
CONTINUOUS
 62
     1
100
AcDbLine
 10
257.7
 20
491.200061
 30
0.0
 11
258.033333
 21
493.200061
 31
0.0
  0
LINE
  5
465
100
AcDbEntity
  8
LAY-6
  6
CONTINUOUS
 62
     1
100
AcDbLine
 10
258.033333
 20
521.2
 30
0.0
 11
257.7
 21
523.2
 31
0.0
  0
LINE
  5
466
100
AcDbEntity
  8
LAY-6
  6
CONTINUOUS
 62
     1
100
AcDbLine
 10
257.7
 20
523.2
 30
0.0
 11
257.366667
 21
521.2
 31
0.0
  0
LINE
  5
467
100
AcDbEntity
  8
LAY-6
  6
CONTINUOUS
 62
     1
100
AcDbLine
 10
448.430664
 20
499.2
 30
0.0
 11
433.3
 21
499.2
 31
0.0
  0
LINE
  5
468
100
AcDbEntity
  8
LAY-6
  6
CONTINUOUS
 62
     1
100
AcDbLine
 10
419.818237
 20
515.2
 30
0.0
 11
436.3
 21
515.2
 31
0.0
  0
TEXT
  5
469
100
AcDbEntity
  8
LAY-6
  6
CONTINUOUS
 62
     2
100
AcDbText
 10
434.3
 20
503.2
 30
0.0
 40
5.0
  1
１６
 50
90.0
 41
0.672
  7
EXCADSTD
 72
     5
 11
434.3
 21
510.5328
 31
0.0
100
AcDbText
  0
LINE
  5
46A
100
AcDbEntity
  8
LAY-6
  6
CONTINUOUS
 62
     1
100
AcDbLine
 10
434.8
 20
499.2
 30
0.0
 11
434.8
 21
515.2
 31
0.0
  0
LINE
  5
46B
100
AcDbEntity
  8
LAY-6
  6
CONTINUOUS
 62
     1
100
AcDbLine
 10
434.466667
 20
501.2
 30
0.0
 11
434.8
 21
499.2
 31
0.0
  0
LINE
  5
46C
100
AcDbEntity
  8
LAY-6
  6
CONTINUOUS
 62
     1
100
AcDbLine
 10
434.8
 20
499.2
 30
0.0
 11
435.133333
 21
501.2
 31
0.0
  0
LINE
  5
46D
100
AcDbEntity
  8
LAY-6
  6
CONTINUOUS
 62
     1
100
AcDbLine
 10
435.133333
 20
513.2
 30
0.0
 11
434.8
 21
515.2
 31
0.0
  0
LINE
  5
46E
100
AcDbEntity
  8
LAY-6
  6
CONTINUOUS
 62
     1
100
AcDbLine
 10
434.8
 20
515.2
 30
0.0
 11
434.466667
 21
513.2
 31
0.0
  0
LINE
  5
46F
100
AcDbEntity
  8
LAY-6
  6
CONTINUOUS
 62
     1
100
AcDbLine
 10
516.0
 20
491.2
 30
0.0
 11
534.4
 21
491.2
 31
0.0
  0
LINE
  5
470
100
AcDbEntity
  8
LAY-6
  6
CONTINUOUS
 62
     1
100
AcDbLine
 10
516.0
 20
523.2
 30
0.0
 11
534.4
 21
523.2
 31
0.0
  0
TEXT
  5
471
100
AcDbEntity
  8
LAY-6
  6
CONTINUOUS
 62
     2
100
AcDbText
 10
532.4
 20
503.2
 30
0.0
 40
5.0
  1
３２
 50
90.0
 41
0.672
  7
EXCADSTD
 72
     5
 11
532.4
 21
510.5328
 31
0.0
100
AcDbText
  0
LINE
  5
472
100
AcDbEntity
  8
LAY-6
  6
CONTINUOUS
 62
     1
100
AcDbLine
 10
532.9
 20
491.2
 30
0.0
 11
532.9
 21
523.2
 31
0.0
  0
LINE
  5
473
100
AcDbEntity
  8
LAY-6
  6
CONTINUOUS
 62
     1
100
AcDbLine
 10
532.566667
 20
493.2
 30
0.0
 11
532.9
 21
491.2
 31
0.0
  0
LINE
  5
474
100
AcDbEntity
  8
LAY-6
  6
CONTINUOUS
 62
     1
100
AcDbLine
 10
532.9
 20
491.2
 30
0.0
 11
533.233333
 21
493.2
 31
0.0
  0
LINE
  5
475
100
AcDbEntity
  8
LAY-6
  6
CONTINUOUS
 62
     1
100
AcDbLine
 10
533.233333
 20
521.2
 30
0.0
 11
532.9
 21
523.2
 31
0.0
  0
LINE
  5
476
100
AcDbEntity
  8
LAY-6
  6
CONTINUOUS
 62
     1
100
AcDbLine
 10
532.9
 20
523.2
 30
0.0
 11
532.566667
 21
521.2
 31
0.0
  0
LINE
  5
477
100
AcDbEntity
  8
LAY-6
  6
CONTINUOUS
 62
     1
100
AcDbLine
 10
381.0
 20
488.9
 30
0.0
 11
381.0
 21
469.8
 31
0.0
  0
LINE
  5
478
100
AcDbEntity
  8
LAY-6
  6
CONTINUOUS
 62
     1
100
AcDbLine
 10
411.0
 20
505.6
 30
0.0
 11
411.0
 21
469.8
 31
0.0
  0
TEXT
  5
479
100
AcDbEntity
  8
LAY-6
  6
CONTINUOUS
 62
     2
100
AcDbText
 10
392.0
 20
471.8
 30
0.0
 40
5.0
  1
３０
 41
0.672
  7
EXCADSTD
 72
     5
 11
399.3328
 21
471.8
 31
0.0
100
AcDbText
  0
LINE
  5
47A
100
AcDbEntity
  8
LAY-6
  6
CONTINUOUS
 62
     1
100
AcDbLine
 10
381.0
 20
471.3
 30
0.0
 11
411.0
 21
471.3
 31
0.0
  0
LINE
  5
47B
100
AcDbEntity
  8
LAY-6
  6
CONTINUOUS
 62
     1
100
AcDbLine
 10
383.0
 20
471.633333
 30
0.0
 11
381.0
 21
471.3
 31
0.0
  0
LINE
  5
47C
100
AcDbEntity
  8
LAY-6
  6
CONTINUOUS
 62
     1
100
AcDbLine
 10
381.0
 20
471.3
 30
0.0
 11
383.0
 21
470.966667
 31
0.0
  0
LINE
  5
47D
100
AcDbEntity
  8
LAY-6
  6
CONTINUOUS
 62
     1
100
AcDbLine
 10
409.0
 20
470.966667
 30
0.0
 11
411.0
 21
471.3
 31
0.0
  0
LINE
  5
47E
100
AcDbEntity
  8
LAY-6
  6
CONTINUOUS
 62
     1
100
AcDbLine
 10
411.0
 20
471.3
 30
0.0
 11
409.0
 21
471.633333
 31
0.0
  0
LINE
  5
47F
100
AcDbEntity
  8
LAY-6
  6
CONTINUOUS
 62
     1
100
AcDbLine
 10
457.0
 20
499.2
 30
0.0
 11
457.0
 21
469.8
 31
0.0
  0
TEXT
  5
480
100
AcDbEntity
  8
LAY-6
  6
CONTINUOUS
 62
     2
100
AcDbText
 10
430.0
 20
471.8
 30
0.0
 40
5.0
  1
４６
 41
0.672
  7
EXCADSTD
 72
     5
 11
437.3328
 21
471.8
 31
0.0
100
AcDbText
  0
LINE
  5
481
100
AcDbEntity
  8
LAY-6
  6
CONTINUOUS
 62
     1
100
AcDbLine
 10
411.0
 20
471.3
 30
0.0
 11
457.0
 21
471.3
 31
0.0
  0
LINE
  5
482
100
AcDbEntity
  8
LAY-6
  6
CONTINUOUS
 62
     1
100
AcDbLine
 10
413.0
 20
471.633333
 30
0.0
 11
411.0
 21
471.3
 31
0.0
  0
LINE
  5
483
100
AcDbEntity
  8
LAY-6
  6
CONTINUOUS
 62
     1
100
AcDbLine
 10
411.0
 20
471.3
 30
0.0
 11
413.0
 21
470.966667
 31
0.0
  0
LINE
  5
484
100
AcDbEntity
  8
LAY-6
  6
CONTINUOUS
 62
     1
100
AcDbLine
 10
455.0
 20
470.966667
 30
0.0
 11
457.0
 21
471.3
 31
0.0
  0
LINE
  5
485
100
AcDbEntity
  8
LAY-6
  6
CONTINUOUS
 62
     1
100
AcDbLine
 10
457.0
 20
471.3
 30
0.0
 11
455.0
 21
471.633333
 31
0.0
  0
LINE
  5
486
100
AcDbEntity
  8
LAY-6
  6
CONTINUOUS
 62
     1
100
AcDbLine
 10
503.0
 20
505.6
 30
0.0
 11
503.0
 21
469.8
 31
0.0
  0
TEXT
  5
487
100
AcDbEntity
  8
LAY-6
  6
CONTINUOUS
 62
     2
100
AcDbText
 10
476.0
 20
471.8
 30
0.0
 40
5.0
  1
４６
 41
0.672
  7
EXCADSTD
 72
     5
 11
483.3328
 21
471.8
 31
0.0
100
AcDbText
  0
LINE
  5
488
100
AcDbEntity
  8
LAY-6
  6
CONTINUOUS
 62
     1
100
AcDbLine
 10
457.0
 20
471.3
 30
0.0
 11
503.0
 21
471.3
 31
0.0
  0
LINE
  5
489
100
AcDbEntity
  8
LAY-6
  6
CONTINUOUS
 62
     1
100
AcDbLine
 10
459.0
 20
471.633333
 30
0.0
 11
457.0
 21
471.3
 31
0.0
  0
LINE
  5
48A
100
AcDbEntity
  8
LAY-6
  6
CONTINUOUS
 62
     1
100
AcDbLine
 10
457.0
 20
471.3
 30
0.0
 11
459.0
 21
470.966667
 31
0.0
  0
LINE
  5
48B
100
AcDbEntity
  8
LAY-6
  6
CONTINUOUS
 62
     1
100
AcDbLine
 10
501.0
 20
470.966667
 30
0.0
 11
503.0
 21
471.3
 31
0.0
  0
LINE
  5
48C
100
AcDbEntity
  8
LAY-6
  6
CONTINUOUS
 62
     1
100
AcDbLine
 10
503.0
 20
471.3
 30
0.0
 11
501.0
 21
471.633333
 31
0.0
  0
LINE
  5
48D
100
AcDbEntity
  8
LAY-6
  6
CONTINUOUS
 62
     1
100
AcDbLine
 10
365.0
 20
491.2
 30
0.0
 11
365.0
 21
456.7
 31
0.0
  0
LINE
  5
48E
100
AcDbEntity
  8
LAY-6
  6
CONTINUOUS
 62
     1
100
AcDbLine
 10
381.0
 20
473.4
 30
0.0
 11
381.0
 21
456.7
 31
0.0
  0
TEXT
  5
48F
100
AcDbEntity
  8
LAY-6
  6
CONTINUOUS
 62
     2
100
AcDbText
 10
369.0
 20
458.7
 30
0.0
 40
5.0
  1
１６
 41
0.672
  7
EXCADSTD
 72
     5
 11
376.3328
 21
458.7
 31
0.0
100
AcDbText
  0
LINE
  5
490
100
AcDbEntity
  8
LAY-6
  6
CONTINUOUS
 62
     1
100
AcDbLine
 10
365.0
 20
458.2
 30
0.0
 11
381.0
 21
458.2
 31
0.0
  0
LINE
  5
491
100
AcDbEntity
  8
LAY-6
  6
CONTINUOUS
 62
     1
100
AcDbLine
 10
367.0
 20
458.533333
 30
0.0
 11
365.0
 21
458.2
 31
0.0
  0
LINE
  5
492
100
AcDbEntity
  8
LAY-6
  6
CONTINUOUS
 62
     1
100
AcDbLine
 10
365.0
 20
458.2
 30
0.0
 11
367.0
 21
457.866667
 31
0.0
  0
LINE
  5
493
100
AcDbEntity
  8
LAY-6
  6
CONTINUOUS
 62
     1
100
AcDbLine
 10
379.0
 20
457.866667
 30
0.0
 11
381.0
 21
458.2
 31
0.0
  0
LINE
  5
494
100
AcDbEntity
  8
LAY-6
  6
CONTINUOUS
 62
     1
100
AcDbLine
 10
381.0
 20
458.2
 30
0.0
 11
379.0
 21
458.533333
 31
0.0
  0
LINE
  5
495
100
AcDbEntity
  8
LAY-6
  6
CONTINUOUS
 62
     1
100
AcDbLine
 10
516.0
 20
491.2
 30
0.0
 11
516.0
 21
456.7
 31
0.0
  0
TEXT
  5
496
100
AcDbEntity
  8
LAY-6
  6
CONTINUOUS
 62
     2
100
AcDbText
 10
442.5
 20
458.7
 30
0.0
 40
5.0
  1
１３５
 41
0.672
  7
EXCADSTD
 72
     5
 11
454.5
 21
458.7
 31
0.0
100
AcDbText
  0
LINE
  5
497
100
AcDbEntity
  8
LAY-6
  6
CONTINUOUS
 62
     1
100
AcDbLine
 10
381.0
 20
458.2
 30
0.0
 11
516.0
 21
458.2
 31
0.0
  0
LINE
  5
498
100
AcDbEntity
  8
LAY-6
  6
CONTINUOUS
 62
     1
100
AcDbLine
 10
383.0
 20
458.533333
 30
0.0
 11
381.0
 21
458.2
 31
0.0
  0
LINE
  5
499
100
AcDbEntity
  8
LAY-6
  6
CONTINUOUS
 62
     1
100
AcDbLine
 10
381.0
 20
458.2
 30
0.0
 11
383.0
 21
457.866667
 31
0.0
  0
LINE
  5
49A
100
AcDbEntity
  8
LAY-6
  6
CONTINUOUS
 62
     1
100
AcDbLine
 10
514.0
 20
457.866667
 30
0.0
 11
516.0
 21
458.2
 31
0.0
  0
LINE
  5
49B
100
AcDbEntity
  8
LAY-6
  6
CONTINUOUS
 62
     1
100
AcDbLine
 10
516.0
 20
458.2
 30
0.0
 11
514.0
 21
458.533333
 31
0.0
  0
LINE
  5
49C
100
AcDbEntity
  8
LAY-6
  6
CONTINUOUS
 62
     1
100
AcDbLine
 10
694.4
 20
391.000163
 30
0.0
 11
685.7
 21
391.000163
 31
0.0
  0
LINE
  5
49D
100
AcDbEntity
  8
LAY-6
  6
CONTINUOUS
 62
     1
100
AcDbLine
 10
716.149958
 20
429.000163
 30
0.0
 11
685.7
 21
429.000163
 31
0.0
  0
TEXT
  5
49E
100
AcDbEntity
  8
LAY-6
  6
CONTINUOUS
 62
     2
100
AcDbText
 10
686.7
 20
406.000163
 30
0.0
 40
5.0
  1
３８
 50
90.0
 41
0.672
  7
EXCADSTD
 72
     5
 11
686.7
 21
413.332963
 31
0.0
100
AcDbText
  0
LINE
  5
49F
100
AcDbEntity
  8
LAY-6
  6
CONTINUOUS
 62
     1
100
AcDbLine
 10
687.2
 20
391.000163
 30
0.0
 11
687.2
 21
429.000163
 31
0.0
  0
LINE
  5
4A0
100
AcDbEntity
  8
LAY-6
  6
CONTINUOUS
 62
     1
100
AcDbLine
 10
686.866667
 20
393.000163
 30
0.0
 11
687.2
 21
391.000163
 31
0.0
  0
LINE
  5
4A1
100
AcDbEntity
  8
LAY-6
  6
CONTINUOUS
 62
     1
100
AcDbLine
 10
687.2
 20
391.000163
 30
0.0
 11
687.533333
 21
393.000163
 31
0.0
  0
LINE
  5
4A2
100
AcDbEntity
  8
LAY-6
  6
CONTINUOUS
 62
     1
100
AcDbLine
 10
687.533333
 20
427.000163
 30
0.0
 11
687.2
 21
429.000163
 31
0.0
  0
LINE
  5
4A3
100
AcDbEntity
  8
LAY-6
  6
CONTINUOUS
 62
     1
100
AcDbLine
 10
687.2
 20
429.000163
 30
0.0
 11
686.866667
 21
427.000163
 31
0.0
  0
LINE
  5
4A4
100
AcDbEntity
  8
LAY-6
  6
CONTINUOUS
 62
     1
100
AcDbLine
 10
722.016486
 20
367.000193
 30
0.0
 11
685.7
 21
367.000193
 31
0.0
  0
LINE
  5
4A5
100
AcDbEntity
  8
LAY-6
  6
CONTINUOUS
 62
     1
100
AcDbLine
 10
694.4
 20
388.000163
 30
0.0
 11
685.7
 21
388.000163
 31
0.0
  0
TEXT
  5
4A6
100
AcDbEntity
  8
LAY-6
  6
CONTINUOUS
 62
     2
100
AcDbText
 10
686.7
 20
373.500178
 30
0.0
 40
5.0
  1
２１
 50
90.0
 41
0.672
  7
EXCADSTD
 72
     5
 11
686.7
 21
380.832978
 31
0.0
100
AcDbText
  0
LINE
  5
4A7
100
AcDbEntity
  8
LAY-6
  6
CONTINUOUS
 62
     1
100
AcDbLine
 10
687.2
 20
367.000193
 30
0.0
 11
687.2
 21
388.000163
 31
0.0
  0
LINE
  5
4A8
100
AcDbEntity
  8
LAY-6
  6
CONTINUOUS
 62
     1
100
AcDbLine
 10
686.866667
 20
369.000193
 30
0.0
 11
687.2
 21
367.000193
 31
0.0
  0
LINE
  5
4A9
100
AcDbEntity
  8
LAY-6
  6
CONTINUOUS
 62
     1
100
AcDbLine
 10
687.2
 20
367.000193
 30
0.0
 11
687.533333
 21
369.000193
 31
0.0
  0
LINE
  5
4AA
100
AcDbEntity
  8
LAY-6
  6
CONTINUOUS
 62
     1
100
AcDbLine
 10
687.533333
 20
386.000163
 30
0.0
 11
687.2
 21
388.000163
 31
0.0
  0
LINE
  5
4AB
100
AcDbEntity
  8
LAY-6
  6
CONTINUOUS
 62
     1
100
AcDbLine
 10
687.2
 20
388.000163
 30
0.0
 11
686.866667
 21
386.000163
 31
0.0
  0
LINE
  5
4AC
100
AcDbEntity
  8
LAY-6
  6
CONTINUOUS
 62
     1
100
AcDbLine
 10
113.0
 20
175.7
 30
0.0
 11
159.9
 21
175.7
 31
0.0
  0
LINE
  5
4AD
100
AcDbEntity
  8
LAY-6
  6
CONTINUOUS
 62
     1
100
AcDbLine
 10
139.0
 20
225.7
 30
0.0
 11
159.9
 21
225.7
 31
0.0
  0
TEXT
  5
4AE
100
AcDbEntity
  8
LAY-6
  6
CONTINUOUS
 62
     2
100
AcDbText
 10
158.1
 20
196.7
 30
0.0
 40
5.0
  1
５０
 50
90.0
 41
0.672
  7
EXCADSTD
 72
     5
 11
158.1
 21
204.0328
 31
0.0
100
AcDbText
  0
LINE
  5
4AF
100
AcDbEntity
  8
LAY-6
  6
CONTINUOUS
 62
     1
100
AcDbLine
 10
158.4
 20
175.7
 30
0.0
 11
158.4
 21
225.7
 31
0.0
  0
LINE
  5
4B0
100
AcDbEntity
  8
LAY-6
  6
CONTINUOUS
 62
     1
100
AcDbLine
 10
158.066667
 20
177.7
 30
0.0
 11
158.4
 21
175.7
 31
0.0
  0
LINE
  5
4B1
100
AcDbEntity
  8
LAY-6
  6
CONTINUOUS
 62
     1
100
AcDbLine
 10
158.4
 20
175.7
 30
0.0
 11
158.733333
 21
177.7
 31
0.0
  0
LINE
  5
4B2
100
AcDbEntity
  8
LAY-6
  6
CONTINUOUS
 62
     1
100
AcDbLine
 10
158.733333
 20
223.7
 30
0.0
 11
158.4
 21
225.7
 31
0.0
  0
LINE
  5
4B3
100
AcDbEntity
  8
LAY-6
  6
CONTINUOUS
 62
     1
100
AcDbLine
 10
158.4
 20
225.7
 30
0.0
 11
158.066667
 21
223.7
 31
0.0
  0
LINE
  5
4B4
100
AcDbEntity
  8
LAY-6
  6
CONTINUOUS
 62
     1
100
AcDbLine
 10
157.5
 20
225.7
 30
0.0
 11
159.9
 21
225.7
 31
0.0
  0
LINE
  5
4B5
100
AcDbEntity
  8
LAY-6
  6
CONTINUOUS
 62
     1
100
AcDbLine
 10
158.3
 20
227.2
 30
0.0
 11
159.9
 21
227.2
 31
0.0
  0
TEXT
  5
4B6
100
AcDbEntity
  8
LAY-6
  6
CONTINUOUS
 62
     2
100
AcDbText
 10
158.1
 20
231.25
 30
0.0
 40
5.0
  1
１.５
 50
90.0
 41
0.595556
  7
EXCADSTD
 72
     5
 11
158.1
 21
241.25
 31
0.0
100
AcDbText
  0
LINE
  5
4B7
100
AcDbEntity
  8
LAY-6
  6
CONTINUOUS
 62
     1
100
AcDbLine
 10
158.4
 20
220.7
 30
0.0
 11
158.4
 21
240.1
 31
0.0
  0
LINE
  5
4B8
100
AcDbEntity
  8
LAY-6
  6
CONTINUOUS
 62
     1
100
AcDbLine
 10
158.733333
 20
223.7
 30
0.0
 11
158.4
 21
225.7
 31
0.0
  0
LINE
  5
4B9
100
AcDbEntity
  8
LAY-6
  6
CONTINUOUS
 62
     1
100
AcDbLine
 10
158.4
 20
225.7
 30
0.0
 11
158.066667
 21
223.7
 31
0.0
  0
LINE
  5
4BA
100
AcDbEntity
  8
LAY-6
  6
CONTINUOUS
 62
     1
100
AcDbLine
 10
158.066667
 20
229.2
 30
0.0
 11
158.4
 21
227.2
 31
0.0
  0
LINE
  5
4BB
100
AcDbEntity
  8
LAY-6
  6
CONTINUOUS
 62
     1
100
AcDbLine
 10
158.4
 20
227.2
 30
0.0
 11
158.733333
 21
229.2
 31
0.0
  0
LINE
  5
4BC
100
AcDbEntity
  8
LAY-6
  6
CONTINUOUS
 62
     1
100
AcDbLine
 10
716.1
 20
413.5001
 30
0.0
 11
716.1
 21
411.8001
 31
0.0
  0
TEXT
  5
4BD
100
AcDbEntity
  8
LAY-6
  6
CONTINUOUS
 62
     2
100
AcDbText
 10
718.0
 20
413.6001
 30
0.0
 40
5.0
  1
φ１９
 41
0.672
  7
EXCADSTD
 72
     5
 11
730.0
 21
413.6001
 31
0.0
100
AcDbText
  0
LINE
  5
4BE
100
AcDbEntity
  8
LAY-6
  6
CONTINUOUS
 62
     1
100
AcDbLine
 10
716.1
 20
413.3001
 30
0.0
 11
735.1
 21
413.3001
 31
0.0
  0
LINE
  5
4BF
100
AcDbEntity
  8
LAY-6
  6
CONTINUOUS
 62
     1
100
AcDbLine
 10
718.1
 20
413.633433
 30
0.0
 11
716.1
 21
413.3001
 31
0.0
  0
LINE
  5
4C0
100
AcDbEntity
  8
LAY-6
  6
CONTINUOUS
 62
     1
100
AcDbLine
 10
716.1
 20
413.3001
 30
0.0
 11
718.1
 21
412.966767
 31
0.0
  0
LINE
  5
4C1
100
AcDbEntity
  8
LAY-6
  6
CONTINUOUS
 62
     1
100
AcDbLine
 10
733.1
 20
412.966767
 30
0.0
 11
735.1
 21
413.3001
 31
0.0
  0
LINE
  5
4C2
100
AcDbEntity
  8
LAY-6
  6
CONTINUOUS
 62
     1
100
AcDbLine
 10
735.1
 20
413.3001
 30
0.0
 11
733.1
 21
413.633433
 31
0.0
  0
LINE
  5
4C3
100
AcDbEntity
  8
LAY-6
  6
CONTINUOUS
 62
     1
100
AcDbLine
 10
734.35
 20
371.6001
 30
0.0
 11
734.35
 21
356.2
 31
0.0
  0
LINE
  5
4C4
100
AcDbEntity
  8
LAY-6
  6
CONTINUOUS
 62
     1
100
AcDbLine
 10
716.85
 20
371.6001
 30
0.0
 11
716.85
 21
356.2
 31
0.0
  0
TEXT
  5
4C5
100
AcDbEntity
  8
LAY-6
  6
CONTINUOUS
 62
     2
100
AcDbText
 10
717.1
 20
358.0
 30
0.0
 40
5.0
  1
φ１７.５
 41
0.62784
  7
EXCADSTD
 72
     5
 11
735.1
 21
358.0
 31
0.0
100
AcDbText
  0
LINE
  5
4C6
100
AcDbEntity
  8
LAY-6
  6
CONTINUOUS
 62
     1
100
AcDbLine
 10
734.35
 20
357.7
 30
0.0
 11
716.85
 21
357.7
 31
0.0
  0
LINE
  5
4C7
100
AcDbEntity
  8
LAY-6
  6
CONTINUOUS
 62
     1
100
AcDbLine
 10
732.35
 20
357.366667
 30
0.0
 11
734.35
 21
357.7
 31
0.0
  0
LINE
  5
4C8
100
AcDbEntity
  8
LAY-6
  6
CONTINUOUS
 62
     1
100
AcDbLine
 10
734.35
 20
357.7
 30
0.0
 11
732.35
 21
358.033333
 31
0.0
  0
LINE
  5
4C9
100
AcDbEntity
  8
LAY-6
  6
CONTINUOUS
 62
     1
100
AcDbLine
 10
718.85
 20
358.033333
 30
0.0
 11
716.85
 21
357.7
 31
0.0
  0
LINE
  5
4CA
100
AcDbEntity
  8
LAY-6
  6
CONTINUOUS
 62
     1
100
AcDbLine
 10
716.85
 20
357.7
 30
0.0
 11
718.85
 21
357.366667
 31
0.0
  0
LINE
  5
4CB
100
AcDbEntity
  8
LAY-6
  6
CONTINUOUS
 62
     1
100
AcDbLine
 10
760.6
 20
225.7
 30
0.0
 11
775.5
 21
225.7
 31
0.0
  0
LINE
  5
4CC
100
AcDbEntity
  8
LAY-6
  6
CONTINUOUS
 62
     1
100
AcDbLine
 10
749.6
 20
175.7
 30
0.0
 11
775.5
 21
175.7
 31
0.0
  0
TEXT
  5
4CD
100
AcDbEntity
  8
LAY-6
  6
CONTINUOUS
 62
     2
100
AcDbText
 10
773.7
 20
196.7
 30
0.0
 40
5.0
  1
５０
 50
90.0
 41
0.672
  7
EXCADSTD
 72
     5
 11
773.7
 21
204.0328
 31
0.0
100
AcDbText
  0
LINE
  5
4CE
100
AcDbEntity
  8
LAY-6
  6
CONTINUOUS
 62
     1
100
AcDbLine
 10
774.0
 20
225.7
 30
0.0
 11
774.0
 21
175.7
 31
0.0
  0
LINE
  5
4CF
100
AcDbEntity
  8
LAY-6
  6
CONTINUOUS
 62
     1
100
AcDbLine
 10
774.333333
 20
223.7
 30
0.0
 11
774.0
 21
225.7
 31
0.0
  0
LINE
  5
4D0
100
AcDbEntity
  8
LAY-6
  6
CONTINUOUS
 62
     1
100
AcDbLine
 10
774.0
 20
225.7
 30
0.0
 11
773.666667
 21
223.7
 31
0.0
  0
LINE
  5
4D1
100
AcDbEntity
  8
LAY-6
  6
CONTINUOUS
 62
     1
100
AcDbLine
 10
773.666667
 20
177.7
 30
0.0
 11
774.0
 21
175.7
 31
0.0
  0
LINE
  5
4D2
100
AcDbEntity
  8
LAY-6
  6
CONTINUOUS
 62
     1
100
AcDbLine
 10
774.0
 20
175.7
 30
0.0
 11
774.333333
 21
177.7
 31
0.0
  0
LINE
  5
4D3
100
AcDbEntity
  8
LAY-6
  6
CONTINUOUS
 62
     1
100
AcDbLine
 10
779.4
 20
225.7
 30
0.0
 11
775.5
 21
225.7
 31
0.0
  0
LINE
  5
4D4
100
AcDbEntity
  8
LAY-6
  6
CONTINUOUS
 62
     1
100
AcDbLine
 10
780.3
 20
227.2
 30
0.0
 11
775.5
 21
227.2
 31
0.0
  0
TEXT
  5
4D5
100
AcDbEntity
  8
LAY-6
  6
CONTINUOUS
 62
     2
100
AcDbText
 10
773.7
 20
233.45
 30
0.0
 40
5.0
  1
１.５
 50
90.0
 41
0.595556
  7
EXCADSTD
 72
     5
 11
773.7
 21
243.45
 31
0.0
100
AcDbText
  0
LINE
  5
4D6
100
AcDbEntity
  8
LAY-6
  6
CONTINUOUS
 62
     1
100
AcDbLine
 10
774.0
 20
220.7
 30
0.0
 11
774.0
 21
243.900001
 31
0.0
  0
LINE
  5
4D7
100
AcDbEntity
  8
LAY-6
  6
CONTINUOUS
 62
     1
100
AcDbLine
 10
774.333333
 20
223.7
 30
0.0
 11
774.0
 21
225.7
 31
0.0
  0
LINE
  5
4D8
100
AcDbEntity
  8
LAY-6
  6
CONTINUOUS
 62
     1
100
AcDbLine
 10
774.0
 20
225.7
 30
0.0
 11
773.666667
 21
223.7
 31
0.0
  0
LINE
  5
4D9
100
AcDbEntity
  8
LAY-6
  6
CONTINUOUS
 62
     1
100
AcDbLine
 10
773.666667
 20
229.2
 30
0.0
 11
774.0
 21
227.2
 31
0.0
  0
LINE
  5
4DA
100
AcDbEntity
  8
LAY-6
  6
CONTINUOUS
 62
     1
100
AcDbLine
 10
774.0
 20
227.2
 30
0.0
 11
774.333333
 21
229.2
 31
0.0
  0
LINE
  5
4DB
100
AcDbEntity
  8
LAY-6
  6
CONTINUOUS
 62
     1
100
AcDbLine
 10
189.4
 20
137.0
 30
0.0
 11
186.6
 21
137.0
 31
0.0
  0
LINE
  5
4DC
100
AcDbEntity
  8
LAY-6
  6
CONTINUOUS
 62
     1
100
AcDbLine
 10
189.7
 20
107.0
 30
0.0
 11
186.6
 21
107.0
 31
0.0
  0
TEXT
  5
4DD
100
AcDbEntity
  8
LAY-6
  6
CONTINUOUS
 62
     2
100
AcDbText
 10
187.8
 20
118.0
 30
0.0
 40
5.0
  1
３０
 50
90.0
 41
0.672
  7
EXCADSTD
 72
     5
 11
187.8
 21
125.3328
 31
0.0
100
AcDbText
  0
LINE
  5
4DE
100
AcDbEntity
  8
LAY-6
  6
CONTINUOUS
 62
     1
100
AcDbLine
 10
188.1
 20
137.0
 30
0.0
 11
188.1
 21
107.0
 31
0.0
  0
LINE
  5
4DF
100
AcDbEntity
  8
LAY-6
  6
CONTINUOUS
 62
     1
100
AcDbLine
 10
188.433333
 20
135.0
 30
0.0
 11
188.1
 21
137.0
 31
0.0
  0
LINE
  5
4E0
100
AcDbEntity
  8
LAY-6
  6
CONTINUOUS
 62
     1
100
AcDbLine
 10
188.1
 20
137.0
 30
0.0
 11
187.766667
 21
135.0
 31
0.0
  0
LINE
  5
4E1
100
AcDbEntity
  8
LAY-6
  6
CONTINUOUS
 62
     1
100
AcDbLine
 10
187.766667
 20
109.0
 30
0.0
 11
188.1
 21
107.0
 31
0.0
  0
LINE
  5
4E2
100
AcDbEntity
  8
LAY-6
  6
CONTINUOUS
 62
     1
100
AcDbLine
 10
188.1
 20
107.0
 30
0.0
 11
188.433333
 21
109.0
 31
0.0
  0
POLYLINE
  5
4E3
100
AcDbEntity
  8
LAY-6
  6
CONTINUOUS
 62
     1
100
AcDb2dPolyline
 66
     1
 10
0.0
 20
0.0
 30
0.0
 70
   128
  0
VERTEX
  5
4E4
100
AcDbEntity
  8
LAY-6
  6
CONTINUOUS
 62
     1
100
AcDbVertex
100
AcDb2dVertex
 10
139.1
 20
149.5
 30
0.0
  0
VERTEX
  5
4E5
100
AcDbEntity
  8
LAY-6
  6
CONTINUOUS
 62
     1
100
AcDbVertex
100
AcDb2dVertex
 10
155.55
 20
165.95
 30
0.0
  0
VERTEX
  5
4E6
100
AcDbEntity
  8
LAY-6
  6
CONTINUOUS
 62
     1
100
AcDbVertex
100
AcDb2dVertex
 10
202.5
 20
165.95
 30
0.0
  0
SEQEND
  5
4E7
100
AcDbEntity
  8
LAY-6
  6
CONTINUOUS
 62
     1
  0
LINE
  5
4E8
100
AcDbEntity
  8
LAY-6
  6
CONTINUOUS
 62
     1
100
AcDbLine
 10
140.278511
 20
151.149916
 30
0.0
 11
139.1
 21
149.5
 31
0.0
  0
LINE
  5
4E9
100
AcDbEntity
  8
LAY-6
  6
CONTINUOUS
 62
     1
100
AcDbLine
 10
139.1
 20
149.5
 30
0.0
 11
140.749916
 21
150.678511
 31
0.0
  0
TEXT
  5
4EA
100
AcDbEntity
  8
LAY-6
  6
CONTINUOUS
 62
     2
100
AcDbText
 10
156.025
 20
166.45
 30
0.0
 40
5.0
  1
フロアプレートＰ１.５ｔ
 41
0.654222
  7
EXCADSTD
 72
     5
 11
202.025
 21
166.45
 31
0.0
100
AcDbText
  0
TEXT
  5
4EB
100
AcDbEntity
  8
LAY-6
  6
CONTINUOUS
 62
     2
100
AcDbText
 10
156.025
 20
160.45
 30
0.0
 40
5.0
  1
　　（ＳＵＳ３０４）
 41
0.672
  7
EXCADSTD
 72
     5
 11
196.025
 21
160.45
 31
0.0
100
AcDbText
  0
POLYLINE
  5
4EC
100
AcDbEntity
  8
LAY-6
  6
CONTINUOUS
 62
     1
100
AcDb2dPolyline
 66
     1
 10
0.0
 20
0.0
 30
0.0
 70
   128
  0
VERTEX
  5
4ED
100
AcDbEntity
  8
LAY-6
  6
CONTINUOUS
 62
     1
100
AcDbVertex
100
AcDb2dVertex
 10
467.1
 20
149.5
 30
0.0
  0
VERTEX
  5
4EE
100
AcDbEntity
  8
LAY-6
  6
CONTINUOUS
 62
     1
100
AcDbVertex
100
AcDb2dVertex
 10
483.55
 20
165.95
 30
0.0
  0
VERTEX
  5
4EF
100
AcDbEntity
  8
LAY-6
  6
CONTINUOUS
 62
     1
100
AcDbVertex
100
AcDb2dVertex
 10
530.5
 20
165.95
 30
0.0
  0
SEQEND
  5
4F0
100
AcDbEntity
  8
LAY-6
  6
CONTINUOUS
 62
     1
  0
LINE
  5
4F1
100
AcDbEntity
  8
LAY-6
  6
CONTINUOUS
 62
     1
100
AcDbLine
 10
468.278511
 20
151.149916
 30
0.0
 11
467.1
 21
149.5
 31
0.0
  0
LINE
  5
4F2
100
AcDbEntity
  8
LAY-6
  6
CONTINUOUS
 62
     1
100
AcDbLine
 10
467.1
 20
149.5
 30
0.0
 11
468.749916
 21
150.678511
 31
0.0
  0
TEXT
  5
4F3
100
AcDbEntity
  8
LAY-6
  6
CONTINUOUS
 62
     2
100
AcDbText
 10
484.025
 20
166.45
 30
0.0
 40
5.0
  1
フロアプレートＰ１.５ｔ
 41
0.654222
  7
EXCADSTD
 72
     5
 11
530.025
 21
166.45
 31
0.0
100
AcDbText
  0
TEXT
  5
4F4
100
AcDbEntity
  8
LAY-6
  6
CONTINUOUS
 62
     2
100
AcDbText
 10
484.025
 20
160.45
 30
0.0
 40
5.0
  1
　　（ＳＵＳ３０４）
 41
0.672
  7
EXCADSTD
 72
     5
 11
524.025
 21
160.45
 31
0.0
100
AcDbText
  0
LINE
  5
4F5
100
AcDbEntity
  8
LAY-6
  6
CONTINUOUS
 62
     1
100
AcDbLine
 10
182.3
 20
227.2
 30
0.0
 11
189.9
 21
227.2
 31
0.0
  0
LINE
  5
4F6
100
AcDbEntity
  8
LAY-6
  6
CONTINUOUS
 62
     1
100
AcDbLine
 10
182.8
 20
237.2
 30
0.0
 11
189.9
 21
237.2
 31
0.0
  0
TEXT
  5
4F7
100
AcDbEntity
  8
LAY-6
  6
CONTINUOUS
 62
     2
100
AcDbText
 10
191.1
 20
228.2
 30
0.0
 40
5.0
  1
１０
 50
90.0
 41
0.672
  7
EXCADSTD
 72
     5
 11
191.1
 21
235.5328
 31
0.0
100
AcDbText
  0
LINE
  5
4F8
100
AcDbEntity
  8
LAY-6
  6
CONTINUOUS
 62
     1
100
AcDbLine
 10
191.4
 20
227.2
 30
0.0
 11
191.4
 21
237.2
 31
0.0
  0
LINE
  5
4F9
100
AcDbEntity
  8
LAY-6
  6
CONTINUOUS
 62
     1
100
AcDbLine
 10
191.066667
 20
229.2
 30
0.0
 11
191.4
 21
227.2
 31
0.0
  0
LINE
  5
4FA
100
AcDbEntity
  8
LAY-6
  6
CONTINUOUS
 62
     1
100
AcDbLine
 10
191.4
 20
227.2
 30
0.0
 11
191.733333
 21
229.2
 31
0.0
  0
LINE
  5
4FB
100
AcDbEntity
  8
LAY-6
  6
CONTINUOUS
 62
     1
100
AcDbLine
 10
191.733333
 20
235.2
 30
0.0
 11
191.4
 21
237.2
 31
0.0
  0
LINE
  5
4FC
100
AcDbEntity
  8
LAY-6
  6
CONTINUOUS
 62
     1
100
AcDbLine
 10
191.4
 20
237.2
 30
0.0
 11
191.066667
 21
235.2
 31
0.0
  0
LINE
  5
4FD
100
AcDbEntity
  8
LAY-6
  6
CONTINUOUS
 62
     1
100
AcDbLine
 10
182.0
 20
259.2
 30
0.0
 11
189.9
 21
259.2
 31
0.0
  0
TEXT
  5
4FE
100
AcDbEntity
  8
LAY-6
  6
CONTINUOUS
 62
     2
100
AcDbText
 10
191.1
 20
244.2
 30
0.0
 40
5.0
  1
２２
 50
90.0
 41
0.672
  7
EXCADSTD
 72
     5
 11
191.1
 21
251.5328
 31
0.0
100
AcDbText
  0
LINE
  5
4FF
100
AcDbEntity
  8
LAY-6
  6
CONTINUOUS
 62
     1
100
AcDbLine
 10
191.4
 20
237.2
 30
0.0
 11
191.4
 21
259.2
 31
0.0
  0
LINE
  5
500
100
AcDbEntity
  8
LAY-6
  6
CONTINUOUS
 62
     1
100
AcDbLine
 10
191.066667
 20
239.2
 30
0.0
 11
191.4
 21
237.2
 31
0.0
  0
LINE
  5
501
100
AcDbEntity
  8
LAY-6
  6
CONTINUOUS
 62
     1
100
AcDbLine
 10
191.4
 20
237.2
 30
0.0
 11
191.733333
 21
239.2
 31
0.0
  0
LINE
  5
502
100
AcDbEntity
  8
LAY-6
  6
CONTINUOUS
 62
     1
100
AcDbLine
 10
191.733333
 20
257.2
 30
0.0
 11
191.4
 21
259.2
 31
0.0
  0
LINE
  5
503
100
AcDbEntity
  8
LAY-6
  6
CONTINUOUS
 62
     1
100
AcDbLine
 10
191.4
 20
259.2
 30
0.0
 11
191.066667
 21
257.2
 31
0.0
  0
LINE
  5
504
100
AcDbEntity
  8
LAY-6
  6
CONTINUOUS
 62
     1
100
AcDbLine
 10
67.0
 20
280.5
 30
0.0
 11
67.0
 21
275.2
 31
0.0
  0
LINE
  5
505
100
AcDbEntity
  8
LAY-6
  6
CONTINUOUS
 62
     1
100
AcDbLine
 10
89.0
 20
271.1
 30
0.0
 11
89.0
 21
278.2
 31
0.0
  0
TEXT
  5
506
100
AcDbEntity
  8
LAY-6
  6
CONTINUOUS
 62
     2
100
AcDbText
 10
74.0
 20
277.0
 30
0.0
 40
5.0
  1
２２
 41
0.672
  7
EXCADSTD
 72
     5
 11
81.3328
 21
277.0
 31
0.0
100
AcDbText
  0
LINE
  5
507
100
AcDbEntity
  8
LAY-6
  6
CONTINUOUS
 62
     1
100
AcDbLine
 10
67.0
 20
276.7
 30
0.0
 11
89.0
 21
276.7
 31
0.0
  0
LINE
  5
508
100
AcDbEntity
  8
LAY-6
  6
CONTINUOUS
 62
     1
100
AcDbLine
 10
69.0
 20
277.033333
 30
0.0
 11
67.0
 21
276.7
 31
0.0
  0
LINE
  5
509
100
AcDbEntity
  8
LAY-6
  6
CONTINUOUS
 62
     1
100
AcDbLine
 10
67.0
 20
276.7
 30
0.0
 11
69.0
 21
276.366667
 31
0.0
  0
LINE
  5
50A
100
AcDbEntity
  8
LAY-6
  6
CONTINUOUS
 62
     1
100
AcDbLine
 10
87.0
 20
276.366667
 30
0.0
 11
89.0
 21
276.7
 31
0.0
  0
LINE
  5
50B
100
AcDbEntity
  8
LAY-6
  6
CONTINUOUS
 62
     1
100
AcDbLine
 10
89.0
 20
276.7
 30
0.0
 11
87.0
 21
277.033333
 31
0.0
  0
LINE
  5
50C
100
AcDbEntity
  8
LAY-6
  6
CONTINUOUS
 62
     1
100
AcDbLine
 10
367.0
 20
256.4
 30
0.0
 11
367.0
 21
278.2
 31
0.0
  0
TEXT
  5
50D
100
AcDbEntity
  8
LAY-6
  6
CONTINUOUS
 62
     2
100
AcDbText
 10
222.0
 20
277.0
 30
0.0
 40
5.0
  1
２７８
 41
0.672
  7
EXCADSTD
 72
     5
 11
234.0
 21
277.0
 31
0.0
100
AcDbText
  0
LINE
  5
50E
100
AcDbEntity
  8
LAY-6
  6
CONTINUOUS
 62
     1
100
AcDbLine
 10
89.0
 20
276.7
 30
0.0
 11
367.0
 21
276.7
 31
0.0
  0
LINE
  5
50F
100
AcDbEntity
  8
LAY-6
  6
CONTINUOUS
 62
     1
100
AcDbLine
 10
91.0
 20
277.033333
 30
0.0
 11
89.0
 21
276.7
 31
0.0
  0
LINE
  5
510
100
AcDbEntity
  8
LAY-6
  6
CONTINUOUS
 62
     1
100
AcDbLine
 10
89.0
 20
276.7
 30
0.0
 11
91.0
 21
276.366667
 31
0.0
  0
LINE
  5
511
100
AcDbEntity
  8
LAY-6
  6
CONTINUOUS
 62
     1
100
AcDbLine
 10
365.0
 20
276.366667
 30
0.0
 11
367.0
 21
276.7
 31
0.0
  0
LINE
  5
512
100
AcDbEntity
  8
LAY-6
  6
CONTINUOUS
 62
     1
100
AcDbLine
 10
367.0
 20
276.7
 30
0.0
 11
365.0
 21
277.033333
 31
0.0
  0
POLYLINE
  5
513
100
AcDbEntity
  8
LAY-6
  6
CONTINUOUS
 62
     1
100
AcDb2dPolyline
 66
     1
 10
0.0
 20
0.0
 30
0.0
 70
   128
  0
VERTEX
  5
514
100
AcDbEntity
  8
LAY-6
  6
CONTINUOUS
 62
     1
100
AcDbVertex
100
AcDb2dVertex
 10
377.2
 20
261.0
 30
0.0
  0
VERTEX
  5
515
100
AcDbEntity
  8
LAY-6
  6
CONTINUOUS
 62
     1
100
AcDbVertex
100
AcDb2dVertex
 10
384.589007
 20
288.576151
 30
0.0
  0
VERTEX
  5
516
100
AcDbEntity
  8
LAY-6
  6
CONTINUOUS
 62
     1
100
AcDbVertex
100
AcDb2dVertex
 10
434.2
 20
288.576151
 30
0.0
  0
SEQEND
  5
517
100
AcDbEntity
  8
LAY-6
  6
CONTINUOUS
 62
     1
  0
LINE
  5
518
100
AcDbEntity
  8
LAY-6
  6
CONTINUOUS
 62
     1
100
AcDbLine
 10
377.395663
 20
263.018125
 30
0.0
 11
377.2
 21
261.0
 31
0.0
  0
LINE
  5
519
100
AcDbEntity
  8
LAY-6
  6
CONTINUOUS
 62
     1
100
AcDbLine
 10
377.2
 20
261.0
 30
0.0
 11
378.039613
 21
262.845579
 31
0.0
  0
TEXT
  5
51A
100
AcDbEntity
  8
LAY-6
  6
CONTINUOUS
 62
     2
100
AcDbText
 10
386.944504
 20
288.576151
 30
0.0
 40
5.0
  1
裏板４.５ｔ以上（別途）
 41
0.654222
  7
EXCADSTD
 72
     5
 11
432.944504
 21
288.576151
 31
0.0
100
AcDbText
  0
LINE
  5
51B
100
AcDbEntity
  8
LAY-6
  6
CONTINUOUS
 62
     1
100
AcDbLine
 10
89.0
 20
348.4
 30
0.0
 11
89.0
 21
346.0
 31
0.0
  0
LINE
  5
51C
100
AcDbEntity
  8
LAY-6
  6
CONTINUOUS
 62
     1
100
AcDbLine
 10
72.999985
 20
382.0
 30
0.0
 11
72.999985
 21
346.0
 31
0.0
  0
TEXT
  5
51D
100
AcDbEntity
  8
LAY-6
  6
CONTINUOUS
 62
     2
100
AcDbText
 10
76.999993
 20
347.8
 30
0.0
 40
5.0
  1
１６
 41
0.672
  7
EXCADSTD
 72
     5
 11
84.332793
 21
347.8
 31
0.0
100
AcDbText
  0
LINE
  5
51E
100
AcDbEntity
  8
LAY-6
  6
CONTINUOUS
 62
     1
100
AcDbLine
 10
89.0
 20
347.5
 30
0.0
 11
72.999985
 21
347.5
 31
0.0
  0
LINE
  5
51F
100
AcDbEntity
  8
LAY-6
  6
CONTINUOUS
 62
     1
100
AcDbLine
 10
87.0
 20
347.166667
 30
0.0
 11
89.0
 21
347.5
 31
0.0
  0
LINE
  5
520
100
AcDbEntity
  8
LAY-6
  6
CONTINUOUS
 62
     1
100
AcDbLine
 10
89.0
 20
347.5
 30
0.0
 11
87.0
 21
347.833333
 31
0.0
  0
LINE
  5
521
100
AcDbEntity
  8
LAY-6
  6
CONTINUOUS
 62
     1
100
AcDbLine
 10
74.999985
 20
347.833333
 30
0.0
 11
72.999985
 21
347.5
 31
0.0
  0
LINE
  5
522
100
AcDbEntity
  8
LAY-6
  6
CONTINUOUS
 62
     1
100
AcDbLine
 10
72.999985
 20
347.5
 30
0.0
 11
74.999985
 21
347.166667
 31
0.0
  0
LINE
  5
523
100
AcDbEntity
  8
LAY-6
  6
CONTINUOUS
 62
     1
100
AcDbLine
 10
85.699999
 20
367.000049
 30
0.0
 11
60.9
 21
367.000049
 31
0.0
  0
LINE
  5
524
100
AcDbEntity
  8
LAY-6
  6
CONTINUOUS
 62
     1
100
AcDbLine
 10
72.999985
 20
388.0
 30
0.0
 11
60.9
 21
388.0
 31
0.0
  0
TEXT
  5
525
100
AcDbEntity
  8
LAY-6
  6
CONTINUOUS
 62
     2
100
AcDbText
 10
62.1
 20
373.500024
 30
0.0
 40
5.0
  1
２１
 50
90.0
 41
0.672
  7
EXCADSTD
 72
     5
 11
62.1
 21
380.832824
 31
0.0
100
AcDbText
  0
LINE
  5
526
100
AcDbEntity
  8
LAY-6
  6
CONTINUOUS
 62
     1
100
AcDbLine
 10
62.4
 20
367.000049
 30
0.0
 11
62.4
 21
388.0
 31
0.0
  0
LINE
  5
527
100
AcDbEntity
  8
LAY-6
  6
CONTINUOUS
 62
     1
100
AcDbLine
 10
62.066667
 20
369.000049
 30
0.0
 11
62.4
 21
367.000049
 31
0.0
  0
LINE
  5
528
100
AcDbEntity
  8
LAY-6
  6
CONTINUOUS
 62
     1
100
AcDbLine
 10
62.4
 20
367.000049
 30
0.0
 11
62.733333
 21
369.000049
 31
0.0
  0
LINE
  5
529
100
AcDbEntity
  8
LAY-6
  6
CONTINUOUS
 62
     1
100
AcDbLine
 10
62.733333
 20
386.0
 30
0.0
 11
62.4
 21
388.0
 31
0.0
  0
LINE
  5
52A
100
AcDbEntity
  8
LAY-6
  6
CONTINUOUS
 62
     1
100
AcDbLine
 10
62.4
 20
388.0
 30
0.0
 11
62.066667
 21
386.0
 31
0.0
  0
LINE
  5
52B
100
AcDbEntity
  8
LAY-6
  6
CONTINUOUS
 62
     1
100
AcDbLine
 10
62.0
 20
391.0
 30
0.0
 11
63.9
 21
391.0
 31
0.0
  0
LINE
  5
52C
100
AcDbEntity
  8
LAY-6
  6
CONTINUOUS
 62
     1
100
AcDbLine
 10
79.550019
 20
429.000139
 30
0.0
 11
60.9
 21
429.000139
 31
0.0
  0
TEXT
  5
52D
100
AcDbEntity
  8
LAY-6
  6
CONTINUOUS
 62
     2
100
AcDbText
 10
62.1
 20
406.000069
 30
0.0
 40
5.0
  1
３８
 50
90.0
 41
0.672
  7
EXCADSTD
 72
     5
 11
62.1
 21
413.332869
 31
0.0
100
AcDbText
  0
LINE
  5
52E
100
AcDbEntity
  8
LAY-6
  6
CONTINUOUS
 62
     1
100
AcDbLine
 10
62.4
 20
391.0
 30
0.0
 11
62.4
 21
429.000139
 31
0.0
  0
LINE
  5
52F
100
AcDbEntity
  8
LAY-6
  6
CONTINUOUS
 62
     1
100
AcDbLine
 10
62.066667
 20
393.0
 30
0.0
 11
62.4
 21
391.0
 31
0.0
  0
LINE
  5
530
100
AcDbEntity
  8
LAY-6
  6
CONTINUOUS
 62
     1
100
AcDbLine
 10
62.4
 20
391.0
 30
0.0
 11
62.733333
 21
393.0
 31
0.0
  0
LINE
  5
531
100
AcDbEntity
  8
LAY-6
  6
CONTINUOUS
 62
     1
100
AcDbLine
 10
62.733333
 20
427.000139
 30
0.0
 11
62.4
 21
429.000139
 31
0.0
  0
LINE
  5
532
100
AcDbEntity
  8
LAY-6
  6
CONTINUOUS
 62
     1
100
AcDbLine
 10
62.4
 20
429.000139
 30
0.0
 11
62.066667
 21
427.000139
 31
0.0
  0
LINE
  5
533
100
AcDbEntity
  8
LAY-6
  6
CONTINUOUS
 62
     1
100
AcDbLine
 10
223.998007
 20
382.0
 30
0.0
 11
241.6
 21
382.0
 31
0.0
  0
LINE
  5
534
100
AcDbEntity
  8
LAY-6
  6
CONTINUOUS
 62
     1
100
AcDbLine
 10
239.8
 20
388.0
 30
0.0
 11
241.6
 21
388.0
 31
0.0
  0
TEXT
  5
535
100
AcDbEntity
  8
LAY-6
  6
CONTINUOUS
 62
     2
100
AcDbText
 10
239.8
 20
382.6
 30
0.0
 40
5.0
  1
６
 50
90.0
 41
0.672
  7
EXCADSTD
 72
     5
 11
239.8
 21
385.8
 31
0.0
100
AcDbText
  0
LINE
  5
536
100
AcDbEntity
  8
LAY-6
  6
CONTINUOUS
 62
     1
100
AcDbLine
 10
240.1
 20
382.0
 30
0.0
 11
240.1
 21
388.0
 31
0.0
  0
LINE
  5
537
100
AcDbEntity
  8
LAY-6
  6
CONTINUOUS
 62
     1
100
AcDbLine
 10
239.766667
 20
384.0
 30
0.0
 11
240.1
 21
382.0
 31
0.0
  0
LINE
  5
538
100
AcDbEntity
  8
LAY-6
  6
CONTINUOUS
 62
     1
100
AcDbLine
 10
240.1
 20
382.0
 30
0.0
 11
240.433333
 21
384.0
 31
0.0
  0
LINE
  5
539
100
AcDbEntity
  8
LAY-6
  6
CONTINUOUS
 62
     1
100
AcDbLine
 10
240.433333
 20
386.0
 30
0.0
 11
240.1
 21
388.0
 31
0.0
  0
LINE
  5
53A
100
AcDbEntity
  8
LAY-6
  6
CONTINUOUS
 62
     1
100
AcDbLine
 10
240.1
 20
388.0
 30
0.0
 11
239.766667
 21
386.0
 31
0.0
  0
LINE
  5
53B
100
AcDbEntity
  8
LAY-6
  6
CONTINUOUS
 62
     1
100
AcDbLine
 10
240.4
 20
391.0
 30
0.0
 11
238.6
 21
391.0
 31
0.0
  0
LINE
  5
53C
100
AcDbEntity
  8
LAY-6
  6
CONTINUOUS
 62
     1
100
AcDbLine
 10
224.0
 20
397.000078
 30
0.0
 11
241.6
 21
397.000078
 31
0.0
  0
TEXT
  5
53D
100
AcDbEntity
  8
LAY-6
  6
CONTINUOUS
 62
     2
100
AcDbText
 10
239.8
 20
392.600039
 30
0.0
 40
5.0
  1
６
 50
90.0
 41
0.672
  7
EXCADSTD
 72
     5
 11
239.8
 21
395.800039
 31
0.0
100
AcDbText
  0
LINE
  5
53E
100
AcDbEntity
  8
LAY-6
  6
CONTINUOUS
 62
     1
100
AcDbLine
 10
240.1
 20
391.0
 30
0.0
 11
240.1
 21
397.000078
 31
0.0
  0
LINE
  5
53F
100
AcDbEntity
  8
LAY-6
  6
CONTINUOUS
 62
     1
100
AcDbLine
 10
239.766667
 20
393.0
 30
0.0
 11
240.1
 21
391.0
 31
0.0
  0
LINE
  5
540
100
AcDbEntity
  8
LAY-6
  6
CONTINUOUS
 62
     1
100
AcDbLine
 10
240.1
 20
391.0
 30
0.0
 11
240.433333
 21
393.0
 31
0.0
  0
LINE
  5
541
100
AcDbEntity
  8
LAY-6
  6
CONTINUOUS
 62
     1
100
AcDbLine
 10
240.433333
 20
395.000078
 30
0.0
 11
240.1
 21
397.000078
 31
0.0
  0
LINE
  5
542
100
AcDbEntity
  8
LAY-6
  6
CONTINUOUS
 62
     1
100
AcDbLine
 10
240.1
 20
397.000078
 30
0.0
 11
239.766667
 21
395.000078
 31
0.0
  0
TEXT
  5
543
100
AcDbEntity
  8
LAY-6
  6
CONTINUOUS
 62
     2
100
AcDbText
 10
129.7
 20
559.1
 30
0.0
 40
6.0
  1
トップピボット（上枠側）
 41
0.672
  7
EXCADSTD
 72
     5
 11
187.300002
 21
559.1
 31
0.0
100
AcDbText
  0
TEXT
  5
544
100
AcDbEntity
  8
LAY-6
  6
CONTINUOUS
 62
     2
100
AcDbText
 10
429.7
 20
559.1
 30
0.0
 40
6.0
  1
トップピボット（ドア側）
 41
0.672
  7
EXCADSTD
 72
     5
 11
487.300002
 21
559.1
 31
0.0
100
AcDbText
  0
POLYLINE
  5
545
100
AcDbEntity
  8
LAY-6
  6
CONTINUOUS
 62
     1
100
AcDb2dPolyline
 66
     1
 10
0.0
 20
0.0
 30
0.0
 70
   128
  0
VERTEX
  5
546
100
AcDbEntity
  8
LAY-6
  6
CONTINUOUS
 62
     1
100
AcDbVertex
100
AcDb2dVertex
 10
315.165296
 20
240.610939
 30
0.0
  0
VERTEX
  5
547
100
AcDbEntity
  8
LAY-6
  6
CONTINUOUS
 62
     1
100
AcDbVertex
100
AcDb2dVertex
 10
333.272642
 20
209.248096
 30
0.0
  0
VERTEX
  5
548
100
AcDbEntity
  8
LAY-6
  6
CONTINUOUS
 62
     1
100
AcDbVertex
100
AcDb2dVertex
 10
382.652698
 20
209.248096
 30
0.0
  0
SEQEND
  5
549
100
AcDbEntity
  8
LAY-6
  6
CONTINUOUS
 62
     1
  0
LINE
  5
54A
100
AcDbEntity
  8
LAY-6
  6
CONTINUOUS
 62
     1
100
AcDbLine
 10
316.453972
 20
239.045555
 30
0.0
 11
315.165296
 21
240.610939
 31
0.0
  0
LINE
  5
54B
100
AcDbEntity
  8
LAY-6
  6
CONTINUOUS
 62
     1
100
AcDbLine
 10
315.165296
 20
240.610939
 30
0.0
 11
315.876621
 21
238.712221
 31
0.0
  0
TEXT
  5
54C
100
AcDbEntity
  8
LAY-6
  6
CONTINUOUS
 62
     2
100
AcDbText
 10
335.96267
 20
209.748096
 30
0.0
 40
5.0
  1
８－Ｍ６×２０皿小ネジ
 41
0.672
  7
EXCADSTD
 72
     5
 11
379.96267
 21
209.748096
 31
0.0
100
AcDbText
  0
TEXT
  5
54D
100
AcDbEntity
  8
LAY-6
  6
CONTINUOUS
 62
     2
100
AcDbText
 10
335.96267
 20
203.748096
 30
0.0
 40
5.0
  1
(タ ップ穴加工別途)
 41
0.62784
  7
EXCADSTD
 72
     5
 11
371.96267
 21
203.748096
 31
0.0
100
AcDbText
  0
LINE
  5
54E
100
AcDbEntity
  8
LAY-6
  6
CONTINUOUS
 62
     1
100
AcDbLine
 10
64.0
 20
225.7
 30
0.0
 11
64.0
 21
200.147937
 31
0.0
  0
LINE
  5
54F
100
AcDbEntity
  8
LAY-6
  6
CONTINUOUS
 62
     1
100
AcDbLine
 10
114.0
 20
225.7
 30
0.0
 11
114.0
 21
200.147937
 31
0.0
  0
TEXT
  5
550
100
AcDbEntity
  8
LAY-6
  6
CONTINUOUS
 62
     2
100
AcDbText
 10
84.6
 20
202.047937
 30
0.0
 40
5.0
  1
□５０
 41
0.672
  7
EXCADSTD
 72
     5
 11
96.6
 21
202.047937
 31
0.0
100
AcDbText
  0
LINE
  5
551
100
AcDbEntity
  8
LAY-6
  6
CONTINUOUS
 62
     1
100
AcDbLine
 10
64.0
 20
201.647937
 30
0.0
 11
114.0
 21
201.647937
 31
0.0
  0
LINE
  5
552
100
AcDbEntity
  8
LAY-6
  6
CONTINUOUS
 62
     1
100
AcDbLine
 10
66.0
 20
201.98127
 30
0.0
 11
64.0
 21
201.647937
 31
0.0
  0
LINE
  5
553
100
AcDbEntity
  8
LAY-6
  6
CONTINUOUS
 62
     1
100
AcDbLine
 10
64.0
 20
201.647937
 30
0.0
 11
66.0
 21
201.314604
 31
0.0
  0
LINE
  5
554
100
AcDbEntity
  8
LAY-6
  6
CONTINUOUS
 62
     1
100
AcDbLine
 10
112.0
 20
201.314604
 30
0.0
 11
114.0
 21
201.647937
 31
0.0
  0
LINE
  5
555
100
AcDbEntity
  8
LAY-6
  6
CONTINUOUS
 62
     1
100
AcDbLine
 10
114.0
 20
201.647937
 30
0.0
 11
112.0
 21
201.98127
 31
0.0
  0
TEXT
  5
556
100
AcDbEntity
  8
LAY-6
  6
CONTINUOUS
 62
     2
100
AcDbText
 10
93.315397
 20
128.962581
 30
0.0
 40
5.0
  1
φ
 50
58.224622
 41
0.672
  7
EXCADSTD
 72
     5
 11
95.000487
 21
131.682962
 31
0.0
100
AcDbText
  0
TEXT
  5
557
100
AcDbEntity
  8
LAY-6
  6
CONTINUOUS
 62
     2
100
AcDbText
 10
95.421759
 20
132.363057
 30
0.0
 40
5.0
  1
６６
 50
58.224622
 41
0.672
  7
EXCADSTD
 72
     5
 11
99.283142
 21
138.59681
 31
0.0
100
AcDbText
  0
LINE
  5
558
100
AcDbEntity
  8
LAY-6
  6
CONTINUOUS
 62
     1
100
AcDbLine
 10
106.377487
 20
150.053929
 30
0.0
 11
71.622513
 21
93.946071
 31
0.0
  0
LINE
  5
559
100
AcDbEntity
  8
LAY-6
  6
CONTINUOUS
 62
     1
100
AcDbLine
 10
105.607679
 20
148.178161
 30
0.0
 11
106.377487
 21
150.053929
 31
0.0
  0
LINE
  5
55A
100
AcDbEntity
  8
LAY-6
  6
CONTINUOUS
 62
     1
100
AcDbLine
 10
106.377487
 20
150.053929
 30
0.0
 11
105.040933
 21
148.529221
 31
0.0
  0
LINE
  5
55B
100
AcDbEntity
  8
LAY-6
  6
CONTINUOUS
 62
     1
100
AcDbLine
 10
72.392321
 20
95.821839
 30
0.0
 11
71.622513
 21
93.946071
 31
0.0
  0
LINE
  5
55C
100
AcDbEntity
  8
LAY-6
  6
CONTINUOUS
 62
     1
100
AcDbLine
 10
71.622513
 20
93.946071
 30
0.0
 11
72.959067
 21
95.470779
 31
0.0
  0
LINE
  5
55D
100
AcDbEntity
  8
LAY-6
  6
CONTINUOUS
 62
     1
100
AcDbLine
 10
110.540659
 20
147.0
 30
0.0
 11
126.221539
 21
147.0
 31
0.0
  0
LINE
  5
55E
100
AcDbEntity
  8
LAY-6
  6
CONTINUOUS
 62
     1
100
AcDbLine
 10
110.540659
 20
97.0
 30
0.0
 11
126.221539
 21
97.0
 31
0.0
  0
TEXT
  5
55F
100
AcDbEntity
  8
LAY-6
  6
CONTINUOUS
 62
     2
100
AcDbText
 10
124.221539
 20
117.7
 30
0.0
 40
5.0
  1
□５０
 50
90.0
 41
0.672
  7
EXCADSTD
 72
     5
 11
124.221539
 21
129.7
 31
0.0
100
AcDbText
  0
LINE
  5
560
100
AcDbEntity
  8
LAY-6
  6
CONTINUOUS
 62
     1
100
AcDbLine
 10
124.721539
 20
147.0
 30
0.0
 11
124.721539
 21
97.0
 31
0.0
  0
LINE
  5
561
100
AcDbEntity
  8
LAY-6
  6
CONTINUOUS
 62
     1
100
AcDbLine
 10
125.054872
 20
145.0
 30
0.0
 11
124.721539
 21
147.0
 31
0.0
  0
LINE
  5
562
100
AcDbEntity
  8
LAY-6
  6
CONTINUOUS
 62
     1
100
AcDbLine
 10
124.721539
 20
147.0
 30
0.0
 11
124.388206
 21
145.0
 31
0.0
  0
LINE
  5
563
100
AcDbEntity
  8
LAY-6
  6
CONTINUOUS
 62
     1
100
AcDbLine
 10
124.388206
 20
99.0
 30
0.0
 11
124.721539
 21
97.0
 31
0.0
  0
LINE
  5
564
100
AcDbEntity
  8
LAY-6
  6
CONTINUOUS
 62
     1
100
AcDbLine
 10
124.721539
 20
97.0
 30
0.0
 11
125.054872
 21
99.0
 31
0.0
  0
LINE
  5
565
100
AcDbEntity
  8
LAY-6
  6
CONTINUOUS
 62
     1
100
AcDbLine
 10
139.0
 20
162.0
 30
0.0
 11
146.0
 21
162.0
 31
0.0
  0
LINE
  5
566
100
AcDbEntity
  8
LAY-6
  6
CONTINUOUS
 62
     1
100
AcDbLine
 10
139.0
 20
82.0
 30
0.0
 11
146.0
 21
82.0
 31
0.0
  0
TEXT
  5
567
100
AcDbEntity
  8
LAY-6
  6
CONTINUOUS
 62
     2
100
AcDbText
 10
144.0
 20
118.3
 30
0.0
 40
5.0
  1
８０
 50
90.0
 41
0.672
  7
EXCADSTD
 72
     5
 11
144.0
 21
125.6328
 31
0.0
100
AcDbText
  0
LINE
  5
568
100
AcDbEntity
  8
LAY-6
  6
CONTINUOUS
 62
     1
100
AcDbLine
 10
144.5
 20
162.0
 30
0.0
 11
144.5
 21
82.0
 31
0.0
  0
LINE
  5
569
100
AcDbEntity
  8
LAY-6
  6
CONTINUOUS
 62
     1
100
AcDbLine
 10
144.833333
 20
160.0
 30
0.0
 11
144.5
 21
162.0
 31
0.0
  0
LINE
  5
56A
100
AcDbEntity
  8
LAY-6
  6
CONTINUOUS
 62
     1
100
AcDbLine
 10
144.5
 20
162.0
 30
0.0
 11
144.166667
 21
160.0
 31
0.0
  0
LINE
  5
56B
100
AcDbEntity
  8
LAY-6
  6
CONTINUOUS
 62
     1
100
AcDbLine
 10
144.166667
 20
84.0
 30
0.0
 11
144.5
 21
82.0
 31
0.0
  0
LINE
  5
56C
100
AcDbEntity
  8
LAY-6
  6
CONTINUOUS
 62
     1
100
AcDbLine
 10
144.5
 20
82.0
 30
0.0
 11
144.833333
 21
84.0
 31
0.0
  0
LINE
  5
56D
100
AcDbEntity
  8
LAY-6
  6
CONTINUOUS
 62
     1
100
AcDbLine
 10
387.0
 20
82.0
 30
0.0
 11
387.0
 21
65.3
 31
0.0
  0
LINE
  5
56E
100
AcDbEntity
  8
LAY-6
  6
CONTINUOUS
 62
     1
100
AcDbLine
 10
417.0
 20
68.447922
 30
0.0
 11
417.0
 21
65.3
 31
0.0
  0
TEXT
  5
56F
100
AcDbEntity
  8
LAY-6
  6
CONTINUOUS
 62
     2
100
AcDbText
 10
398.0
 20
67.3
 30
0.0
 40
5.0
  1
３０
 41
0.672
  7
EXCADSTD
 72
     5
 11
405.3328
 21
67.3
 31
0.0
100
AcDbText
  0
LINE
  5
570
100
AcDbEntity
  8
LAY-6
  6
CONTINUOUS
 62
     1
100
AcDbLine
 10
387.0
 20
66.8
 30
0.0
 11
417.0
 21
66.8
 31
0.0
  0
LINE
  5
571
100
AcDbEntity
  8
LAY-6
  6
CONTINUOUS
 62
     1
100
AcDbLine
 10
389.0
 20
67.133333
 30
0.0
 11
387.0
 21
66.8
 31
0.0
  0
LINE
  5
572
100
AcDbEntity
  8
LAY-6
  6
CONTINUOUS
 62
     1
100
AcDbLine
 10
387.0
 20
66.8
 30
0.0
 11
389.0
 21
66.466667
 31
0.0
  0
LINE
  5
573
100
AcDbEntity
  8
LAY-6
  6
CONTINUOUS
 62
     1
100
AcDbLine
 10
415.0
 20
66.466667
 30
0.0
 11
417.0
 21
66.8
 31
0.0
  0
LINE
  5
574
100
AcDbEntity
  8
LAY-6
  6
CONTINUOUS
 62
     1
100
AcDbLine
 10
417.0
 20
66.8
 30
0.0
 11
415.0
 21
67.133333
 31
0.0
  0
LINE
  5
575
100
AcDbEntity
  8
LAY-6
  6
CONTINUOUS
 62
     1
100
AcDbLine
 10
467.0
 20
82.0
 30
0.0
 11
467.0
 21
65.3
 31
0.0
  0
TEXT
  5
576
100
AcDbEntity
  8
LAY-6
  6
CONTINUOUS
 62
     2
100
AcDbText
 10
435.4
 20
67.2
 30
0.0
 40
5.0
  1
５０
 41
0.672
  7
EXCADSTD
 72
     5
 11
442.7328
 21
67.2
 31
0.0
100
AcDbText
  0
LINE
  5
577
100
AcDbEntity
  8
LAY-6
  6
CONTINUOUS
 62
     1
100
AcDbLine
 10
417.0
 20
66.8
 30
0.0
 11
467.0
 21
66.8
 31
0.0
  0
LINE
  5
578
100
AcDbEntity
  8
LAY-6
  6
CONTINUOUS
 62
     1
100
AcDbLine
 10
419.0
 20
67.133333
 30
0.0
 11
417.0
 21
66.8
 31
0.0
  0
LINE
  5
579
100
AcDbEntity
  8
LAY-6
  6
CONTINUOUS
 62
     1
100
AcDbLine
 10
417.0
 20
66.8
 30
0.0
 11
419.0
 21
66.466667
 31
0.0
  0
LINE
  5
57A
100
AcDbEntity
  8
LAY-6
  6
CONTINUOUS
 62
     1
100
AcDbLine
 10
465.0
 20
66.466667
 30
0.0
 11
467.0
 21
66.8
 31
0.0
  0
LINE
  5
57B
100
AcDbEntity
  8
LAY-6
  6
CONTINUOUS
 62
     1
100
AcDbLine
 10
467.0
 20
66.8
 30
0.0
 11
465.0
 21
67.133333
 31
0.0
  0
LINE
  5
57C
100
AcDbEntity
  8
LAY-6
  6
CONTINUOUS
 62
     1
100
AcDbLine
 10
387.0
 20
67.0
 30
0.0
 11
387.0
 21
55.3
 31
0.0
  0
LINE
  5
57D
100
AcDbEntity
  8
LAY-6
  6
CONTINUOUS
 62
     1
100
AcDbLine
 10
467.0
 20
67.0
 30
0.0
 11
467.0
 21
55.3
 31
0.0
  0
TEXT
  5
57E
100
AcDbEntity
  8
LAY-6
  6
CONTINUOUS
 62
     2
100
AcDbText
 10
425.0
 20
57.3
 30
0.0
 40
5.0
  1
８０
 41
0.672
  7
EXCADSTD
 72
     5
 11
432.3328
 21
57.3
 31
0.0
100
AcDbText
  0
LINE
  5
57F
100
AcDbEntity
  8
LAY-6
  6
CONTINUOUS
 62
     1
100
AcDbLine
 10
387.0
 20
56.8
 30
0.0
 11
467.0
 21
56.8
 31
0.0
  0
LINE
  5
580
100
AcDbEntity
  8
LAY-6
  6
CONTINUOUS
 62
     1
100
AcDbLine
 10
389.0
 20
57.133333
 30
0.0
 11
387.0
 21
56.8
 31
0.0
  0
LINE
  5
581
100
AcDbEntity
  8
LAY-6
  6
CONTINUOUS
 62
     1
100
AcDbLine
 10
387.0
 20
56.8
 30
0.0
 11
389.0
 21
56.466667
 31
0.0
  0
LINE
  5
582
100
AcDbEntity
  8
LAY-6
  6
CONTINUOUS
 62
     1
100
AcDbLine
 10
465.0
 20
56.466667
 30
0.0
 11
467.0
 21
56.8
 31
0.0
  0
LINE
  5
583
100
AcDbEntity
  8
LAY-6
  6
CONTINUOUS
 62
     1
100
AcDbLine
 10
467.0
 20
56.8
 30
0.0
 11
465.0
 21
57.133333
 31
0.0
  0
LINE
  5
584
100
AcDbEntity
  8
LAY-6
  6
CONTINUOUS
 62
     1
100
AcDbLine
 10
467.0
 20
162.0
 30
0.0
 11
474.0
 21
162.0
 31
0.0
  0
LINE
  5
585
100
AcDbEntity
  8
LAY-6
  6
CONTINUOUS
 62
     1
100
AcDbLine
 10
467.0
 20
82.0
 30
0.0
 11
474.0
 21
82.0
 31
0.0
  0
TEXT
  5
586
100
AcDbEntity
  8
LAY-6
  6
CONTINUOUS
 62
     2
100
AcDbText
 10
472.0
 20
118.3
 30
0.0
 40
5.0
  1
８０
 50
90.0
 41
0.672
  7
EXCADSTD
 72
     5
 11
472.0
 21
125.6328
 31
0.0
100
AcDbText
  0
LINE
  5
587
100
AcDbEntity
  8
LAY-6
  6
CONTINUOUS
 62
     1
100
AcDbLine
 10
472.5
 20
162.0
 30
0.0
 11
472.5
 21
82.0
 31
0.0
  0
LINE
  5
588
100
AcDbEntity
  8
LAY-6
  6
CONTINUOUS
 62
     1
100
AcDbLine
 10
472.833333
 20
160.0
 30
0.0
 11
472.5
 21
162.0
 31
0.0
  0
LINE
  5
589
100
AcDbEntity
  8
LAY-6
  6
CONTINUOUS
 62
     1
100
AcDbLine
 10
472.5
 20
162.0
 30
0.0
 11
472.166667
 21
160.0
 31
0.0
  0
LINE
  5
58A
100
AcDbEntity
  8
LAY-6
  6
CONTINUOUS
 62
     1
100
AcDbLine
 10
472.166667
 20
84.0
 30
0.0
 11
472.5
 21
82.0
 31
0.0
  0
LINE
  5
58B
100
AcDbEntity
  8
LAY-6
  6
CONTINUOUS
 62
     1
100
AcDbLine
 10
472.5
 20
82.0
 30
0.0
 11
472.833333
 21
84.0
 31
0.0
  0
LINE
  5
58C
100
AcDbEntity
  8
LAY-6
  6
CONTINUOUS
 62
     1
100
AcDbLine
 10
438.540659
 20
147.0
 30
0.0
 11
454.221539
 21
147.0
 31
0.0
  0
LINE
  5
58D
100
AcDbEntity
  8
LAY-6
  6
CONTINUOUS
 62
     1
100
AcDbLine
 10
438.540659
 20
97.0
 30
0.0
 11
454.221539
 21
97.0
 31
0.0
  0
TEXT
  5
58E
100
AcDbEntity
  8
LAY-6
  6
CONTINUOUS
 62
     2
100
AcDbText
 10
452.221539
 20
117.7
 30
0.0
 40
5.0
  1
□５０
 50
90.0
 41
0.672
  7
EXCADSTD
 72
     5
 11
452.221539
 21
129.7
 31
0.0
100
AcDbText
  0
LINE
  5
58F
100
AcDbEntity
  8
LAY-6
  6
CONTINUOUS
 62
     1
100
AcDbLine
 10
452.721539
 20
147.0
 30
0.0
 11
452.721539
 21
97.0
 31
0.0
  0
LINE
  5
590
100
AcDbEntity
  8
LAY-6
  6
CONTINUOUS
 62
     1
100
AcDbLine
 10
453.054872
 20
145.0
 30
0.0
 11
452.721539
 21
147.0
 31
0.0
  0
LINE
  5
591
100
AcDbEntity
  8
LAY-6
  6
CONTINUOUS
 62
     1
100
AcDbLine
 10
452.721539
 20
147.0
 30
0.0
 11
452.388206
 21
145.0
 31
0.0
  0
LINE
  5
592
100
AcDbEntity
  8
LAY-6
  6
CONTINUOUS
 62
     1
100
AcDbLine
 10
452.388206
 20
99.0
 30
0.0
 11
452.721539
 21
97.0
 31
0.0
  0
LINE
  5
593
100
AcDbEntity
  8
LAY-6
  6
CONTINUOUS
 62
     1
100
AcDbLine
 10
452.721539
 20
97.0
 30
0.0
 11
453.054872
 21
99.0
 31
0.0
  0
LINE
  5
594
100
AcDbEntity
  8
LAY-6
  6
CONTINUOUS
 62
     1
100
AcDbLine
 10
740.6
 20
258.7
 30
0.0
 11
740.6
 21
276.6
 31
0.0
  0
LINE
  5
595
100
AcDbEntity
  8
LAY-6
  6
CONTINUOUS
 62
     1
100
AcDbLine
 10
710.6
 20
258.7
 30
0.0
 11
710.6
 21
276.6
 31
0.0
  0
TEXT
  5
596
100
AcDbEntity
  8
LAY-6
  6
CONTINUOUS
 62
     2
100
AcDbText
 10
721.6
 20
275.6
 30
0.0
 40
5.0
  1
３０
 41
0.672
  7
EXCADSTD
 72
     5
 11
728.9328
 21
275.6
 31
0.0
100
AcDbText
  0
LINE
  5
597
100
AcDbEntity
  8
LAY-6
  6
CONTINUOUS
 62
     1
100
AcDbLine
 10
740.6
 20
275.1
 30
0.0
 11
710.6
 21
275.1
 31
0.0
  0
LINE
  5
598
100
AcDbEntity
  8
LAY-6
  6
CONTINUOUS
 62
     1
100
AcDbLine
 10
738.6
 20
274.766667
 30
0.0
 11
740.6
 21
275.1
 31
0.0
  0
LINE
  5
599
100
AcDbEntity
  8
LAY-6
  6
CONTINUOUS
 62
     1
100
AcDbLine
 10
740.6
 20
275.1
 30
0.0
 11
738.6
 21
275.433333
 31
0.0
  0
LINE
  5
59A
100
AcDbEntity
  8
LAY-6
  6
CONTINUOUS
 62
     1
100
AcDbLine
 10
712.6
 20
275.433333
 30
0.0
 11
710.6
 21
275.1
 31
0.0
  0
LINE
  5
59B
100
AcDbEntity
  8
LAY-6
  6
CONTINUOUS
 62
     1
100
AcDbLine
 10
710.6
 20
275.1
 30
0.0
 11
712.6
 21
274.766667
 31
0.0
  0
LINE
  5
59C
100
AcDbEntity
  8
LAY-6
  6
CONTINUOUS
 62
     1
100
AcDbLine
 10
59.0
 20
82.0
 30
0.0
 11
59.0
 21
65.3
 31
0.0
  0
LINE
  5
59D
100
AcDbEntity
  8
LAY-6
  6
CONTINUOUS
 62
     1
100
AcDbLine
 10
89.0
 20
73.447922
 30
0.0
 11
89.0
 21
65.3
 31
0.0
  0
TEXT
  5
59E
100
AcDbEntity
  8
LAY-6
  6
CONTINUOUS
 62
     2
100
AcDbText
 10
70.0
 20
67.3
 30
0.0
 40
5.0
  1
３０
 41
0.672
  7
EXCADSTD
 72
     5
 11
77.3328
 21
67.3
 31
0.0
100
AcDbText
  0
LINE
  5
59F
100
AcDbEntity
  8
LAY-6
  6
CONTINUOUS
 62
     1
100
AcDbLine
 10
59.0
 20
66.8
 30
0.0
 11
89.0
 21
66.8
 31
0.0
  0
LINE
  5
5A0
100
AcDbEntity
  8
LAY-6
  6
CONTINUOUS
 62
     1
100
AcDbLine
 10
61.0
 20
67.133333
 30
0.0
 11
59.0
 21
66.8
 31
0.0
  0
LINE
  5
5A1
100
AcDbEntity
  8
LAY-6
  6
CONTINUOUS
 62
     1
100
AcDbLine
 10
59.0
 20
66.8
 30
0.0
 11
61.0
 21
66.466667
 31
0.0
  0
LINE
  5
5A2
100
AcDbEntity
  8
LAY-6
  6
CONTINUOUS
 62
     1
100
AcDbLine
 10
87.0
 20
66.466667
 30
0.0
 11
89.0
 21
66.8
 31
0.0
  0
LINE
  5
5A3
100
AcDbEntity
  8
LAY-6
  6
CONTINUOUS
 62
     1
100
AcDbLine
 10
89.0
 20
66.8
 30
0.0
 11
87.0
 21
67.133333
 31
0.0
  0
LINE
  5
5A4
100
AcDbEntity
  8
LAY-6
  6
CONTINUOUS
 62
     1
100
AcDbLine
 10
139.0
 20
82.0
 30
0.0
 11
139.0
 21
65.3
 31
0.0
  0
TEXT
  5
5A5
100
AcDbEntity
  8
LAY-6
  6
CONTINUOUS
 62
     2
100
AcDbText
 10
107.4
 20
67.2
 30
0.0
 40
5.0
  1
５０
 41
0.672
  7
EXCADSTD
 72
     5
 11
114.7328
 21
67.2
 31
0.0
100
AcDbText
  0
LINE
  5
5A6
100
AcDbEntity
  8
LAY-6
  6
CONTINUOUS
 62
     1
100
AcDbLine
 10
89.0
 20
66.8
 30
0.0
 11
139.0
 21
66.8
 31
0.0
  0
LINE
  5
5A7
100
AcDbEntity
  8
LAY-6
  6
CONTINUOUS
 62
     1
100
AcDbLine
 10
91.0
 20
67.133333
 30
0.0
 11
89.0
 21
66.8
 31
0.0
  0
LINE
  5
5A8
100
AcDbEntity
  8
LAY-6
  6
CONTINUOUS
 62
     1
100
AcDbLine
 10
89.0
 20
66.8
 30
0.0
 11
91.0
 21
66.466667
 31
0.0
  0
LINE
  5
5A9
100
AcDbEntity
  8
LAY-6
  6
CONTINUOUS
 62
     1
100
AcDbLine
 10
137.0
 20
66.466667
 30
0.0
 11
139.0
 21
66.8
 31
0.0
  0
LINE
  5
5AA
100
AcDbEntity
  8
LAY-6
  6
CONTINUOUS
 62
     1
100
AcDbLine
 10
139.0
 20
66.8
 30
0.0
 11
137.0
 21
67.133333
 31
0.0
  0
LINE
  5
5AB
100
AcDbEntity
  8
LAY-6
  6
CONTINUOUS
 62
     1
100
AcDbLine
 10
59.0
 20
67.0
 30
0.0
 11
59.0
 21
55.3
 31
0.0
  0
LINE
  5
5AC
100
AcDbEntity
  8
LAY-6
  6
CONTINUOUS
 62
     1
100
AcDbLine
 10
139.0
 20
67.0
 30
0.0
 11
139.0
 21
55.3
 31
0.0
  0
TEXT
  5
5AD
100
AcDbEntity
  8
LAY-6
  6
CONTINUOUS
 62
     2
100
AcDbText
 10
97.0
 20
57.3
 30
0.0
 40
5.0
  1
８０
 41
0.672
  7
EXCADSTD
 72
     5
 11
104.3328
 21
57.3
 31
0.0
100
AcDbText
  0
LINE
  5
5AE
100
AcDbEntity
  8
LAY-6
  6
CONTINUOUS
 62
     1
100
AcDbLine
 10
59.0
 20
56.8
 30
0.0
 11
139.0
 21
56.8
 31
0.0
  0
LINE
  5
5AF
100
AcDbEntity
  8
LAY-6
  6
CONTINUOUS
 62
     1
100
AcDbLine
 10
61.0
 20
57.133333
 30
0.0
 11
59.0
 21
56.8
 31
0.0
  0
LINE
  5
5B0
100
AcDbEntity
  8
LAY-6
  6
CONTINUOUS
 62
     1
100
AcDbLine
 10
59.0
 20
56.8
 30
0.0
 11
61.0
 21
56.466667
 31
0.0
  0
LINE
  5
5B1
100
AcDbEntity
  8
LAY-6
  6
CONTINUOUS
 62
     1
100
AcDbLine
 10
137.0
 20
56.466667
 30
0.0
 11
139.0
 21
56.8
 31
0.0
  0
LINE
  5
5B2
100
AcDbEntity
  8
LAY-6
  6
CONTINUOUS
 62
     1
100
AcDbLine
 10
139.0
 20
56.8
 30
0.0
 11
137.0
 21
57.133333
 31
0.0
  0
LINE
  5
5B3
100
AcDbEntity
  8
LAY-6
  6
CONTINUOUS
 62
     1
100
AcDbLine
 10
711.1
 20
259.2
 30
0.0
 11
685.7
 21
259.2
 31
0.0
  0
LINE
  5
5B4
100
AcDbEntity
  8
LAY-6
  6
CONTINUOUS
 62
     1
100
AcDbLine
 10
710.1
 20
237.2
 30
0.0
 11
685.7
 21
237.2
 31
0.0
  0
TEXT
  5
5B5
100
AcDbEntity
  8
LAY-6
  6
CONTINUOUS
 62
     2
100
AcDbText
 10
686.7
 20
244.2
 30
0.0
 40
5.0
  1
２２
 50
90.0
 41
0.672
  7
EXCADSTD
 72
     5
 11
686.7
 21
251.5328
 31
0.0
100
AcDbText
  0
LINE
  5
5B6
100
AcDbEntity
  8
LAY-6
  6
CONTINUOUS
 62
     1
100
AcDbLine
 10
687.2
 20
259.2
 30
0.0
 11
687.2
 21
237.2
 31
0.0
  0
LINE
  5
5B7
100
AcDbEntity
  8
LAY-6
  6
CONTINUOUS
 62
     1
100
AcDbLine
 10
687.533333
 20
257.2
 30
0.0
 11
687.2
 21
259.2
 31
0.0
  0
LINE
  5
5B8
100
AcDbEntity
  8
LAY-6
  6
CONTINUOUS
 62
     1
100
AcDbLine
 10
687.2
 20
259.2
 30
0.0
 11
686.866667
 21
257.2
 31
0.0
  0
LINE
  5
5B9
100
AcDbEntity
  8
LAY-6
  6
CONTINUOUS
 62
     1
100
AcDbLine
 10
686.866667
 20
239.2
 30
0.0
 11
687.2
 21
237.2
 31
0.0
  0
LINE
  5
5BA
100
AcDbEntity
  8
LAY-6
  6
CONTINUOUS
 62
     1
100
AcDbLine
 10
687.2
 20
237.2
 30
0.0
 11
687.533333
 21
239.2
 31
0.0
  0
LINE
  5
5BB
100
AcDbEntity
  8
LAY-6
  6
CONTINUOUS
 62
     1
100
AcDbLine
 10
706.6
 20
391.000163
 30
0.0
 11
675.7
 21
391.000163
 31
0.0
  0
TEXT
  5
5BC
100
AcDbEntity
  8
LAY-6
  6
CONTINUOUS
 62
     2
100
AcDbText
 10
676.7
 20
387.500163
 30
0.0
 40
5.0
  1
３
 50
90.0
 41
0.672
  7
EXCADSTD
 72
     5
 11
676.7
 21
390.700163
 31
0.0
100
AcDbText
  0
LINE
  5
5BD
100
AcDbEntity
  8
LAY-6
  6
CONTINUOUS
 62
     1
100
AcDbLine
 10
677.2
 20
388.000163
 30
0.0
 11
677.2
 21
396.000163
 31
0.0
  0
LINE
  5
5BE
100
AcDbEntity
  8
LAY-6
  6
CONTINUOUS
 62
     1
100
AcDbLine
 10
676.866667
 20
393.000163
 30
0.0
 11
677.2
 21
391.000163
 31
0.0
  0
LINE
  5
5BF
100
AcDbEntity
  8
LAY-6
  6
CONTINUOUS
 62
     1
100
AcDbLine
 10
677.2
 20
391.000163
 30
0.0
 11
677.533333
 21
393.000163
 31
0.0
  0
LINE
  5
5C0
100
AcDbEntity
  8
LAY-6
  6
CONTINUOUS
 62
     1
100
AcDbLine
 10
709.1
 20
388.000163
 30
0.0
 11
675.7
 21
388.000163
 31
0.0
  0
TEXT
  5
5C1
100
AcDbEntity
  8
LAY-6
  6
CONTINUOUS
 62
     2
100
AcDbText
 10
676.7
 20
308.600081
 30
0.0
 40
5.0
  1
ＤＨ
 50
90.0
 41
0.672
  7
EXCADSTD
 72
     5
 11
676.7
 21
315.932882
 31
0.0
100
AcDbText
  0
LINE
  5
5C2
100
AcDbEntity
  8
LAY-6
  6
CONTINUOUS
 62
     1
100
AcDbLine
 10
677.2
 20
237.2
 30
0.0
 11
677.2
 21
388.000163
 31
0.0
  0
LINE
  5
5C3
100
AcDbEntity
  8
LAY-6
  6
CONTINUOUS
 62
     1
100
AcDbLine
 10
676.866667
 20
239.2
 30
0.0
 11
677.2
 21
237.2
 31
0.0
  0
LINE
  5
5C4
100
AcDbEntity
  8
LAY-6
  6
CONTINUOUS
 62
     1
100
AcDbLine
 10
677.2
 20
237.2
 30
0.0
 11
677.533333
 21
239.2
 31
0.0
  0
LINE
  5
5C5
100
AcDbEntity
  8
LAY-6
  6
CONTINUOUS
 62
     1
100
AcDbLine
 10
677.533333
 20
386.000163
 30
0.0
 11
677.2
 21
388.000163
 31
0.0
  0
LINE
  5
5C6
100
AcDbEntity
  8
LAY-6
  6
CONTINUOUS
 62
     1
100
AcDbLine
 10
677.2
 20
388.000163
 30
0.0
 11
676.866667
 21
386.000163
 31
0.0
  0
LINE
  5
5C7
100
AcDbEntity
  8
LAY-6
  6
CONTINUOUS
 62
     1
100
AcDbLine
 10
712.6
 20
227.2
 30
0.0
 11
675.7
 21
227.2
 31
0.0
  0
LINE
  5
5C8
100
AcDbEntity
  8
LAY-6
  6
CONTINUOUS
 62
     1
100
AcDbLine
 10
710.1
 20
237.2
 30
0.0
 11
675.7
 21
237.2
 31
0.0
  0
TEXT
  5
5C9
100
AcDbEntity
  8
LAY-6
  6
CONTINUOUS
 62
     2
100
AcDbText
 10
676.7
 20
228.2
 30
0.0
 40
5.0
  1
１０
 50
90.0
 41
0.672
  7
EXCADSTD
 72
     5
 11
676.7
 21
235.5328
 31
0.0
100
AcDbText
  0
LINE
  5
5CA
100
AcDbEntity
  8
LAY-6
  6
CONTINUOUS
 62
     1
100
AcDbLine
 10
677.2
 20
227.2
 30
0.0
 11
677.2
 21
237.2
 31
0.0
  0
LINE
  5
5CB
100
AcDbEntity
  8
LAY-6
  6
CONTINUOUS
 62
     1
100
AcDbLine
 10
676.866667
 20
229.2
 30
0.0
 11
677.2
 21
227.2
 31
0.0
  0
LINE
  5
5CC
100
AcDbEntity
  8
LAY-6
  6
CONTINUOUS
 62
     1
100
AcDbLine
 10
677.2
 20
227.2
 30
0.0
 11
677.533333
 21
229.2
 31
0.0
  0
LINE
  5
5CD
100
AcDbEntity
  8
LAY-6
  6
CONTINUOUS
 62
     1
100
AcDbLine
 10
677.533333
 20
235.2
 30
0.0
 11
677.2
 21
237.2
 31
0.0
  0
LINE
  5
5CE
100
AcDbEntity
  8
LAY-6
  6
CONTINUOUS
 62
     1
100
AcDbLine
 10
677.2
 20
237.2
 30
0.0
 11
676.866667
 21
235.2
 31
0.0
  0
TEXT
  5
5CF
100
AcDbEntity
  8
LAY-6
  6
CONTINUOUS
 62
     2
100
AcDbText
 10
420.615397
 20
128.862581
 30
0.0
 40
5.0
  1
φ
 50
58.224622
 41
0.672
  7
EXCADSTD
 72
     5
 11
422.300487
 21
131.582962
 31
0.0
100
AcDbText
  0
TEXT
  5
5D0
100
AcDbEntity
  8
LAY-6
  6
CONTINUOUS
 62
     2
100
AcDbText
 10
422.721759
 20
132.263057
 30
0.0
 40
5.0
  1
６６
 50
58.224622
 41
0.672
  7
EXCADSTD
 72
     5
 11
426.583142
 21
138.49681
 31
0.0
100
AcDbText
  0
LINE
  5
5D1
100
AcDbEntity
  8
LAY-6
  6
CONTINUOUS
 62
     1
100
AcDbLine
 10
434.377487
 20
150.053929
 30
0.0
 11
399.622513
 21
93.946071
 31
0.0
  0
LINE
  5
5D2
100
AcDbEntity
  8
LAY-6
  6
CONTINUOUS
 62
     1
100
AcDbLine
 10
433.607679
 20
148.178161
 30
0.0
 11
434.377487
 21
150.053929
 31
0.0
  0
LINE
  5
5D3
100
AcDbEntity
  8
LAY-6
  6
CONTINUOUS
 62
     1
100
AcDbLine
 10
434.377487
 20
150.053929
 30
0.0
 11
433.040933
 21
148.529221
 31
0.0
  0
LINE
  5
5D4
100
AcDbEntity
  8
LAY-6
  6
CONTINUOUS
 62
     1
100
AcDbLine
 10
400.392321
 20
95.821839
 30
0.0
 11
399.622513
 21
93.946071
 31
0.0
  0
LINE
  5
5D5
100
AcDbEntity
  8
LAY-6
  6
CONTINUOUS
 62
     1
100
AcDbLine
 10
399.622513
 20
93.946071
 30
0.0
 11
400.959067
 21
95.470779
 31
0.0
  0
LINE
  5
5D6
100
AcDbEntity
  8
LAY-6
  6
CONTINUOUS
 62
     1
100
AcDbLine
 10
519.7
 20
137.0
 30
0.0
 11
518.0
 21
137.0
 31
0.0
  0
LINE
  5
5D7
100
AcDbEntity
  8
LAY-6
  6
CONTINUOUS
 62
     1
100
AcDbLine
 10
519.9
 20
107.0
 30
0.0
 11
518.0
 21
107.0
 31
0.0
  0
TEXT
  5
5D8
100
AcDbEntity
  8
LAY-6
  6
CONTINUOUS
 62
     2
100
AcDbText
 10
519.0
 20
118.0
 30
0.0
 40
5.0
  1
３０
 50
90.0
 41
0.672
  7
EXCADSTD
 72
     5
 11
519.0
 21
125.3328
 31
0.0
100
AcDbText
  0
LINE
  5
5D9
100
AcDbEntity
  8
LAY-6
  6
CONTINUOUS
 62
     1
100
AcDbLine
 10
519.5
 20
137.0
 30
0.0
 11
519.5
 21
107.0
 31
0.0
  0
LINE
  5
5DA
100
AcDbEntity
  8
LAY-6
  6
CONTINUOUS
 62
     1
100
AcDbLine
 10
519.833333
 20
135.0
 30
0.0
 11
519.5
 21
137.0
 31
0.0
  0
LINE
  5
5DB
100
AcDbEntity
  8
LAY-6
  6
CONTINUOUS
 62
     1
100
AcDbLine
 10
519.5
 20
137.0
 30
0.0
 11
519.166667
 21
135.0
 31
0.0
  0
LINE
  5
5DC
100
AcDbEntity
  8
LAY-6
  6
CONTINUOUS
 62
     1
100
AcDbLine
 10
519.166667
 20
109.0
 30
0.0
 11
519.5
 21
107.0
 31
0.0
  0
LINE
  5
5DD
100
AcDbEntity
  8
LAY-6
  6
CONTINUOUS
 62
     1
100
AcDbLine
 10
519.5
 20
107.0
 30
0.0
 11
519.833333
 21
109.0
 31
0.0
  0
LINE
  5
5DE
100
AcDbEntity
  8
LAY-6
  6
CONTINUOUS
 62
     1
100
AcDbLine
 10
705.6
 20
297.6
 30
0.0
 11
705.6
 21
296.3
 31
0.0
  0
LINE
  5
5DF
100
AcDbEntity
  8
LAY-6
  6
CONTINUOUS
 62
     1
100
AcDbLine
 10
745.6
 20
297.3
 30
0.0
 11
745.6
 21
299.3
 31
0.0
  0
TEXT
  5
5E0
100
AcDbEntity
  8
LAY-6
  6
CONTINUOUS
 62
     2
100
AcDbText
 10
718.2
 20
298.3
 30
0.0
 40
5.0
  1
４０以上
 41
0.672
  7
EXCADSTD
 72
     5
 11
734.2
 21
298.3
 31
0.0
100
AcDbText
  0
LINE
  5
5E1
100
AcDbEntity
  8
LAY-6
  6
CONTINUOUS
 62
     1
100
AcDbLine
 10
705.6
 20
297.8
 30
0.0
 11
745.6
 21
297.8
 31
0.0
  0
LINE
  5
5E2
100
AcDbEntity
  8
LAY-6
  6
CONTINUOUS
 62
     1
100
AcDbLine
 10
707.6
 20
298.133333
 30
0.0
 11
705.6
 21
297.8
 31
0.0
  0
LINE
  5
5E3
100
AcDbEntity
  8
LAY-6
  6
CONTINUOUS
 62
     1
100
AcDbLine
 10
705.6
 20
297.8
 30
0.0
 11
707.6
 21
297.466667
 31
0.0
  0
LINE
  5
5E4
100
AcDbEntity
  8
LAY-6
  6
CONTINUOUS
 62
     1
100
AcDbLine
 10
743.6
 20
297.466667
 30
0.0
 11
745.6
 21
297.8
 31
0.0
  0
LINE
  5
5E5
100
AcDbEntity
  8
LAY-6
  6
CONTINUOUS
 62
     1
100
AcDbLine
 10
745.6
 20
297.8
 30
0.0
 11
743.6
 21
298.133333
 31
0.0
  0
POLYLINE
  5
5E6
100
AcDbEntity
  8
LAY-6
  6
CONTINUOUS
 62
     1
100
AcDb2dPolyline
 66
     1
 10
0.0
 20
0.0
 30
0.0
 70
   128
  0
VERTEX
  5
5E7
100
AcDbEntity
  8
LAY-6
  6
CONTINUOUS
 62
     1
100
AcDbVertex
100
AcDb2dVertex
 10
225.0
 20
525.70002
 30
0.0
  0
VERTEX
  5
5E8
100
AcDbEntity
  8
LAY-6
  6
CONTINUOUS
 62
     1
100
AcDbVertex
100
AcDb2dVertex
 10
236.9
 20
545.471309
 30
0.0
  0
VERTEX
  5
5E9
100
AcDbEntity
  8
LAY-6
  6
CONTINUOUS
 62
     1
100
AcDbVertex
100
AcDb2dVertex
 10
282.0
 20
545.471309
 30
0.0
  0
SEQEND
  5
5EA
100
AcDbEntity
  8
LAY-6
  6
CONTINUOUS
 62
     1
  0
LINE
  5
5EB
100
AcDbEntity
  8
LAY-6
  6
CONTINUOUS
 62
     1
100
AcDbLine
 10
225.745769
 20
527.585475
 30
0.0
 11
225.0
 21
525.70002
 31
0.0
  0
LINE
  5
5EC
100
AcDbEntity
  8
LAY-6
  6
CONTINUOUS
 62
     1
100
AcDbLine
 10
225.0
 20
525.70002
 30
0.0
 11
226.316956
 21
527.241687
 31
0.0
  0
TEXT
  5
5ED
100
AcDbEntity
  8
LAY-6
  6
CONTINUOUS
 62
     2
100
AcDbText
 10
237.0
 20
545.471309
 30
0.0
 40
5.0
  1
トッププレート　０.８ｔ
 41
0.654222
  7
EXCADSTD
 72
     5
 11
283.0
 21
545.471309
 31
0.0
100
AcDbText
  0
LINE
  5
5EE
100
AcDbEntity
  8
LAY-6
  6
CONTINUOUS
 62
     1
100
AcDbLine
 10
719.349985
 20
387.5001
 30
0.0
 11
719.349985
 21
383.2
 31
0.0
  0
LINE
  5
5EF
100
AcDbEntity
  8
LAY-6
  6
CONTINUOUS
 62
     1
100
AcDbLine
 10
731.849985
 20
387.5001
 30
0.0
 11
731.849985
 21
383.2
 31
0.0
  0
TEXT
  5
5F0
100
AcDbEntity
  8
LAY-6
  6
CONTINUOUS
 62
     2
100
AcDbText
 10
756.599985
 20
355.0
 30
0.0
 40
5.0
  1
φ
 41
0.672
  7
EXCADSTD
 72
     5
 11
759.799985
 21
355.0
 31
0.0
100
AcDbText
  0
TEXT
  5
5F1
100
AcDbEntity
  8
LAY-6
  6
CONTINUOUS
 62
     2
100
AcDbText
 10
760.599985
 20
355.0
 30
0.0
 40
5.0
  1
１２.５
 41
0.616
  7
EXCADSTD
 72
     5
 11
774.599985
 21
355.0
 31
0.0
100
AcDbText
  0
LINE
  5
5F2
100
AcDbEntity
  8
LAY-6
  6
CONTINUOUS
 62
     1
100
AcDbLine
 10
719.349985
 20
384.7
 30
0.0
 11
731.849985
 21
384.7
 31
0.0
  0
LINE
  5
5F3
100
AcDbEntity
  8
LAY-6
  6
CONTINUOUS
 62
     1
100
AcDbLine
 10
721.349985
 20
385.033333
 30
0.0
 11
719.349985
 21
384.7
 31
0.0
  0
LINE
  5
5F4
100
AcDbEntity
  8
LAY-6
  6
CONTINUOUS
 62
     1
100
AcDbLine
 10
719.349985
 20
384.7
 30
0.0
 11
721.349985
 21
384.366667
 31
0.0
  0
LINE
  5
5F5
100
AcDbEntity
  8
LAY-6
  6
CONTINUOUS
 62
     1
100
AcDbLine
 10
729.849985
 20
384.366667
 30
0.0
 11
731.849985
 21
384.7
 31
0.0
  0
LINE
  5
5F6
100
AcDbEntity
  8
LAY-6
  6
CONTINUOUS
 62
     1
100
AcDbLine
 10
731.849985
 20
384.7
 30
0.0
 11
729.849985
 21
385.033333
 31
0.0
  0
LINE
  5
5F7
100
AcDbEntity
  8
LAY-6
  6
CONTINUOUS
 62
     1
100
AcDbLine
 10
700.6
 20
225.7
 30
0.0
 11
700.6
 21
201.848115
 31
0.0
  0
LINE
  5
5F8
100
AcDbEntity
  8
LAY-6
  6
CONTINUOUS
 62
     1
100
AcDbLine
 10
750.6
 20
225.7
 30
0.0
 11
750.6
 21
201.848115
 31
0.0
  0
TEXT
  5
5F9
100
AcDbEntity
  8
LAY-6
  6
CONTINUOUS
 62
     2
100
AcDbText
 10
721.4
 20
203.748115
 30
0.0
 40
5.0
  1
□５０
 41
0.672
  7
EXCADSTD
 72
     5
 11
733.4
 21
203.748115
 31
0.0
100
AcDbText
  0
LINE
  5
5FA
100
AcDbEntity
  8
LAY-6
  6
CONTINUOUS
 62
     1
100
AcDbLine
 10
700.6
 20
203.348115
 30
0.0
 11
750.6
 21
203.348115
 31
0.0
  0
LINE
  5
5FB
100
AcDbEntity
  8
LAY-6
  6
CONTINUOUS
 62
     1
100
AcDbLine
 10
702.6
 20
203.681449
 30
0.0
 11
700.6
 21
203.348115
 31
0.0
  0
LINE
  5
5FC
100
AcDbEntity
  8
LAY-6
  6
CONTINUOUS
 62
     1
100
AcDbLine
 10
700.6
 20
203.348115
 30
0.0
 11
702.6
 21
203.014782
 31
0.0
  0
LINE
  5
5FD
100
AcDbEntity
  8
LAY-6
  6
CONTINUOUS
 62
     1
100
AcDbLine
 10
748.6
 20
203.014782
 30
0.0
 11
750.6
 21
203.348115
 31
0.0
  0
LINE
  5
5FE
100
AcDbEntity
  8
LAY-6
  6
CONTINUOUS
 62
     1
100
AcDbLine
 10
750.6
 20
203.348115
 30
0.0
 11
748.6
 21
203.681449
 31
0.0
  0
TEXT
  5
5FF
100
AcDbEntity
  8
LAY-6
  6
CONTINUOUS
 62
     2
100
AcDbText
 10
173.9
 20
301.1
 30
0.0
 40
5.0
  1
アーム
 41
0.672
  7
EXCADSTD
 72
     5
 11
185.9
 21
301.1
 31
0.0
100
AcDbText
  0
POLYLINE
  5
600
100
AcDbEntity
  8
LAY-6
  6
CONTINUOUS
 62
     1
100
AcDb2dPolyline
 66
     1
 10
0.0
 20
0.0
 30
0.0
 70
   128
  0
VERTEX
  5
601
100
AcDbEntity
  8
LAY-6
  6
CONTINUOUS
 62
     1
100
AcDbVertex
100
AcDb2dVertex
 10
131.4
 20
259.2
 30
0.0
  0
VERTEX
  5
602
100
AcDbEntity
  8
LAY-6
  6
CONTINUOUS
 62
     1
100
AcDbVertex
100
AcDb2dVertex
 10
172.8
 20
300.6
 30
0.0
  0
VERTEX
  5
603
100
AcDbEntity
  8
LAY-6
  6
CONTINUOUS
 62
     1
100
AcDbVertex
100
AcDb2dVertex
 10
185.9
 20
300.6
 30
0.0
  0
SEQEND
  5
604
100
AcDbEntity
  8
LAY-6
  6
CONTINUOUS
 62
     1
  0
LINE
  5
605
100
AcDbEntity
  8
LAY-6
  6
CONTINUOUS
 62
     1
100
AcDbLine
 10
132.578511
 20
260.849916
 30
0.0
 11
131.4
 21
259.2
 31
0.0
  0
LINE
  5
606
100
AcDbEntity
  8
LAY-6
  6
CONTINUOUS
 62
     1
100
AcDbLine
 10
131.4
 20
259.2
 30
0.0
 11
133.049916
 21
260.378511
 31
0.0
  0
LINE
  5
607
100
AcDbEntity
  8
LAY-6
  6
CONTINUOUS
 62
     1
100
AcDbLine
 10
68.0
 20
526.200061
 30
0.0
 11
68.0
 21
547.2
 31
0.0
  0
LINE
  5
608
100
AcDbEntity
  8
LAY-6
  6
CONTINUOUS
 62
     1
100
AcDbLine
 10
230.0
 20
526.2
 30
0.0
 11
230.0
 21
547.2
 31
0.0
  0
TEXT
  5
609
100
AcDbEntity
  8
LAY-6
  6
CONTINUOUS
 62
     2
100
AcDbText
 10
143.0
 20
546.2
 30
0.0
 40
5.0
  1
１６２
 41
0.672
  7
EXCADSTD
 72
     5
 11
155.0
 21
546.2
 31
0.0
100
AcDbText
  0
LINE
  5
60A
100
AcDbEntity
  8
LAY-6
  6
CONTINUOUS
 62
     1
100
AcDbLine
 10
68.0
 20
545.7
 30
0.0
 11
230.0
 21
545.7
 31
0.0
  0
LINE
  5
60B
100
AcDbEntity
  8
LAY-6
  6
CONTINUOUS
 62
     1
100
AcDbLine
 10
70.0
 20
546.033333
 30
0.0
 11
68.0
 21
545.7
 31
0.0
  0
LINE
  5
60C
100
AcDbEntity
  8
LAY-6
  6
CONTINUOUS
 62
     1
100
AcDbLine
 10
68.0
 20
545.7
 30
0.0
 11
70.0
 21
545.366667
 31
0.0
  0
LINE
  5
60D
100
AcDbEntity
  8
LAY-6
  6
CONTINUOUS
 62
     1
100
AcDbLine
 10
228.0
 20
545.366667
 30
0.0
 11
230.0
 21
545.7
 31
0.0
  0
LINE
  5
60E
100
AcDbEntity
  8
LAY-6
  6
CONTINUOUS
 62
     1
100
AcDbLine
 10
230.0
 20
545.7
 30
0.0
 11
228.0
 21
546.033333
 31
0.0
  0
INSERT
  5
60F
100
AcDbEntity
  8
LAY-6
  6
CONTINUOUS
 62
     0
100
AcDbBlockReference
  2
SYM-1
 10
57.3
 20
502.4
 30
0.0
 50
90.0
  0
TEXT
  5
610
100
AcDbEntity
  8
LAY-6
  6
CONTINUOUS
 62
     2
100
AcDbText
 10
240.1
 20
115.4
 30
0.0
 40
6.0
  1
アーム
 41
0.672
  7
EXCADSTD
 72
     5
 11
254.500001
 21
115.4
 31
0.0
100
AcDbText
  0
TEXT
  5
611
100
AcDbEntity
  8
LAY-6
  6
CONTINUOUS
 62
     2
100
AcDbText
 10
568.1
 20
115.4
 30
0.0
 40
6.0
  1
アーム
 41
0.672
  7
EXCADSTD
 72
     5
 11
582.500001
 21
115.4
 31
0.0
100
AcDbText
  0
ARC
  5
612
100
AcDbEntity
  8
LAY-6
  6
CONTINUOUS
 62
     1
100
AcDbCircle
 10
89.0
 20
122.0
 30
0.0
 40
33.0
100
AcDbArc
 50
49.250946
 51
59.971154
  0
INSERT
  5
613
100
AcDbEntity
  8
LAY-6
  6
CONTINUOUS
 62
     0
100
AcDbBlockReference
  2
SYM-1
 10
471.021539
 20
116.047922
 30
0.0
 50
90.0
  0
TEXT
  5
614
100
AcDbEntity
  8
LAY-6
  6
CONTINUOUS
 62
     2
100
AcDbText
 10
144.021539
 20
113.347922
 30
0.0
 40
5.0
  1
Ｐ
 50
90.0
 41
0.672
  7
EXCADSTD
 72
     5
 11
144.021539
 21
116.547922
 31
0.0
100
AcDbText
  0
TEXT
  5
615
100
AcDbEntity
  8
LAY-6
  6
CONTINUOUS
 62
     2
100
AcDbText
 10
143.921539
 20
114.247922
 30
0.0
 40
5.0
  1
Ｌ
 50
90.0
 41
0.672
  7
EXCADSTD
 72
     5
 11
143.921539
 21
117.447922
 31
0.0
100
AcDbText
  0
INSERT
  5
616
100
AcDbEntity
  8
LAY-6
  6
CONTINUOUS
 62
     0
100
AcDbBlockReference
  2
SYM-1
 10
96.081539
 20
58.207922
 30
0.0
  0
TEXT
  5
617
100
AcDbEntity
  8
LAY-6
  6
CONTINUOUS
 62
     2
100
AcDbText
 10
75.052906
 20
44.616921
 30
0.0
 40
6.0
  1
９０゜開き
 41
0.672
  7
EXCADSTD
 72
     5
 11
99.052907
 21
44.616921
 31
0.0
100
AcDbText
  0
INSERT
  5
618
100
AcDbEntity
  8
LAY-6
  6
CONTINUOUS
 62
     0
100
AcDbBlockReference
  2
SYM-1
 10
424.081539
 20
58.207922
 30
0.0
  0
TEXT
  5
619
100
AcDbEntity
  8
LAY-6
  6
CONTINUOUS
 62
     2
100
AcDbText
 10
403.052906
 20
44.616921
 30
0.0
 40
6.0
  1
１８０゜開き
 41
0.672
  7
EXCADSTD
 72
     5
 11
431.852907
 21
44.616921
 31
0.0
100
AcDbText
  0
TEXT
  5
61A
100
AcDbEntity
  8
LAY-6
  6
CONTINUOUS
 62
     2
100
AcDbText
 10
32.5
 20
131.4
 30
0.0
 40
5.0
  1
竪
 41
0.672
  7
EXCADSTD
 72
     5
 11
35.7
 21
131.4
 31
0.0
100
AcDbText
  0
TEXT
  5
61B
100
AcDbEntity
  8
LAY-6
  6
CONTINUOUS
 62
     2
100
AcDbText
 10
32.5
 20
126.4
 30
0.0
 40
5.0
  1
枠
 41
0.672
  7
EXCADSTD
 72
     5
 11
35.7
 21
126.4
 31
0.0
100
AcDbText
  0
TEXT
  5
61C
100
AcDbEntity
  8
LAY-6
  6
CONTINUOUS
 62
     2
100
AcDbText
 10
638.621539
 20
217.352187
 30
0.0
 40
6.0
  1
床面
 41
0.672
  7
EXCADSTD
 72
     5
 11
647.420899
 21
217.352187
 31
0.0
100
AcDbText
  0
ARC
  5
61D
100
AcDbEntity
  8
LAY-6
  6
CONTINUOUS
 62
     1
100
AcDbCircle
 10
89.0
 20
122.0
 30
0.0
 40
33.0
100
AcDbArc
 50
229.250946
 51
239.971154
  0
ARC
  5
61E
100
AcDbEntity
  8
LAY-6
  6
CONTINUOUS
 62
     1
100
AcDbCircle
 10
417.0
 20
122.0
 30
0.0
 40
33.0
100
AcDbArc
 50
49.250946
 51
59.971154
  0
ARC
  5
61F
100
AcDbEntity
  8
LAY-6
  6
CONTINUOUS
 62
     1
100
AcDbCircle
 10
417.0
 20
122.0
 30
0.0
 40
33.0
100
AcDbArc
 50
229.250946
 51
241.27254
  0
INSERT
  5
620
100
AcDbEntity
  8
LAY-6
  6
CONTINUOUS
 62
     0
100
AcDbBlockReference
  2
SYM-1
 10
157.321539
 20
229.547922
 30
0.0
 50
90.0
  0
TEXT
  5
621
100
AcDbEntity
  8
LAY-6
  6
CONTINUOUS
 62
     2
100
AcDbText
 10
282.7
 20
108.3
 30
0.0
 40
6.0
  1
ド　ア
 41
0.672
  7
EXCADSTD
 72
     5
 11
297.100001
 21
108.3
 31
0.0
100
AcDbText
  0
TEXT
  5
622
100
AcDbEntity
  8
LAY-6
  6
CONTINUOUS
 62
     2
100
AcDbText
 10
611.6
 20
107.3
 30
0.0
 40
6.0
  1
ド　ア
 41
0.672
  7
EXCADSTD
 72
     5
 11
626.000001
 21
107.3
 31
0.0
100
AcDbText
  0
POLYLINE
  5
623
100
AcDbEntity
  8
LAY-6
  6
CONTINUOUS
 62
     1
100
AcDb2dPolyline
 66
     1
 10
0.0
 20
0.0
 30
0.0
 70
   128
  0
VERTEX
  5
624
100
AcDbEntity
  8
LAY-6
  6
CONTINUOUS
 62
     1
100
AcDbVertex
100
AcDb2dVertex
 10
725.699985
 20
384.700015
 30
0.0
  0
VERTEX
  5
625
100
AcDbEntity
  8
LAY-6
  6
CONTINUOUS
 62
     1
100
AcDbVertex
100
AcDb2dVertex
 10
756.399993
 20
354.000007
 30
0.0
  0
VERTEX
  5
626
100
AcDbEntity
  8
LAY-6
  6
CONTINUOUS
 62
     1
100
AcDbVertex
100
AcDb2dVertex
 10
775.4
 20
354.000007
 30
0.0
  0
SEQEND
  5
627
100
AcDbEntity
  8
LAY-6
  6
CONTINUOUS
 62
     1
  0
LINE
  5
628
100
AcDbEntity
  8
LAY-6
  6
CONTINUOUS
 62
     1
100
AcDbLine
 10
727.349901
 20
383.521504
 30
0.0
 11
725.699985
 21
384.700015
 31
0.0
  0
LINE
  5
629
100
AcDbEntity
  8
LAY-6
  6
CONTINUOUS
 62
     1
100
AcDbLine
 10
725.699985
 20
384.700015
 30
0.0
 11
726.878496
 21
383.050099
 31
0.0
  0
INSERT
  5
62A
100
AcDbEntity
  8
LAY-6
  6
CONTINUOUS
 62
     0
100
AcDbBlockReference
  2
SYM-1
 10
772.772078
 20
230.621539
 30
0.0
 50
90.0
  0
TEXT
  5
62B
100
AcDbEntity
  8
LAY-6
  6
CONTINUOUS
 62
     2
100
AcDbText
 10
396.6
 20
245.7
 30
0.0
 40
6.0
  1
ド　ア
 41
0.672
  7
EXCADSTD
 72
     5
 11
411.000001
 21
245.7
 31
0.0
100
AcDbText
  0
TEXT
  5
62C
100
AcDbEntity
  8
LAY-6
  6
CONTINUOUS
 62
     2
100
AcDbText
 10
396.6
 20
212.6
 30
0.0
 40
6.0
  1
床　面
 41
0.672
  7
EXCADSTD
 72
     5
 11
411.000001
 21
212.6
 31
0.0
100
AcDbText
  0
TEXT
  5
62D
100
AcDbEntity
  8
LAY-6
  6
CONTINUOUS
 62
     2
100
AcDbText
 10
184.9
 20
166.45
 30
0.0
 40
5.0
  1
Ｌ
 41
0.672
  7
EXCADSTD
 72
     5
 11
188.1
 21
166.45
 31
0.0
100
AcDbText
  0
TEXT
  5
62E
100
AcDbEntity
  8
LAY-6
  6
CONTINUOUS
 62
     2
100
AcDbText
 10
512.9
 20
166.45
 30
0.0
 40
5.0
  1
Ｌ
 41
0.672
  7
EXCADSTD
 72
     5
 11
516.1
 21
166.45
 31
0.0
100
AcDbText
  0
TEXT
  5
62F
100
AcDbEntity
  8
LAY-6
  6
CONTINUOUS
 62
     2
100
AcDbText
 10
286.6
 20
377.4
 30
0.0
 40
6.0
  1
ド　ア
 41
0.672
  7
EXCADSTD
 72
     5
 11
301.000001
 21
377.4
 31
0.0
100
AcDbText
  0
TEXT
  5
630
100
AcDbEntity
  8
LAY-6
  6
CONTINUOUS
 62
     2
100
AcDbText
 10
286.6
 20
397.2
 30
0.0
 40
6.0
  1
上　枠
 41
0.672
  7
EXCADSTD
 72
     5
 11
301.000001
 21
397.2
 31
0.0
100
AcDbText
  0
TEXT
  5
631
100
AcDbEntity
  8
LAY-6
  6
CONTINUOUS
 62
     2
100
AcDbText
 10
718.6
 20
326.1
 30
0.0
 40
6.0
  1
ド　ア
 41
0.672
  7
EXCADSTD
 72
     5
 11
733.000001
 21
326.1
 31
0.0
100
AcDbText
  0
TEXT
  5
632
100
AcDbEntity
  8
LAY-6
  6
CONTINUOUS
 62
     2
100
AcDbText
 10
768.0
 20
413.3
 30
0.0
 40
8.0
  1
上枠
 41
0.8
  7
EXCADVERT
 72
     3
 11
768.0
 21
397.3
 31
0.0
100
AcDbText
  0
TEXT
  5
633
100
AcDbEntity
  8
LAY-6
  6
CONTINUOUS
 62
     2
100
AcDbText
 10
37.0
 20
346.7
 30
0.0
 40
8.0
  1
竪枠
 41
0.8
  7
EXCADVERT
 72
     3
 11
37.0
 21
330.7
 31
0.0
100
AcDbText
  0
INSERT
  5
634
100
AcDbEntity
  8
LAY-6
  6
CONTINUOUS
 62
     0
100
AcDbBlockReference
  2
SYM-1
 10
268.2
 20
546.471309
 30
0.0
  0
INSERT
  5
635
100
AcDbEntity
  8
LAY-6
  6
CONTINUOUS
 62
     0
100
AcDbBlockReference
  2
SYM-1
 10
140.9
 20
547.0
 30
0.0
  0
TEXT
  5
636
100
AcDbEntity
  8
LAY-6
  6
CONTINUOUS
 62
     2
100
AcDbText
 10
244.4
 20
365.300108
 30
0.0
 40
5.0
  1
裏板４.５ｔ以上（別途）
 41
0.654222
  7
EXCADSTD
 72
     5
 11
290.4
 21
365.300108
 31
0.0
100
AcDbText
  0
LINE
  5
637
100
AcDbEntity
  8
LAY-9
  6
CONTINUOUS
 62
     1
100
AcDbLine
 10
119.0
 20
480.6
 30
0.0
 11
119.0
 21
451.1
 31
0.0
  0
ARC
  5
638
100
AcDbEntity
  8
LAY-9
  6
CONTINUOUS
 62
     1
100
AcDbCircle
 10
117.4
 20
480.6
 30
0.0
 40
1.6
100
AcDbArc
 50
0.0
 51
135.0
  0
LINE
  5
639
100
AcDbEntity
  8
LAY-9
  6
CONTINUOUS
 62
     1
100
AcDbLine
 10
117.4
 20
480.6
 30
0.0
 11
117.4
 21
467.6
 31
0.0
  0
LINE
  5
63A
100
AcDbEntity
  8
LAY-9
  6
CONTINUOUS
 62
     1
100
AcDbLine
 10
117.4
 20
480.6
 30
0.0
 11
104.0
 21
467.2
 31
0.0
  0
LINE
  5
63B
100
AcDbEntity
  8
LAY-9
  6
CONTINUOUS
 62
     1
100
AcDbLine
 10
102.868629
 20
468.331371
 30
0.0
 11
116.268629
 21
481.731371
 31
0.0
  0
LINE
  5
63C
100
AcDbEntity
  8
LAY-9
  6
CONTINUOUS
 62
     1
100
AcDbLine
 10
104.0
 20
467.2
 30
0.0
 11
102.868629
 21
468.331371
 31
0.0
  0
LINE
  5
63D
100
AcDbEntity
  8
LAY-9
  6
CONTINUOUS
 62
     1
100
AcDbLine
 10
117.4
 20
467.6
 30
0.0
 11
117.4
 21
451.1
 31
0.0
  0
LINE
  5
63E
100
AcDbEntity
  8
LAY-9
  6
CONTINUOUS
 62
     1
100
AcDbLine
 10
115.8
 20
465.6
 30
0.0
 11
115.8
 21
451.1
 31
0.0
  0
ARC
  5
63F
100
AcDbEntity
  8
LAY-9
  6
CONTINUOUS
 62
     1
100
AcDbCircle
 10
115.8
 20
465.6
 30
0.0
 40
1.6
100
AcDbArc
 50
0.0
 51
90.0
  0
ARC
  5
640
100
AcDbEntity
  8
LAY-9
  6
CONTINUOUS
 62
     1
100
AcDbCircle
 10
49.0
 20
467.2
 30
0.0
 40
1.6
100
AcDbArc
 50
180.0
 51
270.0
  0
LINE
  5
641
100
AcDbEntity
  8
LAY-9
  6
CONTINUOUS
 62
     1
100
AcDbLine
 10
115.8
 20
465.6
 30
0.0
 11
49.0
 21
465.6
 31
0.0
  0
LINE
  5
642
100
AcDbEntity
  8
LAY-9
  6
CONTINUOUS
 62
     1
100
AcDbLine
 10
115.8
 20
467.2
 30
0.0
 11
49.0
 21
467.2
 31
0.0
  0
LINE
  5
643
100
AcDbEntity
  8
LAY-9
  6
DIVIDE
 62
     1
100
AcDbLine
 10
570.7
 20
536.1
 30
0.0
 11
570.7
 21
476.5
 31
0.0
  0
LINE
  5
644
100
AcDbEntity
  8
LAY-9
  6
CONTINUOUS
 62
     1
100
AcDbLine
 10
411.0
 20
480.6
 30
0.0
 11
411.0
 21
451.1
 31
0.0
  0
ARC
  5
645
100
AcDbEntity
  8
LAY-9
  6
CONTINUOUS
 62
     1
100
AcDbCircle
 10
409.4
 20
480.6
 30
0.0
 40
1.6
100
AcDbArc
 50
0.0
 51
135.0
  0
LINE
  5
646
100
AcDbEntity
  8
LAY-9
  6
CONTINUOUS
 62
     1
100
AcDbLine
 10
409.4
 20
480.6
 30
0.0
 11
409.4
 21
467.6
 31
0.0
  0
LINE
  5
647
100
AcDbEntity
  8
LAY-9
  6
CONTINUOUS
 62
     1
100
AcDbLine
 10
409.4
 20
480.6
 30
0.0
 11
396.0
 21
467.2
 31
0.0
  0
LINE
  5
648
100
AcDbEntity
  8
LAY-9
  6
CONTINUOUS
 62
     1
100
AcDbLine
 10
394.868629
 20
468.331371
 30
0.0
 11
408.268629
 21
481.731371
 31
0.0
  0
LINE
  5
649
100
AcDbEntity
  8
LAY-9
  6
CONTINUOUS
 62
     1
100
AcDbLine
 10
396.0
 20
467.2
 30
0.0
 11
394.868629
 21
468.331371
 31
0.0
  0
LINE
  5
64A
100
AcDbEntity
  8
LAY-9
  6
CONTINUOUS
 62
     1
100
AcDbLine
 10
409.4
 20
467.6
 30
0.0
 11
409.4
 21
451.1
 31
0.0
  0
LINE
  5
64B
100
AcDbEntity
  8
LAY-9
  6
CONTINUOUS
 62
     1
100
AcDbLine
 10
407.8
 20
465.6
 30
0.0
 11
407.8
 21
451.1
 31
0.0
  0
ARC
  5
64C
100
AcDbEntity
  8
LAY-9
  6
CONTINUOUS
 62
     1
100
AcDbCircle
 10
407.8
 20
465.6
 30
0.0
 40
1.6
100
AcDbArc
 50
0.0
 51
90.0
  0
ARC
  5
64D
100
AcDbEntity
  8
LAY-9
  6
CONTINUOUS
 62
     1
100
AcDbCircle
 10
341.0
 20
467.2
 30
0.0
 40
1.6
100
AcDbArc
 50
180.0
 51
270.0
  0
LINE
  5
64E
100
AcDbEntity
  8
LAY-9
  6
CONTINUOUS
 62
     1
100
AcDbLine
 10
407.8
 20
465.6
 30
0.0
 11
341.0
 21
465.6
 31
0.0
  0
LINE
  5
64F
100
AcDbEntity
  8
LAY-9
  6
CONTINUOUS
 62
     1
100
AcDbLine
 10
407.8
 20
467.2
 30
0.0
 11
341.0
 21
467.2
 31
0.0
  0
ARC
  5
650
100
AcDbEntity
  8
LAY-9
  6
CONTINUOUS
 62
     1
100
AcDbCircle
 10
62.4
 20
528.6
 30
0.0
 40
1.6
100
AcDbArc
 50
315.0
 51
90.0
  0
LINE
  5
651
100
AcDbEntity
  8
LAY-9
  6
CONTINUOUS
 62
     1
100
AcDbLine
 10
62.4
 20
528.6
 30
0.0
 11
49.4
 21
528.6
 31
0.0
  0
LINE
  5
652
100
AcDbEntity
  8
LAY-9
  6
CONTINUOUS
 62
     1
100
AcDbLine
 10
62.4
 20
528.6
 30
0.0
 11
49.0
 21
515.2
 31
0.0
  0
LINE
  5
653
100
AcDbEntity
  8
LAY-9
  6
CONTINUOUS
 62
     1
100
AcDbLine
 10
50.131371
 20
514.068629
 30
0.0
 11
63.531371
 21
527.468629
 31
0.0
  0
LINE
  5
654
100
AcDbEntity
  8
LAY-9
  6
CONTINUOUS
 62
     1
100
AcDbLine
 10
49.0
 20
515.2
 30
0.0
 11
50.131371
 21
514.068629
 31
0.0
  0
LINE
  5
655
100
AcDbEntity
  8
LAY-9
  6
CONTINUOUS
 62
     1
100
AcDbLine
 10
62.4
 20
530.2
 30
0.0
 11
32.9
 21
530.2
 31
0.0
  0
LINE
  5
656
100
AcDbEntity
  8
LAY-9
  6
CONTINUOUS
 62
     1
100
AcDbLine
 10
49.4
 20
528.6
 30
0.0
 11
32.9
 21
528.6
 31
0.0
  0
LINE
  5
657
100
AcDbEntity
  8
LAY-9
  6
CONTINUOUS
 62
     1
100
AcDbLine
 10
47.4
 20
528.6
 30
0.0
 11
47.4
 21
467.2
 31
0.0
  0
LINE
  5
658
100
AcDbEntity
  8
LAY-9
  6
CONTINUOUS
 62
     1
100
AcDbLine
 10
49.0
 20
528.6
 30
0.0
 11
49.0
 21
467.2
 31
0.0
  0
ARC
  5
659
100
AcDbEntity
  8
LAY-9
  6
CONTINUOUS
 62
     1
100
AcDbCircle
 10
354.4
 20
528.6
 30
0.0
 40
1.6
100
AcDbArc
 50
315.0
 51
90.0
  0
LINE
  5
65A
100
AcDbEntity
  8
LAY-9
  6
CONTINUOUS
 62
     1
100
AcDbLine
 10
354.4
 20
528.6
 30
0.0
 11
341.4
 21
528.6
 31
0.0
  0
LINE
  5
65B
100
AcDbEntity
  8
LAY-9
  6
CONTINUOUS
 62
     1
100
AcDbLine
 10
354.4
 20
528.6
 30
0.0
 11
341.0
 21
515.2
 31
0.0
  0
LINE
  5
65C
100
AcDbEntity
  8
LAY-9
  6
CONTINUOUS
 62
     1
100
AcDbLine
 10
342.131371
 20
514.068629
 30
0.0
 11
355.531371
 21
527.468629
 31
0.0
  0
LINE
  5
65D
100
AcDbEntity
  8
LAY-9
  6
CONTINUOUS
 62
     1
100
AcDbLine
 10
341.0
 20
515.2
 30
0.0
 11
342.131371
 21
514.068629
 31
0.0
  0
LINE
  5
65E
100
AcDbEntity
  8
LAY-9
  6
CONTINUOUS
 62
     1
100
AcDbLine
 10
354.4
 20
530.2
 30
0.0
 11
324.9
 21
530.2
 31
0.0
  0
LINE
  5
65F
100
AcDbEntity
  8
LAY-9
  6
CONTINUOUS
 62
     1
100
AcDbLine
 10
341.4
 20
528.6
 30
0.0
 11
324.9
 21
528.6
 31
0.0
  0
LINE
  5
660
100
AcDbEntity
  8
LAY-9
  6
CONTINUOUS
 62
     1
100
AcDbLine
 10
339.4
 20
528.6
 30
0.0
 11
339.4
 21
467.2
 31
0.0
  0
LINE
  5
661
100
AcDbEntity
  8
LAY-9
  6
CONTINUOUS
 62
     1
100
AcDbLine
 10
341.0
 20
528.6
 30
0.0
 11
341.0
 21
467.2
 31
0.0
  0
LINE
  5
662
100
AcDbEntity
  8
LAY-9
  6
CONTINUOUS
 62
     1
100
AcDbLine
 10
359.0
 20
488.8
 30
0.0
 11
359.0
 21
525.6
 31
0.0
  0
LINE
  5
663
100
AcDbEntity
  8
LAY-9
  6
CONTINUOUS
 62
     1
100
AcDbLine
 10
360.6
 20
488.8
 30
0.0
 11
360.6
 21
525.6
 31
0.0
  0
LINE
  5
664
100
AcDbEntity
  8
LAY-9
  6
CONTINUOUS
 62
     1
100
AcDbLine
 10
362.2
 20
490.4
 30
0.0
 11
362.2
 21
524.0
 31
0.0
  0
LINE
  5
665
100
AcDbEntity
  8
LAY-9
  6
CONTINUOUS
 62
     1
100
AcDbLine
 10
362.2
 20
524.0
 30
0.0
 11
380.6
 21
524.0
 31
0.0
  0
LINE
  5
666
100
AcDbEntity
  8
LAY-9
  6
CONTINUOUS
 62
     1
100
AcDbLine
 10
360.6
 20
525.6
 30
0.0
 11
570.7
 21
525.6
 31
0.0
  0
LINE
  5
667
100
AcDbEntity
  8
LAY-9
  6
CONTINUOUS
 62
     1
100
AcDbLine
 10
380.6
 20
490.4
 30
0.0
 11
362.2
 21
490.4
 31
0.0
  0
LINE
  5
668
100
AcDbEntity
  8
LAY-9
  6
CONTINUOUS
 62
     1
100
AcDbLine
 10
570.7
 20
488.8
 30
0.0
 11
360.6
 21
488.8
 31
0.0
  0
LINE
  5
669
100
AcDbEntity
  8
LAY-9
  6
CONTINUOUS
 62
     1
100
AcDbLine
 10
360.6
 20
527.2
 30
0.0
 11
570.7
 21
527.2
 31
0.0
  0
LINE
  5
66A
100
AcDbEntity
  8
LAY-9
  6
CONTINUOUS
 62
     1
100
AcDbLine
 10
360.6
 20
487.2
 30
0.0
 11
570.7
 21
487.2
 31
0.0
  0
ARC
  5
66B
100
AcDbEntity
  8
LAY-9
  6
CONTINUOUS
 62
     1
100
AcDbCircle
 10
362.2
 20
524.0
 30
0.0
 40
1.6
100
AcDbArc
 50
90.0
 51
180.0
  0
ARC
  5
66C
100
AcDbEntity
  8
LAY-9
  6
CONTINUOUS
 62
     1
100
AcDbCircle
 10
360.6
 20
525.6
 30
0.0
 40
1.6
100
AcDbArc
 50
90.0
 51
180.0
  0
LINE
  5
66D
100
AcDbEntity
  8
LAY-9
  6
CONTINUOUS
 62
     1
100
AcDbLine
 10
380.6
 20
525.6
 30
0.0
 11
380.6
 21
524.0
 31
0.0
  0
LINE
  5
66E
100
AcDbEntity
  8
LAY-9
  6
CONTINUOUS
 62
     1
100
AcDbLine
 10
380.6
 20
490.4
 30
0.0
 11
380.6
 21
488.8
 31
0.0
  0
ARC
  5
66F
100
AcDbEntity
  8
LAY-9
  6
CONTINUOUS
 62
     1
100
AcDbCircle
 10
362.2
 20
490.4
 30
0.0
 40
1.6
100
AcDbArc
 50
180.0
 51
270.0
  0
ARC
  5
670
100
AcDbEntity
  8
LAY-9
  6
CONTINUOUS
 62
     1
100
AcDbCircle
 10
360.6
 20
488.8
 30
0.0
 40
1.6
100
AcDbArc
 50
180.0
 51
270.0
  0
LINE
  5
671
100
AcDbEntity
  8
LAY-9
  6
CONTINUOUS
 62
     1
100
AcDbLine
 10
67.0
 20
388.0
 30
0.0
 11
307.0
 21
388.0
 31
0.0
  0
LINE
  5
672
100
AcDbEntity
  8
LAY-9
  6
CONTINUOUS
 62
     1
100
AcDbLine
 10
709.5
 20
263.7
 30
0.0
 11
741.7
 21
263.7
 31
0.0
  0
LINE
  5
673
100
AcDbEntity
  8
LAY-9
  6
CONTINUOUS
 62
     1
100
AcDbLine
 10
709.5
 20
266.0
 30
0.0
 11
741.7
 21
266.0
 31
0.0
  0
ARC
  5
674
100
AcDbEntity
  8
LAY-9
  6
CONTINUOUS
 62
     1
100
AcDbCircle
 10
709.5
 20
263.7
 30
0.0
 40
2.3
100
AcDbArc
 50
90.0
 51
180.0
  0
ARC
  5
675
100
AcDbEntity
  8
LAY-9
  6
CONTINUOUS
 62
     1
100
AcDbCircle
 10
741.7
 20
263.7
 30
0.0
 40
2.3
100
AcDbArc
 50
0.0
 51
90.0
  0
LINE
  5
676
100
AcDbEntity
  8
LAY-9
  6
CONTINUOUS
 62
     1
100
AcDbLine
 10
67.0
 20
388.0
 30
0.0
 11
67.0
 21
324.9
 31
0.0
  0
LINE
  5
677
100
AcDbEntity
  8
LAY-9
  6
CONTINUOUS
 62
     1
100
AcDbLine
 10
68.6
 20
386.4
 30
0.0
 11
68.6
 21
324.9
 31
0.0
  0
POLYLINE
  5
678
100
AcDbEntity
  8
LAY-9
  6
CONTINUOUS
 62
     1
100
AcDb2dPolyline
 66
     1
 10
0.0
 20
0.0
 30
0.0
 70
   128
  0
VERTEX
  5
679
100
AcDbEntity
  8
LAY-9
  6
CONTINUOUS
 62
     1
100
AcDbVertex
100
AcDb2dVertex
 10
308.5
 20
391.0
 30
0.0
  0
VERTEX
  5
67A
100
AcDbEntity
  8
LAY-9
  6
CONTINUOUS
 62
     1
100
AcDbVertex
100
AcDb2dVertex
 10
308.532016
 20
391.091282
 30
0.0
  0
VERTEX
  5
67B
100
AcDbEntity
  8
LAY-9
  6
CONTINUOUS
 62
     1
100
AcDbVertex
100
AcDb2dVertex
 10
308.619556
 20
391.349111
 30
0.0
  0
VERTEX
  5
67C
100
AcDbEntity
  8
LAY-9
  6
CONTINUOUS
 62
     1
100
AcDbVertex
100
AcDb2dVertex
 10
308.749856
 20
391.749461
 30
0.0
  0
VERTEX
  5
67D
100
AcDbEntity
  8
LAY-9
  6
CONTINUOUS
 62
     1
100
AcDbVertex
100
AcDb2dVertex
 10
308.910153
 20
392.268308
 30
0.0
  0
VERTEX
  5
67E
100
AcDbEntity
  8
LAY-9
  6
CONTINUOUS
 62
     1
100
AcDbVertex
100
AcDb2dVertex
 10
309.087683
 20
392.881626
 30
0.0
  0
VERTEX
  5
67F
100
AcDbEntity
  8
LAY-9
  6
CONTINUOUS
 62
     1
100
AcDbVertex
100
AcDb2dVertex
 10
309.269682
 20
393.565389
 30
0.0
  0
VERTEX
  5
680
100
AcDbEntity
  8
LAY-9
  6
CONTINUOUS
 62
     1
100
AcDbVertex
100
AcDb2dVertex
 10
309.443388
 20
394.295572
 30
0.0
  0
VERTEX
  5
681
100
AcDbEntity
  8
LAY-9
  6
CONTINUOUS
 62
     1
100
AcDbVertex
100
AcDb2dVertex
 10
309.596036
 20
395.04815
 30
0.0
  0
VERTEX
  5
682
100
AcDbEntity
  8
LAY-9
  6
CONTINUOUS
 62
     1
100
AcDbVertex
100
AcDb2dVertex
 10
309.714863
 20
395.799098
 30
0.0
  0
VERTEX
  5
683
100
AcDbEntity
  8
LAY-9
  6
CONTINUOUS
 62
     1
100
AcDbVertex
100
AcDb2dVertex
 10
309.787105
 20
396.524389
 30
0.0
  0
VERTEX
  5
684
100
AcDbEntity
  8
LAY-9
  6
CONTINUOUS
 62
     1
100
AcDbVertex
100
AcDb2dVertex
 10
309.8
 20
397.2
 30
0.0
  0
VERTEX
  5
685
100
AcDbEntity
  8
LAY-9
  6
CONTINUOUS
 62
     1
100
AcDbVertex
100
AcDb2dVertex
 10
309.762452
 20
397.680142
 30
0.0
  0
VERTEX
  5
686
100
AcDbEntity
  8
LAY-9
  6
CONTINUOUS
 62
     1
100
AcDbVertex
100
AcDb2dVertex
 10
309.685716
 20
398.123575
 30
0.0
  0
VERTEX
  5
687
100
AcDbEntity
  8
LAY-9
  6
CONTINUOUS
 62
     1
100
AcDbVertex
100
AcDb2dVertex
 10
309.574448
 20
398.538404
 30
0.0
  0
VERTEX
  5
688
100
AcDbEntity
  8
LAY-9
  6
CONTINUOUS
 62
     1
100
AcDbVertex
100
AcDb2dVertex
 10
309.433305
 20
398.932735
 30
0.0
  0
VERTEX
  5
689
100
AcDbEntity
  8
LAY-9
  6
CONTINUOUS
 62
     1
100
AcDbVertex
100
AcDb2dVertex
 10
309.266944
 20
399.314674
 30
0.0
  0
VERTEX
  5
68A
100
AcDbEntity
  8
LAY-9
  6
CONTINUOUS
 62
     1
100
AcDbVertex
100
AcDb2dVertex
 10
309.080023
 20
399.692327
 30
0.0
  0
VERTEX
  5
68B
100
AcDbEntity
  8
LAY-9
  6
CONTINUOUS
 62
     1
100
AcDbVertex
100
AcDb2dVertex
 10
308.877198
 20
400.073799
 30
0.0
  0
VERTEX
  5
68C
100
AcDbEntity
  8
LAY-9
  6
CONTINUOUS
 62
     1
100
AcDbVertex
100
AcDb2dVertex
 10
308.663127
 20
400.467197
 30
0.0
  0
VERTEX
  5
68D
100
AcDbEntity
  8
LAY-9
  6
CONTINUOUS
 62
     1
100
AcDbVertex
100
AcDb2dVertex
 10
308.442465
 20
400.880625
 30
0.0
  0
VERTEX
  5
68E
100
AcDbEntity
  8
LAY-9
  6
CONTINUOUS
 62
     1
100
AcDbVertex
100
AcDb2dVertex
 10
308.219871
 20
401.322191
 30
0.0
  0
VERTEX
  5
68F
100
AcDbEntity
  8
LAY-9
  6
CONTINUOUS
 62
     1
100
AcDbVertex
100
AcDb2dVertex
 10
308.0
 20
401.8
 30
0.0
  0
VERTEX
  5
690
100
AcDbEntity
  8
LAY-9
  6
CONTINUOUS
 62
     1
100
AcDbVertex
100
AcDb2dVertex
 10
307.744497
 20
402.428983
 30
0.0
  0
VERTEX
  5
691
100
AcDbEntity
  8
LAY-9
  6
CONTINUOUS
 62
     1
100
AcDbVertex
100
AcDb2dVertex
 10
307.502068
 20
403.100654
 30
0.0
  0
VERTEX
  5
692
100
AcDbEntity
  8
LAY-9
  6
CONTINUOUS
 62
     1
100
AcDbVertex
100
AcDb2dVertex
 10
307.275087
 20
403.793399
 30
0.0
  0
VERTEX
  5
693
100
AcDbEntity
  8
LAY-9
  6
CONTINUOUS
 62
     1
100
AcDbVertex
100
AcDb2dVertex
 10
307.065924
 20
404.485599
 30
0.0
  0
VERTEX
  5
694
100
AcDbEntity
  8
LAY-9
  6
CONTINUOUS
 62
     1
100
AcDbVertex
100
AcDb2dVertex
 10
306.876954
 20
405.15564
 30
0.0
  0
VERTEX
  5
695
100
AcDbEntity
  8
LAY-9
  6
CONTINUOUS
 62
     1
100
AcDbVertex
100
AcDb2dVertex
 10
306.710547
 20
405.781904
 30
0.0
  0
VERTEX
  5
696
100
AcDbEntity
  8
LAY-9
  6
CONTINUOUS
 62
     1
100
AcDbVertex
100
AcDb2dVertex
 10
306.569076
 20
406.342774
 30
0.0
  0
VERTEX
  5
697
100
AcDbEntity
  8
LAY-9
  6
CONTINUOUS
 62
     1
100
AcDbVertex
100
AcDb2dVertex
 10
306.454914
 20
406.816636
 30
0.0
  0
VERTEX
  5
698
100
AcDbEntity
  8
LAY-9
  6
CONTINUOUS
 62
     1
100
AcDbVertex
100
AcDb2dVertex
 10
306.370432
 20
407.181872
 30
0.0
  0
VERTEX
  5
699
100
AcDbEntity
  8
LAY-9
  6
CONTINUOUS
 62
     1
100
AcDbVertex
100
AcDb2dVertex
 10
306.318003
 20
407.416865
 30
0.0
  0
VERTEX
  5
69A
100
AcDbEntity
  8
LAY-9
  6
CONTINUOUS
 62
     1
100
AcDbVertex
100
AcDb2dVertex
 10
306.3
 20
407.5
 30
0.0
  0
SEQEND
  5
69B
100
AcDbEntity
  8
LAY-9
  6
CONTINUOUS
 62
     1
  0
POLYLINE
  5
69C
100
AcDbEntity
  8
LAY-9
  6
CONTINUOUS
 62
     1
100
AcDb2dPolyline
 66
     1
 10
0.0
 20
0.0
 30
0.0
 70
   128
  0
VERTEX
  5
69D
100
AcDbEntity
  8
LAY-9
  6
CONTINUOUS
 62
     1
100
AcDbVertex
100
AcDb2dVertex
 10
307.0
 20
388.0
 30
0.0
  0
VERTEX
  5
69E
100
AcDbEntity
  8
LAY-9
  6
CONTINUOUS
 62
     1
100
AcDbVertex
100
AcDb2dVertex
 10
306.976458
 20
387.923996
 30
0.0
  0
VERTEX
  5
69F
100
AcDbEntity
  8
LAY-9
  6
CONTINUOUS
 62
     1
100
AcDbVertex
100
AcDb2dVertex
 10
306.911281
 20
387.708864
 30
0.0
  0
VERTEX
  5
6A0
100
AcDbEntity
  8
LAY-9
  6
CONTINUOUS
 62
     1
100
AcDbVertex
100
AcDb2dVertex
 10
306.812644
 20
387.373927
 30
0.0
  0
VERTEX
  5
6A1
100
AcDbEntity
  8
LAY-9
  6
CONTINUOUS
 62
     1
100
AcDbVertex
100
AcDb2dVertex
 10
306.688723
 20
386.938505
 30
0.0
  0
VERTEX
  5
6A2
100
AcDbEntity
  8
LAY-9
  6
CONTINUOUS
 62
     1
100
AcDbVertex
100
AcDb2dVertex
 10
306.547692
 20
386.421921
 30
0.0
  0
VERTEX
  5
6A3
100
AcDbEntity
  8
LAY-9
  6
CONTINUOUS
 62
     1
100
AcDbVertex
100
AcDb2dVertex
 10
306.397726
 20
385.843495
 30
0.0
  0
VERTEX
  5
6A4
100
AcDbEntity
  8
LAY-9
  6
CONTINUOUS
 62
     1
100
AcDbVertex
100
AcDb2dVertex
 10
306.247
 20
385.222549
 30
0.0
  0
VERTEX
  5
6A5
100
AcDbEntity
  8
LAY-9
  6
CONTINUOUS
 62
     1
100
AcDbVertex
100
AcDb2dVertex
 10
306.10369
 20
384.578406
 30
0.0
  0
VERTEX
  5
6A6
100
AcDbEntity
  8
LAY-9
  6
CONTINUOUS
 62
     1
100
AcDbVertex
100
AcDb2dVertex
 10
305.97597
 20
383.930385
 30
0.0
  0
VERTEX
  5
6A7
100
AcDbEntity
  8
LAY-9
  6
CONTINUOUS
 62
     1
100
AcDbVertex
100
AcDb2dVertex
 10
305.872015
 20
383.297809
 30
0.0
  0
VERTEX
  5
6A8
100
AcDbEntity
  8
LAY-9
  6
CONTINUOUS
 62
     1
100
AcDbVertex
100
AcDb2dVertex
 10
305.8
 20
382.7
 30
0.0
  0
VERTEX
  5
6A9
100
AcDbEntity
  8
LAY-9
  6
CONTINUOUS
 62
     1
100
AcDbVertex
100
AcDb2dVertex
 10
305.768615
 20
382.21972
 30
0.0
  0
VERTEX
  5
6AA
100
AcDbEntity
  8
LAY-9
  6
CONTINUOUS
 62
     1
100
AcDbVertex
100
AcDb2dVertex
 10
305.766591
 20
381.773275
 30
0.0
  0
VERTEX
  5
6AB
100
AcDbEntity
  8
LAY-9
  6
CONTINUOUS
 62
     1
100
AcDbVertex
100
AcDb2dVertex
 10
305.7929
 20
381.353526
 30
0.0
  0
VERTEX
  5
6AC
100
AcDbEntity
  8
LAY-9
  6
CONTINUOUS
 62
     1
100
AcDbVertex
100
AcDb2dVertex
 10
305.846514
 20
380.953336
 30
0.0
  0
VERTEX
  5
6AD
100
AcDbEntity
  8
LAY-9
  6
CONTINUOUS
 62
     1
100
AcDbVertex
100
AcDb2dVertex
 10
305.926404
 20
380.565565
 30
0.0
  0
VERTEX
  5
6AE
100
AcDbEntity
  8
LAY-9
  6
CONTINUOUS
 62
     1
100
AcDbVertex
100
AcDb2dVertex
 10
306.031544
 20
380.183075
 30
0.0
  0
VERTEX
  5
6AF
100
AcDbEntity
  8
LAY-9
  6
CONTINUOUS
 62
     1
100
AcDbVertex
100
AcDb2dVertex
 10
306.160904
 20
379.798729
 30
0.0
  0
VERTEX
  5
6B0
100
AcDbEntity
  8
LAY-9
  6
CONTINUOUS
 62
     1
100
AcDbVertex
100
AcDb2dVertex
 10
306.313458
 20
379.405386
 30
0.0
  0
VERTEX
  5
6B1
100
AcDbEntity
  8
LAY-9
  6
CONTINUOUS
 62
     1
100
AcDbVertex
100
AcDb2dVertex
 10
306.488177
 20
378.995909
 30
0.0
  0
VERTEX
  5
6B2
100
AcDbEntity
  8
LAY-9
  6
CONTINUOUS
 62
     1
100
AcDbVertex
100
AcDb2dVertex
 10
306.684034
 20
378.56316
 30
0.0
  0
VERTEX
  5
6B3
100
AcDbEntity
  8
LAY-9
  6
CONTINUOUS
 62
     1
100
AcDbVertex
100
AcDb2dVertex
 10
306.9
 20
378.1
 30
0.0
  0
VERTEX
  5
6B4
100
AcDbEntity
  8
LAY-9
  6
CONTINUOUS
 62
     1
100
AcDbVertex
100
AcDb2dVertex
 10
307.130024
 20
377.611405
 30
0.0
  0
VERTEX
  5
6B5
100
AcDbEntity
  8
LAY-9
  6
CONTINUOUS
 62
     1
100
AcDbVertex
100
AcDb2dVertex
 10
307.371482
 20
377.100906
 30
0.0
  0
VERTEX
  5
6B6
100
AcDbEntity
  8
LAY-9
  6
CONTINUOUS
 62
     1
100
AcDbVertex
100
AcDb2dVertex
 10
307.617348
 20
376.582923
 30
0.0
  0
VERTEX
  5
6B7
100
AcDbEntity
  8
LAY-9
  6
CONTINUOUS
 62
     1
100
AcDbVertex
100
AcDb2dVertex
 10
307.860599
 20
376.071875
 30
0.0
  0
VERTEX
  5
6B8
100
AcDbEntity
  8
LAY-9
  6
CONTINUOUS
 62
     1
100
AcDbVertex
100
AcDb2dVertex
 10
308.094208
 20
375.582182
 30
0.0
  0
VERTEX
  5
6B9
100
AcDbEntity
  8
LAY-9
  6
CONTINUOUS
 62
     1
100
AcDbVertex
100
AcDb2dVertex
 10
308.311152
 20
375.128265
 30
0.0
  0
VERTEX
  5
6BA
100
AcDbEntity
  8
LAY-9
  6
CONTINUOUS
 62
     1
100
AcDbVertex
100
AcDb2dVertex
 10
308.504404
 20
374.724542
 30
0.0
  0
VERTEX
  5
6BB
100
AcDbEntity
  8
LAY-9
  6
CONTINUOUS
 62
     1
100
AcDbVertex
100
AcDb2dVertex
 10
308.66694
 20
374.385435
 30
0.0
  0
VERTEX
  5
6BC
100
AcDbEntity
  8
LAY-9
  6
CONTINUOUS
 62
     1
100
AcDbVertex
100
AcDb2dVertex
 10
308.791734
 20
374.125362
 30
0.0
  0
VERTEX
  5
6BD
100
AcDbEntity
  8
LAY-9
  6
CONTINUOUS
 62
     1
100
AcDbVertex
100
AcDb2dVertex
 10
308.871763
 20
373.958744
 30
0.0
  0
VERTEX
  5
6BE
100
AcDbEntity
  8
LAY-9
  6
CONTINUOUS
 62
     1
100
AcDbVertex
100
AcDb2dVertex
 10
308.9
 20
373.9
 30
0.0
  0
SEQEND
  5
6BF
100
AcDbEntity
  8
LAY-9
  6
CONTINUOUS
 62
     1
  0
LINE
  5
6C0
100
AcDbEntity
  8
LAY-9
  6
CONTINUOUS
 62
     1
100
AcDbLine
 10
67.0
 20
259.2
 30
0.0
 11
184.3
 21
259.2
 31
0.0
  0
LINE
  5
6C1
100
AcDbEntity
  8
LAY-9
  6
CONTINUOUS
 62
     1
100
AcDbLine
 10
68.6
 20
314.9
 30
0.0
 11
68.6
 21
259.2
 31
0.0
  0
LINE
  5
6C2
100
AcDbEntity
  8
LAY-9
  6
CONTINUOUS
 62
     1
100
AcDbLine
 10
67.0
 20
314.9
 30
0.0
 11
67.0
 21
259.2
 31
0.0
  0
LINE
  5
6C3
100
AcDbEntity
  8
LAY-9
  6
DIVIDE
 62
     1
100
AcDbLine
 10
631.7
 20
93.1
 30
0.0
 11
631.7
 21
152.7
 31
0.0
  0
LINE
  5
6C4
100
AcDbEntity
  8
LAY-9
  6
CONTINUOUS
 62
     1
100
AcDbLine
 10
709.5
 20
259.2
 30
0.0
 11
741.7
 21
259.2
 31
0.0
  0
LINE
  5
6C5
100
AcDbEntity
  8
LAY-9
  6
CONTINUOUS
 62
     1
100
AcDbLine
 10
741.7
 20
259.2
 30
0.0
 11
709.5
 21
263.7
 31
0.0
  0
LINE
  5
6C6
100
AcDbEntity
  8
LAY-9
  6
CONTINUOUS
 62
     1
100
AcDbLine
 10
709.5
 20
259.2
 30
0.0
 11
741.7
 21
263.7
 31
0.0
  0
LINE
  5
6C7
100
AcDbEntity
  8
LAY-9
  6
CONTINUOUS
 62
     1
100
AcDbLine
 10
702.6
 20
314.894781
 30
0.0
 11
702.6
 21
227.2
 31
0.0
  0
LINE
  5
6C8
100
AcDbEntity
  8
LAY-9
  6
CONTINUOUS
 62
     1
100
AcDbLine
 10
744.0
 20
237.2
 30
0.0
 11
745.6
 21
237.2
 31
0.0
  0
LINE
  5
6C9
100
AcDbEntity
  8
LAY-9
  6
CONTINUOUS
 62
     1
100
AcDbLine
 10
745.6
 20
314.894781
 30
0.0
 11
745.6
 21
237.2
 31
0.0
  0
LINE
  5
6CA
100
AcDbEntity
  8
LAY-9
  6
CONTINUOUS
 62
     1
100
AcDbLine
 10
744.0
 20
237.2
 30
0.0
 11
744.0
 21
314.894781
 31
0.0
  0
LINE
  5
6CB
100
AcDbEntity
  8
LAY-9
  6
CONTINUOUS
 62
     1
100
AcDbLine
 10
705.6
 20
314.894781
 30
0.0
 11
705.6
 21
237.2
 31
0.0
  0
LINE
  5
6CC
100
AcDbEntity
  8
LAY-9
  6
CONTINUOUS
 62
     1
100
AcDbLine
 10
707.2
 20
314.894781
 30
0.0
 11
707.2
 21
237.2
 31
0.0
  0
LINE
  5
6CD
100
AcDbEntity
  8
LAY-9
  6
CONTINUOUS
 62
     1
100
AcDbLine
 10
744.0
 20
237.2
 30
0.0
 11
741.7
 21
237.2
 31
0.0
  0
LINE
  5
6CE
100
AcDbEntity
  8
LAY-9
  6
CONTINUOUS
 62
     1
100
AcDbLine
 10
741.7
 20
237.2
 30
0.0
 11
741.7
 21
263.7
 31
0.0
  0
LINE
  5
6CF
100
AcDbEntity
  8
LAY-9
  6
CONTINUOUS
 62
     1
100
AcDbLine
 10
705.6
 20
237.2
 30
0.0
 11
709.5
 21
237.2
 31
0.0
  0
LINE
  5
6D0
100
AcDbEntity
  8
LAY-9
  6
CONTINUOUS
 62
     1
100
AcDbLine
 10
709.5
 20
237.2
 30
0.0
 11
709.5
 21
263.7
 31
0.0
  0
LINE
  5
6D1
100
AcDbEntity
  8
LAY-9
  6
CONTINUOUS
 62
     1
100
AcDbLine
 10
224.0
 20
397.000078
 30
0.0
 11
205.0
 21
401.500078
 31
0.0
  0
LINE
  5
6D2
100
AcDbEntity
  8
LAY-9
  6
CONTINUOUS
 62
     1
100
AcDbLine
 10
205.0
 20
397.000078
 30
0.0
 11
224.0
 21
401.500078
 31
0.0
  0
LINE
  5
6D3
100
AcDbEntity
  8
LAY-9
  6
CONTINUOUS
 62
     1
100
AcDbLine
 10
72.999985
 20
386.4
 30
0.0
 11
68.6
 21
386.4
 31
0.0
  0
LINE
  5
6D4
100
AcDbEntity
  8
LAY-9
  6
CONTINUOUS
 62
     1
100
AcDbLine
 10
306.408085
 20
386.4
 30
0.0
 11
224.0
 21
386.4
 31
0.0
  0
LINE
  5
6D5
100
AcDbEntity
  8
LAY-9
  6
CONTINUOUS
 62
     1
100
AcDbLine
 10
309.181541
 20
392.6
 30
0.0
 11
224.0
 21
392.6
 31
0.0
  0
LINE
  5
6D6
100
AcDbEntity
  8
LAY-9
  6
CONTINUOUS
 62
     1
100
AcDbLine
 10
702.6
 20
392.6001
 30
0.0
 11
702.6
 21
453.8001
 31
0.0
  0
LINE
  5
6D7
100
AcDbEntity
  8
LAY-9
  6
CONTINUOUS
 62
     1
100
AcDbLine
 10
704.2
 20
453.8001
 30
0.0
 11
704.2
 21
392.6001
 31
0.0
  0
LINE
  5
6D8
100
AcDbEntity
  8
LAY-9
  6
CONTINUOUS
 62
     1
100
AcDbLine
 10
707.2
 20
388.0001
 30
0.0
 11
744.0
 21
388.0001
 31
0.0
  0
LINE
  5
6D9
100
AcDbEntity
  8
LAY-9
  6
CONTINUOUS
 62
     1
100
AcDbLine
 10
709.5
 20
384.1001
 30
0.0
 11
709.5
 21
371.4001
 31
0.0
  0
LINE
  5
6DA
100
AcDbEntity
  8
LAY-9
  6
CONTINUOUS
 62
     1
100
AcDbLine
 10
741.7
 20
371.4001
 30
0.0
 11
741.7
 21
384.1001
 31
0.0
  0
LINE
  5
6DB
100
AcDbEntity
  8
LAY-9
  6
CONTINUOUS
 62
     1
100
AcDbLine
 10
709.5
 20
371.4001
 30
0.0
 11
707.2
 21
371.4001
 31
0.0
  0
LINE
  5
6DC
100
AcDbEntity
  8
LAY-9
  6
CONTINUOUS
 62
     1
100
AcDbLine
 10
741.7
 20
371.4001
 30
0.0
 11
744.0
 21
371.4001
 31
0.0
  0
ARC
  5
6DD
100
AcDbEntity
  8
LAY-9
  6
CONTINUOUS
 62
     1
100
AcDbCircle
 10
707.2
 20
386.4001
 30
0.0
 40
1.6
100
AcDbArc
 50
90.0
 51
180.0
  0
ARC
  5
6DE
100
AcDbEntity
  8
LAY-9
  6
CONTINUOUS
 62
     1
100
AcDbCircle
 10
744.0
 20
386.4001
 30
0.0
 40
1.6
100
AcDbArc
 50
0.0
 51
90.0
  0
ARC
  5
6DF
100
AcDbEntity
  8
LAY-9
  6
CONTINUOUS
 62
     1
100
AcDbCircle
 10
704.2
 20
392.6001
 30
0.0
 40
1.6
100
AcDbArc
 50
180.0
 51
270.0
  0
ARC
  5
6E0
100
AcDbEntity
  8
LAY-9
  6
CONTINUOUS
 62
     1
100
AcDbCircle
 10
709.5
 20
384.1001
 30
0.0
 40
2.3
100
AcDbArc
 50
90.0
 51
180.0
  0
ARC
  5
6E1
100
AcDbEntity
  8
LAY-9
  6
CONTINUOUS
 62
     1
100
AcDbCircle
 10
741.7
 20
384.1001
 30
0.0
 40
2.3
100
AcDbArc
 50
0.0
 51
90.0
  0
LINE
  5
6E2
100
AcDbEntity
  8
LAY-9
  6
CONTINUOUS
 62
     1
100
AcDbLine
 10
704.2
 20
392.6001
 30
0.0
 11
709.6
 21
392.6001
 31
0.0
  0
LINE
  5
6E3
100
AcDbEntity
  8
LAY-9
  6
CONTINUOUS
 62
     1
100
AcDbLine
 10
744.0
 20
386.4001
 30
0.0
 11
741.6
 21
386.4001
 31
0.0
  0
LINE
  5
6E4
100
AcDbEntity
  8
LAY-9
  6
CONTINUOUS
 62
     1
100
AcDbLine
 10
709.6
 20
386.4001
 30
0.0
 11
707.2
 21
386.4001
 31
0.0
  0
LINE
  5
6E5
100
AcDbEntity
  8
LAY-9
  6
CONTINUOUS
 62
     1
100
AcDbLine
 10
741.7
 20
384.1001
 30
0.0
 11
741.6
 21
384.1001
 31
0.0
  0
LINE
  5
6E6
100
AcDbEntity
  8
LAY-9
  6
CONTINUOUS
 62
     1
100
AcDbLine
 10
709.6
 20
384.1001
 30
0.0
 11
709.5
 21
384.1001
 31
0.0
  0
LINE
  5
6E7
100
AcDbEntity
  8
LAY-9
  6
CONTINUOUS
 62
     1
100
AcDbLine
 10
709.5
 20
382.0001
 30
0.0
 11
741.7
 21
382.0001
 31
0.0
  0
LINE
  5
6E8
100
AcDbEntity
  8
LAY-9
  6
CONTINUOUS
 62
     1
100
AcDbLine
 10
705.6
 20
386.4001
 30
0.0
 11
705.6
 21
324.994881
 31
0.0
  0
LINE
  5
6E9
100
AcDbEntity
  8
LAY-9
  6
CONTINUOUS
 62
     1
100
AcDbLine
 10
745.6
 20
386.4001
 30
0.0
 11
745.6
 21
324.994881
 31
0.0
  0
LINE
  5
6EA
100
AcDbEntity
  8
LAY-9
  6
CONTINUOUS
 62
     1
100
AcDbLine
 10
707.2
 20
386.4001
 30
0.0
 11
707.2
 21
324.994881
 31
0.0
  0
LINE
  5
6EB
100
AcDbEntity
  8
LAY-9
  6
CONTINUOUS
 62
     1
100
AcDbLine
 10
744.0
 20
324.994881
 30
0.0
 11
744.0
 21
386.4001
 31
0.0
  0
LINE
  5
6EC
100
AcDbEntity
  8
LAY-9
  6
CONTINUOUS
 62
     1
100
AcDbLine
 10
702.6
 20
392.6001
 30
0.0
 11
702.6
 21
324.994881
 31
0.0
  0
LINE
  5
6ED
100
AcDbEntity
  8
LAY-9
  6
CONTINUOUS
 62
     1
100
AcDbLine
 10
709.6
 20
397.000163
 30
0.0
 11
704.2
 21
397.000163
 31
0.0
  0
LINE
  5
6EE
100
AcDbEntity
  8
LAY-9
  6
CONTINUOUS
 62
     1
100
AcDbLine
 10
704.2
 20
401.500163
 30
0.0
 11
716.1
 21
401.500163
 31
0.0
  0
LINE
  5
6EF
100
AcDbEntity
  8
LAY-9
  6
CONTINUOUS
 62
     1
100
AcDbLine
 10
709.5
 20
377.5001
 30
0.0
 11
716.85
 21
377.5001
 31
0.0
  0
LINE
  5
6F0
100
AcDbEntity
  8
LAY-9
  6
CONTINUOUS
 62
     1
100
AcDbLine
 10
741.7
 20
377.5001
 30
0.0
 11
734.35
 21
377.5001
 31
0.0
  0
LINE
  5
6F1
100
AcDbEntity
  8
LAY-9
  6
CONTINUOUS
 62
     1
100
AcDbLine
 10
68.6
 20
140.4
 30
0.0
 11
68.6
 21
137.0
 31
0.0
  0
LINE
  5
6F2
100
AcDbEntity
  8
LAY-9
  6
CONTINUOUS
 62
     1
100
AcDbLine
 10
70.2
 20
138.8
 30
0.0
 11
70.2
 21
136.966964
 31
0.0
  0
LINE
  5
6F3
100
AcDbEntity
  8
LAY-9
  6
CONTINUOUS
 62
     1
100
AcDbLine
 10
70.2
 20
105.2
 30
0.0
 11
88.6
 21
105.2
 31
0.0
  0
LINE
  5
6F4
100
AcDbEntity
  8
LAY-9
  6
CONTINUOUS
 62
     1
100
AcDbLine
 10
88.6
 20
138.8
 30
0.0
 11
70.2
 21
138.8
 31
0.0
  0
ARC
  5
6F5
100
AcDbEntity
  8
LAY-9
  6
CONTINUOUS
 62
     1
100
AcDbCircle
 10
70.2
 20
105.2
 30
0.0
 40
1.6
100
AcDbArc
 50
180.0
 51
270.0
  0
ARC
  5
6F6
100
AcDbEntity
  8
LAY-9
  6
CONTINUOUS
 62
     1
100
AcDbCircle
 10
68.6
 20
103.6
 30
0.0
 40
1.6
100
AcDbArc
 50
180.0
 51
270.0
  0
LINE
  5
6F7
100
AcDbEntity
  8
LAY-9
  6
CONTINUOUS
 62
     1
100
AcDbLine
 10
88.6
 20
103.6
 30
0.0
 11
88.6
 21
105.2
 31
0.0
  0
LINE
  5
6F8
100
AcDbEntity
  8
LAY-9
  6
CONTINUOUS
 62
     1
100
AcDbLine
 10
88.6
 20
138.8
 30
0.0
 11
88.6
 21
140.4
 31
0.0
  0
ARC
  5
6F9
100
AcDbEntity
  8
LAY-9
  6
CONTINUOUS
 62
     1
100
AcDbCircle
 10
70.2
 20
138.8
 30
0.0
 40
1.6
100
AcDbArc
 50
90.0
 51
180.0
  0
ARC
  5
6FA
100
AcDbEntity
  8
LAY-9
  6
CONTINUOUS
 62
     1
100
AcDbCircle
 10
68.6
 20
140.4
 30
0.0
 40
1.6
100
AcDbArc
 50
90.0
 51
180.0
  0
LINE
  5
6FB
100
AcDbEntity
  8
LAY-9
  6
CONTINUOUS
 62
     1
100
AcDbLine
 10
68.6
 20
107.0
 30
0.0
 11
68.6
 21
103.6
 31
0.0
  0
LINE
  5
6FC
100
AcDbEntity
  8
LAY-9
  6
CONTINUOUS
 62
     1
100
AcDbLine
 10
70.2
 20
107.033036
 30
0.0
 11
70.2
 21
105.2
 31
0.0
  0
LINE
  5
6FD
100
AcDbEntity
  8
LAY-9
  6
CONTINUOUS
 62
     1
100
AcDbLine
 10
68.6
 20
103.6
 30
0.0
 11
302.1
 21
103.6
 31
0.0
  0
LINE
  5
6FE
100
AcDbEntity
  8
LAY-9
  6
CONTINUOUS
 62
     1
100
AcDbLine
 10
302.1
 20
140.4
 30
0.0
 11
68.6
 21
140.4
 31
0.0
  0
LINE
  5
6FF
100
AcDbEntity
  8
LAY-9
  6
CONTINUOUS
 62
     1
100
AcDbLine
 10
68.6
 20
102.0
 30
0.0
 11
302.1
 21
102.0
 31
0.0
  0
LINE
  5
700
100
AcDbEntity
  8
LAY-9
  6
CONTINUOUS
 62
     1
100
AcDbLine
 10
68.6
 20
142.0
 30
0.0
 11
302.1
 21
142.0
 31
0.0
  0
LINE
  5
701
100
AcDbEntity
  8
LAY-9
  6
DIVIDE
 62
     1
100
AcDbLine
 10
302.1
 20
82.1
 30
0.0
 11
302.1
 21
152.7
 31
0.0
  0
LINE
  5
702
100
AcDbEntity
  8
LAY-9
  6
CONTINUOUS
 62
     1
100
AcDbLine
 10
67.0
 20
140.4
 30
0.0
 11
67.0
 21
136.0
 31
0.0
  0
LINE
  5
703
100
AcDbEntity
  8
LAY-9
  6
CONTINUOUS
 62
     1
100
AcDbLine
 10
67.0
 20
108.0
 30
0.0
 11
67.0
 21
103.6
 31
0.0
  0
LINE
  5
704
100
AcDbEntity
  8
LAY-9
  6
CONTINUOUS
 62
     1
100
AcDbLine
 10
396.6
 20
140.4
 30
0.0
 11
396.6
 21
137.0
 31
0.0
  0
LINE
  5
705
100
AcDbEntity
  8
LAY-9
  6
CONTINUOUS
 62
     1
100
AcDbLine
 10
398.2
 20
138.8
 30
0.0
 11
398.2
 21
136.966964
 31
0.0
  0
LINE
  5
706
100
AcDbEntity
  8
LAY-9
  6
CONTINUOUS
 62
     1
100
AcDbLine
 10
398.2
 20
105.2
 30
0.0
 11
416.6
 21
105.2
 31
0.0
  0
LINE
  5
707
100
AcDbEntity
  8
LAY-9
  6
CONTINUOUS
 62
     1
100
AcDbLine
 10
416.6
 20
138.8
 30
0.0
 11
398.2
 21
138.8
 31
0.0
  0
ARC
  5
708
100
AcDbEntity
  8
LAY-9
  6
CONTINUOUS
 62
     1
100
AcDbCircle
 10
398.2
 20
105.2
 30
0.0
 40
1.6
100
AcDbArc
 50
180.0
 51
270.0
  0
ARC
  5
709
100
AcDbEntity
  8
LAY-9
  6
CONTINUOUS
 62
     1
100
AcDbCircle
 10
396.6
 20
103.6
 30
0.0
 40
1.6
100
AcDbArc
 50
180.0
 51
270.0
  0
LINE
  5
70A
100
AcDbEntity
  8
LAY-9
  6
CONTINUOUS
 62
     1
100
AcDbLine
 10
416.6
 20
103.6
 30
0.0
 11
416.6
 21
105.2
 31
0.0
  0
LINE
  5
70B
100
AcDbEntity
  8
LAY-9
  6
CONTINUOUS
 62
     1
100
AcDbLine
 10
416.6
 20
138.8
 30
0.0
 11
416.6
 21
140.4
 31
0.0
  0
ARC
  5
70C
100
AcDbEntity
  8
LAY-9
  6
CONTINUOUS
 62
     1
100
AcDbCircle
 10
398.2
 20
138.8
 30
0.0
 40
1.6
100
AcDbArc
 50
90.0
 51
180.0
  0
ARC
  5
70D
100
AcDbEntity
  8
LAY-9
  6
CONTINUOUS
 62
     1
100
AcDbCircle
 10
396.6
 20
140.4
 30
0.0
 40
1.6
100
AcDbArc
 50
90.0
 51
180.0
  0
LINE
  5
70E
100
AcDbEntity
  8
LAY-9
  6
CONTINUOUS
 62
     1
100
AcDbLine
 10
396.6
 20
103.6
 30
0.0
 11
631.7
 21
103.6
 31
0.0
  0
LINE
  5
70F
100
AcDbEntity
  8
LAY-9
  6
CONTINUOUS
 62
     1
100
AcDbLine
 10
631.7
 20
140.4
 30
0.0
 11
396.6
 21
140.4
 31
0.0
  0
LINE
  5
710
100
AcDbEntity
  8
LAY-9
  6
CONTINUOUS
 62
     1
100
AcDbLine
 10
396.6
 20
102.0
 30
0.0
 11
631.7
 21
102.0
 31
0.0
  0
LINE
  5
711
100
AcDbEntity
  8
LAY-9
  6
CONTINUOUS
 62
     1
100
AcDbLine
 10
396.6
 20
142.0
 30
0.0
 11
631.7
 21
142.0
 31
0.0
  0
LINE
  5
712
100
AcDbEntity
  8
LAY-9
  6
CONTINUOUS
 62
     1
100
AcDbLine
 10
396.6
 20
107.0
 30
0.0
 11
396.6
 21
103.6
 31
0.0
  0
LINE
  5
713
100
AcDbEntity
  8
LAY-9
  6
CONTINUOUS
 62
     1
100
AcDbLine
 10
398.2
 20
105.2
 30
0.0
 11
398.2
 21
107.0
 31
0.0
  0
LINE
  5
714
100
AcDbEntity
  8
LAY-9
  6
CONTINUOUS
 62
     1
100
AcDbLine
 10
395.0
 20
140.4
 30
0.0
 11
395.0
 21
136.0
 31
0.0
  0
LINE
  5
715
100
AcDbEntity
  8
LAY-9
  6
CONTINUOUS
 62
     1
100
AcDbLine
 10
395.0
 20
108.0
 30
0.0
 11
395.0
 21
103.6
 31
0.0
  0
LINE
  5
716
100
AcDbEntity
  8
LAY-9
  6
CONTINUOUS
 62
     1
100
AcDbLine
 10
119.0
 20
95.4
 30
0.0
 11
119.0
 21
65.9
 31
0.0
  0
ARC
  5
717
100
AcDbEntity
  8
LAY-9
  6
CONTINUOUS
 62
     1
100
AcDbCircle
 10
117.4
 20
95.4
 30
0.0
 40
1.6
100
AcDbArc
 50
0.0
 51
135.0
  0
LINE
  5
718
100
AcDbEntity
  8
LAY-9
  6
CONTINUOUS
 62
     1
100
AcDbLine
 10
117.4
 20
95.4
 30
0.0
 11
117.4
 21
82.4
 31
0.0
  0
LINE
  5
719
100
AcDbEntity
  8
LAY-9
  6
CONTINUOUS
 62
     1
100
AcDbLine
 10
117.4
 20
95.4
 30
0.0
 11
104.0
 21
82.0
 31
0.0
  0
LINE
  5
71A
100
AcDbEntity
  8
LAY-9
  6
CONTINUOUS
 62
     1
100
AcDbLine
 10
102.868629
 20
83.131371
 30
0.0
 11
116.268629
 21
96.531371
 31
0.0
  0
LINE
  5
71B
100
AcDbEntity
  8
LAY-9
  6
CONTINUOUS
 62
     1
100
AcDbLine
 10
104.0
 20
82.0
 30
0.0
 11
102.868629
 21
83.131371
 31
0.0
  0
LINE
  5
71C
100
AcDbEntity
  8
LAY-9
  6
CONTINUOUS
 62
     1
100
AcDbLine
 10
117.4
 20
82.4
 30
0.0
 11
117.4
 21
65.9
 31
0.0
  0
LINE
  5
71D
100
AcDbEntity
  8
LAY-9
  6
CONTINUOUS
 62
     1
100
AcDbLine
 10
115.8
 20
80.4
 30
0.0
 11
115.8
 21
65.9
 31
0.0
  0
ARC
  5
71E
100
AcDbEntity
  8
LAY-9
  6
CONTINUOUS
 62
     1
100
AcDbCircle
 10
115.8
 20
80.4
 30
0.0
 40
1.6
100
AcDbArc
 50
0.0
 51
90.0
  0
ARC
  5
71F
100
AcDbEntity
  8
LAY-9
  6
CONTINUOUS
 62
     1
100
AcDbCircle
 10
49.0
 20
82.0
 30
0.0
 40
1.6
100
AcDbArc
 50
180.0
 51
270.0
  0
LINE
  5
720
100
AcDbEntity
  8
LAY-9
  6
CONTINUOUS
 62
     1
100
AcDbLine
 10
115.8
 20
80.4
 30
0.0
 11
49.0
 21
80.4
 31
0.0
  0
LINE
  5
721
100
AcDbEntity
  8
LAY-9
  6
CONTINUOUS
 62
     1
100
AcDbLine
 10
115.8
 20
82.0
 30
0.0
 11
49.0
 21
82.0
 31
0.0
  0
LINE
  5
722
100
AcDbEntity
  8
LAY-9
  6
CONTINUOUS
 62
     1
100
AcDbLine
 10
447.0
 20
95.4
 30
0.0
 11
447.0
 21
65.9
 31
0.0
  0
ARC
  5
723
100
AcDbEntity
  8
LAY-9
  6
CONTINUOUS
 62
     1
100
AcDbCircle
 10
445.4
 20
95.4
 30
0.0
 40
1.6
100
AcDbArc
 50
0.0
 51
135.0
  0
LINE
  5
724
100
AcDbEntity
  8
LAY-9
  6
CONTINUOUS
 62
     1
100
AcDbLine
 10
445.4
 20
95.4
 30
0.0
 11
445.4
 21
82.4
 31
0.0
  0
LINE
  5
725
100
AcDbEntity
  8
LAY-9
  6
CONTINUOUS
 62
     1
100
AcDbLine
 10
445.4
 20
95.4
 30
0.0
 11
432.0
 21
82.0
 31
0.0
  0
LINE
  5
726
100
AcDbEntity
  8
LAY-9
  6
CONTINUOUS
 62
     1
100
AcDbLine
 10
430.868629
 20
83.131371
 30
0.0
 11
444.268629
 21
96.531371
 31
0.0
  0
LINE
  5
727
100
AcDbEntity
  8
LAY-9
  6
CONTINUOUS
 62
     1
100
AcDbLine
 10
432.0
 20
82.0
 30
0.0
 11
430.868629
 21
83.131371
 31
0.0
  0
LINE
  5
728
100
AcDbEntity
  8
LAY-9
  6
CONTINUOUS
 62
     1
100
AcDbLine
 10
445.4
 20
82.4
 30
0.0
 11
445.4
 21
65.9
 31
0.0
  0
ARC
  5
729
100
AcDbEntity
  8
LAY-9
  6
CONTINUOUS
 62
     1
100
AcDbCircle
 10
443.8
 20
80.4
 30
0.0
 40
1.6
100
AcDbArc
 50
0.0
 51
90.0
  0
ARC
  5
72A
100
AcDbEntity
  8
LAY-9
  6
CONTINUOUS
 62
     1
100
AcDbCircle
 10
388.6
 20
95.4
 30
0.0
 40
1.6
100
AcDbArc
 50
45.0
 51
180.0
  0
LINE
  5
72B
100
AcDbEntity
  8
LAY-9
  6
CONTINUOUS
 62
     1
100
AcDbLine
 10
388.6
 20
95.4
 30
0.0
 11
388.6
 21
82.4
 31
0.0
  0
LINE
  5
72C
100
AcDbEntity
  8
LAY-9
  6
CONTINUOUS
 62
     1
100
AcDbLine
 10
387.0
 20
95.4
 30
0.0
 11
387.0
 21
65.9
 31
0.0
  0
LINE
  5
72D
100
AcDbEntity
  8
LAY-9
  6
CONTINUOUS
 62
     1
100
AcDbLine
 10
388.6
 20
82.4
 30
0.0
 11
388.6
 21
65.9
 31
0.0
  0
LINE
  5
72E
100
AcDbEntity
  8
LAY-9
  6
CONTINUOUS
 62
     1
100
AcDbLine
 10
388.6
 20
95.4
 30
0.0
 11
403.6
 21
80.4
 31
0.0
  0
LINE
  5
72F
100
AcDbEntity
  8
LAY-9
  6
CONTINUOUS
 62
     1
100
AcDbLine
 10
443.8
 20
82.0
 30
0.0
 11
404.262742
 21
82.0
 31
0.0
  0
LINE
  5
730
100
AcDbEntity
  8
LAY-9
  6
CONTINUOUS
 62
     1
100
AcDbLine
 10
443.8
 20
80.4
 30
0.0
 11
403.6
 21
80.4
 31
0.0
  0
LINE
  5
731
100
AcDbEntity
  8
LAY-9
  6
CONTINUOUS
 62
     1
100
AcDbLine
 10
404.262742
 20
82.0
 30
0.0
 11
389.731371
 21
96.531371
 31
0.0
  0
LINE
  5
732
100
AcDbEntity
  8
LAY-9
  6
CONTINUOUS
 62
     1
100
AcDbLine
 10
443.8
 20
72.0
 30
0.0
 11
445.4
 21
72.0
 31
0.0
  0
LINE
  5
733
100
AcDbEntity
  8
LAY-9
  6
CONTINUOUS
 62
     1
100
AcDbLine
 10
443.8
 20
80.4
 30
0.0
 11
443.8
 21
72.0
 31
0.0
  0
ARC
  5
734
100
AcDbEntity
  8
LAY-9
  6
CONTINUOUS
 62
     1
100
AcDbCircle
 10
62.4
 20
143.4
 30
0.0
 40
1.6
100
AcDbArc
 50
315.0
 51
90.0
  0
LINE
  5
735
100
AcDbEntity
  8
LAY-9
  6
CONTINUOUS
 62
     1
100
AcDbLine
 10
62.4
 20
143.4
 30
0.0
 11
49.4
 21
143.4
 31
0.0
  0
LINE
  5
736
100
AcDbEntity
  8
LAY-9
  6
CONTINUOUS
 62
     1
100
AcDbLine
 10
62.4
 20
143.4
 30
0.0
 11
49.0
 21
130.0
 31
0.0
  0
LINE
  5
737
100
AcDbEntity
  8
LAY-9
  6
CONTINUOUS
 62
     1
100
AcDbLine
 10
50.131371
 20
128.868629
 30
0.0
 11
63.531371
 21
142.268629
 31
0.0
  0
LINE
  5
738
100
AcDbEntity
  8
LAY-9
  6
CONTINUOUS
 62
     1
100
AcDbLine
 10
49.0
 20
130.0
 30
0.0
 11
50.131371
 21
128.868629
 31
0.0
  0
LINE
  5
739
100
AcDbEntity
  8
LAY-9
  6
CONTINUOUS
 62
     1
100
AcDbLine
 10
62.4
 20
145.0
 30
0.0
 11
32.9
 21
145.0
 31
0.0
  0
LINE
  5
73A
100
AcDbEntity
  8
LAY-9
  6
CONTINUOUS
 62
     1
100
AcDbLine
 10
49.4
 20
143.4
 30
0.0
 11
32.9
 21
143.4
 31
0.0
  0
LINE
  5
73B
100
AcDbEntity
  8
LAY-9
  6
CONTINUOUS
 62
     1
100
AcDbLine
 10
47.4
 20
143.4
 30
0.0
 11
47.4
 21
82.0
 31
0.0
  0
LINE
  5
73C
100
AcDbEntity
  8
LAY-9
  6
CONTINUOUS
 62
     1
100
AcDbLine
 10
49.0
 20
143.4
 30
0.0
 11
49.0
 21
82.0
 31
0.0
  0
LINE
  5
73D
100
AcDbEntity
  8
LAY-9
  6
CONTINUOUS
 62
     1
100
AcDbLine
 10
367.0
 20
237.2
 30
0.0
 11
425.9
 21
237.2
 31
0.0
  0
LINE
  5
73E
100
AcDbEntity
  8
LAY-9
  6
CONTINUOUS
 62
     1
100
AcDbLine
 10
367.0
 20
259.2
 30
0.0
 11
424.721164
 21
259.2
 31
0.0
  0
POLYLINE
  5
73F
100
AcDbEntity
  8
LAY-9
  6
CONTINUOUS
 62
     1
100
AcDb2dPolyline
 66
     1
 10
0.0
 20
0.0
 30
0.0
 70
   128
  0
VERTEX
  5
740
100
AcDbEntity
  8
LAY-9
  6
CONTINUOUS
 62
     1
100
AcDbVertex
100
AcDb2dVertex
 10
425.9
 20
237.2
 30
0.0
  0
VERTEX
  5
741
100
AcDbEntity
  8
LAY-9
  6
CONTINUOUS
 62
     1
100
AcDbVertex
100
AcDb2dVertex
 10
425.780915
 20
237.440252
 30
0.0
  0
VERTEX
  5
742
100
AcDbEntity
  8
LAY-9
  6
CONTINUOUS
 62
     1
100
AcDbVertex
100
AcDb2dVertex
 10
425.457741
 20
238.11879
 30
0.0
  0
VERTEX
  5
743
100
AcDbEntity
  8
LAY-9
  6
CONTINUOUS
 62
     1
100
AcDbVertex
100
AcDb2dVertex
 10
424.981597
 20
239.172291
 30
0.0
  0
VERTEX
  5
744
100
AcDbEntity
  8
LAY-9
  6
CONTINUOUS
 62
     1
100
AcDbVertex
100
AcDb2dVertex
 10
424.403605
 20
240.53743
 30
0.0
  0
VERTEX
  5
745
100
AcDbEntity
  8
LAY-9
  6
CONTINUOUS
 62
     1
100
AcDbVertex
100
AcDb2dVertex
 10
423.774884
 20
242.150882
 30
0.0
  0
VERTEX
  5
746
100
AcDbEntity
  8
LAY-9
  6
CONTINUOUS
 62
     1
100
AcDbVertex
100
AcDb2dVertex
 10
423.146555
 20
243.949323
 30
0.0
  0
VERTEX
  5
747
100
AcDbEntity
  8
LAY-9
  6
CONTINUOUS
 62
     1
100
AcDbVertex
100
AcDb2dVertex
 10
422.569738
 20
245.869428
 30
0.0
  0
VERTEX
  5
748
100
AcDbEntity
  8
LAY-9
  6
CONTINUOUS
 62
     1
100
AcDbVertex
100
AcDb2dVertex
 10
422.095554
 20
247.847872
 30
0.0
  0
VERTEX
  5
749
100
AcDbEntity
  8
LAY-9
  6
CONTINUOUS
 62
     1
100
AcDbVertex
100
AcDb2dVertex
 10
421.775122
 20
249.821332
 30
0.0
  0
VERTEX
  5
74A
100
AcDbEntity
  8
LAY-9
  6
CONTINUOUS
 62
     1
100
AcDbVertex
100
AcDb2dVertex
 10
421.659564
 20
251.726483
 30
0.0
  0
VERTEX
  5
74B
100
AcDbEntity
  8
LAY-9
  6
CONTINUOUS
 62
     1
100
AcDbVertex
100
AcDb2dVertex
 10
421.8
 20
253.5
 30
0.0
  0
VERTEX
  5
74C
100
AcDbEntity
  8
LAY-9
  6
CONTINUOUS
 62
     1
100
AcDbVertex
100
AcDb2dVertex
 10
422.185528
 20
254.980085
 30
0.0
  0
VERTEX
  5
74D
100
AcDbEntity
  8
LAY-9
  6
CONTINUOUS
 62
     1
100
AcDbVertex
100
AcDb2dVertex
 10
422.777873
 20
256.325486
 30
0.0
  0
VERTEX
  5
74E
100
AcDbEntity
  8
LAY-9
  6
CONTINUOUS
 62
     1
100
AcDbVertex
100
AcDb2dVertex
 10
423.521788
 20
257.567881
 30
0.0
  0
VERTEX
  5
74F
100
AcDbEntity
  8
LAY-9
  6
CONTINUOUS
 62
     1
100
AcDbVertex
100
AcDb2dVertex
 10
424.362026
 20
258.738946
 30
0.0
  0
VERTEX
  5
750
100
AcDbEntity
  8
LAY-9
  6
CONTINUOUS
 62
     1
100
AcDbVertex
100
AcDb2dVertex
 10
425.243339
 20
259.870358
 30
0.0
  0
VERTEX
  5
751
100
AcDbEntity
  8
LAY-9
  6
CONTINUOUS
 62
     1
100
AcDbVertex
100
AcDb2dVertex
 10
426.110482
 20
260.993793
 30
0.0
  0
VERTEX
  5
752
100
AcDbEntity
  8
LAY-9
  6
CONTINUOUS
 62
     1
100
AcDbVertex
100
AcDb2dVertex
 10
426.908208
 20
262.140928
 30
0.0
  0
VERTEX
  5
753
100
AcDbEntity
  8
LAY-9
  6
CONTINUOUS
 62
     1
100
AcDbVertex
100
AcDb2dVertex
 10
427.581269
 20
263.343439
 30
0.0
  0
VERTEX
  5
754
100
AcDbEntity
  8
LAY-9
  6
CONTINUOUS
 62
     1
100
AcDbVertex
100
AcDb2dVertex
 10
428.07442
 20
264.633004
 30
0.0
  0
VERTEX
  5
755
100
AcDbEntity
  8
LAY-9
  6
CONTINUOUS
 62
     1
100
AcDbVertex
100
AcDb2dVertex
 10
428.332412
 20
266.041299
 30
0.0
  0
VERTEX
  5
756
100
AcDbEntity
  8
LAY-9
  6
CONTINUOUS
 62
     1
100
AcDbVertex
100
AcDb2dVertex
 10
428.3
 20
267.6
 30
0.0
  0
VERTEX
  5
757
100
AcDbEntity
  8
LAY-9
  6
CONTINUOUS
 62
     1
100
AcDbVertex
100
AcDb2dVertex
 10
428.111321
 20
268.67183
 30
0.0
  0
VERTEX
  5
758
100
AcDbEntity
  8
LAY-9
  6
CONTINUOUS
 62
     1
100
AcDbVertex
100
AcDb2dVertex
 10
427.81148
 20
269.7861
 30
0.0
  0
VERTEX
  5
759
100
AcDbEntity
  8
LAY-9
  6
CONTINUOUS
 62
     1
100
AcDbVertex
100
AcDb2dVertex
 10
427.427686
 20
270.91236
 30
0.0
  0
VERTEX
  5
75A
100
AcDbEntity
  8
LAY-9
  6
CONTINUOUS
 62
     1
100
AcDbVertex
100
AcDb2dVertex
 10
426.987147
 20
272.020159
 30
0.0
  0
VERTEX
  5
75B
100
AcDbEntity
  8
LAY-9
  6
CONTINUOUS
 62
     1
100
AcDbVertex
100
AcDb2dVertex
 10
426.517072
 20
273.079046
 30
0.0
  0
VERTEX
  5
75C
100
AcDbEntity
  8
LAY-9
  6
CONTINUOUS
 62
     1
100
AcDbVertex
100
AcDb2dVertex
 10
426.044667
 20
274.058571
 30
0.0
  0
VERTEX
  5
75D
100
AcDbEntity
  8
LAY-9
  6
CONTINUOUS
 62
     1
100
AcDbVertex
100
AcDb2dVertex
 10
425.597142
 20
274.928284
 30
0.0
  0
VERTEX
  5
75E
100
AcDbEntity
  8
LAY-9
  6
CONTINUOUS
 62
     1
100
AcDbVertex
100
AcDb2dVertex
 10
425.201705
 20
275.657734
 30
0.0
  0
VERTEX
  5
75F
100
AcDbEntity
  8
LAY-9
  6
CONTINUOUS
 62
     1
100
AcDbVertex
100
AcDb2dVertex
 10
424.885563
 20
276.21647
 30
0.0
  0
VERTEX
  5
760
100
AcDbEntity
  8
LAY-9
  6
CONTINUOUS
 62
     1
100
AcDbVertex
100
AcDb2dVertex
 10
424.675925
 20
276.574043
 30
0.0
  0
VERTEX
  5
761
100
AcDbEntity
  8
LAY-9
  6
CONTINUOUS
 62
     1
100
AcDbVertex
100
AcDb2dVertex
 10
424.6
 20
276.7
 30
0.0
  0
SEQEND
  5
762
100
AcDbEntity
  8
LAY-9
  6
CONTINUOUS
 62
     1
  0
LINE
  5
763
100
AcDbEntity
  8
LAY-9
  6
CONTINUOUS
 62
     1
100
AcDbLine
 10
68.6
 20
266.0
 30
0.0
 11
428.324846
 21
266.0
 31
0.0
  0
LINE
  5
764
100
AcDbEntity
  8
LAY-9
  6
CONTINUOUS
 62
     1
100
AcDbLine
 10
68.6
 20
263.7
 30
0.0
 11
427.717624
 21
263.7
 31
0.0
  0
LINE
  5
765
100
AcDbEntity
  8
LAY-9
  6
CONTINUOUS
 62
     1
100
AcDbLine
 10
49.0
 20
391.0
 30
0.0
 11
308.5
 21
391.0
 31
0.0
  0
LINE
  5
766
100
AcDbEntity
  8
LAY-9
  6
CONTINUOUS
 62
     1
100
AcDbLine
 10
49.0
 20
391.0
 30
0.0
 11
49.0
 21
324.9
 31
0.0
  0
LINE
  5
767
100
AcDbEntity
  8
LAY-9
  6
CONTINUOUS
 62
     1
100
AcDbLine
 10
47.4
 20
392.6
 30
0.0
 11
47.4
 21
324.9
 31
0.0
  0
LINE
  5
768
100
AcDbEntity
  8
LAY-9
  6
DIVIDE
 62
     1
100
AcDbLine
 10
36.4
 20
324.9
 30
0.0
 11
83.6
 21
324.9
 31
0.0
  0
LINE
  5
769
100
AcDbEntity
  8
LAY-9
  6
DIVIDE
 62
     1
100
AcDbLine
 10
36.4
 20
314.9
 30
0.0
 11
83.6
 21
314.9
 31
0.0
  0
LINE
  5
76A
100
AcDbEntity
  8
LAY-9
  6
CONTINUOUS
 62
     1
100
AcDbLine
 10
49.0
 20
314.9
 30
0.0
 11
49.0
 21
212.2
 31
0.0
  0
LINE
  5
76B
100
AcDbEntity
  8
LAY-9
  6
CONTINUOUS
 62
     1
100
AcDbLine
 10
47.4
 20
314.9
 30
0.0
 11
47.4
 21
212.2
 31
0.0
  0
LINE
  5
76C
100
AcDbEntity
  8
LAY-9
  6
CONTINUOUS
 62
     1
100
AcDbLine
 10
47.4
 20
212.2
 30
0.0
 11
49.0
 21
212.2
 31
0.0
  0
LINE
  5
76D
100
AcDbEntity
  8
LAY-9
  6
CONTINUOUS
 62
     1
100
AcDbLine
 10
73.0
 20
392.6
 30
0.0
 11
47.4
 21
392.6
 31
0.0
  0
LINE
  5
76E
100
AcDbEntity
  8
LAY-9
  6
CONTINUOUS
 62
     1
100
AcDbLine
 10
49.0
 20
227.2
 30
0.0
 11
425.9
 21
227.2
 31
0.0
  0
LINE
  5
76F
100
AcDbEntity
  8
LAY-9
  6
CONTINUOUS
 62
     1
100
AcDbLine
 10
758.6
 20
227.2
 30
0.0
 11
789.0
 21
227.2
 31
0.0
  0
LINE
  5
770
100
AcDbEntity
  8
LAY-9
  6
DIVIDE
 62
     1
100
AcDbLine
 10
756.7
 20
314.894781
 30
0.0
 11
688.0
 21
314.894781
 31
0.0
  0
LINE
  5
771
100
AcDbEntity
  8
LAY-9
  6
CONTINUOUS
 62
     1
100
AcDbLine
 10
750.6
 20
227.2
 30
0.0
 11
750.6
 21
314.894781
 31
0.0
  0
LINE
  5
772
100
AcDbEntity
  8
LAY-9
  6
CONTINUOUS
 62
     1
100
AcDbLine
 10
704.2
 20
391.0001
 30
0.0
 11
750.6
 21
391.0001
 31
0.0
  0
LINE
  5
773
100
AcDbEntity
  8
LAY-9
  6
CONTINUOUS
 62
     1
100
AcDbLine
 10
750.6
 20
391.0001
 30
0.0
 11
750.6
 21
380.6001
 31
0.0
  0
ARC
  5
774
100
AcDbEntity
  8
LAY-9
  6
CONTINUOUS
 62
     1
100
AcDbCircle
 10
750.6
 20
391.0001
 30
0.0
 40
1.6
100
AcDbArc
 50
0.0
 51
90.0
  0
ARC
  5
775
100
AcDbEntity
  8
LAY-9
  6
CONTINUOUS
 62
     1
100
AcDbCircle
 10
752.2
 20
380.6001
 30
0.0
 40
1.6
100
AcDbArc
 50
180.0
 51
270.0
  0
LINE
  5
776
100
AcDbEntity
  8
LAY-9
  6
CONTINUOUS
 62
     1
100
AcDbLine
 10
741.6
 20
392.6001
 30
0.0
 11
750.6
 21
392.6001
 31
0.0
  0
LINE
  5
777
100
AcDbEntity
  8
LAY-9
  6
CONTINUOUS
 62
     1
100
AcDbLine
 10
750.6
 20
324.994881
 30
0.0
 11
750.6
 21
380.6001
 31
0.0
  0
LINE
  5
778
100
AcDbEntity
  8
LAY-9
  6
DIVIDE
 62
     1
100
AcDbLine
 10
756.7
 20
324.894881
 30
0.0
 11
688.0
 21
324.894881
 31
0.0
  0
LINE
  5
779
100
AcDbEntity
  8
LAY-9
  6
CONTINUOUS
 62
     1
100
AcDbLine
 10
741.6
 20
397.000163
 30
0.0
 11
752.2
 21
397.000163
 31
0.0
  0
LINE
  5
77A
100
AcDbEntity
  8
LAY-9
  6
CONTINUOUS
 62
     1
100
AcDbLine
 10
752.2
 20
397.000163
 30
0.0
 11
752.2
 21
380.6001
 31
0.0
  0
LINE
  5
77B
100
AcDbEntity
  8
LAY-9
  6
CONTINUOUS
 62
     1
100
AcDbLine
 10
756.7
 20
380.6001
 30
0.0
 11
756.7
 21
397.000163
 31
0.0
  0
LINE
  5
77C
100
AcDbEntity
  8
LAY-9
  6
CONTINUOUS
 62
     1
100
AcDbLine
 10
735.1
 20
401.500163
 30
0.0
 11
752.2
 21
401.500163
 31
0.0
  0
ARC
  5
77D
100
AcDbEntity
  8
LAY-9
  6
CONTINUOUS
 62
     1
100
AcDbCircle
 10
752.2
 20
397.000163
 30
0.0
 40
4.5
100
AcDbArc
 50
0.0
 51
90.0
  0
LINE
  5
77E
100
AcDbEntity
  8
LAY-9
  6
CONTINUOUS
 62
     1
100
AcDbLine
 10
631.450195
 20
227.2
 30
0.0
 11
802.450195
 21
227.2
 31
0.0
  0
LINE
  5
77F
100
AcDbEntity
  8
LAY-9
  6
CONTINUOUS
 62
     1
100
AcDbLine
 10
752.2
 20
380.6001
 30
0.0
 11
776.9
 21
380.6001
 31
0.0
  0
LINE
  5
780
100
AcDbEntity
  8
LAY-9
  6
CONTINUOUS
 62
     1
100
AcDbLine
 10
752.2
 20
379.0001
 30
0.0
 11
776.9
 21
379.0001
 31
0.0
  0
POLYLINE
  5
781
100
AcDbEntity
  8
LAY-9
  6
CONTINUOUS
 62
     1
100
AcDb2dPolyline
 66
     1
 10
0.0
 20
0.0
 30
0.0
 70
   128
  0
VERTEX
  5
782
100
AcDbEntity
  8
LAY-9
  6
CONTINUOUS
 62
     1
100
AcDbVertex
100
AcDb2dVertex
 10
802.450195
 20
227.20019
 30
0.0
  0
VERTEX
  5
783
100
AcDbEntity
  8
LAY-9
  6
CONTINUOUS
 62
     1
100
AcDbVertex
100
AcDb2dVertex
 10
802.481983
 20
227.087186
 30
0.0
  0
VERTEX
  5
784
100
AcDbEntity
  8
LAY-9
  6
CONTINUOUS
 62
     1
100
AcDbVertex
100
AcDb2dVertex
 10
802.569591
 20
226.766428
 30
0.0
  0
VERTEX
  5
785
100
AcDbEntity
  8
LAY-9
  6
CONTINUOUS
 62
     1
100
AcDbVertex
100
AcDb2dVertex
 10
802.701384
 20
226.265293
 30
0.0
  0
VERTEX
  5
786
100
AcDbEntity
  8
LAY-9
  6
CONTINUOUS
 62
     1
100
AcDbVertex
100
AcDb2dVertex
 10
802.865727
 20
225.611161
 30
0.0
  0
VERTEX
  5
787
100
AcDbEntity
  8
LAY-9
  6
CONTINUOUS
 62
     1
100
AcDbVertex
100
AcDb2dVertex
 10
803.050986
 20
224.83141
 30
0.0
  0
VERTEX
  5
788
100
AcDbEntity
  8
LAY-9
  6
CONTINUOUS
 62
     1
100
AcDbVertex
100
AcDb2dVertex
 10
803.245524
 20
223.95342
 30
0.0
  0
VERTEX
  5
789
100
AcDbEntity
  8
LAY-9
  6
CONTINUOUS
 62
     1
100
AcDbVertex
100
AcDb2dVertex
 10
803.437707
 20
223.004568
 30
0.0
  0
VERTEX
  5
78A
100
AcDbEntity
  8
LAY-9
  6
CONTINUOUS
 62
     1
100
AcDbVertex
100
AcDb2dVertex
 10
803.615901
 20
222.012235
 30
0.0
  0
VERTEX
  5
78B
100
AcDbEntity
  8
LAY-9
  6
CONTINUOUS
 62
     1
100
AcDbVertex
100
AcDb2dVertex
 10
803.76847
 20
221.003797
 30
0.0
  0
VERTEX
  5
78C
100
AcDbEntity
  8
LAY-9
  6
CONTINUOUS
 62
     1
100
AcDbVertex
100
AcDb2dVertex
 10
803.88378
 20
220.006635
 30
0.0
  0
VERTEX
  5
78D
100
AcDbEntity
  8
LAY-9
  6
CONTINUOUS
 62
     1
100
AcDbVertex
100
AcDb2dVertex
 10
803.950195
 20
219.048127
 30
0.0
  0
VERTEX
  5
78E
100
AcDbEntity
  8
LAY-9
  6
CONTINUOUS
 62
     1
100
AcDbVertex
100
AcDb2dVertex
 10
803.961649
 20
218.320371
 30
0.0
  0
VERTEX
  5
78F
100
AcDbEntity
  8
LAY-9
  6
CONTINUOUS
 62
     1
100
AcDbVertex
100
AcDb2dVertex
 10
803.936308
 20
217.631534
 30
0.0
  0
VERTEX
  5
790
100
AcDbEntity
  8
LAY-9
  6
CONTINUOUS
 62
     1
100
AcDbVertex
100
AcDb2dVertex
 10
803.876585
 20
216.977766
 30
0.0
  0
VERTEX
  5
791
100
AcDbEntity
  8
LAY-9
  6
CONTINUOUS
 62
     1
100
AcDbVertex
100
AcDb2dVertex
 10
803.784887
 20
216.355217
 30
0.0
  0
VERTEX
  5
792
100
AcDbEntity
  8
LAY-9
  6
CONTINUOUS
 62
     1
100
AcDbVertex
100
AcDb2dVertex
 10
803.663626
 20
215.760037
 30
0.0
  0
VERTEX
  5
793
100
AcDbEntity
  8
LAY-9
  6
CONTINUOUS
 62
     1
100
AcDbVertex
100
AcDb2dVertex
 10
803.515211
 20
215.188377
 30
0.0
  0
VERTEX
  5
794
100
AcDbEntity
  8
LAY-9
  6
CONTINUOUS
 62
     1
100
AcDbVertex
100
AcDb2dVertex
 10
803.342054
 20
214.636386
 30
0.0
  0
VERTEX
  5
795
100
AcDbEntity
  8
LAY-9
  6
CONTINUOUS
 62
     1
100
AcDbVertex
100
AcDb2dVertex
 10
803.146563
 20
214.100216
 30
0.0
  0
VERTEX
  5
796
100
AcDbEntity
  8
LAY-9
  6
CONTINUOUS
 62
     1
100
AcDbVertex
100
AcDb2dVertex
 10
802.93115
 20
213.576016
 30
0.0
  0
VERTEX
  5
797
100
AcDbEntity
  8
LAY-9
  6
CONTINUOUS
 62
     1
100
AcDbVertex
100
AcDb2dVertex
 10
802.698224
 20
213.059936
 30
0.0
  0
VERTEX
  5
798
100
AcDbEntity
  8
LAY-9
  6
CONTINUOUS
 62
     1
100
AcDbVertex
100
AcDb2dVertex
 10
802.450195
 20
212.548127
 30
0.0
  0
VERTEX
  5
799
100
AcDbEntity
  8
LAY-9
  6
CONTINUOUS
 62
     1
100
AcDbVertex
100
AcDb2dVertex
 10
802.175993
 20
212.008894
 30
0.0
  0
VERTEX
  5
79A
100
AcDbEntity
  8
LAY-9
  6
CONTINUOUS
 62
     1
100
AcDbVertex
100
AcDb2dVertex
 10
801.896735
 20
211.466064
 30
0.0
  0
VERTEX
  5
79B
100
AcDbEntity
  8
LAY-9
  6
CONTINUOUS
 62
     1
100
AcDbVertex
100
AcDb2dVertex
 10
801.621477
 20
210.915574
 30
0.0
  0
VERTEX
  5
79C
100
AcDbEntity
  8
LAY-9
  6
CONTINUOUS
 62
     1
100
AcDbVertex
100
AcDb2dVertex
 10
801.359276
 20
210.353358
 30
0.0
  0
VERTEX
  5
79D
100
AcDbEntity
  8
LAY-9
  6
CONTINUOUS
 62
     1
100
AcDbVertex
100
AcDb2dVertex
 10
801.119188
 20
209.775353
 30
0.0
  0
VERTEX
  5
79E
100
AcDbEntity
  8
LAY-9
  6
CONTINUOUS
 62
     1
100
AcDbVertex
100
AcDb2dVertex
 10
800.910269
 20
209.177493
 30
0.0
  0
VERTEX
  5
79F
100
AcDbEntity
  8
LAY-9
  6
CONTINUOUS
 62
     1
100
AcDbVertex
100
AcDb2dVertex
 10
800.741576
 20
208.555715
 30
0.0
  0
VERTEX
  5
7A0
100
AcDbEntity
  8
LAY-9
  6
CONTINUOUS
 62
     1
100
AcDbVertex
100
AcDb2dVertex
 10
800.622166
 20
207.905954
 30
0.0
  0
VERTEX
  5
7A1
100
AcDbEntity
  8
LAY-9
  6
CONTINUOUS
 62
     1
100
AcDbVertex
100
AcDb2dVertex
 10
800.561095
 20
207.224145
 30
0.0
  0
VERTEX
  5
7A2
100
AcDbEntity
  8
LAY-9
  6
CONTINUOUS
 62
     1
100
AcDbVertex
100
AcDb2dVertex
 10
800.567419
 20
206.506224
 30
0.0
  0
VERTEX
  5
7A3
100
AcDbEntity
  8
LAY-9
  6
CONTINUOUS
 62
     1
100
AcDbVertex
100
AcDb2dVertex
 10
800.650195
 20
205.748127
 30
0.0
  0
VERTEX
  5
7A4
100
AcDbEntity
  8
LAY-9
  6
CONTINUOUS
 62
     1
100
AcDbVertex
100
AcDb2dVertex
 10
800.802967
 20
204.994819
 30
0.0
  0
VERTEX
  5
7A5
100
AcDbEntity
  8
LAY-9
  6
CONTINUOUS
 62
     1
100
AcDbVertex
100
AcDb2dVertex
 10
801.016296
 20
204.221355
 30
0.0
  0
VERTEX
  5
7A6
100
AcDbEntity
  8
LAY-9
  6
CONTINUOUS
 62
     1
100
AcDbVertex
100
AcDb2dVertex
 10
801.274359
 20
203.447099
 30
0.0
  0
VERTEX
  5
7A7
100
AcDbEntity
  8
LAY-9
  6
CONTINUOUS
 62
     1
100
AcDbVertex
100
AcDb2dVertex
 10
801.56133
 20
202.691413
 30
0.0
  0
VERTEX
  5
7A8
100
AcDbEntity
  8
LAY-9
  6
CONTINUOUS
 62
     1
100
AcDbVertex
100
AcDb2dVertex
 10
801.861382
 20
201.973661
 30
0.0
  0
VERTEX
  5
7A9
100
AcDbEntity
  8
LAY-9
  6
CONTINUOUS
 62
     1
100
AcDbVertex
100
AcDb2dVertex
 10
802.158691
 20
201.313207
 30
0.0
  0
VERTEX
  5
7AA
100
AcDbEntity
  8
LAY-9
  6
CONTINUOUS
 62
     1
100
AcDbVertex
100
AcDb2dVertex
 10
802.437431
 20
200.729414
 30
0.0
  0
VERTEX
  5
7AB
100
AcDbEntity
  8
LAY-9
  6
CONTINUOUS
 62
     1
100
AcDbVertex
100
AcDb2dVertex
 10
802.681777
 20
200.241646
 30
0.0
  0
VERTEX
  5
7AC
100
AcDbEntity
  8
LAY-9
  6
CONTINUOUS
 62
     1
100
AcDbVertex
100
AcDb2dVertex
 10
802.875903
 20
199.869267
 30
0.0
  0
VERTEX
  5
7AD
100
AcDbEntity
  8
LAY-9
  6
CONTINUOUS
 62
     1
100
AcDbVertex
100
AcDb2dVertex
 10
803.003985
 20
199.631639
 30
0.0
  0
VERTEX
  5
7AE
100
AcDbEntity
  8
LAY-9
  6
CONTINUOUS
 62
     1
100
AcDbVertex
100
AcDb2dVertex
 10
803.050195
 20
199.548127
 30
0.0
  0
SEQEND
  5
7AF
100
AcDbEntity
  8
LAY-9
  6
CONTINUOUS
 62
     1
  0
POLYLINE
  5
7B0
100
AcDbEntity
  8
LAY-9
  6
CONTINUOUS
 62
     1
100
AcDb2dPolyline
 66
     1
 10
0.0
 20
0.0
 30
0.0
 70
   128
  0
VERTEX
  5
7B1
100
AcDbEntity
  8
LAY-9
  6
CONTINUOUS
 62
     1
100
AcDbVertex
100
AcDb2dVertex
 10
631.450195
 20
227.19981
 30
0.0
  0
VERTEX
  5
7B2
100
AcDbEntity
  8
LAY-9
  6
CONTINUOUS
 62
     1
100
AcDbVertex
100
AcDb2dVertex
 10
631.481983
 20
227.086807
 30
0.0
  0
VERTEX
  5
7B3
100
AcDbEntity
  8
LAY-9
  6
CONTINUOUS
 62
     1
100
AcDbVertex
100
AcDb2dVertex
 10
631.569591
 20
226.766048
 30
0.0
  0
VERTEX
  5
7B4
100
AcDbEntity
  8
LAY-9
  6
CONTINUOUS
 62
     1
100
AcDbVertex
100
AcDb2dVertex
 10
631.701384
 20
226.264913
 30
0.0
  0
VERTEX
  5
7B5
100
AcDbEntity
  8
LAY-9
  6
CONTINUOUS
 62
     1
100
AcDbVertex
100
AcDb2dVertex
 10
631.865727
 20
225.610781
 30
0.0
  0
VERTEX
  5
7B6
100
AcDbEntity
  8
LAY-9
  6
CONTINUOUS
 62
     1
100
AcDbVertex
100
AcDb2dVertex
 10
632.050986
 20
224.831031
 30
0.0
  0
VERTEX
  5
7B7
100
AcDbEntity
  8
LAY-9
  6
CONTINUOUS
 62
     1
100
AcDbVertex
100
AcDb2dVertex
 10
632.245524
 20
223.95304
 30
0.0
  0
VERTEX
  5
7B8
100
AcDbEntity
  8
LAY-9
  6
CONTINUOUS
 62
     1
100
AcDbVertex
100
AcDb2dVertex
 10
632.437707
 20
223.004189
 30
0.0
  0
VERTEX
  5
7B9
100
AcDbEntity
  8
LAY-9
  6
CONTINUOUS
 62
     1
100
AcDbVertex
100
AcDb2dVertex
 10
632.615901
 20
222.011855
 30
0.0
  0
VERTEX
  5
7BA
100
AcDbEntity
  8
LAY-9
  6
CONTINUOUS
 62
     1
100
AcDbVertex
100
AcDb2dVertex
 10
632.76847
 20
221.003418
 30
0.0
  0
VERTEX
  5
7BB
100
AcDbEntity
  8
LAY-9
  6
CONTINUOUS
 62
     1
100
AcDbVertex
100
AcDb2dVertex
 10
632.88378
 20
220.006255
 30
0.0
  0
VERTEX
  5
7BC
100
AcDbEntity
  8
LAY-9
  6
CONTINUOUS
 62
     1
100
AcDbVertex
100
AcDb2dVertex
 10
632.950195
 20
219.047747
 30
0.0
  0
VERTEX
  5
7BD
100
AcDbEntity
  8
LAY-9
  6
CONTINUOUS
 62
     1
100
AcDbVertex
100
AcDb2dVertex
 10
632.961649
 20
218.319991
 30
0.0
  0
VERTEX
  5
7BE
100
AcDbEntity
  8
LAY-9
  6
CONTINUOUS
 62
     1
100
AcDbVertex
100
AcDb2dVertex
 10
632.936308
 20
217.631154
 30
0.0
  0
VERTEX
  5
7BF
100
AcDbEntity
  8
LAY-9
  6
CONTINUOUS
 62
     1
100
AcDbVertex
100
AcDb2dVertex
 10
632.876585
 20
216.977386
 30
0.0
  0
VERTEX
  5
7C0
100
AcDbEntity
  8
LAY-9
  6
CONTINUOUS
 62
     1
100
AcDbVertex
100
AcDb2dVertex
 10
632.784887
 20
216.354837
 30
0.0
  0
VERTEX
  5
7C1
100
AcDbEntity
  8
LAY-9
  6
CONTINUOUS
 62
     1
100
AcDbVertex
100
AcDb2dVertex
 10
632.663626
 20
215.759657
 30
0.0
  0
VERTEX
  5
7C2
100
AcDbEntity
  8
LAY-9
  6
CONTINUOUS
 62
     1
100
AcDbVertex
100
AcDb2dVertex
 10
632.515211
 20
215.187997
 30
0.0
  0
VERTEX
  5
7C3
100
AcDbEntity
  8
LAY-9
  6
CONTINUOUS
 62
     1
100
AcDbVertex
100
AcDb2dVertex
 10
632.342054
 20
214.636007
 30
0.0
  0
VERTEX
  5
7C4
100
AcDbEntity
  8
LAY-9
  6
CONTINUOUS
 62
     1
100
AcDbVertex
100
AcDb2dVertex
 10
632.146563
 20
214.099836
 30
0.0
  0
VERTEX
  5
7C5
100
AcDbEntity
  8
LAY-9
  6
CONTINUOUS
 62
     1
100
AcDbVertex
100
AcDb2dVertex
 10
631.93115
 20
213.575636
 30
0.0
  0
VERTEX
  5
7C6
100
AcDbEntity
  8
LAY-9
  6
CONTINUOUS
 62
     1
100
AcDbVertex
100
AcDb2dVertex
 10
631.698224
 20
213.059556
 30
0.0
  0
VERTEX
  5
7C7
100
AcDbEntity
  8
LAY-9
  6
CONTINUOUS
 62
     1
100
AcDbVertex
100
AcDb2dVertex
 10
631.450195
 20
212.547747
 30
0.0
  0
VERTEX
  5
7C8
100
AcDbEntity
  8
LAY-9
  6
CONTINUOUS
 62
     1
100
AcDbVertex
100
AcDb2dVertex
 10
631.175993
 20
212.008514
 30
0.0
  0
VERTEX
  5
7C9
100
AcDbEntity
  8
LAY-9
  6
CONTINUOUS
 62
     1
100
AcDbVertex
100
AcDb2dVertex
 10
630.896735
 20
211.465685
 30
0.0
  0
VERTEX
  5
7CA
100
AcDbEntity
  8
LAY-9
  6
CONTINUOUS
 62
     1
100
AcDbVertex
100
AcDb2dVertex
 10
630.621477
 20
210.915194
 30
0.0
  0
VERTEX
  5
7CB
100
AcDbEntity
  8
LAY-9
  6
CONTINUOUS
 62
     1
100
AcDbVertex
100
AcDb2dVertex
 10
630.359276
 20
210.352979
 30
0.0
  0
VERTEX
  5
7CC
100
AcDbEntity
  8
LAY-9
  6
CONTINUOUS
 62
     1
100
AcDbVertex
100
AcDb2dVertex
 10
630.119188
 20
209.774973
 30
0.0
  0
VERTEX
  5
7CD
100
AcDbEntity
  8
LAY-9
  6
CONTINUOUS
 62
     1
100
AcDbVertex
100
AcDb2dVertex
 10
629.910269
 20
209.177114
 30
0.0
  0
VERTEX
  5
7CE
100
AcDbEntity
  8
LAY-9
  6
CONTINUOUS
 62
     1
100
AcDbVertex
100
AcDb2dVertex
 10
629.741576
 20
208.555335
 30
0.0
  0
VERTEX
  5
7CF
100
AcDbEntity
  8
LAY-9
  6
CONTINUOUS
 62
     1
100
AcDbVertex
100
AcDb2dVertex
 10
629.622166
 20
207.905574
 30
0.0
  0
VERTEX
  5
7D0
100
AcDbEntity
  8
LAY-9
  6
CONTINUOUS
 62
     1
100
AcDbVertex
100
AcDb2dVertex
 10
629.561095
 20
207.223765
 30
0.0
  0
VERTEX
  5
7D1
100
AcDbEntity
  8
LAY-9
  6
CONTINUOUS
 62
     1
100
AcDbVertex
100
AcDb2dVertex
 10
629.567419
 20
206.505844
 30
0.0
  0
VERTEX
  5
7D2
100
AcDbEntity
  8
LAY-9
  6
CONTINUOUS
 62
     1
100
AcDbVertex
100
AcDb2dVertex
 10
629.650195
 20
205.747747
 30
0.0
  0
VERTEX
  5
7D3
100
AcDbEntity
  8
LAY-9
  6
CONTINUOUS
 62
     1
100
AcDbVertex
100
AcDb2dVertex
 10
629.802967
 20
204.99444
 30
0.0
  0
VERTEX
  5
7D4
100
AcDbEntity
  8
LAY-9
  6
CONTINUOUS
 62
     1
100
AcDbVertex
100
AcDb2dVertex
 10
630.016296
 20
204.220976
 30
0.0
  0
VERTEX
  5
7D5
100
AcDbEntity
  8
LAY-9
  6
CONTINUOUS
 62
     1
100
AcDbVertex
100
AcDb2dVertex
 10
630.274359
 20
203.446719
 30
0.0
  0
VERTEX
  5
7D6
100
AcDbEntity
  8
LAY-9
  6
CONTINUOUS
 62
     1
100
AcDbVertex
100
AcDb2dVertex
 10
630.56133
 20
202.691033
 30
0.0
  0
VERTEX
  5
7D7
100
AcDbEntity
  8
LAY-9
  6
CONTINUOUS
 62
     1
100
AcDbVertex
100
AcDb2dVertex
 10
630.861382
 20
201.973281
 30
0.0
  0
VERTEX
  5
7D8
100
AcDbEntity
  8
LAY-9
  6
CONTINUOUS
 62
     1
100
AcDbVertex
100
AcDb2dVertex
 10
631.158691
 20
201.312827
 30
0.0
  0
VERTEX
  5
7D9
100
AcDbEntity
  8
LAY-9
  6
CONTINUOUS
 62
     1
100
AcDbVertex
100
AcDb2dVertex
 10
631.437431
 20
200.729035
 30
0.0
  0
VERTEX
  5
7DA
100
AcDbEntity
  8
LAY-9
  6
CONTINUOUS
 62
     1
100
AcDbVertex
100
AcDb2dVertex
 10
631.681777
 20
200.241267
 30
0.0
  0
VERTEX
  5
7DB
100
AcDbEntity
  8
LAY-9
  6
CONTINUOUS
 62
     1
100
AcDbVertex
100
AcDb2dVertex
 10
631.875903
 20
199.868887
 30
0.0
  0
VERTEX
  5
7DC
100
AcDbEntity
  8
LAY-9
  6
CONTINUOUS
 62
     1
100
AcDbVertex
100
AcDb2dVertex
 10
632.003985
 20
199.631259
 30
0.0
  0
VERTEX
  5
7DD
100
AcDbEntity
  8
LAY-9
  6
CONTINUOUS
 62
     1
100
AcDbVertex
100
AcDb2dVertex
 10
632.050195
 20
199.547747
 30
0.0
  0
SEQEND
  5
7DE
100
AcDbEntity
  8
LAY-9
  6
CONTINUOUS
 62
     1
  0
POLYLINE
  5
7DF
100
AcDbEntity
  8
LAY-9
  6
CONTINUOUS
 62
     1
100
AcDb2dPolyline
 66
     1
 10
0.0
 20
0.0
 30
0.0
 70
   128
  0
VERTEX
  5
7E0
100
AcDbEntity
  8
LAY-9
  6
CONTINUOUS
 62
     1
100
AcDbVertex
100
AcDb2dVertex
 10
425.9
 20
227.20019
 30
0.0
  0
VERTEX
  5
7E1
100
AcDbEntity
  8
LAY-9
  6
CONTINUOUS
 62
     1
100
AcDbVertex
100
AcDb2dVertex
 10
425.931788
 20
227.087186
 30
0.0
  0
VERTEX
  5
7E2
100
AcDbEntity
  8
LAY-9
  6
CONTINUOUS
 62
     1
100
AcDbVertex
100
AcDb2dVertex
 10
426.019396
 20
226.766428
 30
0.0
  0
VERTEX
  5
7E3
100
AcDbEntity
  8
LAY-9
  6
CONTINUOUS
 62
     1
100
AcDbVertex
100
AcDb2dVertex
 10
426.151189
 20
226.265293
 30
0.0
  0
VERTEX
  5
7E4
100
AcDbEntity
  8
LAY-9
  6
CONTINUOUS
 62
     1
100
AcDbVertex
100
AcDb2dVertex
 10
426.315532
 20
225.611161
 30
0.0
  0
VERTEX
  5
7E5
100
AcDbEntity
  8
LAY-9
  6
CONTINUOUS
 62
     1
100
AcDbVertex
100
AcDb2dVertex
 10
426.500791
 20
224.83141
 30
0.0
  0
VERTEX
  5
7E6
100
AcDbEntity
  8
LAY-9
  6
CONTINUOUS
 62
     1
100
AcDbVertex
100
AcDb2dVertex
 10
426.695329
 20
223.95342
 30
0.0
  0
VERTEX
  5
7E7
100
AcDbEntity
  8
LAY-9
  6
CONTINUOUS
 62
     1
100
AcDbVertex
100
AcDb2dVertex
 10
426.887512
 20
223.004568
 30
0.0
  0
VERTEX
  5
7E8
100
AcDbEntity
  8
LAY-9
  6
CONTINUOUS
 62
     1
100
AcDbVertex
100
AcDb2dVertex
 10
427.065706
 20
222.012235
 30
0.0
  0
VERTEX
  5
7E9
100
AcDbEntity
  8
LAY-9
  6
CONTINUOUS
 62
     1
100
AcDbVertex
100
AcDb2dVertex
 10
427.218275
 20
221.003797
 30
0.0
  0
VERTEX
  5
7EA
100
AcDbEntity
  8
LAY-9
  6
CONTINUOUS
 62
     1
100
AcDbVertex
100
AcDb2dVertex
 10
427.333585
 20
220.006635
 30
0.0
  0
VERTEX
  5
7EB
100
AcDbEntity
  8
LAY-9
  6
CONTINUOUS
 62
     1
100
AcDbVertex
100
AcDb2dVertex
 10
427.4
 20
219.048127
 30
0.0
  0
VERTEX
  5
7EC
100
AcDbEntity
  8
LAY-9
  6
CONTINUOUS
 62
     1
100
AcDbVertex
100
AcDb2dVertex
 10
427.411454
 20
218.320371
 30
0.0
  0
VERTEX
  5
7ED
100
AcDbEntity
  8
LAY-9
  6
CONTINUOUS
 62
     1
100
AcDbVertex
100
AcDb2dVertex
 10
427.386113
 20
217.631534
 30
0.0
  0
VERTEX
  5
7EE
100
AcDbEntity
  8
LAY-9
  6
CONTINUOUS
 62
     1
100
AcDbVertex
100
AcDb2dVertex
 10
427.32639
 20
216.977766
 30
0.0
  0
VERTEX
  5
7EF
100
AcDbEntity
  8
LAY-9
  6
CONTINUOUS
 62
     1
100
AcDbVertex
100
AcDb2dVertex
 10
427.234692
 20
216.355217
 30
0.0
  0
VERTEX
  5
7F0
100
AcDbEntity
  8
LAY-9
  6
CONTINUOUS
 62
     1
100
AcDbVertex
100
AcDb2dVertex
 10
427.113431
 20
215.760037
 30
0.0
  0
VERTEX
  5
7F1
100
AcDbEntity
  8
LAY-9
  6
CONTINUOUS
 62
     1
100
AcDbVertex
100
AcDb2dVertex
 10
426.965016
 20
215.188377
 30
0.0
  0
VERTEX
  5
7F2
100
AcDbEntity
  8
LAY-9
  6
CONTINUOUS
 62
     1
100
AcDbVertex
100
AcDb2dVertex
 10
426.791859
 20
214.636386
 30
0.0
  0
VERTEX
  5
7F3
100
AcDbEntity
  8
LAY-9
  6
CONTINUOUS
 62
     1
100
AcDbVertex
100
AcDb2dVertex
 10
426.596368
 20
214.100216
 30
0.0
  0
VERTEX
  5
7F4
100
AcDbEntity
  8
LAY-9
  6
CONTINUOUS
 62
     1
100
AcDbVertex
100
AcDb2dVertex
 10
426.380955
 20
213.576016
 30
0.0
  0
VERTEX
  5
7F5
100
AcDbEntity
  8
LAY-9
  6
CONTINUOUS
 62
     1
100
AcDbVertex
100
AcDb2dVertex
 10
426.148029
 20
213.059936
 30
0.0
  0
VERTEX
  5
7F6
100
AcDbEntity
  8
LAY-9
  6
CONTINUOUS
 62
     1
100
AcDbVertex
100
AcDb2dVertex
 10
425.9
 20
212.548127
 30
0.0
  0
VERTEX
  5
7F7
100
AcDbEntity
  8
LAY-9
  6
CONTINUOUS
 62
     1
100
AcDbVertex
100
AcDb2dVertex
 10
425.625798
 20
212.008894
 30
0.0
  0
VERTEX
  5
7F8
100
AcDbEntity
  8
LAY-9
  6
CONTINUOUS
 62
     1
100
AcDbVertex
100
AcDb2dVertex
 10
425.34654
 20
211.466064
 30
0.0
  0
VERTEX
  5
7F9
100
AcDbEntity
  8
LAY-9
  6
CONTINUOUS
 62
     1
100
AcDbVertex
100
AcDb2dVertex
 10
425.071282
 20
210.915574
 30
0.0
  0
VERTEX
  5
7FA
100
AcDbEntity
  8
LAY-9
  6
CONTINUOUS
 62
     1
100
AcDbVertex
100
AcDb2dVertex
 10
424.809081
 20
210.353358
 30
0.0
  0
VERTEX
  5
7FB
100
AcDbEntity
  8
LAY-9
  6
CONTINUOUS
 62
     1
100
AcDbVertex
100
AcDb2dVertex
 10
424.568993
 20
209.775353
 30
0.0
  0
VERTEX
  5
7FC
100
AcDbEntity
  8
LAY-9
  6
CONTINUOUS
 62
     1
100
AcDbVertex
100
AcDb2dVertex
 10
424.360074
 20
209.177493
 30
0.0
  0
VERTEX
  5
7FD
100
AcDbEntity
  8
LAY-9
  6
CONTINUOUS
 62
     1
100
AcDbVertex
100
AcDb2dVertex
 10
424.191381
 20
208.555715
 30
0.0
  0
VERTEX
  5
7FE
100
AcDbEntity
  8
LAY-9
  6
CONTINUOUS
 62
     1
100
AcDbVertex
100
AcDb2dVertex
 10
424.071971
 20
207.905954
 30
0.0
  0
VERTEX
  5
7FF
100
AcDbEntity
  8
LAY-9
  6
CONTINUOUS
 62
     1
100
AcDbVertex
100
AcDb2dVertex
 10
424.0109
 20
207.224145
 30
0.0
  0
VERTEX
  5
800
100
AcDbEntity
  8
LAY-9
  6
CONTINUOUS
 62
     1
100
AcDbVertex
100
AcDb2dVertex
 10
424.017224
 20
206.506224
 30
0.0
  0
VERTEX
  5
801
100
AcDbEntity
  8
LAY-9
  6
CONTINUOUS
 62
     1
100
AcDbVertex
100
AcDb2dVertex
 10
424.1
 20
205.748127
 30
0.0
  0
VERTEX
  5
802
100
AcDbEntity
  8
LAY-9
  6
CONTINUOUS
 62
     1
100
AcDbVertex
100
AcDb2dVertex
 10
424.252772
 20
204.994819
 30
0.0
  0
VERTEX
  5
803
100
AcDbEntity
  8
LAY-9
  6
CONTINUOUS
 62
     1
100
AcDbVertex
100
AcDb2dVertex
 10
424.466101
 20
204.221355
 30
0.0
  0
VERTEX
  5
804
100
AcDbEntity
  8
LAY-9
  6
CONTINUOUS
 62
     1
100
AcDbVertex
100
AcDb2dVertex
 10
424.724164
 20
203.447099
 30
0.0
  0
VERTEX
  5
805
100
AcDbEntity
  8
LAY-9
  6
CONTINUOUS
 62
     1
100
AcDbVertex
100
AcDb2dVertex
 10
425.011135
 20
202.691413
 30
0.0
  0
VERTEX
  5
806
100
AcDbEntity
  8
LAY-9
  6
CONTINUOUS
 62
     1
100
AcDbVertex
100
AcDb2dVertex
 10
425.311187
 20
201.973661
 30
0.0
  0
VERTEX
  5
807
100
AcDbEntity
  8
LAY-9
  6
CONTINUOUS
 62
     1
100
AcDbVertex
100
AcDb2dVertex
 10
425.608496
 20
201.313207
 30
0.0
  0
VERTEX
  5
808
100
AcDbEntity
  8
LAY-9
  6
CONTINUOUS
 62
     1
100
AcDbVertex
100
AcDb2dVertex
 10
425.887236
 20
200.729414
 30
0.0
  0
VERTEX
  5
809
100
AcDbEntity
  8
LAY-9
  6
CONTINUOUS
 62
     1
100
AcDbVertex
100
AcDb2dVertex
 10
426.131582
 20
200.241646
 30
0.0
  0
VERTEX
  5
80A
100
AcDbEntity
  8
LAY-9
  6
CONTINUOUS
 62
     1
100
AcDbVertex
100
AcDb2dVertex
 10
426.325708
 20
199.869267
 30
0.0
  0
VERTEX
  5
80B
100
AcDbEntity
  8
LAY-9
  6
CONTINUOUS
 62
     1
100
AcDbVertex
100
AcDb2dVertex
 10
426.45379
 20
199.631639
 30
0.0
  0
VERTEX
  5
80C
100
AcDbEntity
  8
LAY-9
  6
CONTINUOUS
 62
     1
100
AcDbVertex
100
AcDb2dVertex
 10
426.5
 20
199.548127
 30
0.0
  0
SEQEND
  5
80D
100
AcDbEntity
  8
LAY-9
  6
CONTINUOUS
 62
     1
  0
LINE
  5
80E
100
AcDbEntity
  8
LAY-9
  6
CONTINUOUS
 62
     1
100
AcDbLine
 10
109.0
 20
377.500108
 30
0.0
 11
224.0
 21
382.000078
 31
0.0
  0
LINE
  5
80F
100
AcDbEntity
  8
LAY-9
  6
CONTINUOUS
 62
     1
100
AcDbLine
 10
109.0
 20
382.000108
 30
0.0
 11
224.0
 21
377.500108
 31
0.0
  0
LINE
  5
810
100
AcDbEntity
  8
LAY-9
  6
CONTINUOUS
 62
     1
100
AcDbLine
 10
224.0
 20
377.500108
 30
0.0
 11
109.0
 21
377.500108
 31
0.0
  0
LINE
  5
811
100
AcDbEntity
  8
LAY-9
  6
CONTINUOUS
 62
     1
100
AcDbLine
 10
224.0
 20
382.000078
 30
0.0
 11
224.0
 21
377.500108
 31
0.0
  0
LINE
  5
812
100
AcDbEntity
  8
LAY-9
  6
CONTINUOUS
 62
     1
100
AcDbLine
 10
109.0
 20
382.000108
 30
0.0
 11
109.0
 21
377.500108
 31
0.0
  0
LINE
  5
813
100
AcDbEntity
  8
LAY-9
  6
CONTINUOUS
 62
     1
100
AcDbLine
 10
104.0
 20
401.500078
 30
0.0
 11
144.0
 21
401.500078
 31
0.0
  0
LINE
  5
814
100
AcDbEntity
  8
LAY-9
  6
CONTINUOUS
 62
     1
100
AcDbLine
 10
104.0
 20
401.500078
 30
0.0
 11
144.0
 21
397.000078
 31
0.0
  0
LINE
  5
815
100
AcDbEntity
  8
LAY-9
  6
CONTINUOUS
 62
     1
100
AcDbLine
 10
104.0
 20
397.000047
 30
0.0
 11
144.0
 21
401.500078
 31
0.0
  0
LINE
  5
816
100
AcDbEntity
  8
LAY-9
  6
CONTINUOUS
 62
     1
100
AcDbLine
 10
104.0
 20
401.500078
 30
0.0
 11
104.0
 21
397.000047
 31
0.0
  0
ARC
  5
817
100
AcDbEntity
  8
LAY-9
  6
CONTINUOUS
 62
     3
100
AcDbCircle
 10
143.756913
 20
398.757158
 30
0.0
 40
1.0
100
AcDbArc
 50
32.083058
 51
75.931117
  0
LINE
  5
818
100
AcDbEntity
  8
LAY-9
  6
CONTINUOUS
 62
     1
100
AcDbLine
 10
144.0
 20
401.500078
 30
0.0
 11
144.0
 21
397.000078
 31
0.0
  0
LINE
  5
819
100
AcDbEntity
  8
LAY-10
  6
CONTINUOUS
 62
     5
100
AcDbLine
 10
16.0
 20
15.0
 30
0.0
 11
827.0
 21
15.0
 31
0.0
  0
LINE
  5
81A
100
AcDbEntity
  8
LAY-10
  6
CONTINUOUS
 62
     5
100
AcDbLine
 10
827.0
 20
15.0
 30
0.0
 11
827.0
 21
579.0
 31
0.0
  0
LINE
  5
81B
100
AcDbEntity
  8
LAY-10
  6
CONTINUOUS
 62
     5
100
AcDbLine
 10
16.0
 20
15.0
 30
0.0
 11
16.0
 21
579.0
 31
0.0
  0
LINE
  5
81C
100
AcDbEntity
  8
LAY-10
  6
CONTINUOUS
 62
     5
100
AcDbLine
 10
16.0
 20
579.0
 30
0.0
 11
827.0
 21
579.0
 31
0.0
  0
LINE
  5
81D
100
AcDbEntity
  8
LAY-10
  6
CONTINUOUS
 62
     5
100
AcDbLine
 10
16.0
 20
40.0
 30
0.0
 11
827.0
 21
40.0
 31
0.0
  0
LINE
  5
81E
100
AcDbEntity
  8
LAY-10
  6
CONTINUOUS
 62
     1
100
AcDbLine
 10
225.0
 20
40.0
 30
0.0
 11
225.0
 21
15.0
 31
0.0
  0
LINE
  5
81F
100
AcDbEntity
  8
LAY-10
  6
CONTINUOUS
 62
     1
100
AcDbLine
 10
250.5
 20
40.0
 30
0.0
 11
250.5
 21
15.0
 31
0.0
  0
LINE
  5
820
100
AcDbEntity
  8
LAY-10
  6
CONTINUOUS
 62
     1
100
AcDbLine
 10
276.0
 20
40.0
 30
0.0
 11
276.0
 21
15.0
 31
0.0
  0
LINE
  5
821
100
AcDbEntity
  8
LAY-10
  6
CONTINUOUS
 62
     1
100
AcDbLine
 10
301.5
 20
40.0
 30
0.0
 11
301.5
 21
15.0
 31
0.0
  0
LINE
  5
822
100
AcDbEntity
  8
LAY-10
  6
CONTINUOUS
 62
     1
100
AcDbLine
 10
327.0
 20
40.0
 30
0.0
 11
327.0
 21
15.0
 31
0.0
  0
LINE
  5
823
100
AcDbEntity
  8
LAY-10
  6
CONTINUOUS
 62
     1
100
AcDbLine
 10
378.0
 20
40.0
 30
0.0
 11
378.0
 21
15.0
 31
0.0
  0
LINE
  5
824
100
AcDbEntity
  8
LAY-10
  6
CONTINUOUS
 62
     1
100
AcDbLine
 10
739.0
 20
40.0
 30
0.0
 11
739.0
 21
15.0
 31
0.0
  0
LINE
  5
825
100
AcDbEntity
  8
LAY-10
  6
CONTINUOUS
 62
     1
100
AcDbLine
 10
225.0
 20
32.0
 30
0.0
 11
378.0
 21
32.0
 31
0.0
  0
TEXT
  5
826
100
AcDbEntity
  8
LAY-10
  6
CONTINUOUS
 62
     4
100
AcDbText
 10
228.5
 20
33.0
 30
0.0
 40
6.0
  1
検　  図
 41
0.57856
  7
EXCADSTD
 72
     5
 11
247.700001
 21
33.0
 31
0.0
100
AcDbText
  0
TEXT
  5
827
100
AcDbEntity
  8
LAY-10
  6
CONTINUOUS
 62
     4
100
AcDbText
 10
254.2
 20
33.0
 30
0.0
 40
6.0
  1
担　　当
 41
0.672
  7
EXCADSTD
 72
     5
 11
273.400001
 21
33.0
 31
0.0
100
AcDbText
  0
TEXT
  5
828
100
AcDbEntity
  8
LAY-10
  6
CONTINUOUS
 62
     4
100
AcDbText
 10
279.4
 20
33.0
 30
0.0
 40
6.0
  1
製　　図
 41
0.672
  7
EXCADSTD
 72
     5
 11
298.600001
 21
33.0
 31
0.0
100
AcDbText
  0
TEXT
  5
829
100
AcDbEntity
  8
LAY-10
  6
CONTINUOUS
 62
     4
100
AcDbText
 10
304.9
 20
33.0
 30
0.0
 40
6.0
  1
尺　　度
 41
0.672
  7
EXCADSTD
 72
     5
 11
324.100001
 21
33.0
 31
0.0
100
AcDbText
  0
TEXT
  5
82A
100
AcDbEntity
  8
LAY-10
  6
CONTINUOUS
 62
     4
100
AcDbText
 10
340.5
 20
33.0
 30
0.0
 40
6.0
  1
作成年月日
 41
0.672
  7
EXCADSTD
 72
     5
 11
364.500001
 21
33.0
 31
0.0
100
AcDbText
  0
TEXT
  5
82B
100
AcDbEntity
  8
LAY-10
  6
CONTINUOUS
 62
   134
100
AcDbText
 10
43.98
 20
20.91
 30
0.0
 40
13.0
  1
日本ドアーチエック製造株式会社
 41
0.653908
  7
EXCADSTD
 72
     5
 11
195.779994
 21
20.91
 31
0.0
100
AcDbText
  0
LINE
  5
82C
100
AcDbEntity
  8
LAY-10
  6
CONTINUOUS
 62
     1
100
AcDbLine
 10
842.0
 20
0.0
 30
0.0
 11
842.0
 21
2.0
 31
0.0
  0
LINE
  5
82D
100
AcDbEntity
  8
LAY-10
  6
CONTINUOUS
 62
     1
100
AcDbLine
 10
842.0
 20
592.0
 30
0.0
 11
842.0
 21
594.0
 31
0.0
  0
LINE
  5
82E
100
AcDbEntity
  8
LAY-10
  6
CONTINUOUS
 62
     1
100
AcDbLine
 10
842.0
 20
594.0
 30
0.0
 11
840.0
 21
594.0
 31
0.0
  0
LINE
  5
82F
100
AcDbEntity
  8
LAY-10
  6
CONTINUOUS
 62
     1
100
AcDbLine
 10
3.0
 20
594.0
 30
0.0
 11
1.0
 21
594.0
 31
0.0
  0
LINE
  5
830
100
AcDbEntity
  8
LAY-10
  6
CONTINUOUS
 62
     1
100
AcDbLine
 10
1.0
 20
594.0
 30
0.0
 11
1.0
 21
592.0
 31
0.0
  0
LINE
  5
831
100
AcDbEntity
  8
LAY-10
  6
CONTINUOUS
 62
     1
100
AcDbLine
 10
1.0
 20
2.0
 30
0.0
 11
1.0
 21
0.0
 31
0.0
  0
LINE
  5
832
100
AcDbEntity
  8
LAY-10
  6
CONTINUOUS
 62
     1
100
AcDbLine
 10
1.0
 20
0.0
 30
0.0
 11
3.0
 21
0.0
 31
0.0
  0
LINE
  5
833
100
AcDbEntity
  8
LAY-10
  6
CONTINUOUS
 62
     1
100
AcDbLine
 10
840.0
 20
0.0
 30
0.0
 11
842.0
 21
0.0
 31
0.0
  0
TEXT
  5
834
100
AcDbEntity
  8
LAY-10
  6
CONTINUOUS
 62
     4
100
AcDbText
 10
384.0
 20
33.0
 30
0.0
 40
6.0
  1
図 面 名
 41
0.57856
  7
EXCADSTD
 72
     5
 11
403.200001
 21
33.0
 31
0.0
100
AcDbText
  0
TEXT
  5
835
100
AcDbEntity
  8
LAY-10
  6
CONTINUOUS
 62
     4
100
AcDbText
 10
745.0
 20
33.0
 30
0.0
 40
6.0
  1
図面番号
 41
0.672
  7
EXCADSTD
 72
     5
 11
764.200001
 21
33.0
 31
0.0
100
AcDbText
  0
TEXT
  5
836
100
AcDbEntity
  8
LAY-10
  6
CONTINUOUS
 62
     2
100
AcDbText
 10
307.5
 20
20.2
 30
0.0
 40
6.0
  1
１／１
 41
0.672
  7
EXCADSTD
 72
     5
 11
321.900001
 21
20.2
 31
0.0
100
AcDbText
  0
TEXT
  5
837
100
AcDbEntity
  8
LAY-10
  6
CONTINUOUS
 62
     2
100
AcDbText
 10
333.6
 20
20.2
 30
0.0
 40
6.0
  1
Ｈ１２.　６.　７
 41
0.622617
  7
EXCADSTD
 72
     5
 11
372.000002
 21
20.2
 31
0.0
100
AcDbText
  0
TEXT
  5
838
100
AcDbEntity
  8
LAY-10
  6
CONTINUOUS
 62
     2
100
AcDbText
 10
407.828367
 20
19.274519
 30
0.0
 40
10.0
  1
ピボットヒンジ　Ｔ－１２０Ｆ(本体埋込型 ) 納まり図
 41
0.647148
  7
EXCADSTD
 72
     5
 11
603.828367
 21
19.274519
 31
0.0
100
AcDbText
  0
ENDSEC
  0
SECTION
  2
OBJECTS
  0
DICTIONARY
  5
19
100
AcDbDictionary
  3
ACAD_GROUP
350
1A
  3
ACAD_MLINESTYLE
350
1B
  0
DICTIONARY
  5
1A
102
{ACAD_REACTORS
330
19
102
}
100
AcDbDictionary
  0
DICTIONARY
  5
1B
102
{ACAD_REACTORS
330
19
102
}
100
AcDbDictionary
  3
STANDARD
350
1C
  0
MLINESTYLE
  5
1C
102
{ACAD_REACTORS
330
1B
102
}
100
AcDbMlineStyle
  2
Standard
 70
     0
  3

 62
     0
 51
90.0
 52
90.0
 71
     2
 49
0.5
 62
   256
  6
ByLayer
 49
-0.5
 62
   256
  6
ByLayer
  0
ENDSEC
  0
EOF
