  0
SECTION
  2
HEADER
  9
$ACADVER
  1
AC1014
  9
$ACADMAINTVER
 70
     0
  9
$DWGCODEPAGE
  3
ANSI_932
  9
$INSBASE
 10
0.0
 20
0.0
 30
0.0
  9
$EXTMIN
 10
0.0
 20
0.0
 30
0.0
  9
$EXTMAX
 10
841.0
 20
594.0
 30
0.0
  9
$LIMMIN
 10
0.0
 20
0.0
  9
$LIMMAX
 10
841.0
 20
594.0
  9
$ORTHOMODE
 70
     0
  9
$REGENMODE
 70
     1
  9
$FILLMODE
 70
     1
  9
$QTEXTMODE
 70
     0
  9
$MIRRTEXT
 70
     1
  9
$DRAGMODE
 70
     2
  9
$LTSCALE
 40
1.0
  9
$OSMODE
 70
     0
  9
$ATTMODE
 70
     1
  9
$TEXTSIZE
 40
0.2
  9
$TRACEWID
 40
0.05
  9
$TEXTSTYLE
  7
STANDARD
  9
$CLAYER
  8
LAY-1
  9
$CELTYPE
  6
CONTINUOUS
  9
$CECOLOR
 62
   256
  9
$CELTSCALE
 40
1.0
  9
$DELOBJ
 70
     1
  9
$DISPSILH
 70
     0
  9
$DIMSCALE
 40
1.0
  9
$DIMASZ
 40
0.18
  9
$DIMEXO
 40
0.0625
  9
$DIMDLI
 40
0.38
  9
$DIMRND
 40
0.0
  9
$DIMDLE
 40
0.0
  9
$DIMEXE
 40
0.18
  9
$DIMTP
 40
0.0
  9
$DIMTM
 40
0.0
  9
$DIMTXT
 40
0.18
  9
$DIMCEN
 40
0.09
  9
$DIMTSZ
 40
0.0
  9
$DIMTOL
 70
     0
  9
$DIMLIM
 70
     0
  9
$DIMTIH
 70
     1
  9
$DIMTOH
 70
     1
  9
$DIMSE1
 70
     0
  9
$DIMSE2
 70
     0
  9
$DIMTAD
 70
     0
  9
$DIMZIN
 70
     0
  9
$DIMBLK
  1

  9
$DIMASO
 70
     1
  9
$DIMSHO
 70
     1
  9
$DIMPOST
  1

  9
$DIMAPOST
  1

  9
$DIMALT
 70
     0
  9
$DIMALTD
 70
     2
  9
$DIMALTF
 40
25.4
  9
$DIMLFAC
 40
1.0
  9
$DIMTOFL
 70
     0
  9
$DIMTVP
 40
0.0
  9
$DIMTIX
 70
     0
  9
$DIMSOXD
 70
     0
  9
$DIMSAH
 70
     0
  9
$DIMBLK1
  1

  9
$DIMBLK2
  1

  9
$DIMSTYLE
  2
STANDARD
  9
$DIMCLRD
 70
     0
  9
$DIMCLRE
 70
     0
  9
$DIMCLRT
 70
     0
  9
$DIMTFAC
 40
1.0
  9
$DIMGAP
 40
0.09
  9
$DIMJUST
 70
     0
  9
$DIMSD1
 70
     0
  9
$DIMSD2
 70
     0
  9
$DIMTOLJ
 70
     1
  9
$DIMTZIN
 70
     0
  9
$DIMALTZ
 70
     0
  9
$DIMALTTZ
 70
     0
  9
$DIMFIT
 70
     3
  9
$DIMUPT
 70
     0
  9
$DIMUNIT
 70
     2
  9
$DIMDEC
 70
     4
  9
$DIMTDEC
 70
     4
  9
$DIMALTU
 70
     2
  9
$DIMALTTD
 70
     2
  9
$DIMTXSTY
  7
STANDARD
  9
$DIMAUNIT
 70
     0
  9
$LUNITS
 70
     2
  9
$LUPREC
 70
     4
  9
$SKETCHINC
 40
0.1
  9
$FILLETRAD
 40
0.0
  9
$AUNITS
 70
     0
  9
$AUPREC
 70
     0
  9
$MENU
  1
acad
  9
$ELEVATION
 40
0.0
  9
$PELEVATION
 40
0.0
  9
$THICKNESS
 40
0.0
  9
$LIMCHECK
 70
     0
  9
$BLIPMODE
 70
     1
  9
$CHAMFERA
 40
0.0
  9
$CHAMFERB
 40
0.0
  9
$CHAMFERC
 40
0.0
  9
$CHAMFERD
 40
0.0
  9
$SKPOLY
 70
     0
  9
$TDCREATE
 40
2455606.815913299
  9
$TDUPDATE
 40
2455606.815913299
  9
$TDINDWG
 40
0.0000000000
  9
$TDUSRTIMER
 40
0.0000000000
  9
$USRTIMER
 70
     1
  9
$ANGBASE
 50
0.0
  9
$ANGDIR
 70
     0
  9
$PDMODE
 70
     0
  9
$PDSIZE
 40
0.0
  9
$PLINEWID
 40
0.0
  9
$COORDS
 70
     1
  9
$SPLFRAME
 70
     0
  9
$SPLINETYPE
 70
     6
  9
$SPLINESEGS
 70
     8
  9
$ATTDIA
 70
     0
  9
$ATTREQ
 70
     1
  9
$HANDLING
 70
     1
  9
$HANDSEED
  5
871
  9
$SURFTAB1
 70
     6
  9
$SURFTAB2
 70
     6
  9
$SURFTYPE
 70
     6
  9
$SURFU
 70
     6
  9
$SURFV
 70
     6
  9
$UCSNAME
  2

  9
$UCSORG
 10
0.0
 20
0.0
 30
0.0
  9
$UCSXDIR
 10
1.0
 20
0.0
 30
0.0
  9
$UCSYDIR
 10
0.0
 20
1.0
 30
0.0
  9
$PUCSNAME
  2

  9
$PUCSORG
 10
0.0
 20
0.0
 30
0.0
  9
$PUCSXDIR
 10
1.0
 20
0.0
 30
0.0
  9
$PUCSYDIR
 10
0.0
 20
1.0
 30
0.0
  9
$USERI1
 70
     0
  9
$USERI2
 70
     0
  9
$USERI3
 70
     0
  9
$USERI4
 70
     0
  9
$USERI5
 70
     0
  9
$USERR1
 40
0.0
  9
$USERR2
 40
0.0
  9
$USERR3
 40
0.0
  9
$USERR4
 40
0.0
  9
$USERR5
 40
0.0
  9
$WORLDVIEW
 70
     1
  9
$SHADEDGE
 70
     3
  9
$SHADEDIF
 70
    70
  9
$TILEMODE
 70
     1
  9
$MAXACTVP
 70
    16
  9
$PINSBASE
 10
0.0
 20
0.0
 30
0.0
  9
$PLIMCHECK
 70
     0
  9
$PEXTMIN
 10
1.000000E+20
 20
1.000000E+20
 30
1.000000E+20
  9
$PEXTMAX
 10
-1.000000E+20
 20
-1.000000E+20
 30
-1.000000E+20
  9
$PLIMMIN
 10
0.0
 20
0.0
  9
$PLIMMAX
 10
12.0
 20
9.0
  9
$UNITMODE
 70
     0
  9
$VISRETAIN
 70
     0
  9
$PLINEGEN
 70
     1
  9
$PSLTSCALE
 70
     0
  9
$TREEDEPTH
 70
  3020
  9
$PICKSTYLE
 70
     1
  9
$CMLSTYLE
  2
Standard
  9
$CMLJUST
 70
     0
  9
$CMLSCALE
 40
1.0
  9
$PROXYGRAPHICS
 70
     0
  9
$MEASUREMENT
 70
     0
  0
ENDSEC
  0
SECTION
  2
CLASSES
  0
CLASS
  1
LWPOLYLINE
  2
AcDbPolyline
  3
"AutoCAD"
 90
        0
280
     0
281
     1
  0
CLASS
  1
IMAGE
  2
AcDbRasterImage
  3
ISM
 90
      127
280
     0
281
     1
  0
CLASS
  1
OLE2FRAME
  2
AcDbOle2Frame
  3
""
 90
        0
280
     0
281
     1
  0
CLASS
  1
HATCH
  2
AcDbHatch
  3
"ACAD_SEDONA"
 90
        0
280
     0
281
     1
  0
CLASS
  1
DICTIONARYVAR
  2
AcDbDictionaryVar
  3
"AutoCAD"
 90
        0
280
     0
281
     0
  0
CLASS
  1
RASTERVARIABLES
  2
AcDbRasterVariables
  3
ISM
 90
        0
280
     0
281
     0
  0
CLASS
  1
IMAGEDEF
  2
AcDbRasterImageDef
  3
ISM
 90
        0
280
     0
281
     0
  0
CLASS
  1
IMAGEDEF_REACTOR
  2
AcDbRasterImageDefReactor
  3
ISM
 90
        1
280
     0
281
     0
  0
CLASS
  1
IDBUFFER
  2
AcDbIdBuffer
  3
"Acad"
 90
        0
280
     0
281
     0
  0
CLASS
  1
SPATIAL_FILTER
  2
AcDbSpatialFilter
  3
"Acad"
 90
        0
280
     0
281
     0
  0
CLASS
  1
XRECORD
  2
AcDbXrecord
  3
"<Built In>"
 90
        0
280
     0
281
     0
  0
CLASS
  1
SORTENTSTABLE
  2
AcDbSortentsTable
  3
"AutoCAD"
 90
        0
280
     0
281
     0
  0
CLASS
  1
LAYER_INDEX
  2
AcDbLayerIndex
  3
"Acad"
 90
        0
280
     0
281
     0
  0
CLASS
  1
SPATIAL_INDEX
  2
AcDbSpatialIndex
  3
"Acad"
 90
        0
280
     0
281
     0
  0
CLASS
  1
OBJECT_PTR
  2
CAseDLPNTableRecord
  3
"ASE-LPNTableRecord"
 90
        1
280
     0
281
     0
  0
CLASS
  1
LAYOUT
  2
AcDbLayout
  3
"AutoCAD 2000"
 90
        0
280
     0
281
     0
  0
CLASS
  1
PLOTSETTINGS
  2
AcDbPlotSettings
  3
"AutoCAD 2000"
 90
        0
280
     0
281
     0
  0
CLASS
  1
ACDBDICTIONARYWDFLT
  2
AcDbDictionaryWithDefault
  3
"AutoCAD 2000"
 90
        0
280
     0
281
     0
  0
CLASS
  1
ACDBPLACEHOLDER
  2
AcDbPlaceHolder
  3
"AutoCAD 2000"
 90
        0
280
     0
281
     0
  0
CLASS
  1
VBA_PROJECT
  2
AcDbVbaProject
  3
"acadvba"
 90
        0
280
     0
281
     0
  0
CLASS
  1
WIPEOUT
  2
AcDbWipeout
  3
WipeOut|AutoCAD Express Tool|expresstools@autodesk.com
 90
      127
280
     0
281
     1
  0
CLASS
  1
WIPEOUTVARIABLES
  2
AcDbWipeoutVariables
  3
WipeOut|AutoCAD Express Tool|expresstools@autodesk.com
 90
        0
280
     0
281
     0
  0
CLASS
  1
RTEXT
  2
RText
  3
RText|AutoCAD Express Tool|expresstools@autodesk.com
 90
        0
280
     0
281
     1
  0
CLASS
  1
ARCALIGNEDTEXT
  2
AcDbArcAlignedText
  3
ATEXT|AutoCAD Express Tool|expresstools@autodesk.com
 90
        0
280
     0
281
     1
  0
ENDSEC
  0
SECTION
  2
TABLES
  0
TABLE
  2
VPORT
  5
7
100
AcDbSymbolTable
 70
     1
  0
VPORT
  5
15
100
AcDbSymbolTableRecord
100
AcDbViewportTableRecord
  2
*ACTIVE
 70
     0
 10
0.0
 20
0.0
 11
1.0
 21
1.0
 12
420.5
 22
297.0
 13
0.0
 23
0.0
 14
1.0
 24
1.0
 15
0.0
 25
0.0
 16
0.0
 26
0.0
 36
1.0
 17
0.0
 27
0.0
 37
0.0
 40
594.0
 41
1.722533
 42
50.0
 43
0.0
 44
0.0
 50
0.0
 51
0.0
 71
     0
 72
   100
 73
     1
 74
     1
 75
     0
 76
     0
 77
     0
 78
     0
  0
ENDTAB
  0
TABLE
  2
LTYPE
  5
4
100
AcDbSymbolTable
 70
     9
  0
LTYPE
  5
11
100
AcDbSymbolTableRecord
100
AcDbLinetypeTableRecord
  2
BYBLOCK
 70
    64
  3

 72
    65
 73
     0
 40
0.0
  0
LTYPE
  5
12
100
AcDbSymbolTableRecord
100
AcDbLinetypeTableRecord
  2
BYLAYER
 70
    64
  3

 72
    65
 73
     0
 40
0.0
  0
LTYPE
  5
13
100
AcDbSymbolTableRecord
100
AcDbLinetypeTableRecord
  2
CONTINUOUS
 70
    64
  3
実線
 72
    65
 73
     0
 40
0.0
  0
LTYPE
  5
1D
100
AcDbSymbolTableRecord
100
AcDbLinetypeTableRecord
  2
DASHED
 70
    64
  3
Dashed __ __ __ __ __ __ __ __ __ __ __ __ __ _
 72
    65
 73
     2
 40
19.05
 49
12.7
 74
     0
 49
-6.35
 74
     0
  0
LTYPE
  5
1E
100
AcDbSymbolTableRecord
100
AcDbLinetypeTableRecord
  2
DASHED2
 70
    64
  3
Dashed (.5x) _ _ _ _ _ _ _ _ _ _ _ _ _ _ _ _ _ 
 72
    65
 73
     2
 40
9.525
 49
6.35
 74
     0
 49
-3.175
 74
     0
  0
LTYPE
  5
1F
100
AcDbSymbolTableRecord
100
AcDbLinetypeTableRecord
  2
DASHDOT
 70
    64
  3
Dash dot __ . __ . __ . __ . __ . __ . __ . __
 72
    65
 73
     4
 40
25.4
 49
12.7
 74
     0
 49
-6.35
 74
     0
 49
0.0
 74
     0
 49
-6.35
 74
     0
  0
LTYPE
  5
20
100
AcDbSymbolTableRecord
100
AcDbLinetypeTableRecord
  2
DIVIDE
 70
    64
  3
Divide ____ . . ____ . . ____ . . ____ . . ____
 72
    65
 73
     6
 40
31.75
 49
12.7
 74
     0
 49
-6.35
 74
     0
 49
0.0
 74
     0
 49
-6.35
 74
     0
 49
0.0
 74
     0
 49
-6.35
 74
     0
  0
LTYPE
  5
21
100
AcDbSymbolTableRecord
100
AcDbLinetypeTableRecord
  2
ACAD_ISO06W100
 70
    64
  3
ISO long-dash triple-dot ____ ... ____ ... ____
 72
    65
 73
     8
 40
36.0
 49
24.0
 74
     0
 49
-3.0
 74
     0
 49
0.0
 74
     0
 49
-3.0
 74
     0
 49
0.0
 74
     0
 49
-3.0
 74
     0
 49
0.0
 74
     0
 49
-3.0
 74
     0
  0
LTYPE
  5
22
100
AcDbSymbolTableRecord
100
AcDbLinetypeTableRecord
  2
ACAD_ISO15W100
 70
    64
  3
ISO double-dash triple-dot __ __ . . . __ __ . .
 72
    65
 73
    10
 40
39.0
 49
12.0
 74
     0
 49
-3.0
 74
     0
 49
12.0
 74
     0
 49
-3.0
 74
     0
 49
0.0
 74
     0
 49
-3.0
 74
     0
 49
0.0
 74
     0
 49
-3.0
 74
     0
 49
0.0
 74
     0
 49
-3.0
 74
     0
  0
ENDTAB
  0
TABLE
  2
LAYER
  5
2
100
AcDbSymbolTable
 70
    11
  0
LAYER
  5
14
100
AcDbSymbolTableRecord
100
AcDbLayerTableRecord
  2
0
 70
     0
 62
     7
  6
CONTINUOUS
  0
LAYER
  5
25
100
AcDbSymbolTableRecord
100
AcDbLayerTableRecord
  2
LAY-1
 70
    64
 62
     3
  6
CONTINUOUS
  0
LAYER
  5
26
100
AcDbSymbolTableRecord
100
AcDbLayerTableRecord
  2
LAY-2
 70
    64
 62
     3
  6
CONTINUOUS
  0
LAYER
  5
27
100
AcDbSymbolTableRecord
100
AcDbLayerTableRecord
  2
LAY-3
 70
    64
 62
     3
  6
CONTINUOUS
  0
LAYER
  5
28
100
AcDbSymbolTableRecord
100
AcDbLayerTableRecord
  2
LAY-4
 70
    64
 62
     3
  6
CONTINUOUS
  0
LAYER
  5
29
100
AcDbSymbolTableRecord
100
AcDbLayerTableRecord
  2
LAY-5
 70
    64
 62
     1
  6
DASHDOT
  0
LAYER
  5
2A
100
AcDbSymbolTableRecord
100
AcDbLayerTableRecord
  2
LAY-6
 70
    64
 62
     1
  6
CONTINUOUS
  0
LAYER
  5
2B
100
AcDbSymbolTableRecord
100
AcDbLayerTableRecord
  2
LAY-7
 70
    64
 62
     3
  6
CONTINUOUS
  0
LAYER
  5
2C
100
AcDbSymbolTableRecord
100
AcDbLayerTableRecord
  2
LAY-8
 70
    64
 62
     3
  6
CONTINUOUS
  0
LAYER
  5
2D
100
AcDbSymbolTableRecord
100
AcDbLayerTableRecord
  2
LAY-9
 70
    64
 62
     1
  6
CONTINUOUS
  0
LAYER
  5
2E
100
AcDbSymbolTableRecord
100
AcDbLayerTableRecord
  2
LAY-10
 70
    64
 62
     5
  6
CONTINUOUS
  0
ENDTAB
  0
TABLE
  2
STYLE
  5
3
100
AcDbSymbolTable
 70
     3
  0
STYLE
  5
17
100
AcDbSymbolTableRecord
100
AcDbTextStyleTableRecord
  2
STANDARD
 70
     0
 40
0.0
 41
1.0
 50
0.0
 71
     0
 42
0.0
  3
monotxt
  4
extfont
  0
STYLE
  5
23
100
AcDbSymbolTableRecord
100
AcDbTextStyleTableRecord
  2
EXCADSTD
 70
    64
 40
0.0
 41
1.0
 50
0.0
 71
     0
 42
0.2
  3
monotxt
  4
extfont
  0
STYLE
  5
24
100
AcDbSymbolTableRecord
100
AcDbTextStyleTableRecord
  2
EXCADVERT
 70
    68
 40
0.0
 41
1.0
 50
0.0
 71
     0
 42
0.286885
  3
monotxt
  4
extfont
  0
ENDTAB
  0
TABLE
  2
VIEW
  5
5
100
AcDbSymbolTable
 70
     0
  0
ENDTAB
  0
TABLE
  2
UCS
  5
6
100
AcDbSymbolTable
 70
     0
  0
ENDTAB
  0
TABLE
  2
APPID
  5
8
100
AcDbSymbolTable
 70
     1
  0
APPID
  5
16
100
AcDbSymbolTableRecord
100
AcDbRegAppTableRecord
  2
ACAD
 70
     0
  0
ENDTAB
  0
TABLE
  2
DIMSTYLE
  5
9
100
AcDbSymbolTable
 70
     1
  0
DIMSTYLE
105
18
100
AcDbSymbolTableRecord
100
AcDbDimStyleTableRecord
  2
STANDARD
 70
     0
  3

  4

  5

  6

  7

 40
1.0
 41
0.18
 42
0.0625
 43
0.38
 44
0.18
 45
0.0
 46
0.0
 47
0.0
 48
0.0
 71
     0
 72
     0
 73
     1
 74
     1
 75
     0
 76
     0
 77
     0
 78
     0
140
0.18
141
0.09
142
0.0
143
25.4
144
1.0
145
0.0
146
1.0
147
0.09
170
     0
171
     2
172
     1
173
     0
174
     0
175
     0
176
     0
177
     0
178
     0
270
     2
271
     4
272
     4
273
     2
274
     2
275
     0
280
     0
281
     0
282
     0
283
     1
284
     0
285
     0
286
     0
287
     3
288
     0
340
17
  0
ENDTAB
  0
TABLE
  2
BLOCK_RECORD
  5
1
100
AcDbSymbolTable
 70
    17
  0
BLOCK_RECORD
  5
A
100
AcDbSymbolTableRecord
100
AcDbBlockTableRecord
  2
*MODEL_SPACE
  0
BLOCK_RECORD
  5
B
100
AcDbSymbolTableRecord
100
AcDbBlockTableRecord
  2
*PAPER_SPACE
  0
BLOCK_RECORD
  5
2F
100
AcDbSymbolTableRecord
100
AcDbBlockTableRecord
  2
_EX_NORM
  0
BLOCK_RECORD
  5
30
100
AcDbSymbolTableRecord
100
AcDbBlockTableRecord
  2
_EX_BNORM
  0
BLOCK_RECORD
  5
31
100
AcDbSymbolTableRecord
100
AcDbBlockTableRecord
  2
_EX_BCIR
  0
BLOCK_RECORD
  5
32
100
AcDbSymbolTableRecord
100
AcDbBlockTableRecord
  2
_EX_RCIVIL
  0
BLOCK_RECORD
  5
33
100
AcDbSymbolTableRecord
100
AcDbBlockTableRecord
  2
_EX_SLANT
  0
BLOCK_RECORD
  5
34
100
AcDbSymbolTableRecord
100
AcDbBlockTableRecord
  2
_EX_NONE
  0
BLOCK_RECORD
  5
35
100
AcDbSymbolTableRecord
100
AcDbBlockTableRecord
  2
_EX_CIVIL
  0
BLOCK_RECORD
  5
36
100
AcDbSymbolTableRecord
100
AcDbBlockTableRecord
  2
_EX_WCIR
  0
BLOCK_RECORD
  5
37
100
AcDbSymbolTableRecord
100
AcDbBlockTableRecord
  2
_EX_WCIR2
  0
BLOCK_RECORD
  5
38
100
AcDbSymbolTableRecord
100
AcDbBlockTableRecord
  2
_EX_WNORM
  0
BLOCK_RECORD
  5
39
100
AcDbSymbolTableRecord
100
AcDbBlockTableRecord
  2
_EX_NNORM
  0
BLOCK_RECORD
  5
3A
100
AcDbSymbolTableRecord
100
AcDbBlockTableRecord
  2
_EX_BBOX
  0
BLOCK_RECORD
  5
3B
100
AcDbSymbolTableRecord
100
AcDbBlockTableRecord
  2
_EX_WBOX
  0
BLOCK_RECORD
  5
3C
100
AcDbSymbolTableRecord
100
AcDbBlockTableRecord
  2
_EX_INTEGRAL
  0
BLOCK_RECORD
  5
3D
100
AcDbSymbolTableRecord
100
AcDbBlockTableRecord
  2
SYM-1
  0
BLOCK_RECORD
  5
3E
100
AcDbSymbolTableRecord
100
AcDbBlockTableRecord
  2
SYM-2
  0
BLOCK_RECORD
  5
3F
100
AcDbSymbolTableRecord
100
AcDbBlockTableRecord
  2
SYM-3
  0
ENDTAB
  0
ENDSEC
  0
SECTION
  2
BLOCKS
  0
BLOCK
  5
D
100
AcDbEntity
  8
0
100
AcDbBlockBegin
  2
*MODEL_SPACE
 70
     0
 10
0.0
 20
0.0
 30
0.0
  3
*MODEL_SPACE
  1

  0
ENDBLK
  5
E
100
AcDbEntity
  8
0
100
AcDbBlockEnd
  0
BLOCK
  5
F
100
AcDbEntity
 67
     1
  8
0
100
AcDbBlockBegin
  2
*PAPER_SPACE
 70
     0
 10
0.0
 20
0.0
 30
0.0
  3
*PAPER_SPACE
  1

  0
ENDBLK
  5
10
100
AcDbEntity
 67
     1
  8
0
100
AcDbBlockEnd
  0
BLOCK
  5
40
100
AcDbEntity
  8
0
100
AcDbBlockBegin
  2
_EX_NORM
 70
     0
 10
0.0
 20
0.0
 30
0.0
  3
_EX_NORM
  1

  0
LINE
  5
41
100
AcDbEntity
  8
0
  6
CONTINUOUS
 62
     0
100
AcDbLine
 10
0.0
 20
0.0
 30
0.0
 11
-1.0
 21
0.0
 31
0.0
  0
LINE
  5
42
100
AcDbEntity
  8
0
  6
CONTINUOUS
 62
     0
100
AcDbLine
 10
0.0
 20
0.0
 30
0.0
 11
-1.0
 21
0.166667
 31
0.0
  0
LINE
  5
43
100
AcDbEntity
  8
0
  6
CONTINUOUS
 62
     0
100
AcDbLine
 10
0.0
 20
0.0
 30
0.0
 11
-1.0
 21
-0.166667
 31
0.0
  0
ENDBLK
  5
44
100
AcDbEntity
  8
0
100
AcDbBlockEnd
  0
BLOCK
  5
45
100
AcDbEntity
  8
0
100
AcDbBlockBegin
  2
_EX_BNORM
 70
     0
 10
0.0
 20
0.0
 30
0.0
  3
_EX_BNORM
  1

  0
LINE
  5
46
100
AcDbEntity
  8
0
  6
CONTINUOUS
 62
     0
100
AcDbLine
 10
0.0
 20
0.0
 30
0.0
 11
-1.0
 21
0.0
 31
0.0
  0
LINE
  5
47
100
AcDbEntity
  8
0
  6
CONTINUOUS
 62
     0
100
AcDbLine
 10
0.0
 20
0.0
 30
0.0
 11
-1.0
 21
0.166667
 31
0.0
  0
LINE
  5
48
100
AcDbEntity
  8
0
  6
CONTINUOUS
 62
     0
100
AcDbLine
 10
0.0
 20
0.0
 30
0.0
 11
-1.0
 21
-0.166667
 31
0.0
  0
LINE
  5
49
100
AcDbEntity
  8
0
  6
CONTINUOUS
 62
     0
100
AcDbLine
 10
0.0
 20
0.0
 30
0.0
 11
-1.0
 21
0.083333
 31
0.0
  0
LINE
  5
4A
100
AcDbEntity
  8
0
  6
CONTINUOUS
 62
     0
100
AcDbLine
 10
0.0
 20
0.0
 30
0.0
 11
-1.0
 21
-0.083333
 31
0.0
  0
LINE
  5
4B
100
AcDbEntity
  8
0
  6
CONTINUOUS
 62
     0
100
AcDbLine
 10
-1.0
 20
0.166667
 30
0.0
 11
-1.0
 21
-0.166667
 31
0.0
  0
ENDBLK
  5
4C
100
AcDbEntity
  8
0
100
AcDbBlockEnd
  0
BLOCK
  5
4D
100
AcDbEntity
  8
0
100
AcDbBlockBegin
  2
_EX_BCIR
 70
     0
 10
0.0
 20
0.0
 30
0.0
  3
_EX_BCIR
  1

  0
LINE
  5
4E
100
AcDbEntity
  8
0
  6
CONTINUOUS
 62
     0
100
AcDbLine
 10
0.0
 20
0.0
 30
0.0
 11
-1.0
 21
0.0
 31
0.0
  0
CIRCLE
  5
4F
100
AcDbEntity
  8
0
  6
CONTINUOUS
 62
     0
100
AcDbCircle
 10
0.0
 20
0.0
 30
0.0
 40
0.5
  0
CIRCLE
  5
50
100
AcDbEntity
  8
0
  6
CONTINUOUS
 62
     0
100
AcDbCircle
 10
0.0
 20
0.0
 30
0.0
 40
0.25
  0
ENDBLK
  5
51
100
AcDbEntity
  8
0
100
AcDbBlockEnd
  0
BLOCK
  5
52
100
AcDbEntity
  8
0
100
AcDbBlockBegin
  2
_EX_RCIVIL
 70
     0
 10
0.0
 20
0.0
 30
0.0
  3
_EX_RCIVIL
  1

  0
LINE
  5
53
100
AcDbEntity
  8
0
  6
CONTINUOUS
 62
     0
100
AcDbLine
 10
0.0
 20
0.0
 30
0.0
 11
-1.0
 21
0.0
 31
0.0
  0
LINE
  5
54
100
AcDbEntity
  8
0
  6
CONTINUOUS
 62
     0
100
AcDbLine
 10
-1.0
 20
-0.25
 30
0.0
 11
0.0
 21
-0.25
 31
0.0
  0
LINE
  5
55
100
AcDbEntity
  8
0
  6
CONTINUOUS
 62
     0
100
AcDbLine
 10
-1.0
 20
-0.125
 30
0.0
 11
0.0
 21
-0.125
 31
0.0
  0
ENDBLK
  5
56
100
AcDbEntity
  8
0
100
AcDbBlockEnd
  0
BLOCK
  5
57
100
AcDbEntity
  8
0
100
AcDbBlockBegin
  2
_EX_SLANT
 70
     0
 10
0.0
 20
0.0
 30
0.0
  3
_EX_SLANT
  1

  0
LINE
  5
58
100
AcDbEntity
  8
0
  6
CONTINUOUS
 62
     0
100
AcDbLine
 10
0.0
 20
0.0
 30
0.0
 11
-1.0
 21
0.0
 31
0.0
  0
LINE
  5
59
100
AcDbEntity
  8
0
  6
CONTINUOUS
 62
     0
100
AcDbLine
 10
0.707107
 20
0.707107
 30
0.0
 11
-0.707107
 21
-0.707107
 31
0.0
  0
ENDBLK
  5
5A
100
AcDbEntity
  8
0
100
AcDbBlockEnd
  0
BLOCK
  5
5B
100
AcDbEntity
  8
0
100
AcDbBlockBegin
  2
_EX_NONE
 70
     0
 10
0.0
 20
0.0
 30
0.0
  3
_EX_NONE
  1

  0
LINE
  5
5C
100
AcDbEntity
  8
0
  6
CONTINUOUS
 62
     0
100
AcDbLine
 10
0.0
 20
0.0
 30
0.0
 11
-1.0
 21
0.0
 31
0.0
  0
ENDBLK
  5
5D
100
AcDbEntity
  8
0
100
AcDbBlockEnd
  0
BLOCK
  5
5E
100
AcDbEntity
  8
0
100
AcDbBlockBegin
  2
_EX_CIVIL
 70
     0
 10
0.0
 20
0.0
 30
0.0
  3
_EX_CIVIL
  1

  0
LINE
  5
5F
100
AcDbEntity
  8
0
  6
CONTINUOUS
 62
     0
100
AcDbLine
 10
0.0
 20
0.0
 30
0.0
 11
-1.0
 21
0.0
 31
0.0
  0
LINE
  5
60
100
AcDbEntity
  8
0
  6
CONTINUOUS
 62
     0
100
AcDbLine
 10
-1.0
 20
0.25
 30
0.0
 11
0.0
 21
0.25
 31
0.0
  0
LINE
  5
61
100
AcDbEntity
  8
0
  6
CONTINUOUS
 62
     0
100
AcDbLine
 10
-1.0
 20
0.125
 30
0.0
 11
0.0
 21
0.125
 31
0.0
  0
ENDBLK
  5
62
100
AcDbEntity
  8
0
100
AcDbBlockEnd
  0
BLOCK
  5
63
100
AcDbEntity
  8
0
100
AcDbBlockBegin
  2
_EX_WCIR
 70
     0
 10
0.0
 20
0.0
 30
0.0
  3
_EX_WCIR
  1

  0
LINE
  5
64
100
AcDbEntity
  8
0
  6
CONTINUOUS
 62
     0
100
AcDbLine
 10
0.0
 20
0.0
 30
0.0
 11
-1.0
 21
0.0
 31
0.0
  0
CIRCLE
  5
65
100
AcDbEntity
  8
0
  6
CONTINUOUS
 62
     0
100
AcDbCircle
 10
0.0
 20
0.0
 30
0.0
 40
0.5
  0
ENDBLK
  5
66
100
AcDbEntity
  8
0
100
AcDbBlockEnd
  0
BLOCK
  5
67
100
AcDbEntity
  8
0
100
AcDbBlockBegin
  2
_EX_WCIR2
 70
     0
 10
0.0
 20
0.0
 30
0.0
  3
_EX_WCIR2
  1

  0
LINE
  5
68
100
AcDbEntity
  8
0
  6
CONTINUOUS
 62
     0
100
AcDbLine
 10
-0.5
 20
0.0
 30
0.0
 11
-1.0
 21
0.0
 31
0.0
  0
CIRCLE
  5
69
100
AcDbEntity
  8
0
  6
CONTINUOUS
 62
     0
100
AcDbCircle
 10
0.0
 20
0.0
 30
0.0
 40
0.5
  0
ENDBLK
  5
6A
100
AcDbEntity
  8
0
100
AcDbBlockEnd
  0
BLOCK
  5
6B
100
AcDbEntity
  8
0
100
AcDbBlockBegin
  2
_EX_WNORM
 70
     0
 10
0.0
 20
0.0
 30
0.0
  3
_EX_WNORM
  1

  0
LINE
  5
6C
100
AcDbEntity
  8
0
  6
CONTINUOUS
 62
     0
100
AcDbLine
 10
-1.0
 20
0.0
 30
0.0
 11
-1.0
 21
0.0
 31
0.0
  0
LINE
  5
6D
100
AcDbEntity
  8
0
  6
CONTINUOUS
 62
     0
100
AcDbLine
 10
0.0
 20
0.0
 30
0.0
 11
-1.0
 21
0.166667
 31
0.0
  0
LINE
  5
6E
100
AcDbEntity
  8
0
  6
CONTINUOUS
 62
     0
100
AcDbLine
 10
0.0
 20
0.0
 30
0.0
 11
-1.0
 21
-0.166667
 31
0.0
  0
LINE
  5
6F
100
AcDbEntity
  8
0
  6
CONTINUOUS
 62
     0
100
AcDbLine
 10
-1.0
 20
0.166667
 30
0.0
 11
-1.0
 21
-0.166667
 31
0.0
  0
ENDBLK
  5
70
100
AcDbEntity
  8
0
100
AcDbBlockEnd
  0
BLOCK
  5
71
100
AcDbEntity
  8
0
100
AcDbBlockBegin
  2
_EX_NNORM
 70
     0
 10
0.0
 20
0.0
 30
0.0
  3
_EX_NNORM
  1

  0
LINE
  5
72
100
AcDbEntity
  8
0
  6
CONTINUOUS
 62
     0
100
AcDbLine
 10
0.0
 20
0.0
 30
0.0
 11
-1.0
 21
0.0
 31
0.0
  0
LINE
  5
73
100
AcDbEntity
  8
0
  6
CONTINUOUS
 62
     0
100
AcDbLine
 10
0.0
 20
0.0
 30
0.0
 11
-1.0
 21
0.166667
 31
0.0
  0
LINE
  5
74
100
AcDbEntity
  8
0
  6
CONTINUOUS
 62
     0
100
AcDbLine
 10
0.0
 20
0.0
 30
0.0
 11
-1.0
 21
-0.166667
 31
0.0
  0
LINE
  5
75
100
AcDbEntity
  8
0
  6
CONTINUOUS
 62
     0
100
AcDbLine
 10
-1.0
 20
0.166667
 30
0.0
 11
-1.0
 21
-0.166667
 31
0.0
  0
ENDBLK
  5
76
100
AcDbEntity
  8
0
100
AcDbBlockEnd
  0
BLOCK
  5
77
100
AcDbEntity
  8
0
100
AcDbBlockBegin
  2
_EX_BBOX
 70
     0
 10
0.0
 20
0.0
 30
0.0
  3
_EX_BBOX
  1

  0
LINE
  5
78
100
AcDbEntity
  8
0
  6
CONTINUOUS
 62
     0
100
AcDbLine
 10
0.0
 20
0.0
 30
0.0
 11
-1.0
 21
0.0
 31
0.0
  0
LINE
  5
79
100
AcDbEntity
  8
0
  6
CONTINUOUS
 62
     0
100
AcDbLine
 10
-0.5
 20
0.5
 30
0.0
 11
0.5
 21
0.5
 31
0.0
  0
LINE
  5
7A
100
AcDbEntity
  8
0
  6
CONTINUOUS
 62
     0
100
AcDbLine
 10
0.5
 20
0.5
 30
0.0
 11
0.5
 21
-0.5
 31
0.0
  0
LINE
  5
7B
100
AcDbEntity
  8
0
  6
CONTINUOUS
 62
     0
100
AcDbLine
 10
0.5
 20
-0.5
 30
0.0
 11
-0.5
 21
-0.5
 31
0.0
  0
LINE
  5
7C
100
AcDbEntity
  8
0
  6
CONTINUOUS
 62
     0
100
AcDbLine
 10
-0.5
 20
-0.5
 30
0.0
 11
-0.5
 21
0.5
 31
0.0
  0
LINE
  5
7D
100
AcDbEntity
  8
0
  6
CONTINUOUS
 62
     0
100
AcDbLine
 10
-0.25
 20
0.25
 30
0.0
 11
0.25
 21
0.25
 31
0.0
  0
LINE
  5
7E
100
AcDbEntity
  8
0
  6
CONTINUOUS
 62
     0
100
AcDbLine
 10
0.25
 20
0.25
 30
0.0
 11
0.25
 21
-0.25
 31
0.0
  0
LINE
  5
7F
100
AcDbEntity
  8
0
  6
CONTINUOUS
 62
     0
100
AcDbLine
 10
0.25
 20
-0.25
 30
0.0
 11
-0.25
 21
-0.25
 31
0.0
  0
LINE
  5
80
100
AcDbEntity
  8
0
  6
CONTINUOUS
 62
     0
100
AcDbLine
 10
-0.25
 20
-0.25
 30
0.0
 11
-0.25
 21
0.25
 31
0.0
  0
ENDBLK
  5
81
100
AcDbEntity
  8
0
100
AcDbBlockEnd
  0
BLOCK
  5
82
100
AcDbEntity
  8
0
100
AcDbBlockBegin
  2
_EX_WBOX
 70
     0
 10
0.0
 20
0.0
 30
0.0
  3
_EX_WBOX
  1

  0
LINE
  5
83
100
AcDbEntity
  8
0
  6
CONTINUOUS
 62
     0
100
AcDbLine
 10
-0.5
 20
0.0
 30
0.0
 11
-1.0
 21
0.0
 31
0.0
  0
LINE
  5
84
100
AcDbEntity
  8
0
  6
CONTINUOUS
 62
     0
100
AcDbLine
 10
-0.5
 20
0.5
 30
0.0
 11
0.5
 21
0.5
 31
0.0
  0
LINE
  5
85
100
AcDbEntity
  8
0
  6
CONTINUOUS
 62
     0
100
AcDbLine
 10
0.5
 20
0.5
 30
0.0
 11
0.5
 21
-0.5
 31
0.0
  0
LINE
  5
86
100
AcDbEntity
  8
0
  6
CONTINUOUS
 62
     0
100
AcDbLine
 10
0.5
 20
-0.5
 30
0.0
 11
-0.5
 21
-0.5
 31
0.0
  0
LINE
  5
87
100
AcDbEntity
  8
0
  6
CONTINUOUS
 62
     0
100
AcDbLine
 10
-0.5
 20
-0.5
 30
0.0
 11
-0.5
 21
0.5
 31
0.0
  0
ENDBLK
  5
88
100
AcDbEntity
  8
0
100
AcDbBlockEnd
  0
BLOCK
  5
89
100
AcDbEntity
  8
0
100
AcDbBlockBegin
  2
_EX_INTEGRAL
 70
     0
 10
0.0
 20
0.0
 30
0.0
  3
_EX_INTEGRAL
  1

  0
LINE
  5
8A
100
AcDbEntity
  8
0
  6
CONTINUOUS
 62
     0
100
AcDbLine
 10
0.0
 20
0.0
 30
0.0
 11
-1.0
 21
0.0
 31
0.0
  0
ARC
  5
8B
100
AcDbEntity
  8
0
  6
CONTINUOUS
 62
     0
100
AcDbCircle
 10
0.542115
 20
0.164992
 30
0.0
 40
0.56667
100
AcDbArc
 50
73.07249
 51
196.927513
  0
ARC
  5
8C
100
AcDbEntity
  8
0
  6
CONTINUOUS
 62
     0
100
AcDbCircle
 10
-0.542115
 20
-0.164992
 30
0.0
 40
0.56667
100
AcDbArc
 50
253.072487
 51
16.927513
  0
ENDBLK
  5
8D
100
AcDbEntity
  8
0
100
AcDbBlockEnd
  0
BLOCK
  5
8E
100
AcDbEntity
  8
0
100
AcDbBlockBegin
  2
SYM-1
 70
     0
 10
0.0
 20
0.0
 30
0.0
  3
SYM-1
  1

  0
ARC
  5
8F
100
AcDbEntity
  8
0
  6
CONTINUOUS
 62
     3
100
AcDbCircle
 10
1.5
 20
1.5
 30
0.0
 40
1.0
100
AcDbArc
 50
180.0
 51
270.0
  0
ARC
  5
90
100
AcDbEntity
  8
0
  6
CONTINUOUS
 62
     3
100
AcDbCircle
 10
-1.5
 20
-1.5
 30
0.0
 40
1.0
100
AcDbArc
 50
0.0
 51
90.0
  0
ARC
  5
91
100
AcDbEntity
  8
0
  6
CONTINUOUS
 62
     3
100
AcDbCircle
 10
-1.5
 20
1.5
 30
0.0
 40
1.0
100
AcDbArc
 50
270.0
 51
0.0
  0
ARC
  5
92
100
AcDbEntity
  8
0
  6
CONTINUOUS
 62
     3
100
AcDbCircle
 10
1.5
 20
-1.5
 30
0.0
 40
1.0
100
AcDbArc
 50
90.0
 51
180.0
  0
ARC
  5
93
100
AcDbEntity
  8
0
  6
CONTINUOUS
 62
     3
100
AcDbCircle
 10
1.5
 20
1.5
 30
0.0
 40
1.0
100
AcDbArc
 50
180.0
 51
270.0
  0
ARC
  5
94
100
AcDbEntity
  8
0
  6
CONTINUOUS
 62
     3
100
AcDbCircle
 10
1.5
 20
-1.5
 30
0.0
 40
1.0
100
AcDbArc
 50
90.0
 51
180.0
  0
CIRCLE
  5
95
100
AcDbEntity
  8
0
  6
CONTINUOUS
 62
     3
100
AcDbCircle
 10
0.0
 20
0.0
 30
0.0
 40
5.0
  0
LINE
  5
96
100
AcDbEntity
  8
0
  6
CONTINUOUS
 62
     3
100
AcDbLine
 10
0.5
 20
1.5
 30
0.0
 11
0.5
 21
2.55
 31
0.0
  0
LINE
  5
97
100
AcDbEntity
  8
0
  6
CONTINUOUS
 62
     3
100
AcDbLine
 10
-0.5
 20
2.55
 30
0.0
 11
0.5
 21
2.55
 31
0.0
  0
LINE
  5
98
100
AcDbEntity
  8
0
  6
CONTINUOUS
 62
     3
100
AcDbLine
 10
-0.5
 20
1.5
 30
0.0
 11
-0.5
 21
2.55
 31
0.0
  0
LINE
  5
99
100
AcDbEntity
  8
0
  6
CONTINUOUS
 62
     3
100
AcDbLine
 10
-0.5
 20
1.5
 30
0.0
 11
-0.5
 21
2.55
 31
0.0
  0
LINE
  5
9A
100
AcDbEntity
  8
0
  6
CONTINUOUS
 62
     3
100
AcDbLine
 10
0.5
 20
2.55
 30
0.0
 11
-0.5
 21
2.55
 31
0.0
  0
LINE
  5
9B
100
AcDbEntity
  8
0
  6
CONTINUOUS
 62
     3
100
AcDbLine
 10
0.5
 20
1.5
 30
0.0
 11
0.5
 21
2.55
 31
0.0
  0
LINE
  5
9C
100
AcDbEntity
  8
0
  6
CONTINUOUS
 62
     3
100
AcDbLine
 10
-2.55
 20
-0.5
 30
0.0
 11
-2.55
 21
0.5
 31
0.0
  0
LINE
  5
9D
100
AcDbEntity
  8
0
  6
CONTINUOUS
 62
     3
100
AcDbLine
 10
-1.5
 20
-0.5
 30
0.0
 11
-2.55
 21
-0.5
 31
0.0
  0
LINE
  5
9E
100
AcDbEntity
  8
0
  6
CONTINUOUS
 62
     3
100
AcDbLine
 10
-1.5
 20
0.5
 30
0.0
 11
-2.55
 21
0.5
 31
0.0
  0
LINE
  5
9F
100
AcDbEntity
  8
0
  6
CONTINUOUS
 62
     3
100
AcDbLine
 10
0.5
 20
-2.55
 30
0.0
 11
-0.5
 21
-2.55
 31
0.0
  0
LINE
  5
A0
100
AcDbEntity
  8
0
  6
CONTINUOUS
 62
     3
100
AcDbLine
 10
0.5
 20
-1.5
 30
0.0
 11
0.5
 21
-2.55
 31
0.0
  0
LINE
  5
A1
100
AcDbEntity
  8
0
  6
CONTINUOUS
 62
     3
100
AcDbLine
 10
-0.5
 20
-1.5
 30
0.0
 11
-0.5
 21
-2.55
 31
0.0
  0
LINE
  5
A2
100
AcDbEntity
  8
0
  6
CONTINUOUS
 62
     3
100
AcDbLine
 10
-0.5
 20
-1.5
 30
0.0
 11
-0.5
 21
-2.55
 31
0.0
  0
LINE
  5
A3
100
AcDbEntity
  8
0
  6
CONTINUOUS
 62
     3
100
AcDbLine
 10
0.5
 20
-1.5
 30
0.0
 11
0.5
 21
-2.55
 31
0.0
  0
LINE
  5
A4
100
AcDbEntity
  8
0
  6
CONTINUOUS
 62
     3
100
AcDbLine
 10
2.55
 20
0.5
 30
0.0
 11
2.55
 21
-0.5
 31
0.0
  0
LINE
  5
A5
100
AcDbEntity
  8
0
  6
CONTINUOUS
 62
     3
100
AcDbLine
 10
1.5
 20
-0.5
 30
0.0
 11
2.55
 21
-0.5
 31
0.0
  0
LINE
  5
A6
100
AcDbEntity
  8
0
  6
CONTINUOUS
 62
     3
100
AcDbLine
 10
1.5
 20
0.5
 30
0.0
 11
2.55
 21
0.5
 31
0.0
  0
LINE
  5
A7
100
AcDbEntity
  8
0
  6
CONTINUOUS
 62
     3
100
AcDbLine
 10
1.5
 20
0.5
 30
0.0
 11
2.55
 21
0.5
 31
0.0
  0
ENDBLK
  5
A8
100
AcDbEntity
  8
0
100
AcDbBlockEnd
  0
BLOCK
  5
A9
100
AcDbEntity
  8
0
100
AcDbBlockBegin
  2
SYM-2
 70
     0
 10
0.0
 20
0.0
 30
0.0
  3
SYM-2
  1

  0
TEXT
  5
AA
100
AcDbEntity
  8
0
  6
CONTINUOUS
 62
     2
100
AcDbText
 10
-2.828427
 20
-2.828427
 30
0.0
 40
5.656854
  1
１
 41
0.84
  7
EXCADSTD
 72
     5
 11
1.697056
 21
-2.828427
 31
0.0
100
AcDbText
  0
CIRCLE
  5
AB
100
AcDbEntity
  8
0
  6
CONTINUOUS
 62
     1
100
AcDbCircle
 10
0.0
 20
0.0
 30
0.0
 40
4.0
  0
TEXT
  5
AC
100
AcDbEntity
  8
0
  6
CONTINUOUS
 62
     2
100
AcDbText
 10
6.6
 20
-3.2
 30
0.0
 40
7.0
  1
トップピボット（上枠側）
 41
0.672
  7
EXCADSTD
 72
     5
 11
73.799999
 21
-3.2
 31
0.0
100
AcDbText
  0
LINE
  5
AD
100
AcDbEntity
  8
0
  6
CONTINUOUS
 62
     1
100
AcDbLine
 10
4.0
 20
-3.7
 30
0.0
 11
70.1
 21
-3.7
 31
0.0
  0
ENDBLK
  5
AE
100
AcDbEntity
  8
0
100
AcDbBlockEnd
  0
BLOCK
  5
AF
100
AcDbEntity
  8
0
100
AcDbBlockBegin
  2
SYM-3
 70
     0
 10
0.0
 20
0.0
 30
0.0
  3
SYM-3
  1

  0
TEXT
  5
B0
100
AcDbEntity
  8
0
  6
CONTINUOUS
 62
     2
100
AcDbText
 10
-2.828427
 20
-2.828427
 30
0.0
 40
5.656854
  1
２
 41
0.84
  7
EXCADSTD
 72
     5
 11
1.697056
 21
-2.828427
 31
0.0
100
AcDbText
  0
CIRCLE
  5
B1
100
AcDbEntity
  8
0
  6
CONTINUOUS
 62
     1
100
AcDbCircle
 10
0.0
 20
0.0
 30
0.0
 40
4.0
  0
TEXT
  5
B2
100
AcDbEntity
  8
0
  6
CONTINUOUS
 62
     2
100
AcDbText
 10
6.6
 20
-3.2
 30
0.0
 40
7.0
  1
トップピボット（ドア側）
 41
0.672
  7
EXCADSTD
 72
     5
 11
73.799999
 21
-3.2
 31
0.0
100
AcDbText
  0
LINE
  5
B3
100
AcDbEntity
  8
0
  6
CONTINUOUS
 62
     1
100
AcDbLine
 10
4.0
 20
-3.7
 30
0.0
 11
71.0
 21
-3.7
 31
0.0
  0
ENDBLK
  5
B4
100
AcDbEntity
  8
0
100
AcDbBlockEnd
  0
ENDSEC
  0
SECTION
  2
ENTITIES
  0
LINE
  5
B5
100
AcDbEntity
  8
LAY-1
  6
CONTINUOUS
 62
     3
100
AcDbLine
 10
154.0
 20
404.0
 30
0.0
 11
158.0
 21
404.0
 31
0.0
  0
LINE
  5
B6
100
AcDbEntity
  8
LAY-1
  6
DASHED2
 62
     3
100
AcDbLine
 10
155.7
 20
396.0
 30
0.0
 11
157.7
 21
394.0
 31
0.0
  0
LINE
  5
B7
100
AcDbEntity
  8
LAY-1
  6
DASHED2
 62
     3
100
AcDbLine
 10
158.0
 20
394.0
 30
0.0
 11
157.7
 21
394.0
 31
0.0
  0
LINE
  5
B8
100
AcDbEntity
  8
LAY-1
  6
DASHED2
 62
     3
100
AcDbLine
 10
155.7
 20
396.0
 30
0.0
 11
133.0
 21
396.0
 31
0.0
  0
LINE
  5
B9
100
AcDbEntity
  8
LAY-1
  6
DASHED2
 62
     3
100
AcDbLine
 10
155.7
 20
400.0
 30
0.0
 11
157.7
 21
402.0
 31
0.0
  0
LINE
  5
BA
100
AcDbEntity
  8
LAY-1
  6
DASHED2
 62
     3
100
AcDbLine
 10
158.0
 20
402.0
 30
0.0
 11
157.7
 21
402.0
 31
0.0
  0
LINE
  5
BB
100
AcDbEntity
  8
LAY-1
  6
DASHED2
 62
     3
100
AcDbLine
 10
155.7
 20
400.0
 30
0.0
 11
133.0
 21
400.0
 31
0.0
  0
LINE
  5
BC
100
AcDbEntity
  8
LAY-1
  6
DASHED2
 62
     3
100
AcDbLine
 10
157.7
 20
394.0
 30
0.0
 11
157.7
 21
402.0
 31
0.0
  0
LINE
  5
BD
100
AcDbEntity
  8
LAY-1
  6
DASHED2
 62
     3
100
AcDbLine
 10
155.7
 20
396.0
 30
0.0
 11
155.7
 21
400.0
 31
0.0
  0
LINE
  5
BE
100
AcDbEntity
  8
LAY-1
  6
CONTINUOUS
 62
     3
100
AcDbLine
 10
158.0
 20
394.0
 30
0.0
 11
158.0
 21
402.0
 31
0.0
  0
LINE
  5
BF
100
AcDbEntity
  8
LAY-1
  6
DASHED2
 62
     3
100
AcDbLine
 10
133.0
 20
400.0
 30
0.0
 11
128.0
 21
398.0
 31
0.0
  0
LINE
  5
C0
100
AcDbEntity
  8
LAY-1
  6
DASHED2
 62
     3
100
AcDbLine
 10
128.0
 20
398.0
 30
0.0
 11
133.0
 21
396.0
 31
0.0
  0
LINE
  5
C1
100
AcDbEntity
  8
LAY-1
  6
DASHED2
 62
     3
100
AcDbLine
 10
151.330127
 20
400.5
 30
0.0
 11
152.669873
 21
395.5
 31
0.0
  0
LINE
  5
C2
100
AcDbEntity
  8
LAY-1
  6
DASHED2
 62
     3
100
AcDbLine
 10
148.330127
 20
400.5
 30
0.0
 11
149.669873
 21
395.5
 31
0.0
  0
LINE
  5
C3
100
AcDbEntity
  8
LAY-1
  6
DASHED2
 62
     3
100
AcDbLine
 10
145.330127
 20
400.5
 30
0.0
 11
146.669873
 21
395.5
 31
0.0
  0
LINE
  5
C4
100
AcDbEntity
  8
LAY-1
  6
DASHED2
 62
     3
100
AcDbLine
 10
142.330127
 20
400.5
 30
0.0
 11
143.669873
 21
395.5
 31
0.0
  0
LINE
  5
C5
100
AcDbEntity
  8
LAY-1
  6
DASHED2
 62
     3
100
AcDbLine
 10
139.330127
 20
400.5
 30
0.0
 11
140.669873
 21
395.5
 31
0.0
  0
LINE
  5
C6
100
AcDbEntity
  8
LAY-1
  6
DASHED2
 62
     3
100
AcDbLine
 10
136.330127
 20
400.5
 30
0.0
 11
137.669873
 21
395.5
 31
0.0
  0
LINE
  5
C7
100
AcDbEntity
  8
LAY-1
  6
DASHED2
 62
     3
100
AcDbLine
 10
133.330127
 20
400.5
 30
0.0
 11
134.669873
 21
395.5
 31
0.0
  0
LINE
  5
C8
100
AcDbEntity
  8
LAY-1
  6
DASHED2
 62
     3
100
AcDbLine
 10
130.579261
 20
399.570221
 30
0.0
 11
131.521756
 21
396.052781
 31
0.0
  0
LINE
  5
C9
100
AcDbEntity
  8
LAY-1
  6
DASHED2
 62
     3
100
AcDbLine
 10
155.7
 20
381.0
 30
0.0
 11
157.7
 21
379.0
 31
0.0
  0
LINE
  5
CA
100
AcDbEntity
  8
LAY-1
  6
DASHED2
 62
     3
100
AcDbLine
 10
158.0
 20
379.0
 30
0.0
 11
157.7
 21
379.0
 31
0.0
  0
LINE
  5
CB
100
AcDbEntity
  8
LAY-1
  6
DASHED2
 62
     3
100
AcDbLine
 10
155.7
 20
381.0
 30
0.0
 11
133.0
 21
381.0
 31
0.0
  0
LINE
  5
CC
100
AcDbEntity
  8
LAY-1
  6
DASHED2
 62
     3
100
AcDbLine
 10
155.7
 20
385.0
 30
0.0
 11
157.7
 21
387.0
 31
0.0
  0
LINE
  5
CD
100
AcDbEntity
  8
LAY-1
  6
DASHED2
 62
     3
100
AcDbLine
 10
158.0
 20
387.0
 30
0.0
 11
157.7
 21
387.0
 31
0.0
  0
LINE
  5
CE
100
AcDbEntity
  8
LAY-1
  6
DASHED2
 62
     3
100
AcDbLine
 10
155.7
 20
385.0
 30
0.0
 11
133.0
 21
385.0
 31
0.0
  0
LINE
  5
CF
100
AcDbEntity
  8
LAY-1
  6
DASHED2
 62
     3
100
AcDbLine
 10
157.7
 20
379.0
 30
0.0
 11
157.7
 21
387.0
 31
0.0
  0
LINE
  5
D0
100
AcDbEntity
  8
LAY-1
  6
DASHED2
 62
     3
100
AcDbLine
 10
155.7
 20
381.0
 30
0.0
 11
155.7
 21
385.0
 31
0.0
  0
LINE
  5
D1
100
AcDbEntity
  8
LAY-1
  6
CONTINUOUS
 62
     3
100
AcDbLine
 10
158.0
 20
379.0
 30
0.0
 11
158.0
 21
387.0
 31
0.0
  0
LINE
  5
D2
100
AcDbEntity
  8
LAY-1
  6
DASHED2
 62
     3
100
AcDbLine
 10
133.0
 20
385.0
 30
0.0
 11
128.0
 21
383.0
 31
0.0
  0
LINE
  5
D3
100
AcDbEntity
  8
LAY-1
  6
DASHED2
 62
     3
100
AcDbLine
 10
128.0
 20
383.0
 30
0.0
 11
133.0
 21
381.0
 31
0.0
  0
LINE
  5
D4
100
AcDbEntity
  8
LAY-1
  6
DASHED2
 62
     3
100
AcDbLine
 10
151.330127
 20
385.5
 30
0.0
 11
152.669873
 21
380.5
 31
0.0
  0
LINE
  5
D5
100
AcDbEntity
  8
LAY-1
  6
DASHED2
 62
     3
100
AcDbLine
 10
148.330127
 20
385.5
 30
0.0
 11
149.669873
 21
380.5
 31
0.0
  0
LINE
  5
D6
100
AcDbEntity
  8
LAY-1
  6
DASHED2
 62
     3
100
AcDbLine
 10
145.330127
 20
385.5
 30
0.0
 11
146.669873
 21
380.5
 31
0.0
  0
LINE
  5
D7
100
AcDbEntity
  8
LAY-1
  6
DASHED2
 62
     3
100
AcDbLine
 10
142.330127
 20
385.5
 30
0.0
 11
143.669873
 21
380.5
 31
0.0
  0
LINE
  5
D8
100
AcDbEntity
  8
LAY-1
  6
DASHED2
 62
     3
100
AcDbLine
 10
139.330127
 20
385.5
 30
0.0
 11
140.669873
 21
380.5
 31
0.0
  0
LINE
  5
D9
100
AcDbEntity
  8
LAY-1
  6
DASHED2
 62
     3
100
AcDbLine
 10
136.330127
 20
385.5
 30
0.0
 11
137.669873
 21
380.5
 31
0.0
  0
LINE
  5
DA
100
AcDbEntity
  8
LAY-1
  6
DASHED2
 62
     3
100
AcDbLine
 10
133.330127
 20
385.5
 30
0.0
 11
134.669873
 21
380.5
 31
0.0
  0
LINE
  5
DB
100
AcDbEntity
  8
LAY-1
  6
DASHED2
 62
     3
100
AcDbLine
 10
130.579261
 20
384.570221
 30
0.0
 11
131.521756
 21
381.052781
 31
0.0
  0
LINE
  5
DC
100
AcDbEntity
  8
LAY-1
  6
CONTINUOUS
 62
     3
100
AcDbLine
 10
158.0
 20
404.0
 30
0.0
 11
158.0
 21
370.0
 31
0.0
  0
LINE
  5
DD
100
AcDbEntity
  8
LAY-1
  6
DASHED2
 62
     3
100
AcDbLine
 10
158.0
 20
370.0
 30
0.0
 11
158.0
 21
342.0
 31
0.0
  0
LINE
  5
DE
100
AcDbEntity
  8
LAY-1
  6
CONTINUOUS
 62
     3
100
AcDbLine
 10
154.0
 20
342.0
 30
0.0
 11
178.0
 21
342.0
 31
0.0
  0
CIRCLE
  5
DF
100
AcDbEntity
  8
LAY-1
  6
CONTINUOUS
 62
     3
100
AcDbCircle
 10
178.0
 20
356.0
 30
0.0
 40
14.0
  0
LINE
  5
E0
100
AcDbEntity
  8
LAY-1
  6
DASHED2
 62
     3
100
AcDbLine
 10
158.0
 20
377.0
 30
0.0
 11
154.0
 21
377.0
 31
0.0
  0
LINE
  5
E1
100
AcDbEntity
  8
LAY-1
  6
DASHED2
 62
     3
100
AcDbLine
 10
154.0
 20
370.0
 30
0.0
 11
158.0
 21
370.0
 31
0.0
  0
LINE
  5
E2
100
AcDbEntity
  8
LAY-1
  6
CONTINUOUS
 62
     3
100
AcDbLine
 10
158.0
 20
370.0
 30
0.0
 11
178.0
 21
370.0
 31
0.0
  0
CIRCLE
  5
E3
100
AcDbEntity
  8
LAY-1
  6
DASHED2
 62
     3
100
AcDbCircle
 10
178.0
 20
356.0
 30
0.0
 40
5.9
  0
CIRCLE
  5
E4
100
AcDbEntity
  8
LAY-1
  6
DASHED2
 62
     3
100
AcDbCircle
 10
178.0
 20
356.0
 30
0.0
 40
5.4
  0
INSERT
  5
E5
100
AcDbEntity
  8
LAY-1
  6
CONTINUOUS
 62
     0
100
AcDbBlockReference
  2
SYM-1
 10
188.0
 20
356.0
 30
0.0
 41
0.6
 42
0.6
  0
INSERT
  5
E6
100
AcDbEntity
  8
LAY-1
  6
CONTINUOUS
 62
     0
100
AcDbBlockReference
  2
SYM-1
 10
173.0
 20
364.660254
 30
0.0
 41
0.6
 42
0.6
  0
INSERT
  5
E7
100
AcDbEntity
  8
LAY-1
  6
CONTINUOUS
 62
     0
100
AcDbBlockReference
  2
SYM-1
 10
173.0
 20
347.339746
 30
0.0
 41
0.6
 42
0.6
  0
LINE
  5
E8
100
AcDbEntity
  8
LAY-1
  6
CONTINUOUS
 62
     3
100
AcDbLine
 10
154.0
 20
404.0
 30
0.0
 11
154.0
 21
370.0
 31
0.0
  0
LINE
  5
E9
100
AcDbEntity
  8
LAY-1
  6
CONTINUOUS
 62
     3
100
AcDbLine
 10
154.0
 20
370.0
 30
0.0
 11
154.0
 21
342.0
 31
0.0
  0
LINE
  5
EA
100
AcDbEntity
  8
LAY-1
  6
CONTINUOUS
 62
     3
100
AcDbLine
 10
597.999999
 20
432.0
 30
0.0
 11
569.999999
 21
432.0
 31
0.0
  0
LINE
  5
EB
100
AcDbEntity
  8
LAY-1
  6
CONTINUOUS
 62
     3
100
AcDbLine
 10
569.999999
 20
429.80315
 30
0.0
 11
569.999999
 21
439.0
 31
0.0
  0
LINE
  5
EC
100
AcDbEntity
  8
LAY-1
  6
CONTINUOUS
 62
     3
100
AcDbLine
 10
569.999999
 20
439.0
 30
0.0
 11
597.999999
 21
439.0
 31
0.0
  0
LINE
  5
ED
100
AcDbEntity
  8
LAY-1
  6
CONTINUOUS
 62
     3
100
AcDbLine
 10
597.999999
 20
439.0
 30
0.0
 11
597.999999
 21
432.0
 31
0.0
  0
LINE
  5
EE
100
AcDbEntity
  8
LAY-1
  6
CONTINUOUS
 62
     3
100
AcDbLine
 10
569.999999
 20
436.0
 30
0.0
 11
597.999999
 21
436.0
 31
0.0
  0
LINE
  5
EF
100
AcDbEntity
  8
LAY-1
  6
DASHED2
 62
     3
100
AcDbLine
 10
573.339999
 20
438.0
 30
0.0
 11
573.339999
 21
432.0
 31
0.0
  0
LINE
  5
F0
100
AcDbEntity
  8
LAY-1
  6
DASHED2
 62
     3
100
AcDbLine
 10
577.339999
 20
438.0
 30
0.0
 11
577.339999
 21
432.0
 31
0.0
  0
LINE
  5
F1
100
AcDbEntity
  8
LAY-1
  6
DASHED2
 62
     3
100
AcDbLine
 10
572.339999
 20
439.0
 30
0.0
 11
573.339999
 21
438.0
 31
0.0
  0
LINE
  5
F2
100
AcDbEntity
  8
LAY-1
  6
DASHED2
 62
     3
100
AcDbLine
 10
578.339999
 20
439.0
 30
0.0
 11
577.339999
 21
438.0
 31
0.0
  0
LINE
  5
F3
100
AcDbEntity
  8
LAY-1
  6
DASHED2
 62
     3
100
AcDbLine
 10
573.339999
 20
438.0
 30
0.0
 11
577.339999
 21
438.0
 31
0.0
  0
LINE
  5
F4
100
AcDbEntity
  8
LAY-1
  6
DASHED2
 62
     1
100
AcDbLine
 10
573.839999
 20
438.0
 30
0.0
 11
573.839999
 21
432.0
 31
0.0
  0
LINE
  5
F5
100
AcDbEntity
  8
LAY-1
  6
DASHED2
 62
     1
100
AcDbLine
 10
576.839999
 20
438.0
 30
0.0
 11
576.839999
 21
432.0
 31
0.0
  0
LINE
  5
F6
100
AcDbEntity
  8
LAY-1
  6
DASHED2
 62
     3
100
AcDbLine
 10
581.999999
 20
438.0
 30
0.0
 11
581.999999
 21
432.0
 31
0.0
  0
LINE
  5
F7
100
AcDbEntity
  8
LAY-1
  6
DASHED2
 62
     3
100
AcDbLine
 10
585.999999
 20
438.0
 30
0.0
 11
585.999999
 21
432.0
 31
0.0
  0
LINE
  5
F8
100
AcDbEntity
  8
LAY-1
  6
DASHED2
 62
     3
100
AcDbLine
 10
580.999999
 20
439.0
 30
0.0
 11
581.999999
 21
438.0
 31
0.0
  0
LINE
  5
F9
100
AcDbEntity
  8
LAY-1
  6
DASHED2
 62
     3
100
AcDbLine
 10
586.999999
 20
439.0
 30
0.0
 11
585.999999
 21
438.0
 31
0.0
  0
LINE
  5
FA
100
AcDbEntity
  8
LAY-1
  6
DASHED2
 62
     3
100
AcDbLine
 10
581.999999
 20
438.0
 30
0.0
 11
585.999999
 21
438.0
 31
0.0
  0
LINE
  5
FB
100
AcDbEntity
  8
LAY-1
  6
DASHED2
 62
     1
100
AcDbLine
 10
582.499999
 20
438.0
 30
0.0
 11
582.499999
 21
432.0
 31
0.0
  0
LINE
  5
FC
100
AcDbEntity
  8
LAY-1
  6
DASHED2
 62
     1
100
AcDbLine
 10
585.499999
 20
438.0
 30
0.0
 11
585.499999
 21
432.0
 31
0.0
  0
LINE
  5
FD
100
AcDbEntity
  8
LAY-1
  6
DASHED2
 62
     3
100
AcDbLine
 10
590.659999
 20
438.0
 30
0.0
 11
590.659999
 21
432.0
 31
0.0
  0
LINE
  5
FE
100
AcDbEntity
  8
LAY-1
  6
DASHED2
 62
     3
100
AcDbLine
 10
594.659999
 20
438.0
 30
0.0
 11
594.659999
 21
432.0
 31
0.0
  0
LINE
  5
FF
100
AcDbEntity
  8
LAY-1
  6
DASHED2
 62
     3
100
AcDbLine
 10
589.659999
 20
439.0
 30
0.0
 11
590.659999
 21
438.0
 31
0.0
  0
LINE
  5
100
100
AcDbEntity
  8
LAY-1
  6
DASHED2
 62
     3
100
AcDbLine
 10
595.659999
 20
439.0
 30
0.0
 11
594.659999
 21
438.0
 31
0.0
  0
LINE
  5
101
100
AcDbEntity
  8
LAY-1
  6
DASHED2
 62
     3
100
AcDbLine
 10
590.659999
 20
438.0
 30
0.0
 11
594.659999
 21
438.0
 31
0.0
  0
LINE
  5
102
100
AcDbEntity
  8
LAY-1
  6
DASHED2
 62
     1
100
AcDbLine
 10
591.159999
 20
438.0
 30
0.0
 11
591.159999
 21
432.0
 31
0.0
  0
LINE
  5
103
100
AcDbEntity
  8
LAY-1
  6
DASHED2
 62
     1
100
AcDbLine
 10
594.159999
 20
438.0
 30
0.0
 11
594.159999
 21
432.0
 31
0.0
  0
LINE
  5
104
100
AcDbEntity
  8
LAY-1
  6
DASHED2
 62
     3
100
AcDbLine
 10
604.999999
 20
390.0
 30
0.0
 11
604.999999
 21
360.0
 31
0.0
  0
LINE
  5
105
100
AcDbEntity
  8
LAY-1
  6
CONTINUOUS
 62
     3
100
AcDbLine
 10
597.999999
 20
430.0
 30
0.0
 11
631.999999
 21
430.0
 31
0.0
  0
LINE
  5
106
100
AcDbEntity
  8
LAY-1
  6
DASHED2
 62
     3
100
AcDbLine
 10
604.999999
 20
360.0
 30
0.0
 11
631.999999
 21
360.0
 31
0.0
  0
LINE
  5
107
100
AcDbEntity
  8
LAY-1
  6
CONTINUOUS
 62
     3
100
AcDbLine
 10
597.999999
 20
432.0
 30
0.0
 11
597.999999
 21
430.0
 31
0.0
  0
ARC
  5
108
100
AcDbEntity
  8
LAY-1
  6
DASHED2
 62
     3
100
AcDbCircle
 10
627.499999
 20
414.5
 30
0.0
 40
1.0
100
AcDbArc
 50
180.0
 51
270.0
  0
ARC
  5
109
100
AcDbEntity
  8
LAY-1
  6
DASHED2
 62
     3
100
AcDbCircle
 10
624.499999
 20
411.5
 30
0.0
 40
1.0
100
AcDbArc
 50
0.0
 51
90.0
  0
ARC
  5
10A
100
AcDbEntity
  8
LAY-1
  6
DASHED2
 62
     3
100
AcDbCircle
 10
624.499999
 20
414.5
 30
0.0
 40
1.0
100
AcDbArc
 50
270.0
 51
0.0
  0
ARC
  5
10B
100
AcDbEntity
  8
LAY-1
  6
DASHED2
 62
     3
100
AcDbCircle
 10
627.499999
 20
411.5
 30
0.0
 40
1.0
100
AcDbArc
 50
90.0
 51
180.0
  0
ARC
  5
10C
100
AcDbEntity
  8
LAY-1
  6
DASHED2
 62
     3
100
AcDbCircle
 10
627.499999
 20
414.5
 30
0.0
 40
1.0
100
AcDbArc
 50
180.0
 51
270.0
  0
ARC
  5
10D
100
AcDbEntity
  8
LAY-1
  6
DASHED2
 62
     3
100
AcDbCircle
 10
627.499999
 20
411.5
 30
0.0
 40
1.0
100
AcDbArc
 50
90.0
 51
180.0
  0
CIRCLE
  5
10E
100
AcDbEntity
  8
LAY-1
  6
DASHED2
 62
     3
100
AcDbCircle
 10
625.999999
 20
413.0
 30
0.0
 40
4.0
  0
LINE
  5
10F
100
AcDbEntity
  8
LAY-1
  6
DASHED2
 62
     3
100
AcDbLine
 10
626.499999
 20
414.5
 30
0.0
 11
626.499999
 21
415.25
 31
0.0
  0
LINE
  5
110
100
AcDbEntity
  8
LAY-1
  6
DASHED2
 62
     3
100
AcDbLine
 10
625.499999
 20
415.25
 30
0.0
 11
626.499999
 21
415.25
 31
0.0
  0
LINE
  5
111
100
AcDbEntity
  8
LAY-1
  6
DASHED2
 62
     3
100
AcDbLine
 10
625.499999
 20
414.5
 30
0.0
 11
625.499999
 21
415.25
 31
0.0
  0
LINE
  5
112
100
AcDbEntity
  8
LAY-1
  6
DASHED2
 62
     3
100
AcDbLine
 10
625.499999
 20
414.5
 30
0.0
 11
625.499999
 21
415.25
 31
0.0
  0
LINE
  5
113
100
AcDbEntity
  8
LAY-1
  6
DASHED2
 62
     3
100
AcDbLine
 10
626.499999
 20
415.25
 30
0.0
 11
625.499999
 21
415.25
 31
0.0
  0
LINE
  5
114
100
AcDbEntity
  8
LAY-1
  6
DASHED2
 62
     3
100
AcDbLine
 10
626.499999
 20
414.5
 30
0.0
 11
626.499999
 21
415.25
 31
0.0
  0
LINE
  5
115
100
AcDbEntity
  8
LAY-1
  6
DASHED2
 62
     3
100
AcDbLine
 10
623.749999
 20
412.5
 30
0.0
 11
623.749999
 21
413.5
 31
0.0
  0
LINE
  5
116
100
AcDbEntity
  8
LAY-1
  6
DASHED2
 62
     3
100
AcDbLine
 10
626.499999
 20
410.75
 30
0.0
 11
625.499999
 21
410.75
 31
0.0
  0
LINE
  5
117
100
AcDbEntity
  8
LAY-1
  6
DASHED2
 62
     3
100
AcDbLine
 10
628.249999
 20
413.5
 30
0.0
 11
628.249999
 21
412.5
 31
0.0
  0
LINE
  5
118
100
AcDbEntity
  8
LAY-1
  6
DASHED2
 62
     3
100
AcDbLine
 10
624.499999
 20
412.5
 30
0.0
 11
623.749999
 21
412.5
 31
0.0
  0
LINE
  5
119
100
AcDbEntity
  8
LAY-1
  6
DASHED2
 62
     3
100
AcDbLine
 10
624.499999
 20
413.5
 30
0.0
 11
623.749999
 21
413.5
 31
0.0
  0
LINE
  5
11A
100
AcDbEntity
  8
LAY-1
  6
DASHED2
 62
     3
100
AcDbLine
 10
626.499999
 20
411.5
 30
0.0
 11
626.499999
 21
410.75
 31
0.0
  0
LINE
  5
11B
100
AcDbEntity
  8
LAY-1
  6
DASHED2
 62
     3
100
AcDbLine
 10
625.499999
 20
411.5
 30
0.0
 11
625.499999
 21
410.75
 31
0.0
  0
LINE
  5
11C
100
AcDbEntity
  8
LAY-1
  6
DASHED2
 62
     3
100
AcDbLine
 10
625.499999
 20
411.5
 30
0.0
 11
625.499999
 21
410.75
 31
0.0
  0
LINE
  5
11D
100
AcDbEntity
  8
LAY-1
  6
DASHED2
 62
     3
100
AcDbLine
 10
626.499999
 20
411.5
 30
0.0
 11
626.499999
 21
410.75
 31
0.0
  0
LINE
  5
11E
100
AcDbEntity
  8
LAY-1
  6
DASHED2
 62
     3
100
AcDbLine
 10
627.499999
 20
412.5
 30
0.0
 11
628.249999
 21
412.5
 31
0.0
  0
LINE
  5
11F
100
AcDbEntity
  8
LAY-1
  6
DASHED2
 62
     3
100
AcDbLine
 10
627.499999
 20
413.5
 30
0.0
 11
628.249999
 21
413.5
 31
0.0
  0
LINE
  5
120
100
AcDbEntity
  8
LAY-1
  6
DASHED2
 62
     3
100
AcDbLine
 10
627.499999
 20
413.5
 30
0.0
 11
628.249999
 21
413.5
 31
0.0
  0
ARC
  5
121
100
AcDbEntity
  8
LAY-1
  6
DASHED2
 62
     3
100
AcDbCircle
 10
612.499999
 20
402.5
 30
0.0
 40
1.0
100
AcDbArc
 50
180.0
 51
270.0
  0
ARC
  5
122
100
AcDbEntity
  8
LAY-1
  6
DASHED2
 62
     3
100
AcDbCircle
 10
609.499999
 20
399.5
 30
0.0
 40
1.0
100
AcDbArc
 50
0.0
 51
90.0
  0
ARC
  5
123
100
AcDbEntity
  8
LAY-1
  6
DASHED2
 62
     3
100
AcDbCircle
 10
609.499999
 20
402.5
 30
0.0
 40
1.0
100
AcDbArc
 50
270.0
 51
0.0
  0
ARC
  5
124
100
AcDbEntity
  8
LAY-1
  6
DASHED2
 62
     3
100
AcDbCircle
 10
612.499999
 20
399.5
 30
0.0
 40
1.0
100
AcDbArc
 50
90.0
 51
180.0
  0
ARC
  5
125
100
AcDbEntity
  8
LAY-1
  6
DASHED2
 62
     3
100
AcDbCircle
 10
612.499999
 20
402.5
 30
0.0
 40
1.0
100
AcDbArc
 50
180.0
 51
270.0
  0
ARC
  5
126
100
AcDbEntity
  8
LAY-1
  6
DASHED2
 62
     3
100
AcDbCircle
 10
612.499999
 20
399.5
 30
0.0
 40
1.0
100
AcDbArc
 50
90.0
 51
180.0
  0
CIRCLE
  5
127
100
AcDbEntity
  8
LAY-1
  6
DASHED2
 62
     3
100
AcDbCircle
 10
610.999999
 20
401.0
 30
0.0
 40
4.0
  0
LINE
  5
128
100
AcDbEntity
  8
LAY-1
  6
DASHED2
 62
     3
100
AcDbLine
 10
611.499999
 20
402.5
 30
0.0
 11
611.499999
 21
403.25
 31
0.0
  0
LINE
  5
129
100
AcDbEntity
  8
LAY-1
  6
DASHED2
 62
     3
100
AcDbLine
 10
610.499999
 20
403.25
 30
0.0
 11
611.499999
 21
403.25
 31
0.0
  0
LINE
  5
12A
100
AcDbEntity
  8
LAY-1
  6
DASHED2
 62
     3
100
AcDbLine
 10
610.499999
 20
402.5
 30
0.0
 11
610.499999
 21
403.25
 31
0.0
  0
LINE
  5
12B
100
AcDbEntity
  8
LAY-1
  6
DASHED2
 62
     3
100
AcDbLine
 10
610.499999
 20
402.5
 30
0.0
 11
610.499999
 21
403.25
 31
0.0
  0
LINE
  5
12C
100
AcDbEntity
  8
LAY-1
  6
DASHED2
 62
     3
100
AcDbLine
 10
611.499999
 20
403.25
 30
0.0
 11
610.499999
 21
403.25
 31
0.0
  0
LINE
  5
12D
100
AcDbEntity
  8
LAY-1
  6
DASHED2
 62
     3
100
AcDbLine
 10
611.499999
 20
402.5
 30
0.0
 11
611.499999
 21
403.25
 31
0.0
  0
LINE
  5
12E
100
AcDbEntity
  8
LAY-1
  6
DASHED2
 62
     3
100
AcDbLine
 10
608.749999
 20
400.5
 30
0.0
 11
608.749999
 21
401.5
 31
0.0
  0
LINE
  5
12F
100
AcDbEntity
  8
LAY-1
  6
DASHED2
 62
     3
100
AcDbLine
 10
611.499999
 20
398.75
 30
0.0
 11
610.499999
 21
398.75
 31
0.0
  0
LINE
  5
130
100
AcDbEntity
  8
LAY-1
  6
DASHED2
 62
     3
100
AcDbLine
 10
613.249999
 20
401.5
 30
0.0
 11
613.249999
 21
400.5
 31
0.0
  0
LINE
  5
131
100
AcDbEntity
  8
LAY-1
  6
DASHED2
 62
     3
100
AcDbLine
 10
609.499999
 20
400.5
 30
0.0
 11
608.749999
 21
400.5
 31
0.0
  0
LINE
  5
132
100
AcDbEntity
  8
LAY-1
  6
DASHED2
 62
     3
100
AcDbLine
 10
609.499999
 20
401.5
 30
0.0
 11
608.749999
 21
401.5
 31
0.0
  0
LINE
  5
133
100
AcDbEntity
  8
LAY-1
  6
DASHED2
 62
     3
100
AcDbLine
 10
611.499999
 20
399.5
 30
0.0
 11
611.499999
 21
398.75
 31
0.0
  0
LINE
  5
134
100
AcDbEntity
  8
LAY-1
  6
DASHED2
 62
     3
100
AcDbLine
 10
610.499999
 20
399.5
 30
0.0
 11
610.499999
 21
398.75
 31
0.0
  0
LINE
  5
135
100
AcDbEntity
  8
LAY-1
  6
DASHED2
 62
     3
100
AcDbLine
 10
610.499999
 20
399.5
 30
0.0
 11
610.499999
 21
398.75
 31
0.0
  0
LINE
  5
136
100
AcDbEntity
  8
LAY-1
  6
DASHED2
 62
     3
100
AcDbLine
 10
611.499999
 20
399.5
 30
0.0
 11
611.499999
 21
398.75
 31
0.0
  0
LINE
  5
137
100
AcDbEntity
  8
LAY-1
  6
DASHED2
 62
     3
100
AcDbLine
 10
612.499999
 20
400.5
 30
0.0
 11
613.249999
 21
400.5
 31
0.0
  0
LINE
  5
138
100
AcDbEntity
  8
LAY-1
  6
DASHED2
 62
     3
100
AcDbLine
 10
612.499999
 20
401.5
 30
0.0
 11
613.249999
 21
401.5
 31
0.0
  0
LINE
  5
139
100
AcDbEntity
  8
LAY-1
  6
DASHED2
 62
     3
100
AcDbLine
 10
612.499999
 20
401.5
 30
0.0
 11
613.249999
 21
401.5
 31
0.0
  0
ARC
  5
13A
100
AcDbEntity
  8
LAY-1
  6
DASHED2
 62
     3
100
AcDbCircle
 10
627.499999
 20
379.5
 30
0.0
 40
1.0
100
AcDbArc
 50
180.0
 51
270.0
  0
ARC
  5
13B
100
AcDbEntity
  8
LAY-1
  6
DASHED2
 62
     3
100
AcDbCircle
 10
624.499999
 20
376.5
 30
0.0
 40
1.0
100
AcDbArc
 50
0.0
 51
90.0
  0
ARC
  5
13C
100
AcDbEntity
  8
LAY-1
  6
DASHED2
 62
     3
100
AcDbCircle
 10
624.499999
 20
379.5
 30
0.0
 40
1.0
100
AcDbArc
 50
270.0
 51
0.0
  0
ARC
  5
13D
100
AcDbEntity
  8
LAY-1
  6
DASHED2
 62
     3
100
AcDbCircle
 10
627.499999
 20
376.5
 30
0.0
 40
1.0
100
AcDbArc
 50
90.0
 51
180.0
  0
ARC
  5
13E
100
AcDbEntity
  8
LAY-1
  6
DASHED2
 62
     3
100
AcDbCircle
 10
627.499999
 20
379.5
 30
0.0
 40
1.0
100
AcDbArc
 50
180.0
 51
270.0
  0
ARC
  5
13F
100
AcDbEntity
  8
LAY-1
  6
DASHED2
 62
     3
100
AcDbCircle
 10
627.499999
 20
376.5
 30
0.0
 40
1.0
100
AcDbArc
 50
90.0
 51
180.0
  0
CIRCLE
  5
140
100
AcDbEntity
  8
LAY-1
  6
DASHED2
 62
     3
100
AcDbCircle
 10
625.999999
 20
378.0
 30
0.0
 40
4.0
  0
LINE
  5
141
100
AcDbEntity
  8
LAY-1
  6
DASHED2
 62
     3
100
AcDbLine
 10
626.499999
 20
379.5
 30
0.0
 11
626.499999
 21
380.25
 31
0.0
  0
LINE
  5
142
100
AcDbEntity
  8
LAY-1
  6
DASHED2
 62
     3
100
AcDbLine
 10
625.499999
 20
380.25
 30
0.0
 11
626.499999
 21
380.25
 31
0.0
  0
LINE
  5
143
100
AcDbEntity
  8
LAY-1
  6
DASHED2
 62
     3
100
AcDbLine
 10
625.499999
 20
379.5
 30
0.0
 11
625.499999
 21
380.25
 31
0.0
  0
LINE
  5
144
100
AcDbEntity
  8
LAY-1
  6
DASHED2
 62
     3
100
AcDbLine
 10
625.499999
 20
379.5
 30
0.0
 11
625.499999
 21
380.25
 31
0.0
  0
LINE
  5
145
100
AcDbEntity
  8
LAY-1
  6
DASHED2
 62
     3
100
AcDbLine
 10
626.499999
 20
380.25
 30
0.0
 11
625.499999
 21
380.25
 31
0.0
  0
LINE
  5
146
100
AcDbEntity
  8
LAY-1
  6
DASHED2
 62
     3
100
AcDbLine
 10
626.499999
 20
379.5
 30
0.0
 11
626.499999
 21
380.25
 31
0.0
  0
LINE
  5
147
100
AcDbEntity
  8
LAY-1
  6
DASHED2
 62
     3
100
AcDbLine
 10
623.749999
 20
377.5
 30
0.0
 11
623.749999
 21
378.5
 31
0.0
  0
LINE
  5
148
100
AcDbEntity
  8
LAY-1
  6
DASHED2
 62
     3
100
AcDbLine
 10
626.499999
 20
375.75
 30
0.0
 11
625.499999
 21
375.75
 31
0.0
  0
LINE
  5
149
100
AcDbEntity
  8
LAY-1
  6
DASHED2
 62
     3
100
AcDbLine
 10
628.249999
 20
378.5
 30
0.0
 11
628.249999
 21
377.5
 31
0.0
  0
LINE
  5
14A
100
AcDbEntity
  8
LAY-1
  6
DASHED2
 62
     3
100
AcDbLine
 10
624.499999
 20
377.5
 30
0.0
 11
623.749999
 21
377.5
 31
0.0
  0
LINE
  5
14B
100
AcDbEntity
  8
LAY-1
  6
DASHED2
 62
     3
100
AcDbLine
 10
624.499999
 20
378.5
 30
0.0
 11
623.749999
 21
378.5
 31
0.0
  0
LINE
  5
14C
100
AcDbEntity
  8
LAY-1
  6
DASHED2
 62
     3
100
AcDbLine
 10
626.499999
 20
376.5
 30
0.0
 11
626.499999
 21
375.75
 31
0.0
  0
LINE
  5
14D
100
AcDbEntity
  8
LAY-1
  6
DASHED2
 62
     3
100
AcDbLine
 10
625.499999
 20
376.5
 30
0.0
 11
625.499999
 21
375.75
 31
0.0
  0
LINE
  5
14E
100
AcDbEntity
  8
LAY-1
  6
DASHED2
 62
     3
100
AcDbLine
 10
625.499999
 20
376.5
 30
0.0
 11
625.499999
 21
375.75
 31
0.0
  0
LINE
  5
14F
100
AcDbEntity
  8
LAY-1
  6
DASHED2
 62
     3
100
AcDbLine
 10
626.499999
 20
376.5
 30
0.0
 11
626.499999
 21
375.75
 31
0.0
  0
LINE
  5
150
100
AcDbEntity
  8
LAY-1
  6
DASHED2
 62
     3
100
AcDbLine
 10
627.499999
 20
377.5
 30
0.0
 11
628.249999
 21
377.5
 31
0.0
  0
LINE
  5
151
100
AcDbEntity
  8
LAY-1
  6
DASHED2
 62
     3
100
AcDbLine
 10
627.499999
 20
378.5
 30
0.0
 11
628.249999
 21
378.5
 31
0.0
  0
LINE
  5
152
100
AcDbEntity
  8
LAY-1
  6
DASHED2
 62
     3
100
AcDbLine
 10
627.499999
 20
378.5
 30
0.0
 11
628.249999
 21
378.5
 31
0.0
  0
ARC
  5
153
100
AcDbEntity
  8
LAY-1
  6
DASHED2
 62
     3
100
AcDbCircle
 10
612.499999
 20
367.5
 30
0.0
 40
1.0
100
AcDbArc
 50
180.0
 51
270.0
  0
ARC
  5
154
100
AcDbEntity
  8
LAY-1
  6
DASHED2
 62
     3
100
AcDbCircle
 10
609.499999
 20
364.5
 30
0.0
 40
1.0
100
AcDbArc
 50
0.0
 51
90.0
  0
ARC
  5
155
100
AcDbEntity
  8
LAY-1
  6
DASHED2
 62
     3
100
AcDbCircle
 10
609.499999
 20
367.5
 30
0.0
 40
1.0
100
AcDbArc
 50
270.0
 51
0.0
  0
ARC
  5
156
100
AcDbEntity
  8
LAY-1
  6
DASHED2
 62
     3
100
AcDbCircle
 10
612.499999
 20
364.5
 30
0.0
 40
1.0
100
AcDbArc
 50
90.0
 51
180.0
  0
ARC
  5
157
100
AcDbEntity
  8
LAY-1
  6
DASHED2
 62
     3
100
AcDbCircle
 10
612.499999
 20
367.5
 30
0.0
 40
1.0
100
AcDbArc
 50
180.0
 51
270.0
  0
ARC
  5
158
100
AcDbEntity
  8
LAY-1
  6
DASHED2
 62
     3
100
AcDbCircle
 10
612.499999
 20
364.5
 30
0.0
 40
1.0
100
AcDbArc
 50
90.0
 51
180.0
  0
CIRCLE
  5
159
100
AcDbEntity
  8
LAY-1
  6
DASHED2
 62
     3
100
AcDbCircle
 10
610.999999
 20
366.0
 30
0.0
 40
4.0
  0
LINE
  5
15A
100
AcDbEntity
  8
LAY-1
  6
DASHED2
 62
     3
100
AcDbLine
 10
611.499999
 20
367.5
 30
0.0
 11
611.499999
 21
368.25
 31
0.0
  0
LINE
  5
15B
100
AcDbEntity
  8
LAY-1
  6
DASHED2
 62
     3
100
AcDbLine
 10
610.499999
 20
368.25
 30
0.0
 11
611.499999
 21
368.25
 31
0.0
  0
LINE
  5
15C
100
AcDbEntity
  8
LAY-1
  6
DASHED2
 62
     3
100
AcDbLine
 10
610.499999
 20
367.5
 30
0.0
 11
610.499999
 21
368.25
 31
0.0
  0
LINE
  5
15D
100
AcDbEntity
  8
LAY-1
  6
DASHED2
 62
     3
100
AcDbLine
 10
610.499999
 20
367.5
 30
0.0
 11
610.499999
 21
368.25
 31
0.0
  0
LINE
  5
15E
100
AcDbEntity
  8
LAY-1
  6
DASHED2
 62
     3
100
AcDbLine
 10
611.499999
 20
368.25
 30
0.0
 11
610.499999
 21
368.25
 31
0.0
  0
LINE
  5
15F
100
AcDbEntity
  8
LAY-1
  6
DASHED2
 62
     3
100
AcDbLine
 10
611.499999
 20
367.5
 30
0.0
 11
611.499999
 21
368.25
 31
0.0
  0
LINE
  5
160
100
AcDbEntity
  8
LAY-1
  6
DASHED2
 62
     3
100
AcDbLine
 10
608.749999
 20
365.5
 30
0.0
 11
608.749999
 21
366.5
 31
0.0
  0
LINE
  5
161
100
AcDbEntity
  8
LAY-1
  6
DASHED2
 62
     3
100
AcDbLine
 10
611.499999
 20
363.75
 30
0.0
 11
610.499999
 21
363.75
 31
0.0
  0
LINE
  5
162
100
AcDbEntity
  8
LAY-1
  6
DASHED2
 62
     3
100
AcDbLine
 10
613.249999
 20
366.5
 30
0.0
 11
613.249999
 21
365.5
 31
0.0
  0
LINE
  5
163
100
AcDbEntity
  8
LAY-1
  6
DASHED2
 62
     3
100
AcDbLine
 10
609.499999
 20
365.5
 30
0.0
 11
608.749999
 21
365.5
 31
0.0
  0
LINE
  5
164
100
AcDbEntity
  8
LAY-1
  6
DASHED2
 62
     3
100
AcDbLine
 10
609.499999
 20
366.5
 30
0.0
 11
608.749999
 21
366.5
 31
0.0
  0
LINE
  5
165
100
AcDbEntity
  8
LAY-1
  6
DASHED2
 62
     3
100
AcDbLine
 10
611.499999
 20
364.5
 30
0.0
 11
611.499999
 21
363.75
 31
0.0
  0
LINE
  5
166
100
AcDbEntity
  8
LAY-1
  6
DASHED2
 62
     3
100
AcDbLine
 10
610.499999
 20
364.5
 30
0.0
 11
610.499999
 21
363.75
 31
0.0
  0
LINE
  5
167
100
AcDbEntity
  8
LAY-1
  6
DASHED2
 62
     3
100
AcDbLine
 10
610.499999
 20
364.5
 30
0.0
 11
610.499999
 21
363.75
 31
0.0
  0
LINE
  5
168
100
AcDbEntity
  8
LAY-1
  6
DASHED2
 62
     3
100
AcDbLine
 10
611.499999
 20
364.5
 30
0.0
 11
611.499999
 21
363.75
 31
0.0
  0
LINE
  5
169
100
AcDbEntity
  8
LAY-1
  6
DASHED2
 62
     3
100
AcDbLine
 10
612.499999
 20
365.5
 30
0.0
 11
613.249999
 21
365.5
 31
0.0
  0
LINE
  5
16A
100
AcDbEntity
  8
LAY-1
  6
DASHED2
 62
     3
100
AcDbLine
 10
612.499999
 20
366.5
 30
0.0
 11
613.249999
 21
366.5
 31
0.0
  0
LINE
  5
16B
100
AcDbEntity
  8
LAY-1
  6
DASHED2
 62
     3
100
AcDbLine
 10
612.499999
 20
366.5
 30
0.0
 11
613.249999
 21
366.5
 31
0.0
  0
LINE
  5
16C
100
AcDbEntity
  8
LAY-1
  6
DASHED2
 62
     3
100
AcDbLine
 10
604.999999
 20
390.0
 30
0.0
 11
600.999999
 21
390.0
 31
0.0
  0
LINE
  5
16D
100
AcDbEntity
  8
LAY-1
  6
CONTINUOUS
 62
     3
100
AcDbLine
 10
600.999999
 20
390.0
 30
0.0
 11
597.999999
 21
390.0
 31
0.0
  0
LINE
  5
16E
100
AcDbEntity
  8
LAY-1
  6
CONTINUOUS
 62
     3
100
AcDbLine
 10
631.999999
 20
430.0
 30
0.0
 11
631.999999
 21
427.0
 31
0.0
  0
LINE
  5
16F
100
AcDbEntity
  8
LAY-1
  6
DASHED2
 62
     3
100
AcDbLine
 10
631.999999
 20
427.0
 30
0.0
 11
631.999999
 21
360.0
 31
0.0
  0
ARC
  5
170
100
AcDbEntity
  8
LAY-1
  6
CONTINUOUS
 62
     3
100
AcDbCircle
 10
574.999999
 20
429.80315
 30
0.0
 40
5.0
100
AcDbArc
 50
180.0
 51
214.099376
  0
ARC
  5
171
100
AcDbEntity
  8
LAY-1
  6
DASHED2
 62
     3
100
AcDbCircle
 10
574.999999
 20
429.80315
 30
0.0
 40
5.0
100
AcDbArc
 50
214.099376
 51
237.292319
  0
ARC
  5
172
100
AcDbEntity
  8
LAY-1
  6
CONTINUOUS
 62
     3
100
AcDbCircle
 10
539.877046
 20
375.109657
 30
0.0
 40
60.0
100
AcDbArc
 50
14.36939
 51
37.940226
  0
ARC
  5
173
100
AcDbEntity
  8
LAY-1
  6
DASHED2
 62
     3
100
AcDbCircle
 10
539.877046
 20
375.109657
 30
0.0
 40
60.0
100
AcDbArc
 50
37.940226
 51
57.292319
  0
LINE
  5
174
100
AcDbEntity
  8
LAY-2
  6
CONTINUOUS
 62
     3
100
AcDbLine
 10
600.999999
 20
427.0
 30
0.0
 11
569.999999
 21
427.0
 31
0.0
  0
LINE
  5
175
100
AcDbEntity
  8
LAY-2
  6
CONTINUOUS
 62
     3
100
AcDbLine
 10
569.999999
 20
427.0
 30
0.0
 11
569.999999
 21
412.0
 31
0.0
  0
LINE
  5
176
100
AcDbEntity
  8
LAY-2
  6
CONTINUOUS
 62
     3
100
AcDbLine
 10
569.999999
 20
412.0
 30
0.0
 11
600.999999
 21
412.0
 31
0.0
  0
LINE
  5
177
100
AcDbEntity
  8
LAY-2
  6
CONTINUOUS
 62
     3
100
AcDbLine
 10
600.999999
 20
412.0
 30
0.0
 11
600.999999
 21
418.0
 31
0.0
  0
LINE
  5
178
100
AcDbEntity
  8
LAY-2
  6
CONTINUOUS
 62
     3
100
AcDbLine
 10
600.999999
 20
418.0
 30
0.0
 11
623.999999
 21
418.0
 31
0.0
  0
LINE
  5
179
100
AcDbEntity
  8
LAY-2
  6
CONTINUOUS
 62
     3
100
AcDbLine
 10
624.999999
 20
419.0
 30
0.0
 11
624.999999
 21
426.0
 31
0.0
  0
LINE
  5
17A
100
AcDbEntity
  8
LAY-2
  6
CONTINUOUS
 62
     3
100
AcDbLine
 10
623.999999
 20
427.0
 30
0.0
 11
600.999999
 21
427.0
 31
0.0
  0
LINE
  5
17B
100
AcDbEntity
  8
LAY-2
  6
CONTINUOUS
 62
     3
100
AcDbLine
 10
603.999999
 20
419.0
 30
0.0
 11
603.999999
 21
426.0
 31
0.0
  0
ARC
  5
17C
100
AcDbEntity
  8
LAY-2
  6
CONTINUOUS
 62
     3
100
AcDbCircle
 10
623.999999
 20
426.0
 30
0.0
 40
1.0
100
AcDbArc
 50
0.0
 51
90.0
  0
ARC
  5
17D
100
AcDbEntity
  8
LAY-2
  6
CONTINUOUS
 62
     3
100
AcDbCircle
 10
623.999999
 20
419.0
 30
0.0
 40
1.0
100
AcDbArc
 50
270.0
 51
0.0
  0
ARC
  5
17E
100
AcDbEntity
  8
LAY-2
  6
CONTINUOUS
 62
     3
100
AcDbCircle
 10
604.999999
 20
426.0
 30
0.0
 40
1.0
100
AcDbArc
 50
90.0
 51
180.0
  0
ARC
  5
17F
100
AcDbEntity
  8
LAY-2
  6
CONTINUOUS
 62
     3
100
AcDbCircle
 10
604.999999
 20
419.0
 30
0.0
 40
1.0
100
AcDbArc
 50
180.0
 51
270.0
  0
LINE
  5
180
100
AcDbEntity
  8
LAY-2
  6
DASHED2
 62
     3
100
AcDbLine
 10
575.499999
 20
427.0
 30
0.0
 11
575.499999
 21
415.0
 31
0.0
  0
LINE
  5
181
100
AcDbEntity
  8
LAY-2
  6
DASHED2
 62
     3
100
AcDbLine
 10
575.499999
 20
415.0
 30
0.0
 11
592.499999
 21
415.0
 31
0.0
  0
LINE
  5
182
100
AcDbEntity
  8
LAY-2
  6
DASHED2
 62
     3
100
AcDbLine
 10
592.499999
 20
415.0
 30
0.0
 11
592.499999
 21
427.0
 31
0.0
  0
LINE
  5
183
100
AcDbEntity
  8
LAY-2
  6
DASHED2
 62
     3
100
AcDbLine
 10
576.999999
 20
415.0
 30
0.0
 11
576.999999
 21
414.0
 31
0.0
  0
LINE
  5
184
100
AcDbEntity
  8
LAY-2
  6
DASHED2
 62
     3
100
AcDbLine
 10
576.999999
 20
414.0
 30
0.0
 11
590.999999
 21
414.0
 31
0.0
  0
LINE
  5
185
100
AcDbEntity
  8
LAY-2
  6
DASHED2
 62
     3
100
AcDbLine
 10
590.999999
 20
414.0
 30
0.0
 11
590.999999
 21
415.0
 31
0.0
  0
LINE
  5
186
100
AcDbEntity
  8
LAY-2
  6
DASHED2
 62
     3
100
AcDbLine
 10
577.999999
 20
427.0
 30
0.0
 11
577.999999
 21
415.0
 31
0.0
  0
LINE
  5
187
100
AcDbEntity
  8
LAY-2
  6
DASHED2
 62
     3
100
AcDbLine
 10
589.999999
 20
427.0
 30
0.0
 11
589.999999
 21
415.0
 31
0.0
  0
LINE
  5
188
100
AcDbEntity
  8
LAY-2
  6
DASHED2
 62
     3
100
AcDbLine
 10
622.999999
 20
427.0
 30
0.0
 11
622.999999
 21
423.5
 31
0.0
  0
LINE
  5
189
100
AcDbEntity
  8
LAY-2
  6
DASHED2
 62
     3
100
AcDbLine
 10
622.999999
 20
423.5
 30
0.0
 11
608.999999
 21
423.5
 31
0.0
  0
LINE
  5
18A
100
AcDbEntity
  8
LAY-2
  6
DASHED2
 62
     3
100
AcDbLine
 10
608.999999
 20
423.5
 30
0.0
 11
608.999999
 21
427.0
 31
0.0
  0
LINE
  5
18B
100
AcDbEntity
  8
LAY-2
  6
CONTINUOUS
 62
     3
100
AcDbLine
 10
577.999999
 20
427.0
 30
0.0
 11
577.999999
 21
432.0
 31
0.0
  0
LINE
  5
18C
100
AcDbEntity
  8
LAY-2
  6
CONTINUOUS
 62
     3
100
AcDbLine
 10
589.999999
 20
427.0
 30
0.0
 11
589.999999
 21
432.0
 31
0.0
  0
LINE
  5
18D
100
AcDbEntity
  8
LAY-2
  6
DASHED2
 62
     3
100
AcDbLine
 10
579.499999
 20
416.0
 30
0.0
 11
588.499999
 21
416.0
 31
0.0
  0
LINE
  5
18E
100
AcDbEntity
  8
LAY-2
  6
DASHED2
 62
     3
100
AcDbLine
 10
577.999999
 20
417.5
 30
0.0
 11
579.499999
 21
416.0
 31
0.0
  0
LINE
  5
18F
100
AcDbEntity
  8
LAY-2
  6
DASHED2
 62
     3
100
AcDbLine
 10
589.999999
 20
417.5
 30
0.0
 11
588.499999
 21
416.0
 31
0.0
  0
LINE
  5
190
100
AcDbEntity
  8
LAY-2
  6
DASHED2
 62
     3
100
AcDbLine
 10
577.999999
 20
417.5
 30
0.0
 11
589.999999
 21
417.5
 31
0.0
  0
LINE
  5
191
100
AcDbEntity
  8
LAY-2
  6
DASHED2
 62
     3
100
AcDbLine
 10
577.999999
 20
432.0
 30
0.0
 11
577.999999
 21
436.0
 31
0.0
  0
LINE
  5
192
100
AcDbEntity
  8
LAY-2
  6
DASHED2
 62
     3
100
AcDbLine
 10
589.999999
 20
432.0
 30
0.0
 11
589.999999
 21
436.0
 31
0.0
  0
LINE
  5
193
100
AcDbEntity
  8
LAY-2
  6
DASHED2
 62
     3
100
AcDbLine
 10
620.999999
 20
423.5
 30
0.0
 11
620.999999
 21
398.5
 31
0.0
  0
LINE
  5
194
100
AcDbEntity
  8
LAY-2
  6
DASHED2
 62
     3
100
AcDbLine
 10
616.499999
 20
413.830127
 30
0.0
 11
621.499999
 21
415.169873
 31
0.0
  0
LINE
  5
195
100
AcDbEntity
  8
LAY-2
  6
DASHED2
 62
     3
100
AcDbLine
 10
616.499999
 20
410.830127
 30
0.0
 11
621.499999
 21
412.169873
 31
0.0
  0
LINE
  5
196
100
AcDbEntity
  8
LAY-2
  6
DASHED2
 62
     3
100
AcDbLine
 10
616.499999
 20
407.830127
 30
0.0
 11
621.499999
 21
409.169873
 31
0.0
  0
LINE
  5
197
100
AcDbEntity
  8
LAY-2
  6
DASHED2
 62
     3
100
AcDbLine
 10
616.499999
 20
404.830127
 30
0.0
 11
621.499999
 21
406.169873
 31
0.0
  0
LINE
  5
198
100
AcDbEntity
  8
LAY-2
  6
DASHED2
 62
     3
100
AcDbLine
 10
616.499999
 20
401.830127
 30
0.0
 11
621.499999
 21
403.169873
 31
0.0
  0
LINE
  5
199
100
AcDbEntity
  8
LAY-2
  6
DASHED2
 62
     3
100
AcDbLine
 10
616.499999
 20
398.830127
 30
0.0
 11
621.499999
 21
400.169873
 31
0.0
  0
LINE
  5
19A
100
AcDbEntity
  8
LAY-2
  6
DASHED2
 62
     3
100
AcDbLine
 10
616.499999
 20
416.830127
 30
0.0
 11
621.499999
 21
418.169873
 31
0.0
  0
LINE
  5
19B
100
AcDbEntity
  8
LAY-2
  6
DASHED2
 62
     3
100
AcDbLine
 10
616.999999
 20
423.5
 30
0.0
 11
616.999999
 21
398.5
 31
0.0
  0
LINE
  5
19C
100
AcDbEntity
  8
LAY-2
  6
DASHED2
 62
     3
100
AcDbLine
 10
618.999999
 20
393.5
 30
0.0
 11
620.999999
 21
398.5
 31
0.0
  0
LINE
  5
19D
100
AcDbEntity
  8
LAY-2
  6
DASHED2
 62
     3
100
AcDbLine
 10
617.429779
 20
396.079261
 30
0.0
 11
620.947218
 21
397.021756
 31
0.0
  0
LINE
  5
19E
100
AcDbEntity
  8
LAY-2
  6
DASHED2
 62
     3
100
AcDbLine
 10
616.999999
 20
398.5
 30
0.0
 11
618.999999
 21
393.5
 31
0.0
  0
LINE
  5
19F
100
AcDbEntity
  8
LAY-2
  6
DASHED2
 62
     3
100
AcDbLine
 10
614.999999
 20
423.5
 30
0.0
 11
614.999999
 21
398.5
 31
0.0
  0
LINE
  5
1A0
100
AcDbEntity
  8
LAY-2
  6
DASHED2
 62
     3
100
AcDbLine
 10
610.499999
 20
413.830127
 30
0.0
 11
615.499999
 21
415.169873
 31
0.0
  0
LINE
  5
1A1
100
AcDbEntity
  8
LAY-2
  6
DASHED2
 62
     3
100
AcDbLine
 10
610.499999
 20
410.830127
 30
0.0
 11
615.499999
 21
412.169873
 31
0.0
  0
LINE
  5
1A2
100
AcDbEntity
  8
LAY-2
  6
DASHED2
 62
     3
100
AcDbLine
 10
610.499999
 20
407.830127
 30
0.0
 11
615.499999
 21
409.169873
 31
0.0
  0
LINE
  5
1A3
100
AcDbEntity
  8
LAY-2
  6
DASHED2
 62
     3
100
AcDbLine
 10
610.499999
 20
404.830127
 30
0.0
 11
615.499999
 21
406.169873
 31
0.0
  0
LINE
  5
1A4
100
AcDbEntity
  8
LAY-2
  6
DASHED2
 62
     3
100
AcDbLine
 10
610.499999
 20
401.830127
 30
0.0
 11
615.499999
 21
403.169873
 31
0.0
  0
LINE
  5
1A5
100
AcDbEntity
  8
LAY-2
  6
DASHED2
 62
     3
100
AcDbLine
 10
610.499999
 20
398.830127
 30
0.0
 11
615.499999
 21
400.169873
 31
0.0
  0
LINE
  5
1A6
100
AcDbEntity
  8
LAY-2
  6
DASHED2
 62
     3
100
AcDbLine
 10
610.499999
 20
416.830127
 30
0.0
 11
615.499999
 21
418.169873
 31
0.0
  0
LINE
  5
1A7
100
AcDbEntity
  8
LAY-2
  6
DASHED2
 62
     3
100
AcDbLine
 10
610.999999
 20
423.5
 30
0.0
 11
610.999999
 21
398.5
 31
0.0
  0
LINE
  5
1A8
100
AcDbEntity
  8
LAY-2
  6
DASHED2
 62
     3
100
AcDbLine
 10
612.999999
 20
393.5
 30
0.0
 11
614.999999
 21
398.5
 31
0.0
  0
LINE
  5
1A9
100
AcDbEntity
  8
LAY-2
  6
DASHED2
 62
     3
100
AcDbLine
 10
611.429779
 20
396.079261
 30
0.0
 11
614.947218
 21
397.021756
 31
0.0
  0
LINE
  5
1AA
100
AcDbEntity
  8
LAY-2
  6
DASHED2
 62
     3
100
AcDbLine
 10
610.999999
 20
398.5
 30
0.0
 11
612.999999
 21
393.5
 31
0.0
  0
LINE
  5
1AB
100
AcDbEntity
  8
LAY-2
  6
DASHED2
 62
     3
100
AcDbLine
 10
622.499999
 20
423.5
 30
0.0
 11
622.402063
 21
424.619415
 31
0.0
  0
ARC
  5
1AC
100
AcDbEntity
  8
LAY-2
  6
DASHED2
 62
     3
100
AcDbCircle
 10
621.10701
 20
424.506113
 30
0.0
 40
1.3
100
AcDbArc
 50
5.0
 51
74.11915
  0
LINE
  5
1AD
100
AcDbEntity
  8
LAY-2
  6
DASHED2
 62
     3
100
AcDbLine
 10
615.499999
 20
423.5
 30
0.0
 11
615.597936
 21
424.619415
 31
0.0
  0
ARC
  5
1AE
100
AcDbEntity
  8
LAY-2
  6
DASHED2
 62
     3
100
AcDbCircle
 10
616.892989
 20
424.506113
 30
0.0
 40
1.3
100
AcDbArc
 50
105.88085
 51
175.0
  0
ARC
  5
1AF
100
AcDbEntity
  8
LAY-2
  6
DASHED2
 62
     3
100
AcDbCircle
 10
618.999999
 20
417.1
 30
0.0
 40
9.0
100
AcDbArc
 50
74.11915
 51
105.88085
  0
LINE
  5
1B0
100
AcDbEntity
  8
LAY-2
  6
DASHED2
 62
     3
100
AcDbLine
 10
616.499999
 20
423.5
 30
0.0
 11
616.402063
 21
424.619415
 31
0.0
  0
ARC
  5
1B1
100
AcDbEntity
  8
LAY-2
  6
DASHED2
 62
     3
100
AcDbCircle
 10
615.10701
 20
424.506113
 30
0.0
 40
1.3
100
AcDbArc
 50
5.0
 51
74.11915
  0
ARC
  5
1B2
100
AcDbEntity
  8
LAY-2
  6
DASHED2
 62
     3
100
AcDbCircle
 10
610.892989
 20
424.506113
 30
0.0
 40
1.3
100
AcDbArc
 50
105.88085
 51
175.0
  0
ARC
  5
1B3
100
AcDbEntity
  8
LAY-2
  6
DASHED2
 62
     3
100
AcDbCircle
 10
612.999999
 20
417.1
 30
0.0
 40
9.0
100
AcDbArc
 50
74.11915
 51
105.88085
  0
LINE
  5
1B4
100
AcDbEntity
  8
LAY-2
  6
DASHED2
 62
     3
100
AcDbLine
 10
609.499999
 20
423.5
 30
0.0
 11
609.597936
 21
424.619415
 31
0.0
  0
LINE
  5
1B5
100
AcDbEntity
  8
LAY-2
  6
CONTINUOUS
 62
     3
100
AcDbLine
 10
296.0
 20
373.0
 30
0.0
 11
296.0
 21
356.0
 31
0.0
  0
LINE
  5
1B6
100
AcDbEntity
  8
LAY-2
  6
CONTINUOUS
 62
     3
100
AcDbLine
 10
324.0
 20
373.0
 30
0.0
 11
324.0
 21
356.0
 31
0.0
  0
ARC
  5
1B7
100
AcDbEntity
  8
LAY-2
  6
CONTINUOUS
 62
     3
100
AcDbCircle
 10
310.0
 20
356.0
 30
0.0
 40
14.0
100
AcDbArc
 50
180.0
 51
0.0
  0
LINE
  5
1B8
100
AcDbEntity
  8
LAY-2
  6
CONTINUOUS
 62
     3
100
AcDbLine
 10
320.0
 20
379.0
 30
0.0
 11
430.0
 21
379.0
 31
0.0
  0
LINE
  5
1B9
100
AcDbEntity
  8
LAY-2
  6
CONTINUOUS
 62
     3
100
AcDbLine
 10
300.0
 20
397.0
 30
0.0
 11
430.0
 21
397.0
 31
0.0
  0
LINE
  5
1BA
100
AcDbEntity
  8
LAY-2
  6
CONTINUOUS
 62
     3
100
AcDbLine
 10
300.0
 20
397.0
 30
0.0
 11
300.0
 21
373.0
 31
0.0
  0
LINE
  5
1BB
100
AcDbEntity
  8
LAY-2
  6
CONTINUOUS
 62
     3
100
AcDbLine
 10
430.0
 20
397.0
 30
0.0
 11
430.0
 21
379.0
 31
0.0
  0
LINE
  5
1BC
100
AcDbEntity
  8
LAY-2
  6
CONTINUOUS
 62
     3
100
AcDbLine
 10
320.0
 20
379.0
 30
0.0
 11
320.0
 21
373.0
 31
0.0
  0
LINE
  5
1BD
100
AcDbEntity
  8
LAY-2
  6
CONTINUOUS
 62
     3
100
AcDbLine
 10
324.0
 20
373.0
 30
0.0
 11
320.0
 21
373.0
 31
0.0
  0
LINE
  5
1BE
100
AcDbEntity
  8
LAY-2
  6
CONTINUOUS
 62
     3
100
AcDbLine
 10
300.0
 20
373.0
 30
0.0
 11
296.0
 21
373.0
 31
0.0
  0
LINE
  5
1BF
100
AcDbEntity
  8
LAY-2
  6
DASHED2
 62
     3
100
AcDbLine
 10
300.0
 20
373.0
 30
0.0
 11
320.0
 21
373.0
 31
0.0
  0
CIRCLE
  5
1C0
100
AcDbEntity
  8
LAY-2
  6
CONTINUOUS
 62
     3
100
AcDbCircle
 10
308.0
 20
391.0
 30
0.0
 40
4.2
  0
CIRCLE
  5
1C1
100
AcDbEntity
  8
LAY-2
  6
CONTINUOUS
 62
     3
100
AcDbCircle
 10
308.0
 20
391.0
 30
0.0
 40
2.1
  0
CIRCLE
  5
1C2
100
AcDbEntity
  8
LAY-2
  6
CONTINUOUS
 62
     3
100
AcDbCircle
 10
365.0
 20
388.0
 30
0.0
 40
4.2
  0
CIRCLE
  5
1C3
100
AcDbEntity
  8
LAY-2
  6
CONTINUOUS
 62
     3
100
AcDbCircle
 10
365.0
 20
388.0
 30
0.0
 40
2.1
  0
ARC
  5
1C4
100
AcDbEntity
  8
LAY-2
  6
CONTINUOUS
 62
     3
100
AcDbCircle
 10
337.1
 20
385.0
 30
0.0
 40
2.1
100
AcDbArc
 50
90.0
 51
270.0
  0
ARC
  5
1C5
100
AcDbEntity
  8
LAY-2
  6
CONTINUOUS
 62
     3
100
AcDbCircle
 10
337.0
 20
385.0
 30
0.0
 40
4.0
100
AcDbArc
 50
90.0
 51
270.0
  0
ARC
  5
1C6
100
AcDbEntity
  8
LAY-2
  6
CONTINUOUS
 62
     3
100
AcDbCircle
 10
342.9
 20
385.0
 30
0.0
 40
2.1
100
AcDbArc
 50
270.0
 51
90.0
  0
ARC
  5
1C7
100
AcDbEntity
  8
LAY-2
  6
CONTINUOUS
 62
     3
100
AcDbCircle
 10
343.0
 20
385.0
 30
0.0
 40
4.0
100
AcDbArc
 50
270.0
 51
90.0
  0
LINE
  5
1C8
100
AcDbEntity
  8
LAY-2
  6
CONTINUOUS
 62
     3
100
AcDbLine
 10
337.1
 20
387.1
 30
0.0
 11
342.9
 21
387.1
 31
0.0
  0
LINE
  5
1C9
100
AcDbEntity
  8
LAY-2
  6
CONTINUOUS
 62
     3
100
AcDbLine
 10
337.0
 20
389.0
 30
0.0
 11
343.0
 21
389.0
 31
0.0
  0
LINE
  5
1CA
100
AcDbEntity
  8
LAY-2
  6
CONTINUOUS
 62
     3
100
AcDbLine
 10
337.1
 20
382.9
 30
0.0
 11
342.9
 21
382.9
 31
0.0
  0
LINE
  5
1CB
100
AcDbEntity
  8
LAY-2
  6
CONTINUOUS
 62
     3
100
AcDbLine
 10
337.0
 20
381.0
 30
0.0
 11
343.0
 21
381.0
 31
0.0
  0
ARC
  5
1CC
100
AcDbEntity
  8
LAY-2
  6
CONTINUOUS
 62
     3
100
AcDbCircle
 10
387.1
 20
391.0
 30
0.0
 40
2.1
100
AcDbArc
 50
90.0
 51
270.0
  0
ARC
  5
1CD
100
AcDbEntity
  8
LAY-2
  6
CONTINUOUS
 62
     3
100
AcDbCircle
 10
387.0
 20
391.0
 30
0.0
 40
4.0
100
AcDbArc
 50
90.0
 51
270.0
  0
ARC
  5
1CE
100
AcDbEntity
  8
LAY-2
  6
CONTINUOUS
 62
     3
100
AcDbCircle
 10
392.9
 20
391.0
 30
0.0
 40
2.1
100
AcDbArc
 50
270.0
 51
90.0
  0
ARC
  5
1CF
100
AcDbEntity
  8
LAY-2
  6
CONTINUOUS
 62
     3
100
AcDbCircle
 10
393.0
 20
391.0
 30
0.0
 40
4.0
100
AcDbArc
 50
270.0
 51
90.0
  0
LINE
  5
1D0
100
AcDbEntity
  8
LAY-2
  6
CONTINUOUS
 62
     3
100
AcDbLine
 10
387.1
 20
393.1
 30
0.0
 11
392.9
 21
393.1
 31
0.0
  0
LINE
  5
1D1
100
AcDbEntity
  8
LAY-2
  6
CONTINUOUS
 62
     3
100
AcDbLine
 10
387.0
 20
395.0
 30
0.0
 11
393.0
 21
395.0
 31
0.0
  0
LINE
  5
1D2
100
AcDbEntity
  8
LAY-2
  6
CONTINUOUS
 62
     3
100
AcDbLine
 10
387.1
 20
388.9
 30
0.0
 11
392.9
 21
388.9
 31
0.0
  0
LINE
  5
1D3
100
AcDbEntity
  8
LAY-2
  6
CONTINUOUS
 62
     3
100
AcDbLine
 10
387.0
 20
387.0
 30
0.0
 11
393.0
 21
387.0
 31
0.0
  0
ARC
  5
1D4
100
AcDbEntity
  8
LAY-2
  6
CONTINUOUS
 62
     3
100
AcDbCircle
 10
417.1
 20
385.0
 30
0.0
 40
2.1
100
AcDbArc
 50
90.0
 51
270.0
  0
ARC
  5
1D5
100
AcDbEntity
  8
LAY-2
  6
CONTINUOUS
 62
     3
100
AcDbCircle
 10
417.0
 20
385.0
 30
0.0
 40
4.0
100
AcDbArc
 50
90.0
 51
270.0
  0
ARC
  5
1D6
100
AcDbEntity
  8
LAY-2
  6
CONTINUOUS
 62
     3
100
AcDbCircle
 10
422.9
 20
385.0
 30
0.0
 40
2.1
100
AcDbArc
 50
270.0
 51
90.0
  0
ARC
  5
1D7
100
AcDbEntity
  8
LAY-2
  6
CONTINUOUS
 62
     3
100
AcDbCircle
 10
423.0
 20
385.0
 30
0.0
 40
4.0
100
AcDbArc
 50
270.0
 51
90.0
  0
LINE
  5
1D8
100
AcDbEntity
  8
LAY-2
  6
CONTINUOUS
 62
     3
100
AcDbLine
 10
417.1
 20
387.1
 30
0.0
 11
422.9
 21
387.1
 31
0.0
  0
LINE
  5
1D9
100
AcDbEntity
  8
LAY-2
  6
CONTINUOUS
 62
     3
100
AcDbLine
 10
417.0
 20
389.0
 30
0.0
 11
423.0
 21
389.0
 31
0.0
  0
LINE
  5
1DA
100
AcDbEntity
  8
LAY-2
  6
CONTINUOUS
 62
     3
100
AcDbLine
 10
417.1
 20
382.9
 30
0.0
 11
422.9
 21
382.9
 31
0.0
  0
LINE
  5
1DB
100
AcDbEntity
  8
LAY-2
  6
CONTINUOUS
 62
     3
100
AcDbLine
 10
417.0
 20
381.0
 30
0.0
 11
423.0
 21
381.0
 31
0.0
  0
CIRCLE
  5
1DC
100
AcDbEntity
  8
LAY-2
  6
CONTINUOUS
 62
     3
100
AcDbCircle
 10
310.0
 20
356.0
 30
0.0
 40
8.5
  0
CIRCLE
  5
1DD
100
AcDbEntity
  8
LAY-2
  6
CONTINUOUS
 62
     3
100
AcDbCircle
 10
310.0
 20
356.0
 30
0.0
 40
6.0
  0
LINE
  5
1DE
100
AcDbEntity
  8
LAY-3
  6
CONTINUOUS
 62
     3
100
AcDbLine
 10
600.999999
 20
192.0
 30
0.0
 11
569.999999
 21
192.0
 31
0.0
  0
LINE
  5
1DF
100
AcDbEntity
  8
LAY-3
  6
CONTINUOUS
 62
     3
100
AcDbLine
 10
569.999999
 20
192.0
 30
0.0
 11
569.999999
 21
207.0
 31
0.0
  0
LINE
  5
1E0
100
AcDbEntity
  8
LAY-3
  6
CONTINUOUS
 62
     3
100
AcDbLine
 10
569.999999
 20
207.0
 30
0.0
 11
600.999999
 21
207.0
 31
0.0
  0
LINE
  5
1E1
100
AcDbEntity
  8
LAY-3
  6
CONTINUOUS
 62
     3
100
AcDbLine
 10
600.999999
 20
207.0
 30
0.0
 11
600.999999
 21
201.0
 31
0.0
  0
ARC
  5
1E2
100
AcDbEntity
  8
LAY-3
  6
CONTINUOUS
 62
     3
100
AcDbCircle
 10
623.999999
 20
193.0
 30
0.0
 40
1.0
100
AcDbArc
 50
270.0
 51
0.0
  0
LINE
  5
1E3
100
AcDbEntity
  8
LAY-3
  6
CONTINUOUS
 62
     3
100
AcDbLine
 10
600.999999
 20
201.0
 30
0.0
 11
623.999999
 21
201.0
 31
0.0
  0
LINE
  5
1E4
100
AcDbEntity
  8
LAY-3
  6
CONTINUOUS
 62
     3
100
AcDbLine
 10
624.999999
 20
200.0
 30
0.0
 11
624.999999
 21
193.0
 31
0.0
  0
ARC
  5
1E5
100
AcDbEntity
  8
LAY-3
  6
CONTINUOUS
 62
     3
100
AcDbCircle
 10
623.999999
 20
200.0
 30
0.0
 40
1.0
100
AcDbArc
 50
0.0
 51
90.0
  0
ARC
  5
1E6
100
AcDbEntity
  8
LAY-3
  6
CONTINUOUS
 62
     3
100
AcDbCircle
 10
607.999999
 20
193.0
 30
0.0
 40
1.0
100
AcDbArc
 50
180.0
 51
270.0
  0
ARC
  5
1E7
100
AcDbEntity
  8
LAY-3
  6
CONTINUOUS
 62
     3
100
AcDbCircle
 10
607.999999
 20
200.0
 30
0.0
 40
1.0
100
AcDbArc
 50
90.0
 51
180.0
  0
LINE
  5
1E8
100
AcDbEntity
  8
LAY-3
  6
CONTINUOUS
 62
     3
100
AcDbLine
 10
606.999999
 20
200.0
 30
0.0
 11
606.999999
 21
193.0
 31
0.0
  0
LINE
  5
1E9
100
AcDbEntity
  8
LAY-3
  6
DASHED2
 62
     3
100
AcDbLine
 10
575.499999
 20
192.0
 30
0.0
 11
575.499999
 21
204.0
 31
0.0
  0
LINE
  5
1EA
100
AcDbEntity
  8
LAY-3
  6
DASHED2
 62
     3
100
AcDbLine
 10
575.499999
 20
204.0
 30
0.0
 11
592.499999
 21
204.0
 31
0.0
  0
LINE
  5
1EB
100
AcDbEntity
  8
LAY-3
  6
DASHED2
 62
     3
100
AcDbLine
 10
592.499999
 20
204.0
 30
0.0
 11
592.499999
 21
192.0
 31
0.0
  0
LINE
  5
1EC
100
AcDbEntity
  8
LAY-3
  6
DASHED2
 62
     3
100
AcDbLine
 10
576.999999
 20
204.0
 30
0.0
 11
576.999999
 21
205.0
 31
0.0
  0
LINE
  5
1ED
100
AcDbEntity
  8
LAY-3
  6
DASHED2
 62
     3
100
AcDbLine
 10
576.999999
 20
205.0
 30
0.0
 11
590.999999
 21
205.0
 31
0.0
  0
LINE
  5
1EE
100
AcDbEntity
  8
LAY-3
  6
DASHED2
 62
     3
100
AcDbLine
 10
590.999999
 20
205.0
 30
0.0
 11
590.999999
 21
204.0
 31
0.0
  0
LINE
  5
1EF
100
AcDbEntity
  8
LAY-3
  6
DASHED2
 62
     3
100
AcDbLine
 10
577.999999
 20
201.5
 30
0.0
 11
579.499999
 21
203.0
 31
0.0
  0
LINE
  5
1F0
100
AcDbEntity
  8
LAY-3
  6
DASHED2
 62
     3
100
AcDbLine
 10
589.999999
 20
201.5
 30
0.0
 11
588.499999
 21
203.0
 31
0.0
  0
LINE
  5
1F1
100
AcDbEntity
  8
LAY-3
  6
DASHED2
 62
     3
100
AcDbLine
 10
579.499999
 20
203.0
 30
0.0
 11
588.499999
 21
203.0
 31
0.0
  0
LINE
  5
1F2
100
AcDbEntity
  8
LAY-3
  6
DASHED2
 62
     3
100
AcDbLine
 10
577.999999
 20
201.5
 30
0.0
 11
589.999999
 21
201.5
 31
0.0
  0
LINE
  5
1F3
100
AcDbEntity
  8
LAY-3
  6
DASHED2
 62
     3
100
AcDbLine
 10
622.999999
 20
192.0
 30
0.0
 11
622.999999
 21
195.5
 31
0.0
  0
LINE
  5
1F4
100
AcDbEntity
  8
LAY-3
  6
DASHED2
 62
     3
100
AcDbLine
 10
608.999999
 20
195.5
 30
0.0
 11
608.999999
 21
192.0
 31
0.0
  0
LINE
  5
1F5
100
AcDbEntity
  8
LAY-3
  6
CONTINUOUS
 62
     3
100
AcDbLine
 10
623.999999
 20
192.0
 30
0.0
 11
600.999999
 21
192.0
 31
0.0
  0
LINE
  5
1F6
100
AcDbEntity
  8
LAY-3
  6
DASHED2
 62
     3
100
AcDbLine
 10
622.999999
 20
195.5
 30
0.0
 11
608.999999
 21
195.5
 31
0.0
  0
LINE
  5
1F7
100
AcDbEntity
  8
LAY-3
  6
DASHED2
 62
     3
100
AcDbLine
 10
616.499999
 20
205.169873
 30
0.0
 11
621.499999
 21
203.830127
 31
0.0
  0
LINE
  5
1F8
100
AcDbEntity
  8
LAY-3
  6
DASHED2
 62
     3
100
AcDbLine
 10
616.499999
 20
208.169873
 30
0.0
 11
621.499999
 21
206.830127
 31
0.0
  0
LINE
  5
1F9
100
AcDbEntity
  8
LAY-3
  6
DASHED2
 62
     3
100
AcDbLine
 10
616.499999
 20
211.169873
 30
0.0
 11
621.499999
 21
209.830127
 31
0.0
  0
LINE
  5
1FA
100
AcDbEntity
  8
LAY-3
  6
DASHED2
 62
     3
100
AcDbLine
 10
616.499999
 20
214.169873
 30
0.0
 11
621.499999
 21
212.830127
 31
0.0
  0
LINE
  5
1FB
100
AcDbEntity
  8
LAY-3
  6
DASHED2
 62
     3
100
AcDbLine
 10
616.499999
 20
217.169873
 30
0.0
 11
621.499999
 21
215.830127
 31
0.0
  0
LINE
  5
1FC
100
AcDbEntity
  8
LAY-3
  6
DASHED2
 62
     3
100
AcDbLine
 10
616.499999
 20
220.169873
 30
0.0
 11
621.499999
 21
218.830127
 31
0.0
  0
LINE
  5
1FD
100
AcDbEntity
  8
LAY-3
  6
DASHED2
 62
     3
100
AcDbLine
 10
616.499999
 20
202.169873
 30
0.0
 11
621.499999
 21
200.830127
 31
0.0
  0
LINE
  5
1FE
100
AcDbEntity
  8
LAY-3
  6
DASHED2
 62
     3
100
AcDbLine
 10
618.999999
 20
225.5
 30
0.0
 11
620.999999
 21
220.5
 31
0.0
  0
LINE
  5
1FF
100
AcDbEntity
  8
LAY-3
  6
DASHED2
 62
     3
100
AcDbLine
 10
617.429779
 20
222.920739
 30
0.0
 11
620.947218
 21
221.978244
 31
0.0
  0
LINE
  5
200
100
AcDbEntity
  8
LAY-3
  6
DASHED2
 62
     3
100
AcDbLine
 10
616.999999
 20
220.5
 30
0.0
 11
618.999999
 21
225.5
 31
0.0
  0
LINE
  5
201
100
AcDbEntity
  8
LAY-3
  6
DASHED2
 62
     3
100
AcDbLine
 10
616.999999
 20
195.5
 30
0.0
 11
616.999999
 21
220.5
 31
0.0
  0
LINE
  5
202
100
AcDbEntity
  8
LAY-3
  6
DASHED2
 62
     3
100
AcDbLine
 10
620.999999
 20
195.5
 30
0.0
 11
620.999999
 21
220.5
 31
0.0
  0
LINE
  5
203
100
AcDbEntity
  8
LAY-3
  6
DASHED2
 62
     3
100
AcDbLine
 10
610.499999
 20
205.169873
 30
0.0
 11
615.499999
 21
203.830127
 31
0.0
  0
LINE
  5
204
100
AcDbEntity
  8
LAY-3
  6
DASHED2
 62
     3
100
AcDbLine
 10
610.499999
 20
208.169873
 30
0.0
 11
615.499999
 21
206.830127
 31
0.0
  0
LINE
  5
205
100
AcDbEntity
  8
LAY-3
  6
DASHED2
 62
     3
100
AcDbLine
 10
610.499999
 20
211.169873
 30
0.0
 11
615.499999
 21
209.830127
 31
0.0
  0
LINE
  5
206
100
AcDbEntity
  8
LAY-3
  6
DASHED2
 62
     3
100
AcDbLine
 10
610.499999
 20
214.169873
 30
0.0
 11
615.499999
 21
212.830127
 31
0.0
  0
LINE
  5
207
100
AcDbEntity
  8
LAY-3
  6
DASHED2
 62
     3
100
AcDbLine
 10
610.499999
 20
217.169873
 30
0.0
 11
615.499999
 21
215.830127
 31
0.0
  0
LINE
  5
208
100
AcDbEntity
  8
LAY-3
  6
DASHED2
 62
     3
100
AcDbLine
 10
610.499999
 20
220.169873
 30
0.0
 11
615.499999
 21
218.830127
 31
0.0
  0
LINE
  5
209
100
AcDbEntity
  8
LAY-3
  6
DASHED2
 62
     3
100
AcDbLine
 10
610.499999
 20
202.169873
 30
0.0
 11
615.499999
 21
200.830127
 31
0.0
  0
LINE
  5
20A
100
AcDbEntity
  8
LAY-3
  6
DASHED2
 62
     3
100
AcDbLine
 10
612.999999
 20
225.5
 30
0.0
 11
614.999999
 21
220.5
 31
0.0
  0
LINE
  5
20B
100
AcDbEntity
  8
LAY-3
  6
DASHED2
 62
     3
100
AcDbLine
 10
611.429779
 20
222.920739
 30
0.0
 11
614.947218
 21
221.978244
 31
0.0
  0
LINE
  5
20C
100
AcDbEntity
  8
LAY-3
  6
DASHED2
 62
     3
100
AcDbLine
 10
610.999999
 20
220.5
 30
0.0
 11
612.999999
 21
225.5
 31
0.0
  0
LINE
  5
20D
100
AcDbEntity
  8
LAY-3
  6
DASHED2
 62
     3
100
AcDbLine
 10
610.999999
 20
195.5
 30
0.0
 11
610.999999
 21
220.5
 31
0.0
  0
LINE
  5
20E
100
AcDbEntity
  8
LAY-3
  6
DASHED2
 62
     3
100
AcDbLine
 10
614.999999
 20
195.5
 30
0.0
 11
614.999999
 21
220.5
 31
0.0
  0
LINE
  5
20F
100
AcDbEntity
  8
LAY-3
  6
DASHED2
 62
     3
100
AcDbLine
 10
622.499999
 20
195.5
 30
0.0
 11
622.402063
 21
194.380585
 31
0.0
  0
ARC
  5
210
100
AcDbEntity
  8
LAY-3
  6
DASHED2
 62
     3
100
AcDbCircle
 10
621.10701
 20
194.493887
 30
0.0
 40
1.3
100
AcDbArc
 50
285.88085
 51
355.0
  0
LINE
  5
211
100
AcDbEntity
  8
LAY-3
  6
DASHED2
 62
     3
100
AcDbLine
 10
615.499999
 20
195.5
 30
0.0
 11
615.597936
 21
194.380585
 31
0.0
  0
ARC
  5
212
100
AcDbEntity
  8
LAY-3
  6
DASHED2
 62
     3
100
AcDbCircle
 10
616.892989
 20
194.493887
 30
0.0
 40
1.3
100
AcDbArc
 50
185.0
 51
254.11915
  0
ARC
  5
213
100
AcDbEntity
  8
LAY-3
  6
DASHED2
 62
     3
100
AcDbCircle
 10
618.999999
 20
201.9
 30
0.0
 40
9.0
100
AcDbArc
 50
254.11915
 51
285.88085
  0
LINE
  5
214
100
AcDbEntity
  8
LAY-3
  6
DASHED2
 62
     3
100
AcDbLine
 10
616.499999
 20
195.5
 30
0.0
 11
616.402063
 21
194.380585
 31
0.0
  0
ARC
  5
215
100
AcDbEntity
  8
LAY-3
  6
DASHED2
 62
     3
100
AcDbCircle
 10
615.10701
 20
194.493887
 30
0.0
 40
1.3
100
AcDbArc
 50
285.88085
 51
355.0
  0
ARC
  5
216
100
AcDbEntity
  8
LAY-3
  6
DASHED2
 62
     3
100
AcDbCircle
 10
610.892989
 20
194.493887
 30
0.0
 40
1.3
100
AcDbArc
 50
185.0
 51
254.11915
  0
ARC
  5
217
100
AcDbEntity
  8
LAY-3
  6
DASHED2
 62
     3
100
AcDbCircle
 10
612.999999
 20
201.9
 30
0.0
 40
9.0
100
AcDbArc
 50
254.11915
 51
285.88085
  0
LINE
  5
218
100
AcDbEntity
  8
LAY-3
  6
DASHED2
 62
     3
100
AcDbLine
 10
609.499999
 20
195.5
 30
0.0
 11
609.597936
 21
194.380585
 31
0.0
  0
LINE
  5
219
100
AcDbEntity
  8
LAY-3
  6
DASHED2
 62
     3
100
AcDbLine
 10
589.999999
 20
187.0
 30
0.0
 11
589.999999
 21
204.0
 31
0.0
  0
LINE
  5
21A
100
AcDbEntity
  8
LAY-3
  6
DASHED2
 62
     3
100
AcDbLine
 10
577.999999
 20
187.0
 30
0.0
 11
577.999999
 21
204.0
 31
0.0
  0
LINE
  5
21B
100
AcDbEntity
  8
LAY-4
  6
CONTINUOUS
 62
     3
100
AcDbLine
 10
154.0
 20
256.0
 30
0.0
 11
158.0
 21
256.0
 31
0.0
  0
LINE
  5
21C
100
AcDbEntity
  8
LAY-4
  6
DASHED2
 62
     3
100
AcDbLine
 10
155.7
 20
248.0
 30
0.0
 11
157.7
 21
246.0
 31
0.0
  0
LINE
  5
21D
100
AcDbEntity
  8
LAY-4
  6
DASHED2
 62
     3
100
AcDbLine
 10
158.0
 20
246.0
 30
0.0
 11
157.7
 21
246.0
 31
0.0
  0
LINE
  5
21E
100
AcDbEntity
  8
LAY-4
  6
DASHED2
 62
     3
100
AcDbLine
 10
155.7
 20
248.0
 30
0.0
 11
133.0
 21
248.0
 31
0.0
  0
LINE
  5
21F
100
AcDbEntity
  8
LAY-4
  6
DASHED2
 62
     3
100
AcDbLine
 10
155.7
 20
252.0
 30
0.0
 11
157.7
 21
254.0
 31
0.0
  0
LINE
  5
220
100
AcDbEntity
  8
LAY-4
  6
DASHED2
 62
     3
100
AcDbLine
 10
158.0
 20
254.0
 30
0.0
 11
157.7
 21
254.0
 31
0.0
  0
LINE
  5
221
100
AcDbEntity
  8
LAY-4
  6
DASHED2
 62
     3
100
AcDbLine
 10
155.7
 20
252.0
 30
0.0
 11
133.0
 21
252.0
 31
0.0
  0
LINE
  5
222
100
AcDbEntity
  8
LAY-4
  6
DASHED2
 62
     3
100
AcDbLine
 10
157.7
 20
246.0
 30
0.0
 11
157.7
 21
254.0
 31
0.0
  0
LINE
  5
223
100
AcDbEntity
  8
LAY-4
  6
DASHED2
 62
     3
100
AcDbLine
 10
155.7
 20
248.0
 30
0.0
 11
155.7
 21
252.0
 31
0.0
  0
LINE
  5
224
100
AcDbEntity
  8
LAY-4
  6
CONTINUOUS
 62
     3
100
AcDbLine
 10
158.0
 20
246.0
 30
0.0
 11
158.0
 21
254.0
 31
0.0
  0
LINE
  5
225
100
AcDbEntity
  8
LAY-4
  6
DASHED2
 62
     3
100
AcDbLine
 10
133.0
 20
252.0
 30
0.0
 11
128.0
 21
250.0
 31
0.0
  0
LINE
  5
226
100
AcDbEntity
  8
LAY-4
  6
DASHED2
 62
     3
100
AcDbLine
 10
128.0
 20
250.0
 30
0.0
 11
133.0
 21
248.0
 31
0.0
  0
LINE
  5
227
100
AcDbEntity
  8
LAY-4
  6
DASHED2
 62
     3
100
AcDbLine
 10
151.330127
 20
252.5
 30
0.0
 11
152.669873
 21
247.5
 31
0.0
  0
LINE
  5
228
100
AcDbEntity
  8
LAY-4
  6
DASHED2
 62
     3
100
AcDbLine
 10
148.330127
 20
252.5
 30
0.0
 11
149.669873
 21
247.5
 31
0.0
  0
LINE
  5
229
100
AcDbEntity
  8
LAY-4
  6
DASHED2
 62
     3
100
AcDbLine
 10
145.330127
 20
252.5
 30
0.0
 11
146.669873
 21
247.5
 31
0.0
  0
LINE
  5
22A
100
AcDbEntity
  8
LAY-4
  6
DASHED2
 62
     3
100
AcDbLine
 10
142.330127
 20
252.5
 30
0.0
 11
143.669873
 21
247.5
 31
0.0
  0
LINE
  5
22B
100
AcDbEntity
  8
LAY-4
  6
DASHED2
 62
     3
100
AcDbLine
 10
139.330127
 20
252.5
 30
0.0
 11
140.669873
 21
247.5
 31
0.0
  0
LINE
  5
22C
100
AcDbEntity
  8
LAY-4
  6
DASHED2
 62
     3
100
AcDbLine
 10
136.330127
 20
252.5
 30
0.0
 11
137.669873
 21
247.5
 31
0.0
  0
LINE
  5
22D
100
AcDbEntity
  8
LAY-4
  6
DASHED2
 62
     3
100
AcDbLine
 10
133.330127
 20
252.5
 30
0.0
 11
134.669873
 21
247.5
 31
0.0
  0
LINE
  5
22E
100
AcDbEntity
  8
LAY-4
  6
DASHED2
 62
     3
100
AcDbLine
 10
130.579261
 20
251.570221
 30
0.0
 11
131.521756
 21
248.052781
 31
0.0
  0
LINE
  5
22F
100
AcDbEntity
  8
LAY-4
  6
DASHED2
 62
     3
100
AcDbLine
 10
155.7
 20
233.0
 30
0.0
 11
157.7
 21
231.0
 31
0.0
  0
LINE
  5
230
100
AcDbEntity
  8
LAY-4
  6
DASHED2
 62
     3
100
AcDbLine
 10
158.0
 20
231.0
 30
0.0
 11
157.7
 21
231.0
 31
0.0
  0
LINE
  5
231
100
AcDbEntity
  8
LAY-4
  6
DASHED2
 62
     3
100
AcDbLine
 10
155.7
 20
233.0
 30
0.0
 11
133.0
 21
233.0
 31
0.0
  0
LINE
  5
232
100
AcDbEntity
  8
LAY-4
  6
DASHED2
 62
     3
100
AcDbLine
 10
155.7
 20
237.0
 30
0.0
 11
157.7
 21
239.0
 31
0.0
  0
LINE
  5
233
100
AcDbEntity
  8
LAY-4
  6
DASHED2
 62
     3
100
AcDbLine
 10
158.0
 20
239.0
 30
0.0
 11
157.7
 21
239.0
 31
0.0
  0
LINE
  5
234
100
AcDbEntity
  8
LAY-4
  6
DASHED2
 62
     3
100
AcDbLine
 10
155.7
 20
237.0
 30
0.0
 11
133.0
 21
237.0
 31
0.0
  0
LINE
  5
235
100
AcDbEntity
  8
LAY-4
  6
DASHED2
 62
     3
100
AcDbLine
 10
157.7
 20
231.0
 30
0.0
 11
157.7
 21
239.0
 31
0.0
  0
LINE
  5
236
100
AcDbEntity
  8
LAY-4
  6
DASHED2
 62
     3
100
AcDbLine
 10
155.7
 20
233.0
 30
0.0
 11
155.7
 21
237.0
 31
0.0
  0
LINE
  5
237
100
AcDbEntity
  8
LAY-4
  6
CONTINUOUS
 62
     3
100
AcDbLine
 10
158.0
 20
231.0
 30
0.0
 11
158.0
 21
239.0
 31
0.0
  0
LINE
  5
238
100
AcDbEntity
  8
LAY-4
  6
DASHED2
 62
     3
100
AcDbLine
 10
133.0
 20
237.0
 30
0.0
 11
128.0
 21
235.0
 31
0.0
  0
LINE
  5
239
100
AcDbEntity
  8
LAY-4
  6
DASHED2
 62
     3
100
AcDbLine
 10
128.0
 20
235.0
 30
0.0
 11
133.0
 21
233.0
 31
0.0
  0
LINE
  5
23A
100
AcDbEntity
  8
LAY-4
  6
DASHED2
 62
     3
100
AcDbLine
 10
151.330127
 20
237.5
 30
0.0
 11
152.669873
 21
232.5
 31
0.0
  0
LINE
  5
23B
100
AcDbEntity
  8
LAY-4
  6
DASHED2
 62
     3
100
AcDbLine
 10
148.330127
 20
237.5
 30
0.0
 11
149.669873
 21
232.5
 31
0.0
  0
LINE
  5
23C
100
AcDbEntity
  8
LAY-4
  6
DASHED2
 62
     3
100
AcDbLine
 10
145.330127
 20
237.5
 30
0.0
 11
146.669873
 21
232.5
 31
0.0
  0
LINE
  5
23D
100
AcDbEntity
  8
LAY-4
  6
DASHED2
 62
     3
100
AcDbLine
 10
142.330127
 20
237.5
 30
0.0
 11
143.669873
 21
232.5
 31
0.0
  0
LINE
  5
23E
100
AcDbEntity
  8
LAY-4
  6
DASHED2
 62
     3
100
AcDbLine
 10
139.330127
 20
237.5
 30
0.0
 11
140.669873
 21
232.5
 31
0.0
  0
LINE
  5
23F
100
AcDbEntity
  8
LAY-4
  6
DASHED2
 62
     3
100
AcDbLine
 10
136.330127
 20
237.5
 30
0.0
 11
137.669873
 21
232.5
 31
0.0
  0
LINE
  5
240
100
AcDbEntity
  8
LAY-4
  6
DASHED2
 62
     3
100
AcDbLine
 10
133.330127
 20
237.5
 30
0.0
 11
134.669873
 21
232.5
 31
0.0
  0
LINE
  5
241
100
AcDbEntity
  8
LAY-4
  6
DASHED2
 62
     3
100
AcDbLine
 10
130.579261
 20
236.570221
 30
0.0
 11
131.521756
 21
233.052781
 31
0.0
  0
LINE
  5
242
100
AcDbEntity
  8
LAY-4
  6
CONTINUOUS
 62
     3
100
AcDbLine
 10
158.0
 20
256.0
 30
0.0
 11
158.0
 21
222.0
 31
0.0
  0
LINE
  5
243
100
AcDbEntity
  8
LAY-4
  6
DASHED2
 62
     3
100
AcDbLine
 10
158.0
 20
222.0
 30
0.0
 11
158.0
 21
194.0
 31
0.0
  0
LINE
  5
244
100
AcDbEntity
  8
LAY-4
  6
CONTINUOUS
 62
     3
100
AcDbLine
 10
154.0
 20
194.0
 30
0.0
 11
178.0
 21
194.0
 31
0.0
  0
CIRCLE
  5
245
100
AcDbEntity
  8
LAY-4
  6
CONTINUOUS
 62
     3
100
AcDbCircle
 10
178.0
 20
208.0
 30
0.0
 40
14.0
  0
LINE
  5
246
100
AcDbEntity
  8
LAY-4
  6
DASHED2
 62
     3
100
AcDbLine
 10
158.0
 20
229.0
 30
0.0
 11
154.0
 21
229.0
 31
0.0
  0
LINE
  5
247
100
AcDbEntity
  8
LAY-4
  6
DASHED2
 62
     3
100
AcDbLine
 10
154.0
 20
222.0
 30
0.0
 11
158.0
 21
222.0
 31
0.0
  0
LINE
  5
248
100
AcDbEntity
  8
LAY-4
  6
CONTINUOUS
 62
     3
100
AcDbLine
 10
158.0
 20
222.0
 30
0.0
 11
178.0
 21
222.0
 31
0.0
  0
CIRCLE
  5
249
100
AcDbEntity
  8
LAY-4
  6
CONTINUOUS
 62
     3
100
AcDbCircle
 10
178.0
 20
208.0
 30
0.0
 40
5.9
  0
CIRCLE
  5
24A
100
AcDbEntity
  8
LAY-4
  6
CONTINUOUS
 62
     3
100
AcDbCircle
 10
178.0
 20
208.0
 30
0.0
 40
5.4
  0
INSERT
  5
24B
100
AcDbEntity
  8
LAY-4
  6
CONTINUOUS
 62
     0
100
AcDbBlockReference
  2
SYM-1
 10
188.0
 20
208.0
 30
0.0
 41
0.6
 42
0.6
  0
INSERT
  5
24C
100
AcDbEntity
  8
LAY-4
  6
CONTINUOUS
 62
     0
100
AcDbBlockReference
  2
SYM-1
 10
173.0
 20
216.660254
 30
0.0
 41
0.6
 42
0.6
  0
INSERT
  5
24D
100
AcDbEntity
  8
LAY-4
  6
CONTINUOUS
 62
     0
100
AcDbBlockReference
  2
SYM-1
 10
173.0
 20
199.339746
 30
0.0
 41
0.6
 42
0.6
  0
CIRCLE
  5
24E
100
AcDbEntity
  8
LAY-4
  6
CONTINUOUS
 62
     1
100
AcDbCircle
 10
178.0
 20
208.0
 30
0.0
 40
3.0
  0
CIRCLE
  5
24F
100
AcDbEntity
  8
LAY-4
  6
CONTINUOUS
 62
     3
100
AcDbCircle
 10
178.0
 20
208.0
 30
0.0
 40
2.5
  0
LINE
  5
250
100
AcDbEntity
  8
LAY-4
  6
CONTINUOUS
 62
     3
100
AcDbLine
 10
154.0
 20
256.0
 30
0.0
 11
154.0
 21
222.0
 31
0.0
  0
LINE
  5
251
100
AcDbEntity
  8
LAY-4
  6
CONTINUOUS
 62
     3
100
AcDbLine
 10
154.0
 20
222.0
 30
0.0
 11
154.0
 21
194.0
 31
0.0
  0
LINE
  5
252
100
AcDbEntity
  8
LAY-4
  6
CONTINUOUS
 62
     3
100
AcDbLine
 10
597.999999
 20
184.0
 30
0.0
 11
569.999999
 21
184.0
 31
0.0
  0
LINE
  5
253
100
AcDbEntity
  8
LAY-4
  6
CONTINUOUS
 62
     3
100
AcDbLine
 10
597.999999
 20
187.0
 30
0.0
 11
569.999999
 21
187.0
 31
0.0
  0
LINE
  5
254
100
AcDbEntity
  8
LAY-4
  6
CONTINUOUS
 62
     3
100
AcDbLine
 10
597.999999
 20
180.0
 30
0.0
 11
597.999999
 21
184.0
 31
0.0
  0
LINE
  5
255
100
AcDbEntity
  8
LAY-4
  6
CONTINUOUS
 62
     3
100
AcDbLine
 10
597.999999
 20
184.0
 30
0.0
 11
569.999999
 21
184.0
 31
0.0
  0
LINE
  5
256
100
AcDbEntity
  8
LAY-4
  6
DASHED2
 62
     3
100
AcDbLine
 10
595.659999
 20
187.0
 30
0.0
 11
594.659999
 21
186.0
 31
0.0
  0
LINE
  5
257
100
AcDbEntity
  8
LAY-4
  6
DASHED2
 62
     3
100
AcDbLine
 10
589.659999
 20
187.0
 30
0.0
 11
590.659999
 21
186.0
 31
0.0
  0
LINE
  5
258
100
AcDbEntity
  8
LAY-4
  6
DASHED2
 62
     3
100
AcDbLine
 10
573.339999
 20
180.0
 30
0.0
 11
573.339999
 21
186.0
 31
0.0
  0
LINE
  5
259
100
AcDbEntity
  8
LAY-4
  6
DASHED2
 62
     3
100
AcDbLine
 10
577.339999
 20
180.0
 30
0.0
 11
577.339999
 21
186.0
 31
0.0
  0
LINE
  5
25A
100
AcDbEntity
  8
LAY-4
  6
DASHED2
 62
     3
100
AcDbLine
 10
594.659999
 20
186.0
 30
0.0
 11
590.659999
 21
186.0
 31
0.0
  0
LINE
  5
25B
100
AcDbEntity
  8
LAY-4
  6
DASHED2
 62
     1
100
AcDbLine
 10
573.839999
 20
180.0
 30
0.0
 11
573.839999
 21
186.0
 31
0.0
  0
LINE
  5
25C
100
AcDbEntity
  8
LAY-4
  6
DASHED2
 62
     1
100
AcDbLine
 10
576.839999
 20
180.0
 30
0.0
 11
576.839999
 21
186.0
 31
0.0
  0
LINE
  5
25D
100
AcDbEntity
  8
LAY-4
  6
DASHED2
 62
     3
100
AcDbLine
 10
586.999999
 20
187.0
 30
0.0
 11
585.999999
 21
186.0
 31
0.0
  0
LINE
  5
25E
100
AcDbEntity
  8
LAY-4
  6
DASHED2
 62
     3
100
AcDbLine
 10
580.999999
 20
187.0
 30
0.0
 11
581.999999
 21
186.0
 31
0.0
  0
LINE
  5
25F
100
AcDbEntity
  8
LAY-4
  6
DASHED2
 62
     3
100
AcDbLine
 10
581.999999
 20
180.0
 30
0.0
 11
581.999999
 21
186.0
 31
0.0
  0
LINE
  5
260
100
AcDbEntity
  8
LAY-4
  6
DASHED2
 62
     3
100
AcDbLine
 10
585.999999
 20
180.0
 30
0.0
 11
585.999999
 21
186.0
 31
0.0
  0
LINE
  5
261
100
AcDbEntity
  8
LAY-4
  6
DASHED2
 62
     3
100
AcDbLine
 10
585.999999
 20
186.0
 30
0.0
 11
581.999999
 21
186.0
 31
0.0
  0
LINE
  5
262
100
AcDbEntity
  8
LAY-4
  6
DASHED2
 62
     1
100
AcDbLine
 10
582.499999
 20
180.0
 30
0.0
 11
582.499999
 21
186.0
 31
0.0
  0
LINE
  5
263
100
AcDbEntity
  8
LAY-4
  6
DASHED2
 62
     1
100
AcDbLine
 10
585.499999
 20
180.0
 30
0.0
 11
585.499999
 21
186.0
 31
0.0
  0
LINE
  5
264
100
AcDbEntity
  8
LAY-4
  6
DASHED2
 62
     3
100
AcDbLine
 10
578.339999
 20
187.0
 30
0.0
 11
577.339999
 21
186.0
 31
0.0
  0
LINE
  5
265
100
AcDbEntity
  8
LAY-4
  6
DASHED2
 62
     3
100
AcDbLine
 10
572.339999
 20
187.0
 30
0.0
 11
573.339999
 21
186.0
 31
0.0
  0
LINE
  5
266
100
AcDbEntity
  8
LAY-4
  6
DASHED2
 62
     3
100
AcDbLine
 10
590.659999
 20
180.0
 30
0.0
 11
590.659999
 21
186.0
 31
0.0
  0
LINE
  5
267
100
AcDbEntity
  8
LAY-4
  6
DASHED2
 62
     3
100
AcDbLine
 10
594.659999
 20
180.0
 30
0.0
 11
594.659999
 21
186.0
 31
0.0
  0
LINE
  5
268
100
AcDbEntity
  8
LAY-4
  6
DASHED2
 62
     3
100
AcDbLine
 10
577.339999
 20
186.0
 30
0.0
 11
573.339999
 21
186.0
 31
0.0
  0
LINE
  5
269
100
AcDbEntity
  8
LAY-4
  6
DASHED2
 62
     1
100
AcDbLine
 10
591.159999
 20
180.0
 30
0.0
 11
591.159999
 21
186.0
 31
0.0
  0
LINE
  5
26A
100
AcDbEntity
  8
LAY-4
  6
DASHED2
 62
     1
100
AcDbLine
 10
594.159999
 20
180.0
 30
0.0
 11
594.159999
 21
186.0
 31
0.0
  0
LINE
  5
26B
100
AcDbEntity
  8
LAY-4
  6
CONTINUOUS
 62
     3
100
AcDbLine
 10
597.999999
 20
186.0
 30
0.0
 11
631.999999
 21
186.0
 31
0.0
  0
LINE
  5
26C
100
AcDbEntity
  8
LAY-4
  6
CONTINUOUS
 62
     3
100
AcDbLine
 10
597.999999
 20
184.0
 30
0.0
 11
597.999999
 21
187.0
 31
0.0
  0
LINE
  5
26D
100
AcDbEntity
  8
LAY-4
  6
DASHED2
 62
     3
100
AcDbLine
 10
631.999999
 20
186.0
 30
0.0
 11
631.999999
 21
256.0
 31
0.0
  0
LINE
  5
26E
100
AcDbEntity
  8
LAY-4
  6
DASHED2
 62
     3
100
AcDbLine
 10
604.999999
 20
226.0
 30
0.0
 11
604.999999
 21
256.0
 31
0.0
  0
LINE
  5
26F
100
AcDbEntity
  8
LAY-4
  6
DASHED2
 62
     3
100
AcDbLine
 10
604.999999
 20
226.0
 30
0.0
 11
600.999999
 21
226.0
 31
0.0
  0
LINE
  5
270
100
AcDbEntity
  8
LAY-4
  6
DASHED2
 62
     3
100
AcDbLine
 10
604.999999
 20
256.0
 30
0.0
 11
631.999999
 21
256.0
 31
0.0
  0
ARC
  5
271
100
AcDbEntity
  8
LAY-4
  6
DASHED2
 62
     3
100
AcDbCircle
 10
627.499999
 20
236.5
 30
0.0
 40
1.0
100
AcDbArc
 50
90.0
 51
180.0
  0
ARC
  5
272
100
AcDbEntity
  8
LAY-4
  6
DASHED2
 62
     3
100
AcDbCircle
 10
624.499999
 20
239.5
 30
0.0
 40
1.0
100
AcDbArc
 50
270.0
 51
0.0
  0
ARC
  5
273
100
AcDbEntity
  8
LAY-4
  6
DASHED2
 62
     3
100
AcDbCircle
 10
624.499999
 20
236.5
 30
0.0
 40
1.0
100
AcDbArc
 50
0.0
 51
90.0
  0
ARC
  5
274
100
AcDbEntity
  8
LAY-4
  6
DASHED2
 62
     3
100
AcDbCircle
 10
627.499999
 20
239.5
 30
0.0
 40
1.0
100
AcDbArc
 50
180.0
 51
270.0
  0
ARC
  5
275
100
AcDbEntity
  8
LAY-4
  6
DASHED2
 62
     3
100
AcDbCircle
 10
627.499999
 20
236.5
 30
0.0
 40
1.0
100
AcDbArc
 50
90.0
 51
180.0
  0
ARC
  5
276
100
AcDbEntity
  8
LAY-4
  6
DASHED2
 62
     3
100
AcDbCircle
 10
627.499999
 20
239.5
 30
0.0
 40
1.0
100
AcDbArc
 50
180.0
 51
270.0
  0
CIRCLE
  5
277
100
AcDbEntity
  8
LAY-4
  6
DASHED2
 62
     3
100
AcDbCircle
 10
625.999999
 20
238.0
 30
0.0
 40
4.0
  0
LINE
  5
278
100
AcDbEntity
  8
LAY-4
  6
DASHED2
 62
     3
100
AcDbLine
 10
626.499999
 20
236.5
 30
0.0
 11
626.499999
 21
235.75
 31
0.0
  0
LINE
  5
279
100
AcDbEntity
  8
LAY-4
  6
DASHED2
 62
     3
100
AcDbLine
 10
625.499999
 20
235.75
 30
0.0
 11
626.499999
 21
235.75
 31
0.0
  0
LINE
  5
27A
100
AcDbEntity
  8
LAY-4
  6
DASHED2
 62
     3
100
AcDbLine
 10
625.499999
 20
236.5
 30
0.0
 11
625.499999
 21
235.75
 31
0.0
  0
LINE
  5
27B
100
AcDbEntity
  8
LAY-4
  6
DASHED2
 62
     3
100
AcDbLine
 10
625.499999
 20
236.5
 30
0.0
 11
625.499999
 21
235.75
 31
0.0
  0
LINE
  5
27C
100
AcDbEntity
  8
LAY-4
  6
DASHED2
 62
     3
100
AcDbLine
 10
626.499999
 20
235.75
 30
0.0
 11
625.499999
 21
235.75
 31
0.0
  0
LINE
  5
27D
100
AcDbEntity
  8
LAY-4
  6
DASHED2
 62
     3
100
AcDbLine
 10
626.499999
 20
236.5
 30
0.0
 11
626.499999
 21
235.75
 31
0.0
  0
LINE
  5
27E
100
AcDbEntity
  8
LAY-4
  6
DASHED2
 62
     3
100
AcDbLine
 10
623.749999
 20
238.5
 30
0.0
 11
623.749999
 21
237.5
 31
0.0
  0
LINE
  5
27F
100
AcDbEntity
  8
LAY-4
  6
DASHED2
 62
     3
100
AcDbLine
 10
626.499999
 20
240.25
 30
0.0
 11
625.499999
 21
240.25
 31
0.0
  0
LINE
  5
280
100
AcDbEntity
  8
LAY-4
  6
DASHED2
 62
     3
100
AcDbLine
 10
628.249999
 20
237.5
 30
0.0
 11
628.249999
 21
238.5
 31
0.0
  0
LINE
  5
281
100
AcDbEntity
  8
LAY-4
  6
DASHED2
 62
     3
100
AcDbLine
 10
624.499999
 20
238.5
 30
0.0
 11
623.749999
 21
238.5
 31
0.0
  0
LINE
  5
282
100
AcDbEntity
  8
LAY-4
  6
DASHED2
 62
     3
100
AcDbLine
 10
624.499999
 20
237.5
 30
0.0
 11
623.749999
 21
237.5
 31
0.0
  0
LINE
  5
283
100
AcDbEntity
  8
LAY-4
  6
DASHED2
 62
     3
100
AcDbLine
 10
626.499999
 20
239.5
 30
0.0
 11
626.499999
 21
240.25
 31
0.0
  0
LINE
  5
284
100
AcDbEntity
  8
LAY-4
  6
DASHED2
 62
     3
100
AcDbLine
 10
625.499999
 20
239.5
 30
0.0
 11
625.499999
 21
240.25
 31
0.0
  0
LINE
  5
285
100
AcDbEntity
  8
LAY-4
  6
DASHED2
 62
     3
100
AcDbLine
 10
625.499999
 20
239.5
 30
0.0
 11
625.499999
 21
240.25
 31
0.0
  0
LINE
  5
286
100
AcDbEntity
  8
LAY-4
  6
DASHED2
 62
     3
100
AcDbLine
 10
626.499999
 20
239.5
 30
0.0
 11
626.499999
 21
240.25
 31
0.0
  0
LINE
  5
287
100
AcDbEntity
  8
LAY-4
  6
DASHED2
 62
     3
100
AcDbLine
 10
627.499999
 20
238.5
 30
0.0
 11
628.249999
 21
238.5
 31
0.0
  0
LINE
  5
288
100
AcDbEntity
  8
LAY-4
  6
DASHED2
 62
     3
100
AcDbLine
 10
627.499999
 20
237.5
 30
0.0
 11
628.249999
 21
237.5
 31
0.0
  0
LINE
  5
289
100
AcDbEntity
  8
LAY-4
  6
DASHED2
 62
     3
100
AcDbLine
 10
627.499999
 20
237.5
 30
0.0
 11
628.249999
 21
237.5
 31
0.0
  0
ARC
  5
28A
100
AcDbEntity
  8
LAY-4
  6
DASHED2
 62
     3
100
AcDbCircle
 10
612.499999
 20
248.5
 30
0.0
 40
1.0
100
AcDbArc
 50
90.0
 51
180.0
  0
ARC
  5
28B
100
AcDbEntity
  8
LAY-4
  6
DASHED2
 62
     3
100
AcDbCircle
 10
609.499999
 20
251.5
 30
0.0
 40
1.0
100
AcDbArc
 50
270.0
 51
0.0
  0
ARC
  5
28C
100
AcDbEntity
  8
LAY-4
  6
DASHED2
 62
     3
100
AcDbCircle
 10
609.499999
 20
248.5
 30
0.0
 40
1.0
100
AcDbArc
 50
0.0
 51
90.0
  0
ARC
  5
28D
100
AcDbEntity
  8
LAY-4
  6
DASHED2
 62
     3
100
AcDbCircle
 10
612.499999
 20
251.5
 30
0.0
 40
1.0
100
AcDbArc
 50
180.0
 51
270.0
  0
ARC
  5
28E
100
AcDbEntity
  8
LAY-4
  6
DASHED2
 62
     3
100
AcDbCircle
 10
612.499999
 20
248.5
 30
0.0
 40
1.0
100
AcDbArc
 50
90.0
 51
180.0
  0
ARC
  5
28F
100
AcDbEntity
  8
LAY-4
  6
DASHED2
 62
     3
100
AcDbCircle
 10
612.499999
 20
251.5
 30
0.0
 40
1.0
100
AcDbArc
 50
180.0
 51
270.0
  0
CIRCLE
  5
290
100
AcDbEntity
  8
LAY-4
  6
DASHED2
 62
     3
100
AcDbCircle
 10
610.999999
 20
250.0
 30
0.0
 40
4.0
  0
LINE
  5
291
100
AcDbEntity
  8
LAY-4
  6
DASHED2
 62
     3
100
AcDbLine
 10
611.499999
 20
248.5
 30
0.0
 11
611.499999
 21
247.75
 31
0.0
  0
LINE
  5
292
100
AcDbEntity
  8
LAY-4
  6
DASHED2
 62
     3
100
AcDbLine
 10
610.499999
 20
247.75
 30
0.0
 11
611.499999
 21
247.75
 31
0.0
  0
LINE
  5
293
100
AcDbEntity
  8
LAY-4
  6
DASHED2
 62
     3
100
AcDbLine
 10
610.499999
 20
248.5
 30
0.0
 11
610.499999
 21
247.75
 31
0.0
  0
LINE
  5
294
100
AcDbEntity
  8
LAY-4
  6
DASHED2
 62
     3
100
AcDbLine
 10
610.499999
 20
248.5
 30
0.0
 11
610.499999
 21
247.75
 31
0.0
  0
LINE
  5
295
100
AcDbEntity
  8
LAY-4
  6
DASHED2
 62
     3
100
AcDbLine
 10
611.499999
 20
247.75
 30
0.0
 11
610.499999
 21
247.75
 31
0.0
  0
LINE
  5
296
100
AcDbEntity
  8
LAY-4
  6
DASHED2
 62
     3
100
AcDbLine
 10
611.499999
 20
248.5
 30
0.0
 11
611.499999
 21
247.75
 31
0.0
  0
LINE
  5
297
100
AcDbEntity
  8
LAY-4
  6
DASHED2
 62
     3
100
AcDbLine
 10
608.749999
 20
250.5
 30
0.0
 11
608.749999
 21
249.5
 31
0.0
  0
LINE
  5
298
100
AcDbEntity
  8
LAY-4
  6
DASHED2
 62
     3
100
AcDbLine
 10
611.499999
 20
252.25
 30
0.0
 11
610.499999
 21
252.25
 31
0.0
  0
LINE
  5
299
100
AcDbEntity
  8
LAY-4
  6
DASHED2
 62
     3
100
AcDbLine
 10
613.249999
 20
249.5
 30
0.0
 11
613.249999
 21
250.5
 31
0.0
  0
LINE
  5
29A
100
AcDbEntity
  8
LAY-4
  6
DASHED2
 62
     3
100
AcDbLine
 10
609.499999
 20
250.5
 30
0.0
 11
608.749999
 21
250.5
 31
0.0
  0
LINE
  5
29B
100
AcDbEntity
  8
LAY-4
  6
DASHED2
 62
     3
100
AcDbLine
 10
609.499999
 20
249.5
 30
0.0
 11
608.749999
 21
249.5
 31
0.0
  0
LINE
  5
29C
100
AcDbEntity
  8
LAY-4
  6
DASHED2
 62
     3
100
AcDbLine
 10
611.499999
 20
251.5
 30
0.0
 11
611.499999
 21
252.25
 31
0.0
  0
LINE
  5
29D
100
AcDbEntity
  8
LAY-4
  6
DASHED2
 62
     3
100
AcDbLine
 10
610.499999
 20
251.5
 30
0.0
 11
610.499999
 21
252.25
 31
0.0
  0
LINE
  5
29E
100
AcDbEntity
  8
LAY-4
  6
DASHED2
 62
     3
100
AcDbLine
 10
610.499999
 20
251.5
 30
0.0
 11
610.499999
 21
252.25
 31
0.0
  0
LINE
  5
29F
100
AcDbEntity
  8
LAY-4
  6
DASHED2
 62
     3
100
AcDbLine
 10
611.499999
 20
251.5
 30
0.0
 11
611.499999
 21
252.25
 31
0.0
  0
LINE
  5
2A0
100
AcDbEntity
  8
LAY-4
  6
DASHED2
 62
     3
100
AcDbLine
 10
612.499999
 20
250.5
 30
0.0
 11
613.249999
 21
250.5
 31
0.0
  0
LINE
  5
2A1
100
AcDbEntity
  8
LAY-4
  6
DASHED2
 62
     3
100
AcDbLine
 10
612.499999
 20
249.5
 30
0.0
 11
613.249999
 21
249.5
 31
0.0
  0
LINE
  5
2A2
100
AcDbEntity
  8
LAY-4
  6
DASHED2
 62
     3
100
AcDbLine
 10
612.499999
 20
249.5
 30
0.0
 11
613.249999
 21
249.5
 31
0.0
  0
ARC
  5
2A3
100
AcDbEntity
  8
LAY-4
  6
DASHED2
 62
     3
100
AcDbCircle
 10
627.499999
 20
201.5
 30
0.0
 40
1.0
100
AcDbArc
 50
90.0
 51
180.0
  0
ARC
  5
2A4
100
AcDbEntity
  8
LAY-4
  6
DASHED2
 62
     3
100
AcDbCircle
 10
624.499999
 20
204.5
 30
0.0
 40
1.0
100
AcDbArc
 50
270.0
 51
0.0
  0
ARC
  5
2A5
100
AcDbEntity
  8
LAY-4
  6
DASHED2
 62
     3
100
AcDbCircle
 10
624.499999
 20
201.5
 30
0.0
 40
1.0
100
AcDbArc
 50
0.0
 51
90.0
  0
ARC
  5
2A6
100
AcDbEntity
  8
LAY-4
  6
DASHED2
 62
     3
100
AcDbCircle
 10
627.499999
 20
204.5
 30
0.0
 40
1.0
100
AcDbArc
 50
180.0
 51
270.0
  0
ARC
  5
2A7
100
AcDbEntity
  8
LAY-4
  6
DASHED2
 62
     3
100
AcDbCircle
 10
627.499999
 20
201.5
 30
0.0
 40
1.0
100
AcDbArc
 50
90.0
 51
180.0
  0
ARC
  5
2A8
100
AcDbEntity
  8
LAY-4
  6
DASHED2
 62
     3
100
AcDbCircle
 10
627.499999
 20
204.5
 30
0.0
 40
1.0
100
AcDbArc
 50
180.0
 51
270.0
  0
CIRCLE
  5
2A9
100
AcDbEntity
  8
LAY-4
  6
DASHED2
 62
     3
100
AcDbCircle
 10
625.999999
 20
203.0
 30
0.0
 40
4.0
  0
LINE
  5
2AA
100
AcDbEntity
  8
LAY-4
  6
DASHED2
 62
     3
100
AcDbLine
 10
626.499999
 20
201.5
 30
0.0
 11
626.499999
 21
200.75
 31
0.0
  0
LINE
  5
2AB
100
AcDbEntity
  8
LAY-4
  6
DASHED2
 62
     3
100
AcDbLine
 10
625.499999
 20
200.75
 30
0.0
 11
626.499999
 21
200.75
 31
0.0
  0
LINE
  5
2AC
100
AcDbEntity
  8
LAY-4
  6
DASHED2
 62
     3
100
AcDbLine
 10
625.499999
 20
201.5
 30
0.0
 11
625.499999
 21
200.75
 31
0.0
  0
LINE
  5
2AD
100
AcDbEntity
  8
LAY-4
  6
DASHED2
 62
     3
100
AcDbLine
 10
625.499999
 20
201.5
 30
0.0
 11
625.499999
 21
200.75
 31
0.0
  0
LINE
  5
2AE
100
AcDbEntity
  8
LAY-4
  6
DASHED2
 62
     3
100
AcDbLine
 10
626.499999
 20
200.75
 30
0.0
 11
625.499999
 21
200.75
 31
0.0
  0
LINE
  5
2AF
100
AcDbEntity
  8
LAY-4
  6
DASHED2
 62
     3
100
AcDbLine
 10
626.499999
 20
201.5
 30
0.0
 11
626.499999
 21
200.75
 31
0.0
  0
LINE
  5
2B0
100
AcDbEntity
  8
LAY-4
  6
DASHED2
 62
     3
100
AcDbLine
 10
623.749999
 20
203.5
 30
0.0
 11
623.749999
 21
202.5
 31
0.0
  0
LINE
  5
2B1
100
AcDbEntity
  8
LAY-4
  6
DASHED2
 62
     3
100
AcDbLine
 10
626.499999
 20
205.25
 30
0.0
 11
625.499999
 21
205.25
 31
0.0
  0
LINE
  5
2B2
100
AcDbEntity
  8
LAY-4
  6
DASHED2
 62
     3
100
AcDbLine
 10
628.249999
 20
202.5
 30
0.0
 11
628.249999
 21
203.5
 31
0.0
  0
LINE
  5
2B3
100
AcDbEntity
  8
LAY-4
  6
DASHED2
 62
     3
100
AcDbLine
 10
624.499999
 20
203.5
 30
0.0
 11
623.749999
 21
203.5
 31
0.0
  0
LINE
  5
2B4
100
AcDbEntity
  8
LAY-4
  6
DASHED2
 62
     3
100
AcDbLine
 10
624.499999
 20
202.5
 30
0.0
 11
623.749999
 21
202.5
 31
0.0
  0
LINE
  5
2B5
100
AcDbEntity
  8
LAY-4
  6
DASHED2
 62
     3
100
AcDbLine
 10
626.499999
 20
204.5
 30
0.0
 11
626.499999
 21
205.25
 31
0.0
  0
LINE
  5
2B6
100
AcDbEntity
  8
LAY-4
  6
DASHED2
 62
     3
100
AcDbLine
 10
625.499999
 20
204.5
 30
0.0
 11
625.499999
 21
205.25
 31
0.0
  0
LINE
  5
2B7
100
AcDbEntity
  8
LAY-4
  6
DASHED2
 62
     3
100
AcDbLine
 10
625.499999
 20
204.5
 30
0.0
 11
625.499999
 21
205.25
 31
0.0
  0
LINE
  5
2B8
100
AcDbEntity
  8
LAY-4
  6
DASHED2
 62
     3
100
AcDbLine
 10
626.499999
 20
204.5
 30
0.0
 11
626.499999
 21
205.25
 31
0.0
  0
LINE
  5
2B9
100
AcDbEntity
  8
LAY-4
  6
DASHED2
 62
     3
100
AcDbLine
 10
627.499999
 20
203.5
 30
0.0
 11
628.249999
 21
203.5
 31
0.0
  0
LINE
  5
2BA
100
AcDbEntity
  8
LAY-4
  6
DASHED2
 62
     3
100
AcDbLine
 10
627.499999
 20
202.5
 30
0.0
 11
628.249999
 21
202.5
 31
0.0
  0
LINE
  5
2BB
100
AcDbEntity
  8
LAY-4
  6
DASHED2
 62
     3
100
AcDbLine
 10
627.499999
 20
202.5
 30
0.0
 11
628.249999
 21
202.5
 31
0.0
  0
ARC
  5
2BC
100
AcDbEntity
  8
LAY-4
  6
DASHED2
 62
     3
100
AcDbCircle
 10
612.499999
 20
213.5
 30
0.0
 40
1.0
100
AcDbArc
 50
90.0
 51
180.0
  0
ARC
  5
2BD
100
AcDbEntity
  8
LAY-4
  6
DASHED2
 62
     3
100
AcDbCircle
 10
609.499999
 20
216.5
 30
0.0
 40
1.0
100
AcDbArc
 50
270.0
 51
0.0
  0
ARC
  5
2BE
100
AcDbEntity
  8
LAY-4
  6
DASHED2
 62
     3
100
AcDbCircle
 10
609.499999
 20
213.5
 30
0.0
 40
1.0
100
AcDbArc
 50
0.0
 51
90.0
  0
ARC
  5
2BF
100
AcDbEntity
  8
LAY-4
  6
DASHED2
 62
     3
100
AcDbCircle
 10
612.499999
 20
216.5
 30
0.0
 40
1.0
100
AcDbArc
 50
180.0
 51
270.0
  0
ARC
  5
2C0
100
AcDbEntity
  8
LAY-4
  6
DASHED2
 62
     3
100
AcDbCircle
 10
612.499999
 20
213.5
 30
0.0
 40
1.0
100
AcDbArc
 50
90.0
 51
180.0
  0
ARC
  5
2C1
100
AcDbEntity
  8
LAY-4
  6
DASHED2
 62
     3
100
AcDbCircle
 10
612.499999
 20
216.5
 30
0.0
 40
1.0
100
AcDbArc
 50
180.0
 51
270.0
  0
CIRCLE
  5
2C2
100
AcDbEntity
  8
LAY-4
  6
DASHED2
 62
     3
100
AcDbCircle
 10
610.999999
 20
215.0
 30
0.0
 40
4.0
  0
LINE
  5
2C3
100
AcDbEntity
  8
LAY-4
  6
DASHED2
 62
     3
100
AcDbLine
 10
611.499999
 20
213.5
 30
0.0
 11
611.499999
 21
212.75
 31
0.0
  0
LINE
  5
2C4
100
AcDbEntity
  8
LAY-4
  6
DASHED2
 62
     3
100
AcDbLine
 10
610.499999
 20
212.75
 30
0.0
 11
611.499999
 21
212.75
 31
0.0
  0
LINE
  5
2C5
100
AcDbEntity
  8
LAY-4
  6
DASHED2
 62
     3
100
AcDbLine
 10
610.499999
 20
213.5
 30
0.0
 11
610.499999
 21
212.75
 31
0.0
  0
LINE
  5
2C6
100
AcDbEntity
  8
LAY-4
  6
DASHED2
 62
     3
100
AcDbLine
 10
610.499999
 20
213.5
 30
0.0
 11
610.499999
 21
212.75
 31
0.0
  0
LINE
  5
2C7
100
AcDbEntity
  8
LAY-4
  6
DASHED2
 62
     3
100
AcDbLine
 10
611.499999
 20
212.75
 30
0.0
 11
610.499999
 21
212.75
 31
0.0
  0
LINE
  5
2C8
100
AcDbEntity
  8
LAY-4
  6
DASHED2
 62
     3
100
AcDbLine
 10
611.499999
 20
213.5
 30
0.0
 11
611.499999
 21
212.75
 31
0.0
  0
LINE
  5
2C9
100
AcDbEntity
  8
LAY-4
  6
DASHED2
 62
     3
100
AcDbLine
 10
608.749999
 20
215.5
 30
0.0
 11
608.749999
 21
214.5
 31
0.0
  0
LINE
  5
2CA
100
AcDbEntity
  8
LAY-4
  6
DASHED2
 62
     3
100
AcDbLine
 10
611.499999
 20
217.25
 30
0.0
 11
610.499999
 21
217.25
 31
0.0
  0
LINE
  5
2CB
100
AcDbEntity
  8
LAY-4
  6
DASHED2
 62
     3
100
AcDbLine
 10
613.249999
 20
214.5
 30
0.0
 11
613.249999
 21
215.5
 31
0.0
  0
LINE
  5
2CC
100
AcDbEntity
  8
LAY-4
  6
DASHED2
 62
     3
100
AcDbLine
 10
609.499999
 20
215.5
 30
0.0
 11
608.749999
 21
215.5
 31
0.0
  0
LINE
  5
2CD
100
AcDbEntity
  8
LAY-4
  6
DASHED2
 62
     3
100
AcDbLine
 10
609.499999
 20
214.5
 30
0.0
 11
608.749999
 21
214.5
 31
0.0
  0
LINE
  5
2CE
100
AcDbEntity
  8
LAY-4
  6
DASHED2
 62
     3
100
AcDbLine
 10
611.499999
 20
216.5
 30
0.0
 11
611.499999
 21
217.25
 31
0.0
  0
LINE
  5
2CF
100
AcDbEntity
  8
LAY-4
  6
DASHED2
 62
     3
100
AcDbLine
 10
610.499999
 20
216.5
 30
0.0
 11
610.499999
 21
217.25
 31
0.0
  0
LINE
  5
2D0
100
AcDbEntity
  8
LAY-4
  6
DASHED2
 62
     3
100
AcDbLine
 10
610.499999
 20
216.5
 30
0.0
 11
610.499999
 21
217.25
 31
0.0
  0
LINE
  5
2D1
100
AcDbEntity
  8
LAY-4
  6
DASHED2
 62
     3
100
AcDbLine
 10
611.499999
 20
216.5
 30
0.0
 11
611.499999
 21
217.25
 31
0.0
  0
LINE
  5
2D2
100
AcDbEntity
  8
LAY-4
  6
DASHED2
 62
     3
100
AcDbLine
 10
612.499999
 20
215.5
 30
0.0
 11
613.249999
 21
215.5
 31
0.0
  0
LINE
  5
2D3
100
AcDbEntity
  8
LAY-4
  6
DASHED2
 62
     3
100
AcDbLine
 10
612.499999
 20
214.5
 30
0.0
 11
613.249999
 21
214.5
 31
0.0
  0
LINE
  5
2D4
100
AcDbEntity
  8
LAY-4
  6
DASHED2
 62
     3
100
AcDbLine
 10
612.499999
 20
214.5
 30
0.0
 11
613.249999
 21
214.5
 31
0.0
  0
LINE
  5
2D5
100
AcDbEntity
  8
LAY-4
  6
CONTINUOUS
 62
     3
100
AcDbLine
 10
569.999999
 20
189.13275
 30
0.0
 11
569.999999
 21
180.0
 31
0.0
  0
LINE
  5
2D6
100
AcDbEntity
  8
LAY-4
  6
CONTINUOUS
 62
     3
100
AcDbLine
 10
569.999999
 20
180.0
 30
0.0
 11
597.999999
 21
180.0
 31
0.0
  0
LINE
  5
2D7
100
AcDbEntity
  8
LAY-4
  6
CONTINUOUS
 62
     3
100
AcDbLine
 10
571.499999
 20
192.0
 30
0.0
 11
571.499999
 21
187.0
 31
0.0
  0
LINE
  5
2D8
100
AcDbEntity
  8
LAY-4
  6
CONTINUOUS
 62
     3
100
AcDbLine
 10
596.499999
 20
192.0
 30
0.0
 11
596.499999
 21
187.0
 31
0.0
  0
ARC
  5
2D9
100
AcDbEntity
  8
LAY-4
  6
DASHED2
 62
     3
100
AcDbCircle
 10
574.999999
 20
189.13275
 30
0.0
 40
5.0
100
AcDbArc
 50
121.624872
 51
145.008846
  0
ARC
  5
2DA
100
AcDbEntity
  8
LAY-4
  6
CONTINUOUS
 62
     3
100
AcDbCircle
 10
574.999999
 20
189.13275
 30
0.0
 40
5.0
100
AcDbArc
 50
145.008846
 51
180.0
  0
ARC
  5
2DB
100
AcDbEntity
  8
LAY-4
  6
DASHED2
 62
     3
100
AcDbCircle
 10
540.916886
 20
244.480211
 30
0.0
 40
60.0
100
AcDbArc
 50
301.624872
 51
321.342016
  0
ARC
  5
2DC
100
AcDbEntity
  8
LAY-4
  6
CONTINUOUS
 62
     3
100
AcDbCircle
 10
540.916886
 20
244.480211
 30
0.0
 40
60.0
100
AcDbArc
 50
321.342016
 51
342.061046
  0
LINE
  5
2DD
100
AcDbEntity
  8
LAY-4
  6
CONTINUOUS
 62
     3
100
AcDbLine
 10
597.999999
 20
226.0
 30
0.0
 11
600.999999
 21
226.0
 31
0.0
  0
LINE
  5
2DE
100
AcDbEntity
  8
LAY-4
  6
CONTINUOUS
 62
     3
100
AcDbLine
 10
296.0
 20
225.0
 30
0.0
 11
296.0
 21
208.0
 31
0.0
  0
LINE
  5
2DF
100
AcDbEntity
  8
LAY-4
  6
CONTINUOUS
 62
     3
100
AcDbLine
 10
324.0
 20
225.0
 30
0.0
 11
324.0
 21
208.0
 31
0.0
  0
ARC
  5
2E0
100
AcDbEntity
  8
LAY-4
  6
CONTINUOUS
 62
     3
100
AcDbCircle
 10
310.0
 20
208.0
 30
0.0
 40
14.0
100
AcDbArc
 50
180.0
 51
0.0
  0
LINE
  5
2E1
100
AcDbEntity
  8
LAY-4
  6
CONTINUOUS
 62
     3
100
AcDbLine
 10
320.0
 20
231.0
 30
0.0
 11
430.0
 21
231.0
 31
0.0
  0
LINE
  5
2E2
100
AcDbEntity
  8
LAY-4
  6
CONTINUOUS
 62
     3
100
AcDbLine
 10
300.0
 20
249.0
 30
0.0
 11
430.0
 21
249.0
 31
0.0
  0
LINE
  5
2E3
100
AcDbEntity
  8
LAY-4
  6
CONTINUOUS
 62
     3
100
AcDbLine
 10
300.0
 20
249.0
 30
0.0
 11
300.0
 21
225.0
 31
0.0
  0
LINE
  5
2E4
100
AcDbEntity
  8
LAY-4
  6
CONTINUOUS
 62
     3
100
AcDbLine
 10
430.0
 20
249.0
 30
0.0
 11
430.0
 21
231.0
 31
0.0
  0
LINE
  5
2E5
100
AcDbEntity
  8
LAY-4
  6
CONTINUOUS
 62
     3
100
AcDbLine
 10
320.0
 20
231.0
 30
0.0
 11
320.0
 21
225.0
 31
0.0
  0
LINE
  5
2E6
100
AcDbEntity
  8
LAY-4
  6
CONTINUOUS
 62
     3
100
AcDbLine
 10
324.0
 20
225.0
 30
0.0
 11
320.0
 21
225.0
 31
0.0
  0
LINE
  5
2E7
100
AcDbEntity
  8
LAY-4
  6
CONTINUOUS
 62
     3
100
AcDbLine
 10
300.0
 20
225.0
 30
0.0
 11
296.0
 21
225.0
 31
0.0
  0
LINE
  5
2E8
100
AcDbEntity
  8
LAY-4
  6
DASHED2
 62
     3
100
AcDbLine
 10
300.0
 20
225.0
 30
0.0
 11
320.0
 21
225.0
 31
0.0
  0
CIRCLE
  5
2E9
100
AcDbEntity
  8
LAY-4
  6
DASHED2
 62
     3
100
AcDbCircle
 10
308.0
 20
243.0
 30
0.0
 40
4.2
  0
CIRCLE
  5
2EA
100
AcDbEntity
  8
LAY-4
  6
CONTINUOUS
 62
     3
100
AcDbCircle
 10
308.0
 20
243.0
 30
0.0
 40
2.1
  0
CIRCLE
  5
2EB
100
AcDbEntity
  8
LAY-4
  6
DASHED2
 62
     3
100
AcDbCircle
 10
365.0
 20
240.0
 30
0.0
 40
4.2
  0
CIRCLE
  5
2EC
100
AcDbEntity
  8
LAY-4
  6
CONTINUOUS
 62
     3
100
AcDbCircle
 10
365.0
 20
240.0
 30
0.0
 40
2.1
  0
ARC
  5
2ED
100
AcDbEntity
  8
LAY-4
  6
CONTINUOUS
 62
     3
100
AcDbCircle
 10
337.1
 20
237.0
 30
0.0
 40
2.1
100
AcDbArc
 50
90.0
 51
270.0
  0
ARC
  5
2EE
100
AcDbEntity
  8
LAY-4
  6
DASHED2
 62
     3
100
AcDbCircle
 10
337.0
 20
237.0
 30
0.0
 40
4.0
100
AcDbArc
 50
90.0
 51
270.0
  0
ARC
  5
2EF
100
AcDbEntity
  8
LAY-4
  6
CONTINUOUS
 62
     3
100
AcDbCircle
 10
342.9
 20
237.0
 30
0.0
 40
2.1
100
AcDbArc
 50
270.0
 51
90.0
  0
ARC
  5
2F0
100
AcDbEntity
  8
LAY-4
  6
DASHED2
 62
     3
100
AcDbCircle
 10
343.0
 20
237.0
 30
0.0
 40
4.0
100
AcDbArc
 50
270.0
 51
90.0
  0
LINE
  5
2F1
100
AcDbEntity
  8
LAY-4
  6
CONTINUOUS
 62
     3
100
AcDbLine
 10
337.1
 20
239.1
 30
0.0
 11
342.9
 21
239.1
 31
0.0
  0
LINE
  5
2F2
100
AcDbEntity
  8
LAY-4
  6
DASHED2
 62
     3
100
AcDbLine
 10
337.0
 20
241.0
 30
0.0
 11
343.0
 21
241.0
 31
0.0
  0
LINE
  5
2F3
100
AcDbEntity
  8
LAY-4
  6
CONTINUOUS
 62
     3
100
AcDbLine
 10
337.1
 20
234.9
 30
0.0
 11
342.9
 21
234.9
 31
0.0
  0
LINE
  5
2F4
100
AcDbEntity
  8
LAY-4
  6
DASHED2
 62
     3
100
AcDbLine
 10
337.0
 20
233.0
 30
0.0
 11
343.0
 21
233.0
 31
0.0
  0
ARC
  5
2F5
100
AcDbEntity
  8
LAY-4
  6
CONTINUOUS
 62
     3
100
AcDbCircle
 10
387.1
 20
243.0
 30
0.0
 40
2.1
100
AcDbArc
 50
90.0
 51
270.0
  0
ARC
  5
2F6
100
AcDbEntity
  8
LAY-4
  6
DASHED2
 62
     3
100
AcDbCircle
 10
387.0
 20
243.0
 30
0.0
 40
4.0
100
AcDbArc
 50
90.0
 51
270.0
  0
ARC
  5
2F7
100
AcDbEntity
  8
LAY-4
  6
CONTINUOUS
 62
     3
100
AcDbCircle
 10
392.9
 20
243.0
 30
0.0
 40
2.1
100
AcDbArc
 50
270.0
 51
90.0
  0
ARC
  5
2F8
100
AcDbEntity
  8
LAY-4
  6
DASHED2
 62
     3
100
AcDbCircle
 10
393.0
 20
243.0
 30
0.0
 40
4.0
100
AcDbArc
 50
270.0
 51
90.0
  0
LINE
  5
2F9
100
AcDbEntity
  8
LAY-4
  6
CONTINUOUS
 62
     3
100
AcDbLine
 10
387.1
 20
245.1
 30
0.0
 11
392.9
 21
245.1
 31
0.0
  0
LINE
  5
2FA
100
AcDbEntity
  8
LAY-4
  6
DASHED2
 62
     3
100
AcDbLine
 10
387.0
 20
247.0
 30
0.0
 11
393.0
 21
247.0
 31
0.0
  0
LINE
  5
2FB
100
AcDbEntity
  8
LAY-4
  6
CONTINUOUS
 62
     3
100
AcDbLine
 10
387.1
 20
240.9
 30
0.0
 11
392.9
 21
240.9
 31
0.0
  0
LINE
  5
2FC
100
AcDbEntity
  8
LAY-4
  6
DASHED2
 62
     3
100
AcDbLine
 10
387.0
 20
239.0
 30
0.0
 11
393.0
 21
239.0
 31
0.0
  0
ARC
  5
2FD
100
AcDbEntity
  8
LAY-4
  6
CONTINUOUS
 62
     3
100
AcDbCircle
 10
417.1
 20
237.0
 30
0.0
 40
2.1
100
AcDbArc
 50
90.0
 51
270.0
  0
ARC
  5
2FE
100
AcDbEntity
  8
LAY-4
  6
DASHED2
 62
     3
100
AcDbCircle
 10
417.0
 20
237.0
 30
0.0
 40
4.0
100
AcDbArc
 50
90.0
 51
270.0
  0
ARC
  5
2FF
100
AcDbEntity
  8
LAY-4
  6
CONTINUOUS
 62
     3
100
AcDbCircle
 10
422.9
 20
237.0
 30
0.0
 40
2.1
100
AcDbArc
 50
270.0
 51
90.0
  0
ARC
  5
300
100
AcDbEntity
  8
LAY-4
  6
DASHED2
 62
     3
100
AcDbCircle
 10
423.0
 20
237.0
 30
0.0
 40
4.0
100
AcDbArc
 50
270.0
 51
90.0
  0
LINE
  5
301
100
AcDbEntity
  8
LAY-4
  6
CONTINUOUS
 62
     3
100
AcDbLine
 10
417.1
 20
239.1
 30
0.0
 11
422.9
 21
239.1
 31
0.0
  0
LINE
  5
302
100
AcDbEntity
  8
LAY-4
  6
DASHED2
 62
     3
100
AcDbLine
 10
417.0
 20
241.0
 30
0.0
 11
423.0
 21
241.0
 31
0.0
  0
LINE
  5
303
100
AcDbEntity
  8
LAY-4
  6
CONTINUOUS
 62
     3
100
AcDbLine
 10
417.1
 20
234.9
 30
0.0
 11
422.9
 21
234.9
 31
0.0
  0
LINE
  5
304
100
AcDbEntity
  8
LAY-4
  6
DASHED2
 62
     3
100
AcDbLine
 10
417.0
 20
233.0
 30
0.0
 11
423.0
 21
233.0
 31
0.0
  0
CIRCLE
  5
305
100
AcDbEntity
  8
LAY-4
  6
DASHED2
 62
     3
100
AcDbCircle
 10
310.0
 20
208.0
 30
0.0
 40
8.5
  0
CIRCLE
  5
306
100
AcDbEntity
  8
LAY-4
  6
DASHED2
 62
     3
100
AcDbCircle
 10
310.0
 20
208.0
 30
0.0
 40
6.0
  0
LINE
  5
307
100
AcDbEntity
  8
LAY-4
  6
DASHED2
 62
     3
100
AcDbLine
 10
586.999999
 20
180.0
 30
0.0
 11
586.999999
 21
207.0
 31
0.0
  0
LINE
  5
308
100
AcDbEntity
  8
LAY-4
  6
DASHED2
 62
     1
100
AcDbLine
 10
586.499999
 20
207.0
 30
0.0
 11
586.499999
 21
180.0
 31
0.0
  0
LINE
  5
309
100
AcDbEntity
  8
LAY-4
  6
DASHED2
 62
     1
100
AcDbLine
 10
581.499999
 20
207.0
 30
0.0
 11
581.499999
 21
180.0
 31
0.0
  0
LINE
  5
30A
100
AcDbEntity
  8
LAY-4
  6
DASHED2
 62
     3
100
AcDbLine
 10
580.999999
 20
180.0
 30
0.0
 11
580.999999
 21
207.0
 31
0.0
  0
LINE
  5
30B
100
AcDbEntity
  8
LAY-5
  6
DASHDOT
 62
     1
100
AcDbLine
 10
150.0
 20
356.0
 30
0.0
 11
197.4
 21
356.0
 31
0.0
  0
LINE
  5
30C
100
AcDbEntity
  8
LAY-5
  6
DASHDOT
 62
     1
100
AcDbLine
 10
149.9
 20
208.0
 30
0.0
 11
195.3
 21
208.0
 31
0.0
  0
LINE
  5
30D
100
AcDbEntity
  8
LAY-5
  6
DASHDOT
 62
     1
100
AcDbLine
 10
178.0
 20
376.3
 30
0.0
 11
178.0
 21
335.3
 31
0.0
  0
LINE
  5
30E
100
AcDbEntity
  8
LAY-5
  6
DASHDOT
 62
     1
100
AcDbLine
 10
178.0
 20
225.7
 30
0.0
 11
178.0
 21
191.1
 31
0.0
  0
LINE
  5
30F
100
AcDbEntity
  8
LAY-5
  6
DASHDOT
 62
     1
100
AcDbLine
 10
159.7
 20
398.0
 30
0.0
 11
126.1
 21
398.0
 31
0.0
  0
LINE
  5
310
100
AcDbEntity
  8
LAY-5
  6
DASHDOT
 62
     1
100
AcDbLine
 10
159.7
 20
383.0
 30
0.0
 11
126.1
 21
383.0
 31
0.0
  0
ARC
  5
311
100
AcDbEntity
  8
LAY-5
  6
DASHDOT
 62
     1
100
AcDbCircle
 10
178.0
 20
356.0
 30
0.0
 40
10.0
100
AcDbArc
 50
97.77497
 51
143.272904
  0
ARC
  5
312
100
AcDbEntity
  8
LAY-5
  6
DASHDOT
 62
     1
100
AcDbCircle
 10
178.0
 20
356.0
 30
0.0
 40
10.0
100
AcDbArc
 50
217.77497
 51
263.272904
  0
ARC
  5
313
100
AcDbEntity
  8
LAY-5
  6
DASHDOT
 62
     1
100
AcDbCircle
 10
178.0
 20
356.0
 30
0.0
 40
10.0
100
AcDbArc
 50
337.77497
 51
23.272904
  0
LINE
  5
314
100
AcDbEntity
  8
LAY-5
  6
DASHDOT
 62
     1
100
AcDbLine
 10
175.173334
 20
351.104071
 30
0.0
 11
170.786027
 21
343.505033
 31
0.0
  0
LINE
  5
315
100
AcDbEntity
  8
LAY-5
  6
DASHDOT
 62
     1
100
AcDbLine
 10
174.913526
 20
361.345929
 30
0.0
 11
170.787341
 21
368.492691
 31
0.0
  0
LINE
  5
316
100
AcDbEntity
  8
LAY-5
  6
DASHDOT
 62
     1
100
AcDbLine
 10
159.7
 20
250.0
 30
0.0
 11
126.1
 21
250.0
 31
0.0
  0
LINE
  5
317
100
AcDbEntity
  8
LAY-5
  6
DASHDOT
 62
     1
100
AcDbLine
 10
159.7
 20
235.0
 30
0.0
 11
126.1
 21
235.0
 31
0.0
  0
ARC
  5
318
100
AcDbEntity
  8
LAY-5
  6
DASHDOT
 62
     1
100
AcDbCircle
 10
178.0
 20
208.0
 30
0.0
 40
10.0
100
AcDbArc
 50
97.77497
 51
143.272904
  0
ARC
  5
319
100
AcDbEntity
  8
LAY-5
  6
DASHDOT
 62
     1
100
AcDbCircle
 10
178.0
 20
208.0
 30
0.0
 40
10.0
100
AcDbArc
 50
217.77497
 51
263.272904
  0
ARC
  5
31A
100
AcDbEntity
  8
LAY-5
  6
DASHDOT
 62
     1
100
AcDbCircle
 10
178.0
 20
208.0
 30
0.0
 40
10.0
100
AcDbArc
 50
337.77497
 51
23.272904
  0
LINE
  5
31B
100
AcDbEntity
  8
LAY-5
  6
DASHDOT
 62
     1
100
AcDbLine
 10
175.173334
 20
203.104071
 30
0.0
 11
170.786027
 21
195.505033
 31
0.0
  0
LINE
  5
31C
100
AcDbEntity
  8
LAY-5
  6
DASHDOT
 62
     1
100
AcDbLine
 10
174.913526
 20
213.345929
 30
0.0
 11
170.787341
 21
220.492691
 31
0.0
  0
LINE
  5
31D
100
AcDbEntity
  8
LAY-5
  6
DASHDOT
 62
     1
100
AcDbLine
 10
575.339999
 20
439.5
 30
0.0
 11
575.339999
 21
431.1
 31
0.0
  0
LINE
  5
31E
100
AcDbEntity
  8
LAY-5
  6
DASHDOT
 62
     1
100
AcDbLine
 10
592.659999
 20
439.5
 30
0.0
 11
592.659999
 21
431.1
 31
0.0
  0
LINE
  5
31F
100
AcDbEntity
  8
LAY-5
  6
DASHDOT
 62
     1
100
AcDbLine
 10
625.999999
 20
417.9
 30
0.0
 11
625.999999
 21
407.8
 31
0.0
  0
LINE
  5
320
100
AcDbEntity
  8
LAY-5
  6
DASHDOT
 62
     1
100
AcDbLine
 10
620.899999
 20
413.0
 30
0.0
 11
631.999999
 21
413.0
 31
0.0
  0
LINE
  5
321
100
AcDbEntity
  8
LAY-5
  6
DASHDOT
 62
     1
100
AcDbLine
 10
610.999999
 20
405.9
 30
0.0
 11
610.999999
 21
395.8
 31
0.0
  0
LINE
  5
322
100
AcDbEntity
  8
LAY-5
  6
DASHDOT
 62
     1
100
AcDbLine
 10
605.899999
 20
401.0
 30
0.0
 11
616.999999
 21
401.0
 31
0.0
  0
LINE
  5
323
100
AcDbEntity
  8
LAY-5
  6
DASHDOT
 62
     1
100
AcDbLine
 10
625.999999
 20
382.9
 30
0.0
 11
625.999999
 21
372.8
 31
0.0
  0
LINE
  5
324
100
AcDbEntity
  8
LAY-5
  6
DASHDOT
 62
     1
100
AcDbLine
 10
620.899999
 20
378.0
 30
0.0
 11
631.999999
 21
378.0
 31
0.0
  0
LINE
  5
325
100
AcDbEntity
  8
LAY-5
  6
DASHDOT
 62
     1
100
AcDbLine
 10
610.999999
 20
370.9
 30
0.0
 11
610.999999
 21
360.8
 31
0.0
  0
LINE
  5
326
100
AcDbEntity
  8
LAY-5
  6
DASHDOT
 62
     1
100
AcDbLine
 10
605.899999
 20
366.0
 30
0.0
 11
616.999999
 21
366.0
 31
0.0
  0
LINE
  5
327
100
AcDbEntity
  8
LAY-5
  6
DASHDOT
 62
     1
100
AcDbLine
 10
620.899999
 20
203.0
 30
0.0
 11
631.999999
 21
203.0
 31
0.0
  0
LINE
  5
328
100
AcDbEntity
  8
LAY-5
  6
DASHDOT
 62
     1
100
AcDbLine
 10
625.999999
 20
198.1
 30
0.0
 11
625.999999
 21
208.2
 31
0.0
  0
LINE
  5
329
100
AcDbEntity
  8
LAY-5
  6
DASHDOT
 62
     1
100
AcDbLine
 10
605.899999
 20
215.0
 30
0.0
 11
616.999999
 21
215.0
 31
0.0
  0
LINE
  5
32A
100
AcDbEntity
  8
LAY-5
  6
DASHDOT
 62
     1
100
AcDbLine
 10
610.999999
 20
210.1
 30
0.0
 11
610.999999
 21
220.2
 31
0.0
  0
LINE
  5
32B
100
AcDbEntity
  8
LAY-5
  6
DASHDOT
 62
     1
100
AcDbLine
 10
620.899999
 20
238.0
 30
0.0
 11
631.999999
 21
238.0
 31
0.0
  0
LINE
  5
32C
100
AcDbEntity
  8
LAY-5
  6
DASHDOT
 62
     1
100
AcDbLine
 10
625.999999
 20
233.1
 30
0.0
 11
625.999999
 21
243.2
 31
0.0
  0
LINE
  5
32D
100
AcDbEntity
  8
LAY-5
  6
DASHDOT
 62
     1
100
AcDbLine
 10
605.899999
 20
250.0
 30
0.0
 11
616.999999
 21
250.0
 31
0.0
  0
LINE
  5
32E
100
AcDbEntity
  8
LAY-5
  6
DASHDOT
 62
     1
100
AcDbLine
 10
610.999999
 20
245.1
 30
0.0
 11
610.999999
 21
255.2
 31
0.0
  0
LINE
  5
32F
100
AcDbEntity
  8
LAY-5
  6
DASHDOT
 62
     1
100
AcDbLine
 10
575.339999
 20
179.5
 30
0.0
 11
575.339999
 21
187.9
 31
0.0
  0
LINE
  5
330
100
AcDbEntity
  8
LAY-5
  6
DASHDOT
 62
     1
100
AcDbLine
 10
592.659999
 20
179.5
 30
0.0
 11
592.659999
 21
187.9
 31
0.0
  0
LINE
  5
331
100
AcDbEntity
  8
LAY-5
  6
DASHDOT
 62
     1
100
AcDbLine
 10
583.999999
 20
444.5
 30
0.0
 11
583.999999
 21
402.0
 31
0.0
  0
LINE
  5
332
100
AcDbEntity
  8
LAY-5
  6
DASHDOT
 62
     1
100
AcDbLine
 10
583.999999
 20
212.5
 30
0.0
 11
583.999999
 21
173.9
 31
0.0
  0
LINE
  5
333
100
AcDbEntity
  8
LAY-5
  6
DASHDOT
 62
     1
100
AcDbLine
 10
618.999999
 20
428.2
 30
0.0
 11
618.999999
 21
391.2
 31
0.0
  0
LINE
  5
334
100
AcDbEntity
  8
LAY-5
  6
DASHDOT
 62
     1
100
AcDbLine
 10
612.999999
 20
428.2
 30
0.0
 11
612.999999
 21
391.2
 31
0.0
  0
LINE
  5
335
100
AcDbEntity
  8
LAY-5
  6
DASHDOT
 62
     1
100
AcDbLine
 10
618.999999
 20
190.8
 30
0.0
 11
618.999999
 21
227.8
 31
0.0
  0
LINE
  5
336
100
AcDbEntity
  8
LAY-5
  6
DASHDOT
 62
     1
100
AcDbLine
 10
612.999999
 20
190.8
 30
0.0
 11
612.999999
 21
227.8
 31
0.0
  0
LINE
  5
337
100
AcDbEntity
  8
LAY-5
  6
DASHDOT
 62
     1
100
AcDbLine
 10
292.5
 20
356.0
 30
0.0
 11
328.8
 21
356.0
 31
0.0
  0
LINE
  5
338
100
AcDbEntity
  8
LAY-5
  6
DASHDOT
 62
     1
100
AcDbLine
 10
310.0
 20
401.5
 30
0.0
 11
310.0
 21
338.7
 31
0.0
  0
LINE
  5
339
100
AcDbEntity
  8
LAY-5
  6
DASHDOT
 62
     1
100
AcDbLine
 10
308.0
 20
396.3
 30
0.0
 11
308.0
 21
385.6
 31
0.0
  0
LINE
  5
33A
100
AcDbEntity
  8
LAY-5
  6
DASHDOT
 62
     1
100
AcDbLine
 10
302.8
 20
391.0
 30
0.0
 11
313.6
 21
391.0
 31
0.0
  0
LINE
  5
33B
100
AcDbEntity
  8
LAY-5
  6
DASHDOT
 62
     1
100
AcDbLine
 10
365.0
 20
393.3
 30
0.0
 11
365.0
 21
382.6
 31
0.0
  0
LINE
  5
33C
100
AcDbEntity
  8
LAY-5
  6
DASHDOT
 62
     1
100
AcDbLine
 10
359.8
 20
388.0
 30
0.0
 11
370.6
 21
388.0
 31
0.0
  0
LINE
  5
33D
100
AcDbEntity
  8
LAY-5
  6
DASHDOT
 62
     1
100
AcDbLine
 10
340.0
 20
390.3
 30
0.0
 11
340.0
 21
379.9
 31
0.0
  0
LINE
  5
33E
100
AcDbEntity
  8
LAY-5
  6
DASHDOT
 62
     1
100
AcDbLine
 10
331.8
 20
385.0
 30
0.0
 11
347.7
 21
385.0
 31
0.0
  0
LINE
  5
33F
100
AcDbEntity
  8
LAY-5
  6
DASHDOT
 62
     1
100
AcDbLine
 10
390.0
 20
396.3
 30
0.0
 11
390.0
 21
385.9
 31
0.0
  0
LINE
  5
340
100
AcDbEntity
  8
LAY-5
  6
DASHDOT
 62
     1
100
AcDbLine
 10
381.8
 20
391.0
 30
0.0
 11
397.7
 21
391.0
 31
0.0
  0
LINE
  5
341
100
AcDbEntity
  8
LAY-5
  6
DASHDOT
 62
     1
100
AcDbLine
 10
420.0
 20
390.3
 30
0.0
 11
420.0
 21
379.9
 31
0.0
  0
LINE
  5
342
100
AcDbEntity
  8
LAY-5
  6
DASHDOT
 62
     1
100
AcDbLine
 10
411.8
 20
385.0
 30
0.0
 11
427.7
 21
385.0
 31
0.0
  0
LINE
  5
343
100
AcDbEntity
  8
LAY-5
  6
DASHDOT
 62
     1
100
AcDbLine
 10
292.5
 20
208.0
 30
0.0
 11
328.8
 21
208.0
 31
0.0
  0
LINE
  5
344
100
AcDbEntity
  8
LAY-5
  6
DASHDOT
 62
     1
100
AcDbLine
 10
310.0
 20
253.5
 30
0.0
 11
310.0
 21
190.7
 31
0.0
  0
LINE
  5
345
100
AcDbEntity
  8
LAY-5
  6
DASHDOT
 62
     1
100
AcDbLine
 10
308.0
 20
248.3
 30
0.0
 11
308.0
 21
237.6
 31
0.0
  0
LINE
  5
346
100
AcDbEntity
  8
LAY-5
  6
DASHDOT
 62
     1
100
AcDbLine
 10
302.8
 20
243.0
 30
0.0
 11
313.6
 21
243.0
 31
0.0
  0
LINE
  5
347
100
AcDbEntity
  8
LAY-5
  6
DASHDOT
 62
     1
100
AcDbLine
 10
365.0
 20
245.3
 30
0.0
 11
365.0
 21
234.6
 31
0.0
  0
LINE
  5
348
100
AcDbEntity
  8
LAY-5
  6
DASHDOT
 62
     1
100
AcDbLine
 10
359.8
 20
240.0
 30
0.0
 11
370.6
 21
240.0
 31
0.0
  0
LINE
  5
349
100
AcDbEntity
  8
LAY-5
  6
DASHDOT
 62
     1
100
AcDbLine
 10
340.0
 20
242.3
 30
0.0
 11
340.0
 21
231.9
 31
0.0
  0
LINE
  5
34A
100
AcDbEntity
  8
LAY-5
  6
DASHDOT
 62
     1
100
AcDbLine
 10
331.8
 20
237.0
 30
0.0
 11
347.7
 21
237.0
 31
0.0
  0
LINE
  5
34B
100
AcDbEntity
  8
LAY-5
  6
DASHDOT
 62
     1
100
AcDbLine
 10
390.0
 20
248.3
 30
0.0
 11
390.0
 21
237.9
 31
0.0
  0
LINE
  5
34C
100
AcDbEntity
  8
LAY-5
  6
DASHDOT
 62
     1
100
AcDbLine
 10
381.8
 20
243.0
 30
0.0
 11
397.7
 21
243.0
 31
0.0
  0
LINE
  5
34D
100
AcDbEntity
  8
LAY-5
  6
DASHDOT
 62
     1
100
AcDbLine
 10
420.0
 20
242.3
 30
0.0
 11
420.0
 21
231.9
 31
0.0
  0
LINE
  5
34E
100
AcDbEntity
  8
LAY-5
  6
DASHDOT
 62
     1
100
AcDbLine
 10
411.8
 20
237.0
 30
0.0
 11
427.7
 21
237.0
 31
0.0
  0
LINE
  5
34F
100
AcDbEntity
  8
LAY-6
  6
CONTINUOUS
 62
     1
100
AcDbLine
 10
569.999999
 20
436.0
 30
0.0
 11
564.499999
 21
436.0
 31
0.0
  0
LINE
  5
350
100
AcDbEntity
  8
LAY-6
  6
CONTINUOUS
 62
     1
100
AcDbLine
 10
569.999999
 20
439.0
 30
0.0
 11
564.499999
 21
439.0
 31
0.0
  0
TEXT
  5
351
100
AcDbEntity
  8
LAY-6
  6
CONTINUOUS
 62
     2
100
AcDbText
 10
565.499999
 20
435.5
 30
0.0
 40
5.0
  1
３
 50
90.0
 41
0.672
  7
EXCADSTD
 72
     5
 11
565.499999
 21
438.7
 31
0.0
100
AcDbText
  0
LINE
  5
352
100
AcDbEntity
  8
LAY-6
  6
CONTINUOUS
 62
     1
100
AcDbLine
 10
565.999999
 20
431.0
 30
0.0
 11
565.999999
 21
436.0
 31
0.0
  0
LINE
  5
353
100
AcDbEntity
  8
LAY-6
  6
CONTINUOUS
 62
     1
100
AcDbLine
 10
565.999999
 20
439.0
 30
0.0
 11
565.999999
 21
444.0
 31
0.0
  0
CIRCLE
  5
354
100
AcDbEntity
  8
LAY-6
  6
CONTINUOUS
 62
     1
100
AcDbCircle
 10
565.999999
 20
436.0
 30
0.0
 40
0.5
  0
CIRCLE
  5
355
100
AcDbEntity
  8
LAY-6
  6
CONTINUOUS
 62
     1
100
AcDbCircle
 10
565.999999
 20
436.0
 30
0.0
 40
0.25
  0
LINE
  5
356
100
AcDbEntity
  8
LAY-6
  6
CONTINUOUS
 62
     1
100
AcDbLine
 10
565.499999
 20
442.0
 30
0.0
 11
565.999999
 21
439.0
 31
0.0
  0
LINE
  5
357
100
AcDbEntity
  8
LAY-6
  6
CONTINUOUS
 62
     1
100
AcDbLine
 10
565.999999
 20
439.0
 30
0.0
 11
566.499999
 21
442.0
 31
0.0
  0
LINE
  5
358
100
AcDbEntity
  8
LAY-6
  6
CONTINUOUS
 62
     1
100
AcDbLine
 10
569.999999
 20
436.0
 30
0.0
 11
564.499999
 21
436.0
 31
0.0
  0
LINE
  5
359
100
AcDbEntity
  8
LAY-6
  6
CONTINUOUS
 62
     1
100
AcDbLine
 10
569.999999
 20
432.0
 30
0.0
 11
564.499999
 21
432.0
 31
0.0
  0
TEXT
  5
35A
100
AcDbEntity
  8
LAY-6
  6
CONTINUOUS
 62
     2
100
AcDbText
 10
565.499999
 20
432.0
 30
0.0
 40
5.0
  1
４
 50
90.0
 41
0.672
  7
EXCADSTD
 72
     5
 11
565.499999
 21
435.2
 31
0.0
100
AcDbText
  0
LINE
  5
35B
100
AcDbEntity
  8
LAY-6
  6
CONTINUOUS
 62
     1
100
AcDbLine
 10
565.999999
 20
441.0
 30
0.0
 11
565.999999
 21
436.0
 31
0.0
  0
LINE
  5
35C
100
AcDbEntity
  8
LAY-6
  6
CONTINUOUS
 62
     1
100
AcDbLine
 10
565.999999
 20
432.0
 30
0.0
 11
565.999999
 21
427.0
 31
0.0
  0
CIRCLE
  5
35D
100
AcDbEntity
  8
LAY-6
  6
CONTINUOUS
 62
     1
100
AcDbCircle
 10
565.999999
 20
436.0
 30
0.0
 40
0.5
  0
CIRCLE
  5
35E
100
AcDbEntity
  8
LAY-6
  6
CONTINUOUS
 62
     1
100
AcDbCircle
 10
565.999999
 20
436.0
 30
0.0
 40
0.25
  0
LINE
  5
35F
100
AcDbEntity
  8
LAY-6
  6
CONTINUOUS
 62
     1
100
AcDbLine
 10
566.499999
 20
429.0
 30
0.0
 11
565.999999
 21
432.0
 31
0.0
  0
LINE
  5
360
100
AcDbEntity
  8
LAY-6
  6
CONTINUOUS
 62
     1
100
AcDbLine
 10
565.999999
 20
432.0
 30
0.0
 11
565.499999
 21
429.0
 31
0.0
  0
LINE
  5
361
100
AcDbEntity
  8
LAY-6
  6
CONTINUOUS
 62
     1
100
AcDbLine
 10
569.999999
 20
184.0
 30
0.0
 11
564.499999
 21
184.0
 31
0.0
  0
LINE
  5
362
100
AcDbEntity
  8
LAY-6
  6
CONTINUOUS
 62
     1
100
AcDbLine
 10
569.999999
 20
187.0
 30
0.0
 11
564.499999
 21
187.0
 31
0.0
  0
TEXT
  5
363
100
AcDbEntity
  8
LAY-6
  6
CONTINUOUS
 62
     2
100
AcDbText
 10
565.499999
 20
183.5
 30
0.0
 40
5.0
  1
３
 50
90.0
 41
0.672
  7
EXCADSTD
 72
     5
 11
565.499999
 21
186.7
 31
0.0
100
AcDbText
  0
LINE
  5
364
100
AcDbEntity
  8
LAY-6
  6
CONTINUOUS
 62
     1
100
AcDbLine
 10
565.999999
 20
179.0
 30
0.0
 11
565.999999
 21
184.0
 31
0.0
  0
LINE
  5
365
100
AcDbEntity
  8
LAY-6
  6
CONTINUOUS
 62
     1
100
AcDbLine
 10
565.999999
 20
187.0
 30
0.0
 11
565.999999
 21
192.0
 31
0.0
  0
CIRCLE
  5
366
100
AcDbEntity
  8
LAY-6
  6
CONTINUOUS
 62
     1
100
AcDbCircle
 10
565.999999
 20
184.0
 30
0.0
 40
0.5
  0
CIRCLE
  5
367
100
AcDbEntity
  8
LAY-6
  6
CONTINUOUS
 62
     1
100
AcDbCircle
 10
565.999999
 20
184.0
 30
0.0
 40
0.25
  0
LINE
  5
368
100
AcDbEntity
  8
LAY-6
  6
CONTINUOUS
 62
     1
100
AcDbLine
 10
565.499999
 20
190.0
 30
0.0
 11
565.999999
 21
187.0
 31
0.0
  0
LINE
  5
369
100
AcDbEntity
  8
LAY-6
  6
CONTINUOUS
 62
     1
100
AcDbLine
 10
565.999999
 20
187.0
 30
0.0
 11
566.499999
 21
190.0
 31
0.0
  0
LINE
  5
36A
100
AcDbEntity
  8
LAY-6
  6
CONTINUOUS
 62
     1
100
AcDbLine
 10
569.999999
 20
184.0
 30
0.0
 11
564.499999
 21
184.0
 31
0.0
  0
LINE
  5
36B
100
AcDbEntity
  8
LAY-6
  6
CONTINUOUS
 62
     1
100
AcDbLine
 10
569.999999
 20
180.0
 30
0.0
 11
564.499999
 21
180.0
 31
0.0
  0
TEXT
  5
36C
100
AcDbEntity
  8
LAY-6
  6
CONTINUOUS
 62
     2
100
AcDbText
 10
565.499999
 20
180.0
 30
0.0
 40
5.0
  1
４
 50
90.0
 41
0.672
  7
EXCADSTD
 72
     5
 11
565.499999
 21
183.2
 31
0.0
100
AcDbText
  0
LINE
  5
36D
100
AcDbEntity
  8
LAY-6
  6
CONTINUOUS
 62
     1
100
AcDbLine
 10
565.999999
 20
189.0
 30
0.0
 11
565.999999
 21
184.0
 31
0.0
  0
LINE
  5
36E
100
AcDbEntity
  8
LAY-6
  6
CONTINUOUS
 62
     1
100
AcDbLine
 10
565.999999
 20
180.0
 30
0.0
 11
565.999999
 21
175.0
 31
0.0
  0
CIRCLE
  5
36F
100
AcDbEntity
  8
LAY-6
  6
CONTINUOUS
 62
     1
100
AcDbCircle
 10
565.999999
 20
184.0
 30
0.0
 40
0.5
  0
CIRCLE
  5
370
100
AcDbEntity
  8
LAY-6
  6
CONTINUOUS
 62
     1
100
AcDbCircle
 10
565.999999
 20
184.0
 30
0.0
 40
0.25
  0
LINE
  5
371
100
AcDbEntity
  8
LAY-6
  6
CONTINUOUS
 62
     1
100
AcDbLine
 10
566.499999
 20
177.0
 30
0.0
 11
565.999999
 21
180.0
 31
0.0
  0
LINE
  5
372
100
AcDbEntity
  8
LAY-6
  6
CONTINUOUS
 62
     1
100
AcDbLine
 10
565.999999
 20
180.0
 30
0.0
 11
565.499999
 21
177.0
 31
0.0
  0
LINE
  5
373
100
AcDbEntity
  8
LAY-6
  6
CONTINUOUS
 62
     1
100
AcDbLine
 10
347.7
 20
237.0
 30
0.0
 11
355.9
 21
237.0
 31
0.0
  0
LINE
  5
374
100
AcDbEntity
  8
LAY-6
  6
CONTINUOUS
 62
     1
100
AcDbLine
 10
381.8
 20
243.0
 30
0.0
 11
352.9
 21
243.0
 31
0.0
  0
TEXT
  5
375
100
AcDbEntity
  8
LAY-6
  6
CONTINUOUS
 62
     2
100
AcDbText
 10
353.9
 20
238.0
 30
0.0
 40
5.0
  1
６
 50
90.0
 41
0.672
  7
EXCADSTD
 72
     5
 11
353.9
 21
241.2
 31
0.0
100
AcDbText
  0
LINE
  5
376
100
AcDbEntity
  8
LAY-6
  6
CONTINUOUS
 62
     1
100
AcDbLine
 10
354.4
 20
232.0
 30
0.0
 11
354.4
 21
237.0
 31
0.0
  0
LINE
  5
377
100
AcDbEntity
  8
LAY-6
  6
CONTINUOUS
 62
     1
100
AcDbLine
 10
354.4
 20
243.0
 30
0.0
 11
354.4
 21
248.0
 31
0.0
  0
CIRCLE
  5
378
100
AcDbEntity
  8
LAY-6
  6
CONTINUOUS
 62
     1
100
AcDbCircle
 10
354.4
 20
237.0
 30
0.0
 40
0.5
  0
CIRCLE
  5
379
100
AcDbEntity
  8
LAY-6
  6
CONTINUOUS
 62
     1
100
AcDbCircle
 10
354.4
 20
237.0
 30
0.0
 40
0.25
  0
LINE
  5
37A
100
AcDbEntity
  8
LAY-6
  6
CONTINUOUS
 62
     1
100
AcDbLine
 10
353.9
 20
246.0
 30
0.0
 11
354.4
 21
243.0
 31
0.0
  0
LINE
  5
37B
100
AcDbEntity
  8
LAY-6
  6
CONTINUOUS
 62
     1
100
AcDbLine
 10
354.4
 20
243.0
 30
0.0
 11
354.9
 21
246.0
 31
0.0
  0
LINE
  5
37C
100
AcDbEntity
  8
LAY-6
  6
CONTINUOUS
 62
     1
100
AcDbLine
 10
355.9
 20
237.0
 30
0.0
 11
352.9
 21
237.0
 31
0.0
  0
LINE
  5
37D
100
AcDbEntity
  8
LAY-6
  6
CONTINUOUS
 62
     1
100
AcDbLine
 10
320.0
 20
231.0
 30
0.0
 11
355.9
 21
231.0
 31
0.0
  0
TEXT
  5
37E
100
AcDbEntity
  8
LAY-6
  6
CONTINUOUS
 62
     2
100
AcDbText
 10
353.9
 20
232.0
 30
0.0
 40
5.0
  1
６
 50
90.0
 41
0.672
  7
EXCADSTD
 72
     5
 11
353.9
 21
235.2
 31
0.0
100
AcDbText
  0
LINE
  5
37F
100
AcDbEntity
  8
LAY-6
  6
CONTINUOUS
 62
     1
100
AcDbLine
 10
354.4
 20
242.0
 30
0.0
 11
354.4
 21
237.0
 31
0.0
  0
LINE
  5
380
100
AcDbEntity
  8
LAY-6
  6
CONTINUOUS
 62
     1
100
AcDbLine
 10
354.4
 20
231.0
 30
0.0
 11
354.4
 21
226.0
 31
0.0
  0
CIRCLE
  5
381
100
AcDbEntity
  8
LAY-6
  6
CONTINUOUS
 62
     1
100
AcDbCircle
 10
354.4
 20
237.0
 30
0.0
 40
0.5
  0
CIRCLE
  5
382
100
AcDbEntity
  8
LAY-6
  6
CONTINUOUS
 62
     1
100
AcDbCircle
 10
354.4
 20
237.0
 30
0.0
 40
0.25
  0
LINE
  5
383
100
AcDbEntity
  8
LAY-6
  6
CONTINUOUS
 62
     1
100
AcDbLine
 10
354.9
 20
228.0
 30
0.0
 11
354.4
 21
231.0
 31
0.0
  0
LINE
  5
384
100
AcDbEntity
  8
LAY-6
  6
CONTINUOUS
 62
     1
100
AcDbLine
 10
354.4
 20
231.0
 30
0.0
 11
353.9
 21
228.0
 31
0.0
  0
LINE
  5
385
100
AcDbEntity
  8
LAY-6
  6
CONTINUOUS
 62
     1
100
AcDbLine
 10
569.999999
 20
412.0
 30
0.0
 11
553.599999
 21
412.0
 31
0.0
  0
LINE
  5
386
100
AcDbEntity
  8
LAY-6
  6
CONTINUOUS
 62
     1
100
AcDbLine
 10
569.999999
 20
427.0
 30
0.0
 11
553.599999
 21
427.0
 31
0.0
  0
TEXT
  5
387
100
AcDbEntity
  8
LAY-6
  6
CONTINUOUS
 62
     2
100
AcDbText
 10
554.599999
 20
415.5
 30
0.0
 40
5.0
  1
１５
 50
90.0
 41
0.672
  7
EXCADSTD
 72
     5
 11
554.599999
 21
422.8328
 31
0.0
100
AcDbText
  0
LINE
  5
388
100
AcDbEntity
  8
LAY-6
  6
CONTINUOUS
 62
     1
100
AcDbLine
 10
555.099999
 20
412.0
 30
0.0
 11
555.099999
 21
427.0
 31
0.0
  0
LINE
  5
389
100
AcDbEntity
  8
LAY-6
  6
CONTINUOUS
 62
     1
100
AcDbLine
 10
554.599999
 20
415.0
 30
0.0
 11
555.099999
 21
412.0
 31
0.0
  0
LINE
  5
38A
100
AcDbEntity
  8
LAY-6
  6
CONTINUOUS
 62
     1
100
AcDbLine
 10
555.099999
 20
412.0
 30
0.0
 11
555.599999
 21
415.0
 31
0.0
  0
LINE
  5
38B
100
AcDbEntity
  8
LAY-6
  6
CONTINUOUS
 62
     1
100
AcDbLine
 10
555.599999
 20
424.0
 30
0.0
 11
555.099999
 21
427.0
 31
0.0
  0
LINE
  5
38C
100
AcDbEntity
  8
LAY-6
  6
CONTINUOUS
 62
     1
100
AcDbLine
 10
555.099999
 20
427.0
 30
0.0
 11
554.599999
 21
424.0
 31
0.0
  0
LINE
  5
38D
100
AcDbEntity
  8
LAY-6
  6
CONTINUOUS
 62
     1
100
AcDbLine
 10
569.999999
 20
432.0
 30
0.0
 11
553.599999
 21
432.0
 31
0.0
  0
TEXT
  5
38E
100
AcDbEntity
  8
LAY-6
  6
CONTINUOUS
 62
     2
100
AcDbText
 10
554.599999
 20
427.5
 30
0.0
 40
5.0
  1
５
 50
90.0
 41
0.672
  7
EXCADSTD
 72
     5
 11
554.599999
 21
430.7
 31
0.0
100
AcDbText
  0
LINE
  5
38F
100
AcDbEntity
  8
LAY-6
  6
CONTINUOUS
 62
     1
100
AcDbLine
 10
555.099999
 20
427.0
 30
0.0
 11
555.099999
 21
432.0
 31
0.0
  0
LINE
  5
390
100
AcDbEntity
  8
LAY-6
  6
CONTINUOUS
 62
     1
100
AcDbLine
 10
554.599999
 20
430.0
 30
0.0
 11
555.099999
 21
427.0
 31
0.0
  0
LINE
  5
391
100
AcDbEntity
  8
LAY-6
  6
CONTINUOUS
 62
     1
100
AcDbLine
 10
555.099999
 20
427.0
 30
0.0
 11
555.599999
 21
430.0
 31
0.0
  0
LINE
  5
392
100
AcDbEntity
  8
LAY-6
  6
CONTINUOUS
 62
     1
100
AcDbLine
 10
555.599999
 20
429.0
 30
0.0
 11
555.099999
 21
432.0
 31
0.0
  0
LINE
  5
393
100
AcDbEntity
  8
LAY-6
  6
CONTINUOUS
 62
     1
100
AcDbLine
 10
555.099999
 20
432.0
 30
0.0
 11
554.599999
 21
429.0
 31
0.0
  0
LINE
  5
394
100
AcDbEntity
  8
LAY-6
  6
CONTINUOUS
 62
     1
100
AcDbLine
 10
569.999999
 20
439.0
 30
0.0
 11
553.599999
 21
439.0
 31
0.0
  0
TEXT
  5
395
100
AcDbEntity
  8
LAY-6
  6
CONTINUOUS
 62
     2
100
AcDbText
 10
554.599999
 20
433.5
 30
0.0
 40
5.0
  1
７
 50
90.0
 41
0.672
  7
EXCADSTD
 72
     5
 11
554.599999
 21
436.7
 31
0.0
100
AcDbText
  0
LINE
  5
396
100
AcDbEntity
  8
LAY-6
  6
CONTINUOUS
 62
     1
100
AcDbLine
 10
555.099999
 20
432.0
 30
0.0
 11
555.099999
 21
439.0
 31
0.0
  0
LINE
  5
397
100
AcDbEntity
  8
LAY-6
  6
CONTINUOUS
 62
     1
100
AcDbLine
 10
554.599999
 20
435.0
 30
0.0
 11
555.099999
 21
432.0
 31
0.0
  0
LINE
  5
398
100
AcDbEntity
  8
LAY-6
  6
CONTINUOUS
 62
     1
100
AcDbLine
 10
555.099999
 20
432.0
 30
0.0
 11
555.599999
 21
435.0
 31
0.0
  0
LINE
  5
399
100
AcDbEntity
  8
LAY-6
  6
CONTINUOUS
 62
     1
100
AcDbLine
 10
555.599999
 20
436.0
 30
0.0
 11
555.099999
 21
439.0
 31
0.0
  0
LINE
  5
39A
100
AcDbEntity
  8
LAY-6
  6
CONTINUOUS
 62
     1
100
AcDbLine
 10
555.099999
 20
439.0
 30
0.0
 11
554.599999
 21
436.0
 31
0.0
  0
LINE
  5
39B
100
AcDbEntity
  8
LAY-6
  6
CONTINUOUS
 62
     1
100
AcDbLine
 10
623.999999
 20
418.0
 30
0.0
 11
649.199999
 21
418.0
 31
0.0
  0
LINE
  5
39C
100
AcDbEntity
  8
LAY-6
  6
CONTINUOUS
 62
     1
100
AcDbLine
 10
635.999999
 20
427.0
 30
0.0
 11
649.199999
 21
427.0
 31
0.0
  0
TEXT
  5
39D
100
AcDbEntity
  8
LAY-6
  6
CONTINUOUS
 62
     2
100
AcDbText
 10
647.199999
 20
420.5
 30
0.0
 40
5.0
  1
９
 50
90.0
 41
0.672
  7
EXCADSTD
 72
     5
 11
647.199999
 21
423.7
 31
0.0
100
AcDbText
  0
LINE
  5
39E
100
AcDbEntity
  8
LAY-6
  6
CONTINUOUS
 62
     1
100
AcDbLine
 10
647.699999
 20
418.0
 30
0.0
 11
647.699999
 21
427.0
 31
0.0
  0
LINE
  5
39F
100
AcDbEntity
  8
LAY-6
  6
CONTINUOUS
 62
     1
100
AcDbLine
 10
647.199999
 20
421.0
 30
0.0
 11
647.699999
 21
418.0
 31
0.0
  0
LINE
  5
3A0
100
AcDbEntity
  8
LAY-6
  6
CONTINUOUS
 62
     1
100
AcDbLine
 10
647.699999
 20
418.0
 30
0.0
 11
648.199999
 21
421.0
 31
0.0
  0
LINE
  5
3A1
100
AcDbEntity
  8
LAY-6
  6
CONTINUOUS
 62
     1
100
AcDbLine
 10
648.199999
 20
424.0
 30
0.0
 11
647.699999
 21
427.0
 31
0.0
  0
LINE
  5
3A2
100
AcDbEntity
  8
LAY-6
  6
CONTINUOUS
 62
     1
100
AcDbLine
 10
647.699999
 20
427.0
 30
0.0
 11
647.199999
 21
424.0
 31
0.0
  0
LINE
  5
3A3
100
AcDbEntity
  8
LAY-6
  6
CONTINUOUS
 62
     1
100
AcDbLine
 10
631.999999
 20
186.0
 30
0.0
 11
649.199999
 21
186.0
 31
0.0
  0
LINE
  5
3A4
100
AcDbEntity
  8
LAY-6
  6
CONTINUOUS
 62
     1
100
AcDbLine
 10
620.999999
 20
201.0
 30
0.0
 11
649.199999
 21
201.0
 31
0.0
  0
TEXT
  5
3A5
100
AcDbEntity
  8
LAY-6
  6
CONTINUOUS
 62
     2
100
AcDbText
 10
647.199999
 20
189.5
 30
0.0
 40
5.0
  1
１５
 50
90.0
 41
0.672
  7
EXCADSTD
 72
     5
 11
647.199999
 21
196.8328
 31
0.0
100
AcDbText
  0
LINE
  5
3A6
100
AcDbEntity
  8
LAY-6
  6
CONTINUOUS
 62
     1
100
AcDbLine
 10
647.699999
 20
186.0
 30
0.0
 11
647.699999
 21
201.0
 31
0.0
  0
LINE
  5
3A7
100
AcDbEntity
  8
LAY-6
  6
CONTINUOUS
 62
     1
100
AcDbLine
 10
647.199999
 20
189.0
 30
0.0
 11
647.699999
 21
186.0
 31
0.0
  0
LINE
  5
3A8
100
AcDbEntity
  8
LAY-6
  6
CONTINUOUS
 62
     1
100
AcDbLine
 10
647.699999
 20
186.0
 30
0.0
 11
648.199999
 21
189.0
 31
0.0
  0
LINE
  5
3A9
100
AcDbEntity
  8
LAY-6
  6
CONTINUOUS
 62
     1
100
AcDbLine
 10
648.199999
 20
198.0
 30
0.0
 11
647.699999
 21
201.0
 31
0.0
  0
LINE
  5
3AA
100
AcDbEntity
  8
LAY-6
  6
CONTINUOUS
 62
     1
100
AcDbLine
 10
647.699999
 20
201.0
 30
0.0
 11
647.199999
 21
198.0
 31
0.0
  0
LINE
  5
3AB
100
AcDbEntity
  8
LAY-6
  6
CONTINUOUS
 62
     1
100
AcDbLine
 10
537.999999
 20
180.0
 30
0.0
 11
556.599999
 21
180.0
 31
0.0
  0
LINE
  5
3AC
100
AcDbEntity
  8
LAY-6
  6
CONTINUOUS
 62
     1
100
AcDbLine
 10
569.999999
 20
187.0
 30
0.0
 11
553.599999
 21
187.0
 31
0.0
  0
TEXT
  5
3AD
100
AcDbEntity
  8
LAY-6
  6
CONTINUOUS
 62
     2
100
AcDbText
 10
554.599999
 20
181.5
 30
0.0
 40
5.0
  1
７
 50
90.0
 41
0.672
  7
EXCADSTD
 72
     5
 11
554.599999
 21
184.7
 31
0.0
100
AcDbText
  0
LINE
  5
3AE
100
AcDbEntity
  8
LAY-6
  6
CONTINUOUS
 62
     1
100
AcDbLine
 10
555.099999
 20
180.0
 30
0.0
 11
555.099999
 21
187.0
 31
0.0
  0
LINE
  5
3AF
100
AcDbEntity
  8
LAY-6
  6
CONTINUOUS
 62
     1
100
AcDbLine
 10
554.599999
 20
183.0
 30
0.0
 11
555.099999
 21
180.0
 31
0.0
  0
LINE
  5
3B0
100
AcDbEntity
  8
LAY-6
  6
CONTINUOUS
 62
     1
100
AcDbLine
 10
555.099999
 20
180.0
 30
0.0
 11
555.599999
 21
183.0
 31
0.0
  0
LINE
  5
3B1
100
AcDbEntity
  8
LAY-6
  6
CONTINUOUS
 62
     1
100
AcDbLine
 10
555.599999
 20
184.0
 30
0.0
 11
555.099999
 21
187.0
 31
0.0
  0
LINE
  5
3B2
100
AcDbEntity
  8
LAY-6
  6
CONTINUOUS
 62
     1
100
AcDbLine
 10
555.099999
 20
187.0
 30
0.0
 11
554.599999
 21
184.0
 31
0.0
  0
LINE
  5
3B3
100
AcDbEntity
  8
LAY-6
  6
CONTINUOUS
 62
     1
100
AcDbLine
 10
569.999999
 20
192.0
 30
0.0
 11
553.599999
 21
192.0
 31
0.0
  0
TEXT
  5
3B4
100
AcDbEntity
  8
LAY-6
  6
CONTINUOUS
 62
     2
100
AcDbText
 10
554.599999
 20
187.5
 30
0.0
 40
5.0
  1
５
 50
90.0
 41
0.672
  7
EXCADSTD
 72
     5
 11
554.599999
 21
190.7
 31
0.0
100
AcDbText
  0
LINE
  5
3B5
100
AcDbEntity
  8
LAY-6
  6
CONTINUOUS
 62
     1
100
AcDbLine
 10
555.099999
 20
187.0
 30
0.0
 11
555.099999
 21
192.0
 31
0.0
  0
LINE
  5
3B6
100
AcDbEntity
  8
LAY-6
  6
CONTINUOUS
 62
     1
100
AcDbLine
 10
554.599999
 20
190.0
 30
0.0
 11
555.099999
 21
187.0
 31
0.0
  0
LINE
  5
3B7
100
AcDbEntity
  8
LAY-6
  6
CONTINUOUS
 62
     1
100
AcDbLine
 10
555.099999
 20
187.0
 30
0.0
 11
555.599999
 21
190.0
 31
0.0
  0
LINE
  5
3B8
100
AcDbEntity
  8
LAY-6
  6
CONTINUOUS
 62
     1
100
AcDbLine
 10
555.599999
 20
189.0
 30
0.0
 11
555.099999
 21
192.0
 31
0.0
  0
LINE
  5
3B9
100
AcDbEntity
  8
LAY-6
  6
CONTINUOUS
 62
     1
100
AcDbLine
 10
555.099999
 20
192.0
 30
0.0
 11
554.599999
 21
189.0
 31
0.0
  0
LINE
  5
3BA
100
AcDbEntity
  8
LAY-6
  6
CONTINUOUS
 62
     1
100
AcDbLine
 10
569.999999
 20
207.0
 30
0.0
 11
553.599999
 21
207.0
 31
0.0
  0
TEXT
  5
3BB
100
AcDbEntity
  8
LAY-6
  6
CONTINUOUS
 62
     2
100
AcDbText
 10
554.599999
 20
195.5
 30
0.0
 40
5.0
  1
１５
 50
90.0
 41
0.672
  7
EXCADSTD
 72
     5
 11
554.599999
 21
202.8328
 31
0.0
100
AcDbText
  0
LINE
  5
3BC
100
AcDbEntity
  8
LAY-6
  6
CONTINUOUS
 62
     1
100
AcDbLine
 10
555.099999
 20
192.0
 30
0.0
 11
555.099999
 21
207.0
 31
0.0
  0
LINE
  5
3BD
100
AcDbEntity
  8
LAY-6
  6
CONTINUOUS
 62
     1
100
AcDbLine
 10
554.599999
 20
195.0
 30
0.0
 11
555.099999
 21
192.0
 31
0.0
  0
LINE
  5
3BE
100
AcDbEntity
  8
LAY-6
  6
CONTINUOUS
 62
     1
100
AcDbLine
 10
555.099999
 20
192.0
 30
0.0
 11
555.599999
 21
195.0
 31
0.0
  0
LINE
  5
3BF
100
AcDbEntity
  8
LAY-6
  6
CONTINUOUS
 62
     1
100
AcDbLine
 10
555.599999
 20
204.0
 30
0.0
 11
555.099999
 21
207.0
 31
0.0
  0
LINE
  5
3C0
100
AcDbEntity
  8
LAY-6
  6
CONTINUOUS
 62
     1
100
AcDbLine
 10
555.099999
 20
207.0
 30
0.0
 11
554.599999
 21
204.0
 31
0.0
  0
LINE
  5
3C1
100
AcDbEntity
  8
LAY-6
  6
CONTINUOUS
 62
     1
100
AcDbLine
 10
583.999999
 20
444.5
 30
0.0
 11
583.999999
 21
453.1
 31
0.0
  0
LINE
  5
3C2
100
AcDbEntity
  8
LAY-6
  6
CONTINUOUS
 62
     1
100
AcDbLine
 10
597.999999
 20
445.0
 30
0.0
 11
597.999999
 21
453.1
 31
0.0
  0
TEXT
  5
3C3
100
AcDbEntity
  8
LAY-6
  6
CONTINUOUS
 62
     2
100
AcDbText
 10
586.999999
 20
452.1
 30
0.0
 40
5.0
  1
１４
 41
0.672
  7
EXCADSTD
 72
     5
 11
594.332799
 21
452.1
 31
0.0
100
AcDbText
  0
LINE
  5
3C4
100
AcDbEntity
  8
LAY-6
  6
CONTINUOUS
 62
     1
100
AcDbLine
 10
583.999999
 20
451.6
 30
0.0
 11
597.999999
 21
451.6
 31
0.0
  0
LINE
  5
3C5
100
AcDbEntity
  8
LAY-6
  6
CONTINUOUS
 62
     1
100
AcDbLine
 10
586.999999
 20
452.1
 30
0.0
 11
583.999999
 21
451.6
 31
0.0
  0
LINE
  5
3C6
100
AcDbEntity
  8
LAY-6
  6
CONTINUOUS
 62
     1
100
AcDbLine
 10
583.999999
 20
451.6
 30
0.0
 11
586.999999
 21
451.1
 31
0.0
  0
LINE
  5
3C7
100
AcDbEntity
  8
LAY-6
  6
CONTINUOUS
 62
     1
100
AcDbLine
 10
594.999999
 20
451.1
 30
0.0
 11
597.999999
 21
451.6
 31
0.0
  0
LINE
  5
3C8
100
AcDbEntity
  8
LAY-6
  6
CONTINUOUS
 62
     1
100
AcDbLine
 10
597.999999
 20
451.6
 30
0.0
 11
594.999999
 21
452.1
 31
0.0
  0
LINE
  5
3C9
100
AcDbEntity
  8
LAY-6
  6
CONTINUOUS
 62
     1
100
AcDbLine
 10
583.999999
 20
402.0
 30
0.0
 11
583.999999
 21
384.3
 31
0.0
  0
LINE
  5
3CA
100
AcDbEntity
  8
LAY-6
  6
CONTINUOUS
 62
     1
100
AcDbLine
 10
600.999999
 20
418.0
 30
0.0
 11
600.999999
 21
384.3
 31
0.0
  0
TEXT
  5
3CB
100
AcDbEntity
  8
LAY-6
  6
CONTINUOUS
 62
     2
100
AcDbText
 10
588.499999
 20
386.3
 30
0.0
 40
5.0
  1
１７
 41
0.672
  7
EXCADSTD
 72
     5
 11
595.832799
 21
386.3
 31
0.0
100
AcDbText
  0
LINE
  5
3CC
100
AcDbEntity
  8
LAY-6
  6
CONTINUOUS
 62
     1
100
AcDbLine
 10
583.999999
 20
385.8
 30
0.0
 11
600.999999
 21
385.8
 31
0.0
  0
LINE
  5
3CD
100
AcDbEntity
  8
LAY-6
  6
CONTINUOUS
 62
     1
100
AcDbLine
 10
586.999999
 20
386.3
 30
0.0
 11
583.999999
 21
385.8
 31
0.0
  0
LINE
  5
3CE
100
AcDbEntity
  8
LAY-6
  6
CONTINUOUS
 62
     1
100
AcDbLine
 10
583.999999
 20
385.8
 30
0.0
 11
586.999999
 21
385.3
 31
0.0
  0
LINE
  5
3CF
100
AcDbEntity
  8
LAY-6
  6
CONTINUOUS
 62
     1
100
AcDbLine
 10
597.999999
 20
385.3
 30
0.0
 11
600.999999
 21
385.8
 31
0.0
  0
LINE
  5
3D0
100
AcDbEntity
  8
LAY-6
  6
CONTINUOUS
 62
     1
100
AcDbLine
 10
600.999999
 20
385.8
 30
0.0
 11
597.999999
 21
386.3
 31
0.0
  0
LINE
  5
3D1
100
AcDbEntity
  8
LAY-6
  6
CONTINUOUS
 62
     1
100
AcDbLine
 10
624.999999
 20
419.0
 30
0.0
 11
624.999999
 21
384.3
 31
0.0
  0
TEXT
  5
3D2
100
AcDbEntity
  8
LAY-6
  6
CONTINUOUS
 62
     2
100
AcDbText
 10
608.999999
 20
386.3
 30
0.0
 40
5.0
  1
２４
 41
0.672
  7
EXCADSTD
 72
     5
 11
616.332799
 21
386.3
 31
0.0
100
AcDbText
  0
LINE
  5
3D3
100
AcDbEntity
  8
LAY-6
  6
CONTINUOUS
 62
     1
100
AcDbLine
 10
600.999999
 20
385.8
 30
0.0
 11
624.999999
 21
385.8
 31
0.0
  0
LINE
  5
3D4
100
AcDbEntity
  8
LAY-6
  6
CONTINUOUS
 62
     1
100
AcDbLine
 10
603.999999
 20
386.3
 30
0.0
 11
600.999999
 21
385.8
 31
0.0
  0
LINE
  5
3D5
100
AcDbEntity
  8
LAY-6
  6
CONTINUOUS
 62
     1
100
AcDbLine
 10
600.999999
 20
385.8
 30
0.0
 11
603.999999
 21
385.3
 31
0.0
  0
LINE
  5
3D6
100
AcDbEntity
  8
LAY-6
  6
CONTINUOUS
 62
     1
100
AcDbLine
 10
621.999999
 20
385.3
 30
0.0
 11
624.999999
 21
385.8
 31
0.0
  0
LINE
  5
3D7
100
AcDbEntity
  8
LAY-6
  6
CONTINUOUS
 62
     1
100
AcDbLine
 10
624.999999
 20
385.8
 30
0.0
 11
621.999999
 21
386.3
 31
0.0
  0
LINE
  5
3D8
100
AcDbEntity
  8
LAY-6
  6
CONTINUOUS
 62
     1
100
AcDbLine
 10
597.999999
 20
430.0
 30
0.0
 11
604.599999
 21
430.0
 31
0.0
  0
TEXT
  5
3D9
100
AcDbEntity
  8
LAY-6
  6
CONTINUOUS
 62
     2
100
AcDbText
 10
606.199999
 20
406.0
 30
0.0
 40
5.0
  1
４０
 50
90.0
 41
0.672
  7
EXCADSTD
 72
     5
 11
606.199999
 21
413.3328
 31
0.0
100
AcDbText
  0
POLYLINE
  5
3DA
100
AcDbEntity
  8
LAY-6
  6
CONTINUOUS
 62
     1
100
AcDb2dPolyline
 66
     1
 10
0.0
 20
0.0
 30
0.0
 70
   128
  0
VERTEX
  5
3DB
100
AcDbEntity
  8
LAY-6
  6
CONTINUOUS
 62
     1
100
AcDbVertex
100
AcDb2dVertex
 10
603.099999
 20
390.0
 30
0.0
  0
VERTEX
  5
3DC
100
AcDbEntity
  8
LAY-6
  6
CONTINUOUS
 62
     1
100
AcDbVertex
100
AcDb2dVertex
 10
603.099999
 20
405.0
 30
0.0
  0
SEQEND
  5
3DD
100
AcDbEntity
  8
LAY-6
  6
CONTINUOUS
 62
     1
  0
LINE
  5
3DE
100
AcDbEntity
  8
LAY-6
  6
CONTINUOUS
 62
     1
100
AcDbLine
 10
602.599999
 20
393.0
 30
0.0
 11
603.099999
 21
390.0
 31
0.0
  0
LINE
  5
3DF
100
AcDbEntity
  8
LAY-6
  6
CONTINUOUS
 62
     1
100
AcDbLine
 10
603.099999
 20
390.0
 30
0.0
 11
603.599999
 21
393.0
 31
0.0
  0
POLYLINE
  5
3E0
100
AcDbEntity
  8
LAY-6
  6
CONTINUOUS
 62
     1
100
AcDb2dPolyline
 66
     1
 10
0.0
 20
0.0
 30
0.0
 70
   128
  0
VERTEX
  5
3E1
100
AcDbEntity
  8
LAY-6
  6
CONTINUOUS
 62
     1
100
AcDbVertex
100
AcDb2dVertex
 10
603.099999
 20
430.0
 30
0.0
  0
VERTEX
  5
3E2
100
AcDbEntity
  8
LAY-6
  6
CONTINUOUS
 62
     1
100
AcDbVertex
100
AcDb2dVertex
 10
603.099999
 20
413.9
 30
0.0
  0
SEQEND
  5
3E3
100
AcDbEntity
  8
LAY-6
  6
CONTINUOUS
 62
     1
  0
LINE
  5
3E4
100
AcDbEntity
  8
LAY-6
  6
CONTINUOUS
 62
     1
100
AcDbLine
 10
603.599999
 20
427.0
 30
0.0
 11
603.099999
 21
430.0
 31
0.0
  0
LINE
  5
3E5
100
AcDbEntity
  8
LAY-6
  6
CONTINUOUS
 62
     1
100
AcDbLine
 10
603.099999
 20
430.0
 30
0.0
 11
602.599999
 21
427.0
 31
0.0
  0
LINE
  5
3E6
100
AcDbEntity
  8
LAY-6
  6
CONTINUOUS
 62
     1
100
AcDbLine
 10
604.999999
 20
360.0
 30
0.0
 11
604.999999
 21
348.9
 31
0.0
  0
LINE
  5
3E7
100
AcDbEntity
  8
LAY-6
  6
CONTINUOUS
 62
     1
100
AcDbLine
 10
610.999999
 20
360.8
 30
0.0
 11
610.999999
 21
348.9
 31
0.0
  0
TEXT
  5
3E8
100
AcDbEntity
  8
LAY-6
  6
CONTINUOUS
 62
     2
100
AcDbText
 10
605.999999
 20
350.9
 30
0.0
 40
5.0
  1
６
 41
0.672
  7
EXCADSTD
 72
     5
 11
609.199999
 21
350.9
 31
0.0
100
AcDbText
  0
LINE
  5
3E9
100
AcDbEntity
  8
LAY-6
  6
CONTINUOUS
 62
     1
100
AcDbLine
 10
599.999999
 20
350.4
 30
0.0
 11
604.999999
 21
350.4
 31
0.0
  0
LINE
  5
3EA
100
AcDbEntity
  8
LAY-6
  6
CONTINUOUS
 62
     1
100
AcDbLine
 10
610.999999
 20
350.4
 30
0.0
 11
615.999999
 21
350.4
 31
0.0
  0
LINE
  5
3EB
100
AcDbEntity
  8
LAY-6
  6
CONTINUOUS
 62
     1
100
AcDbLine
 10
601.999999
 20
349.9
 30
0.0
 11
604.999999
 21
350.4
 31
0.0
  0
LINE
  5
3EC
100
AcDbEntity
  8
LAY-6
  6
CONTINUOUS
 62
     1
100
AcDbLine
 10
604.999999
 20
350.4
 30
0.0
 11
601.999999
 21
350.9
 31
0.0
  0
LINE
  5
3ED
100
AcDbEntity
  8
LAY-6
  6
CONTINUOUS
 62
     1
100
AcDbLine
 10
613.999999
 20
350.9
 30
0.0
 11
610.999999
 21
350.4
 31
0.0
  0
LINE
  5
3EE
100
AcDbEntity
  8
LAY-6
  6
CONTINUOUS
 62
     1
100
AcDbLine
 10
610.999999
 20
350.4
 30
0.0
 11
613.999999
 21
349.9
 31
0.0
  0
LINE
  5
3EF
100
AcDbEntity
  8
LAY-6
  6
CONTINUOUS
 62
     1
100
AcDbLine
 10
625.999999
 20
372.8
 30
0.0
 11
625.999999
 21
348.9
 31
0.0
  0
TEXT
  5
3F0
100
AcDbEntity
  8
LAY-6
  6
CONTINUOUS
 62
     2
100
AcDbText
 10
614.499999
 20
350.9
 30
0.0
 40
5.0
  1
１５
 41
0.672
  7
EXCADSTD
 72
     5
 11
621.832799
 21
350.9
 31
0.0
100
AcDbText
  0
LINE
  5
3F1
100
AcDbEntity
  8
LAY-6
  6
CONTINUOUS
 62
     1
100
AcDbLine
 10
610.999999
 20
350.4
 30
0.0
 11
625.999999
 21
350.4
 31
0.0
  0
LINE
  5
3F2
100
AcDbEntity
  8
LAY-6
  6
CONTINUOUS
 62
     1
100
AcDbLine
 10
613.999999
 20
350.9
 30
0.0
 11
610.999999
 21
350.4
 31
0.0
  0
LINE
  5
3F3
100
AcDbEntity
  8
LAY-6
  6
CONTINUOUS
 62
     1
100
AcDbLine
 10
610.999999
 20
350.4
 30
0.0
 11
613.999999
 21
349.9
 31
0.0
  0
LINE
  5
3F4
100
AcDbEntity
  8
LAY-6
  6
CONTINUOUS
 62
     1
100
AcDbLine
 10
622.999999
 20
349.9
 30
0.0
 11
625.999999
 21
350.4
 31
0.0
  0
LINE
  5
3F5
100
AcDbEntity
  8
LAY-6
  6
CONTINUOUS
 62
     1
100
AcDbLine
 10
625.999999
 20
350.4
 30
0.0
 11
622.999999
 21
350.9
 31
0.0
  0
LINE
  5
3F6
100
AcDbEntity
  8
LAY-6
  6
CONTINUOUS
 62
     1
100
AcDbLine
 10
625.999999
 20
372.8
 30
0.0
 11
625.999999
 21
348.9
 31
0.0
  0
LINE
  5
3F7
100
AcDbEntity
  8
LAY-6
  6
CONTINUOUS
 62
     1
100
AcDbLine
 10
631.999999
 20
360.0
 30
0.0
 11
631.999999
 21
348.9
 31
0.0
  0
TEXT
  5
3F8
100
AcDbEntity
  8
LAY-6
  6
CONTINUOUS
 62
     2
100
AcDbText
 10
626.999999
 20
350.9
 30
0.0
 40
5.0
  1
６
 41
0.672
  7
EXCADSTD
 72
     5
 11
630.199999
 21
350.9
 31
0.0
100
AcDbText
  0
LINE
  5
3F9
100
AcDbEntity
  8
LAY-6
  6
CONTINUOUS
 62
     1
100
AcDbLine
 10
620.999999
 20
350.4
 30
0.0
 11
625.999999
 21
350.4
 31
0.0
  0
LINE
  5
3FA
100
AcDbEntity
  8
LAY-6
  6
CONTINUOUS
 62
     1
100
AcDbLine
 10
631.999999
 20
350.4
 30
0.0
 11
636.999999
 21
350.4
 31
0.0
  0
LINE
  5
3FB
100
AcDbEntity
  8
LAY-6
  6
CONTINUOUS
 62
     1
100
AcDbLine
 10
622.999999
 20
349.9
 30
0.0
 11
625.999999
 21
350.4
 31
0.0
  0
LINE
  5
3FC
100
AcDbEntity
  8
LAY-6
  6
CONTINUOUS
 62
     1
100
AcDbLine
 10
625.999999
 20
350.4
 30
0.0
 11
622.999999
 21
350.9
 31
0.0
  0
LINE
  5
3FD
100
AcDbEntity
  8
LAY-6
  6
CONTINUOUS
 62
     1
100
AcDbLine
 10
634.999999
 20
350.9
 30
0.0
 11
631.999999
 21
350.4
 31
0.0
  0
LINE
  5
3FE
100
AcDbEntity
  8
LAY-6
  6
CONTINUOUS
 62
     1
100
AcDbLine
 10
631.999999
 20
350.4
 30
0.0
 11
634.999999
 21
349.9
 31
0.0
  0
LINE
  5
3FF
100
AcDbEntity
  8
LAY-6
  6
CONTINUOUS
 62
     1
100
AcDbLine
 10
597.999999
 20
312.2
 30
0.0
 11
597.999999
 21
342.6
 31
0.0
  0
LINE
  5
400
100
AcDbEntity
  8
LAY-6
  6
CONTINUOUS
 62
     1
100
AcDbLine
 10
604.999999
 20
348.9
 30
0.0
 11
604.999999
 21
339.6
 31
0.0
  0
TEXT
  5
401
100
AcDbEntity
  8
LAY-6
  6
CONTINUOUS
 62
     2
100
AcDbText
 10
593.499999
 20
341.2
 30
0.0
 40
5.0
  1
７
 41
0.672
  7
EXCADSTD
 72
     5
 11
596.699999
 21
341.2
 31
0.0
100
AcDbText
  0
LINE
  5
402
100
AcDbEntity
  8
LAY-6
  6
CONTINUOUS
 62
     1
100
AcDbLine
 10
597.999999
 20
341.1
 30
0.0
 11
604.999999
 21
341.1
 31
0.0
  0
LINE
  5
403
100
AcDbEntity
  8
LAY-6
  6
CONTINUOUS
 62
     1
100
AcDbLine
 10
600.999999
 20
341.6
 30
0.0
 11
597.999999
 21
341.1
 31
0.0
  0
LINE
  5
404
100
AcDbEntity
  8
LAY-6
  6
CONTINUOUS
 62
     1
100
AcDbLine
 10
597.999999
 20
341.1
 30
0.0
 11
600.999999
 21
340.6
 31
0.0
  0
LINE
  5
405
100
AcDbEntity
  8
LAY-6
  6
CONTINUOUS
 62
     1
100
AcDbLine
 10
601.999999
 20
340.6
 30
0.0
 11
604.999999
 21
341.1
 31
0.0
  0
LINE
  5
406
100
AcDbEntity
  8
LAY-6
  6
CONTINUOUS
 62
     1
100
AcDbLine
 10
604.999999
 20
341.1
 30
0.0
 11
601.999999
 21
341.6
 31
0.0
  0
LINE
  5
407
100
AcDbEntity
  8
LAY-6
  6
CONTINUOUS
 62
     1
100
AcDbLine
 10
631.999999
 20
348.9
 30
0.0
 11
631.999999
 21
339.6
 31
0.0
  0
TEXT
  5
408
100
AcDbEntity
  8
LAY-6
  6
CONTINUOUS
 62
     2
100
AcDbText
 10
614.499999
 20
341.6
 30
0.0
 40
5.0
  1
２７
 41
0.672
  7
EXCADSTD
 72
     5
 11
621.832799
 21
341.6
 31
0.0
100
AcDbText
  0
LINE
  5
409
100
AcDbEntity
  8
LAY-6
  6
CONTINUOUS
 62
     1
100
AcDbLine
 10
604.999999
 20
341.1
 30
0.0
 11
631.999999
 21
341.1
 31
0.0
  0
LINE
  5
40A
100
AcDbEntity
  8
LAY-6
  6
CONTINUOUS
 62
     1
100
AcDbLine
 10
607.999999
 20
341.6
 30
0.0
 11
604.999999
 21
341.1
 31
0.0
  0
LINE
  5
40B
100
AcDbEntity
  8
LAY-6
  6
CONTINUOUS
 62
     1
100
AcDbLine
 10
604.999999
 20
341.1
 30
0.0
 11
607.999999
 21
340.6
 31
0.0
  0
LINE
  5
40C
100
AcDbEntity
  8
LAY-6
  6
CONTINUOUS
 62
     1
100
AcDbLine
 10
628.999999
 20
340.6
 30
0.0
 11
631.999999
 21
341.1
 31
0.0
  0
LINE
  5
40D
100
AcDbEntity
  8
LAY-6
  6
CONTINUOUS
 62
     1
100
AcDbLine
 10
631.999999
 20
341.1
 30
0.0
 11
628.999999
 21
341.6
 31
0.0
  0
LINE
  5
40E
100
AcDbEntity
  8
LAY-6
  6
CONTINUOUS
 62
     1
100
AcDbLine
 10
631.999999
 20
360.0
 30
0.0
 11
659.299999
 21
360.0
 31
0.0
  0
LINE
  5
40F
100
AcDbEntity
  8
LAY-6
  6
CONTINUOUS
 62
     1
100
AcDbLine
 10
616.999999
 20
366.0
 30
0.0
 11
659.299999
 21
366.0
 31
0.0
  0
TEXT
  5
410
100
AcDbEntity
  8
LAY-6
  6
CONTINUOUS
 62
     2
100
AcDbText
 10
657.299999
 20
361.0
 30
0.0
 40
5.0
  1
６
 50
90.0
 41
0.672
  7
EXCADSTD
 72
     5
 11
657.299999
 21
364.2
 31
0.0
100
AcDbText
  0
LINE
  5
411
100
AcDbEntity
  8
LAY-6
  6
CONTINUOUS
 62
     1
100
AcDbLine
 10
657.799999
 20
355.0
 30
0.0
 11
657.799999
 21
360.0
 31
0.0
  0
LINE
  5
412
100
AcDbEntity
  8
LAY-6
  6
CONTINUOUS
 62
     1
100
AcDbLine
 10
657.799999
 20
366.0
 30
0.0
 11
657.799999
 21
371.0
 31
0.0
  0
LINE
  5
413
100
AcDbEntity
  8
LAY-6
  6
CONTINUOUS
 62
     1
100
AcDbLine
 10
658.299999
 20
357.0
 30
0.0
 11
657.799999
 21
360.0
 31
0.0
  0
LINE
  5
414
100
AcDbEntity
  8
LAY-6
  6
CONTINUOUS
 62
     1
100
AcDbLine
 10
657.799999
 20
360.0
 30
0.0
 11
657.299999
 21
357.0
 31
0.0
  0
LINE
  5
415
100
AcDbEntity
  8
LAY-6
  6
CONTINUOUS
 62
     1
100
AcDbLine
 10
657.299999
 20
369.0
 30
0.0
 11
657.799999
 21
366.0
 31
0.0
  0
LINE
  5
416
100
AcDbEntity
  8
LAY-6
  6
CONTINUOUS
 62
     1
100
AcDbLine
 10
657.799999
 20
366.0
 30
0.0
 11
658.299999
 21
369.0
 31
0.0
  0
LINE
  5
417
100
AcDbEntity
  8
LAY-6
  6
CONTINUOUS
 62
     1
100
AcDbLine
 10
631.999999
 20
378.0
 30
0.0
 11
659.299999
 21
378.0
 31
0.0
  0
TEXT
  5
418
100
AcDbEntity
  8
LAY-6
  6
CONTINUOUS
 62
     2
100
AcDbText
 10
657.299999
 20
368.0
 30
0.0
 40
5.0
  1
１２
 50
90.0
 41
0.672
  7
EXCADSTD
 72
     5
 11
657.299999
 21
375.3328
 31
0.0
100
AcDbText
  0
LINE
  5
419
100
AcDbEntity
  8
LAY-6
  6
CONTINUOUS
 62
     1
100
AcDbLine
 10
657.799999
 20
366.0
 30
0.0
 11
657.799999
 21
378.0
 31
0.0
  0
LINE
  5
41A
100
AcDbEntity
  8
LAY-6
  6
CONTINUOUS
 62
     1
100
AcDbLine
 10
657.299999
 20
369.0
 30
0.0
 11
657.799999
 21
366.0
 31
0.0
  0
LINE
  5
41B
100
AcDbEntity
  8
LAY-6
  6
CONTINUOUS
 62
     1
100
AcDbLine
 10
657.799999
 20
366.0
 30
0.0
 11
658.299999
 21
369.0
 31
0.0
  0
LINE
  5
41C
100
AcDbEntity
  8
LAY-6
  6
CONTINUOUS
 62
     1
100
AcDbLine
 10
658.299999
 20
375.0
 30
0.0
 11
657.799999
 21
378.0
 31
0.0
  0
LINE
  5
41D
100
AcDbEntity
  8
LAY-6
  6
CONTINUOUS
 62
     1
100
AcDbLine
 10
657.799999
 20
378.0
 30
0.0
 11
657.299999
 21
375.0
 31
0.0
  0
LINE
  5
41E
100
AcDbEntity
  8
LAY-6
  6
CONTINUOUS
 62
     1
100
AcDbLine
 10
616.999999
 20
401.0
 30
0.0
 11
659.299999
 21
401.0
 31
0.0
  0
TEXT
  5
41F
100
AcDbEntity
  8
LAY-6
  6
CONTINUOUS
 62
     2
100
AcDbText
 10
657.299999
 20
385.5
 30
0.0
 40
5.0
  1
２３
 50
90.0
 41
0.672
  7
EXCADSTD
 72
     5
 11
657.299999
 21
392.8328
 31
0.0
100
AcDbText
  0
LINE
  5
420
100
AcDbEntity
  8
LAY-6
  6
CONTINUOUS
 62
     1
100
AcDbLine
 10
657.799999
 20
378.0
 30
0.0
 11
657.799999
 21
401.0
 31
0.0
  0
LINE
  5
421
100
AcDbEntity
  8
LAY-6
  6
CONTINUOUS
 62
     1
100
AcDbLine
 10
657.299999
 20
381.0
 30
0.0
 11
657.799999
 21
378.0
 31
0.0
  0
LINE
  5
422
100
AcDbEntity
  8
LAY-6
  6
CONTINUOUS
 62
     1
100
AcDbLine
 10
657.799999
 20
378.0
 30
0.0
 11
658.299999
 21
381.0
 31
0.0
  0
LINE
  5
423
100
AcDbEntity
  8
LAY-6
  6
CONTINUOUS
 62
     1
100
AcDbLine
 10
658.299999
 20
398.0
 30
0.0
 11
657.799999
 21
401.0
 31
0.0
  0
LINE
  5
424
100
AcDbEntity
  8
LAY-6
  6
CONTINUOUS
 62
     1
100
AcDbLine
 10
657.799999
 20
401.0
 30
0.0
 11
657.299999
 21
398.0
 31
0.0
  0
LINE
  5
425
100
AcDbEntity
  8
LAY-6
  6
CONTINUOUS
 62
     1
100
AcDbLine
 10
631.999999
 20
413.0
 30
0.0
 11
659.299999
 21
413.0
 31
0.0
  0
TEXT
  5
426
100
AcDbEntity
  8
LAY-6
  6
CONTINUOUS
 62
     2
100
AcDbText
 10
657.299999
 20
403.0
 30
0.0
 40
5.0
  1
１２
 50
90.0
 41
0.672
  7
EXCADSTD
 72
     5
 11
657.299999
 21
410.3328
 31
0.0
100
AcDbText
  0
LINE
  5
427
100
AcDbEntity
  8
LAY-6
  6
CONTINUOUS
 62
     1
100
AcDbLine
 10
657.799999
 20
401.0
 30
0.0
 11
657.799999
 21
413.0
 31
0.0
  0
LINE
  5
428
100
AcDbEntity
  8
LAY-6
  6
CONTINUOUS
 62
     1
100
AcDbLine
 10
657.299999
 20
404.0
 30
0.0
 11
657.799999
 21
401.0
 31
0.0
  0
LINE
  5
429
100
AcDbEntity
  8
LAY-6
  6
CONTINUOUS
 62
     1
100
AcDbLine
 10
657.799999
 20
401.0
 30
0.0
 11
658.299999
 21
404.0
 31
0.0
  0
LINE
  5
42A
100
AcDbEntity
  8
LAY-6
  6
CONTINUOUS
 62
     1
100
AcDbLine
 10
658.299999
 20
410.0
 30
0.0
 11
657.799999
 21
413.0
 31
0.0
  0
LINE
  5
42B
100
AcDbEntity
  8
LAY-6
  6
CONTINUOUS
 62
     1
100
AcDbLine
 10
657.799999
 20
413.0
 30
0.0
 11
657.299999
 21
410.0
 31
0.0
  0
LINE
  5
42C
100
AcDbEntity
  8
LAY-6
  6
CONTINUOUS
 62
     1
100
AcDbLine
 10
637.999999
 20
430.0
 30
0.0
 11
659.299999
 21
430.0
 31
0.0
  0
TEXT
  5
42D
100
AcDbEntity
  8
LAY-6
  6
CONTINUOUS
 62
     2
100
AcDbText
 10
657.299999
 20
417.5
 30
0.0
 40
5.0
  1
１７
 50
90.0
 41
0.672
  7
EXCADSTD
 72
     5
 11
657.299999
 21
424.8328
 31
0.0
100
AcDbText
  0
LINE
  5
42E
100
AcDbEntity
  8
LAY-6
  6
CONTINUOUS
 62
     1
100
AcDbLine
 10
657.799999
 20
413.0
 30
0.0
 11
657.799999
 21
430.0
 31
0.0
  0
LINE
  5
42F
100
AcDbEntity
  8
LAY-6
  6
CONTINUOUS
 62
     1
100
AcDbLine
 10
657.299999
 20
416.0
 30
0.0
 11
657.799999
 21
413.0
 31
0.0
  0
LINE
  5
430
100
AcDbEntity
  8
LAY-6
  6
CONTINUOUS
 62
     1
100
AcDbLine
 10
657.799999
 20
413.0
 30
0.0
 11
658.299999
 21
416.0
 31
0.0
  0
LINE
  5
431
100
AcDbEntity
  8
LAY-6
  6
CONTINUOUS
 62
     1
100
AcDbLine
 10
658.299999
 20
427.0
 30
0.0
 11
657.799999
 21
430.0
 31
0.0
  0
LINE
  5
432
100
AcDbEntity
  8
LAY-6
  6
CONTINUOUS
 62
     1
100
AcDbLine
 10
657.799999
 20
430.0
 30
0.0
 11
657.299999
 21
427.0
 31
0.0
  0
LINE
  5
433
100
AcDbEntity
  8
LAY-6
  6
CONTINUOUS
 62
     1
100
AcDbLine
 10
659.299999
 20
360.0
 30
0.0
 11
668.899999
 21
360.0
 31
0.0
  0
LINE
  5
434
100
AcDbEntity
  8
LAY-6
  6
CONTINUOUS
 62
     1
100
AcDbLine
 10
659.299999
 20
430.0
 30
0.0
 11
668.899999
 21
430.0
 31
0.0
  0
TEXT
  5
435
100
AcDbEntity
  8
LAY-6
  6
CONTINUOUS
 62
     2
100
AcDbText
 10
666.899999
 20
391.0
 30
0.0
 40
5.0
  1
７０
 50
90.0
 41
0.672
  7
EXCADSTD
 72
     5
 11
666.899999
 21
398.3328
 31
0.0
100
AcDbText
  0
LINE
  5
436
100
AcDbEntity
  8
LAY-6
  6
CONTINUOUS
 62
     1
100
AcDbLine
 10
667.399999
 20
360.0
 30
0.0
 11
667.399999
 21
430.0
 31
0.0
  0
LINE
  5
437
100
AcDbEntity
  8
LAY-6
  6
CONTINUOUS
 62
     1
100
AcDbLine
 10
666.899999
 20
363.0
 30
0.0
 11
667.399999
 21
360.0
 31
0.0
  0
LINE
  5
438
100
AcDbEntity
  8
LAY-6
  6
CONTINUOUS
 62
     1
100
AcDbLine
 10
667.399999
 20
360.0
 30
0.0
 11
667.899999
 21
363.0
 31
0.0
  0
LINE
  5
439
100
AcDbEntity
  8
LAY-6
  6
CONTINUOUS
 62
     1
100
AcDbLine
 10
667.899999
 20
427.0
 30
0.0
 11
667.399999
 21
430.0
 31
0.0
  0
LINE
  5
43A
100
AcDbEntity
  8
LAY-6
  6
CONTINUOUS
 62
     1
100
AcDbLine
 10
667.399999
 20
430.0
 30
0.0
 11
666.899999
 21
427.0
 31
0.0
  0
TEXT
  5
43B
100
AcDbEntity
  8
LAY-6
  6
CONTINUOUS
 62
     2
100
AcDbText
 10
606.199999
 20
202.0
 30
0.0
 40
5.0
  1
４０
 50
90.0
 41
0.672
  7
EXCADSTD
 72
     5
 11
606.199999
 21
209.3328
 31
0.0
100
AcDbText
  0
POLYLINE
  5
43C
100
AcDbEntity
  8
LAY-6
  6
CONTINUOUS
 62
     1
100
AcDb2dPolyline
 66
     1
 10
0.0
 20
0.0
 30
0.0
 70
   128
  0
VERTEX
  5
43D
100
AcDbEntity
  8
LAY-6
  6
CONTINUOUS
 62
     1
100
AcDbVertex
100
AcDb2dVertex
 10
603.099999
 20
186.0
 30
0.0
  0
VERTEX
  5
43E
100
AcDbEntity
  8
LAY-6
  6
CONTINUOUS
 62
     1
100
AcDbVertex
100
AcDb2dVertex
 10
603.099999
 20
201.0
 30
0.0
  0
SEQEND
  5
43F
100
AcDbEntity
  8
LAY-6
  6
CONTINUOUS
 62
     1
  0
LINE
  5
440
100
AcDbEntity
  8
LAY-6
  6
CONTINUOUS
 62
     1
100
AcDbLine
 10
602.599999
 20
189.0
 30
0.0
 11
603.099999
 21
186.0
 31
0.0
  0
LINE
  5
441
100
AcDbEntity
  8
LAY-6
  6
CONTINUOUS
 62
     1
100
AcDbLine
 10
603.099999
 20
186.0
 30
0.0
 11
603.599999
 21
189.0
 31
0.0
  0
POLYLINE
  5
442
100
AcDbEntity
  8
LAY-6
  6
CONTINUOUS
 62
     1
100
AcDb2dPolyline
 66
     1
 10
0.0
 20
0.0
 30
0.0
 70
   128
  0
VERTEX
  5
443
100
AcDbEntity
  8
LAY-6
  6
CONTINUOUS
 62
     1
100
AcDbVertex
100
AcDb2dVertex
 10
603.099999
 20
226.0
 30
0.0
  0
VERTEX
  5
444
100
AcDbEntity
  8
LAY-6
  6
CONTINUOUS
 62
     1
100
AcDbVertex
100
AcDb2dVertex
 10
603.099999
 20
209.9
 30
0.0
  0
SEQEND
  5
445
100
AcDbEntity
  8
LAY-6
  6
CONTINUOUS
 62
     1
  0
LINE
  5
446
100
AcDbEntity
  8
LAY-6
  6
CONTINUOUS
 62
     1
100
AcDbLine
 10
603.599999
 20
223.0
 30
0.0
 11
603.099999
 21
226.0
 31
0.0
  0
LINE
  5
447
100
AcDbEntity
  8
LAY-6
  6
CONTINUOUS
 62
     1
100
AcDbLine
 10
603.099999
 20
226.0
 30
0.0
 11
602.599999
 21
223.0
 31
0.0
  0
LINE
  5
448
100
AcDbEntity
  8
LAY-6
  6
CONTINUOUS
 62
     1
100
AcDbLine
 10
649.199999
 20
186.0
 30
0.0
 11
659.299999
 21
186.0
 31
0.0
  0
LINE
  5
449
100
AcDbEntity
  8
LAY-6
  6
CONTINUOUS
 62
     1
100
AcDbLine
 10
631.999999
 20
203.0
 30
0.0
 11
659.299999
 21
203.0
 31
0.0
  0
TEXT
  5
44A
100
AcDbEntity
  8
LAY-6
  6
CONTINUOUS
 62
     2
100
AcDbText
 10
657.299999
 20
190.5
 30
0.0
 40
5.0
  1
１７
 50
90.0
 41
0.672
  7
EXCADSTD
 72
     5
 11
657.299999
 21
197.8328
 31
0.0
100
AcDbText
  0
LINE
  5
44B
100
AcDbEntity
  8
LAY-6
  6
CONTINUOUS
 62
     1
100
AcDbLine
 10
657.799999
 20
186.0
 30
0.0
 11
657.799999
 21
203.0
 31
0.0
  0
LINE
  5
44C
100
AcDbEntity
  8
LAY-6
  6
CONTINUOUS
 62
     1
100
AcDbLine
 10
657.299999
 20
189.0
 30
0.0
 11
657.799999
 21
186.0
 31
0.0
  0
LINE
  5
44D
100
AcDbEntity
  8
LAY-6
  6
CONTINUOUS
 62
     1
100
AcDbLine
 10
657.799999
 20
186.0
 30
0.0
 11
658.299999
 21
189.0
 31
0.0
  0
LINE
  5
44E
100
AcDbEntity
  8
LAY-6
  6
CONTINUOUS
 62
     1
100
AcDbLine
 10
658.299999
 20
200.0
 30
0.0
 11
657.799999
 21
203.0
 31
0.0
  0
LINE
  5
44F
100
AcDbEntity
  8
LAY-6
  6
CONTINUOUS
 62
     1
100
AcDbLine
 10
657.799999
 20
203.0
 30
0.0
 11
657.299999
 21
200.0
 31
0.0
  0
LINE
  5
450
100
AcDbEntity
  8
LAY-6
  6
CONTINUOUS
 62
     1
100
AcDbLine
 10
616.999999
 20
215.0
 30
0.0
 11
659.299999
 21
215.0
 31
0.0
  0
TEXT
  5
451
100
AcDbEntity
  8
LAY-6
  6
CONTINUOUS
 62
     2
100
AcDbText
 10
657.299999
 20
205.0
 30
0.0
 40
5.0
  1
１２
 50
90.0
 41
0.672
  7
EXCADSTD
 72
     5
 11
657.299999
 21
212.3328
 31
0.0
100
AcDbText
  0
LINE
  5
452
100
AcDbEntity
  8
LAY-6
  6
CONTINUOUS
 62
     1
100
AcDbLine
 10
657.799999
 20
203.0
 30
0.0
 11
657.799999
 21
215.0
 31
0.0
  0
LINE
  5
453
100
AcDbEntity
  8
LAY-6
  6
CONTINUOUS
 62
     1
100
AcDbLine
 10
657.299999
 20
206.0
 30
0.0
 11
657.799999
 21
203.0
 31
0.0
  0
LINE
  5
454
100
AcDbEntity
  8
LAY-6
  6
CONTINUOUS
 62
     1
100
AcDbLine
 10
657.799999
 20
203.0
 30
0.0
 11
658.299999
 21
206.0
 31
0.0
  0
LINE
  5
455
100
AcDbEntity
  8
LAY-6
  6
CONTINUOUS
 62
     1
100
AcDbLine
 10
658.299999
 20
212.0
 30
0.0
 11
657.799999
 21
215.0
 31
0.0
  0
LINE
  5
456
100
AcDbEntity
  8
LAY-6
  6
CONTINUOUS
 62
     1
100
AcDbLine
 10
657.799999
 20
215.0
 30
0.0
 11
657.299999
 21
212.0
 31
0.0
  0
LINE
  5
457
100
AcDbEntity
  8
LAY-6
  6
CONTINUOUS
 62
     1
100
AcDbLine
 10
631.999999
 20
238.0
 30
0.0
 11
659.299999
 21
238.0
 31
0.0
  0
TEXT
  5
458
100
AcDbEntity
  8
LAY-6
  6
CONTINUOUS
 62
     2
100
AcDbText
 10
657.299999
 20
222.5
 30
0.0
 40
5.0
  1
２３
 50
90.0
 41
0.672
  7
EXCADSTD
 72
     5
 11
657.299999
 21
229.8328
 31
0.0
100
AcDbText
  0
LINE
  5
459
100
AcDbEntity
  8
LAY-6
  6
CONTINUOUS
 62
     1
100
AcDbLine
 10
657.799999
 20
215.0
 30
0.0
 11
657.799999
 21
238.0
 31
0.0
  0
LINE
  5
45A
100
AcDbEntity
  8
LAY-6
  6
CONTINUOUS
 62
     1
100
AcDbLine
 10
657.299999
 20
218.0
 30
0.0
 11
657.799999
 21
215.0
 31
0.0
  0
LINE
  5
45B
100
AcDbEntity
  8
LAY-6
  6
CONTINUOUS
 62
     1
100
AcDbLine
 10
657.799999
 20
215.0
 30
0.0
 11
658.299999
 21
218.0
 31
0.0
  0
LINE
  5
45C
100
AcDbEntity
  8
LAY-6
  6
CONTINUOUS
 62
     1
100
AcDbLine
 10
658.299999
 20
235.0
 30
0.0
 11
657.799999
 21
238.0
 31
0.0
  0
LINE
  5
45D
100
AcDbEntity
  8
LAY-6
  6
CONTINUOUS
 62
     1
100
AcDbLine
 10
657.799999
 20
238.0
 30
0.0
 11
657.299999
 21
235.0
 31
0.0
  0
LINE
  5
45E
100
AcDbEntity
  8
LAY-6
  6
CONTINUOUS
 62
     1
100
AcDbLine
 10
616.999999
 20
250.0
 30
0.0
 11
659.299999
 21
250.0
 31
0.0
  0
TEXT
  5
45F
100
AcDbEntity
  8
LAY-6
  6
CONTINUOUS
 62
     2
100
AcDbText
 10
657.299999
 20
240.0
 30
0.0
 40
5.0
  1
１２
 50
90.0
 41
0.672
  7
EXCADSTD
 72
     5
 11
657.299999
 21
247.3328
 31
0.0
100
AcDbText
  0
LINE
  5
460
100
AcDbEntity
  8
LAY-6
  6
CONTINUOUS
 62
     1
100
AcDbLine
 10
657.799999
 20
238.0
 30
0.0
 11
657.799999
 21
250.0
 31
0.0
  0
LINE
  5
461
100
AcDbEntity
  8
LAY-6
  6
CONTINUOUS
 62
     1
100
AcDbLine
 10
657.299999
 20
241.0
 30
0.0
 11
657.799999
 21
238.0
 31
0.0
  0
LINE
  5
462
100
AcDbEntity
  8
LAY-6
  6
CONTINUOUS
 62
     1
100
AcDbLine
 10
657.799999
 20
238.0
 30
0.0
 11
658.299999
 21
241.0
 31
0.0
  0
LINE
  5
463
100
AcDbEntity
  8
LAY-6
  6
CONTINUOUS
 62
     1
100
AcDbLine
 10
658.299999
 20
247.0
 30
0.0
 11
657.799999
 21
250.0
 31
0.0
  0
LINE
  5
464
100
AcDbEntity
  8
LAY-6
  6
CONTINUOUS
 62
     1
100
AcDbLine
 10
657.799999
 20
250.0
 30
0.0
 11
657.299999
 21
247.0
 31
0.0
  0
LINE
  5
465
100
AcDbEntity
  8
LAY-6
  6
CONTINUOUS
 62
     1
100
AcDbLine
 10
616.999999
 20
250.0
 30
0.0
 11
659.299999
 21
250.0
 31
0.0
  0
LINE
  5
466
100
AcDbEntity
  8
LAY-6
  6
CONTINUOUS
 62
     1
100
AcDbLine
 10
631.999999
 20
256.0
 30
0.0
 11
659.299999
 21
256.0
 31
0.0
  0
TEXT
  5
467
100
AcDbEntity
  8
LAY-6
  6
CONTINUOUS
 62
     2
100
AcDbText
 10
657.299999
 20
251.0
 30
0.0
 40
5.0
  1
６
 50
90.0
 41
0.672
  7
EXCADSTD
 72
     5
 11
657.299999
 21
254.2
 31
0.0
100
AcDbText
  0
LINE
  5
468
100
AcDbEntity
  8
LAY-6
  6
CONTINUOUS
 62
     1
100
AcDbLine
 10
657.799999
 20
245.0
 30
0.0
 11
657.799999
 21
250.0
 31
0.0
  0
LINE
  5
469
100
AcDbEntity
  8
LAY-6
  6
CONTINUOUS
 62
     1
100
AcDbLine
 10
657.799999
 20
256.0
 30
0.0
 11
657.799999
 21
261.0
 31
0.0
  0
LINE
  5
46A
100
AcDbEntity
  8
LAY-6
  6
CONTINUOUS
 62
     1
100
AcDbLine
 10
658.299999
 20
247.0
 30
0.0
 11
657.799999
 21
250.0
 31
0.0
  0
LINE
  5
46B
100
AcDbEntity
  8
LAY-6
  6
CONTINUOUS
 62
     1
100
AcDbLine
 10
657.799999
 20
250.0
 30
0.0
 11
657.299999
 21
247.0
 31
0.0
  0
LINE
  5
46C
100
AcDbEntity
  8
LAY-6
  6
CONTINUOUS
 62
     1
100
AcDbLine
 10
657.299999
 20
259.0
 30
0.0
 11
657.799999
 21
256.0
 31
0.0
  0
LINE
  5
46D
100
AcDbEntity
  8
LAY-6
  6
CONTINUOUS
 62
     1
100
AcDbLine
 10
657.799999
 20
256.0
 30
0.0
 11
658.299999
 21
259.0
 31
0.0
  0
LINE
  5
46E
100
AcDbEntity
  8
LAY-6
  6
CONTINUOUS
 62
     1
100
AcDbLine
 10
649.199999
 20
186.0
 30
0.0
 11
668.899999
 21
186.0
 31
0.0
  0
LINE
  5
46F
100
AcDbEntity
  8
LAY-6
  6
CONTINUOUS
 62
     1
100
AcDbLine
 10
659.299999
 20
256.0
 30
0.0
 11
668.899999
 21
256.0
 31
0.0
  0
TEXT
  5
470
100
AcDbEntity
  8
LAY-6
  6
CONTINUOUS
 62
     2
100
AcDbText
 10
666.899999
 20
217.0
 30
0.0
 40
5.0
  1
７０
 50
90.0
 41
0.672
  7
EXCADSTD
 72
     5
 11
666.899999
 21
224.3328
 31
0.0
100
AcDbText
  0
LINE
  5
471
100
AcDbEntity
  8
LAY-6
  6
CONTINUOUS
 62
     1
100
AcDbLine
 10
667.399999
 20
186.0
 30
0.0
 11
667.399999
 21
256.0
 31
0.0
  0
LINE
  5
472
100
AcDbEntity
  8
LAY-6
  6
CONTINUOUS
 62
     1
100
AcDbLine
 10
666.899999
 20
189.0
 30
0.0
 11
667.399999
 21
186.0
 31
0.0
  0
LINE
  5
473
100
AcDbEntity
  8
LAY-6
  6
CONTINUOUS
 62
     1
100
AcDbLine
 10
667.399999
 20
186.0
 30
0.0
 11
667.899999
 21
189.0
 31
0.0
  0
LINE
  5
474
100
AcDbEntity
  8
LAY-6
  6
CONTINUOUS
 62
     1
100
AcDbLine
 10
667.899999
 20
253.0
 30
0.0
 11
667.399999
 21
256.0
 31
0.0
  0
LINE
  5
475
100
AcDbEntity
  8
LAY-6
  6
CONTINUOUS
 62
     1
100
AcDbLine
 10
667.399999
 20
256.0
 30
0.0
 11
666.899999
 21
253.0
 31
0.0
  0
LINE
  5
476
100
AcDbEntity
  8
LAY-6
  6
CONTINUOUS
 62
     1
100
AcDbLine
 10
678.999999
 20
180.0
 30
0.0
 11
665.899999
 21
180.0
 31
0.0
  0
LINE
  5
477
100
AcDbEntity
  8
LAY-6
  6
CONTINUOUS
 62
     1
100
AcDbLine
 10
668.899999
 20
186.0
 30
0.0
 11
665.899999
 21
186.0
 31
0.0
  0
TEXT
  5
478
100
AcDbEntity
  8
LAY-6
  6
CONTINUOUS
 62
     2
100
AcDbText
 10
666.899999
 20
181.0
 30
0.0
 40
5.0
  1
６
 50
90.0
 41
0.672
  7
EXCADSTD
 72
     5
 11
666.899999
 21
184.2
 31
0.0
100
AcDbText
  0
LINE
  5
479
100
AcDbEntity
  8
LAY-6
  6
CONTINUOUS
 62
     1
100
AcDbLine
 10
667.399999
 20
175.0
 30
0.0
 11
667.399999
 21
180.0
 31
0.0
  0
LINE
  5
47A
100
AcDbEntity
  8
LAY-6
  6
CONTINUOUS
 62
     1
100
AcDbLine
 10
667.399999
 20
186.0
 30
0.0
 11
667.399999
 21
191.0
 31
0.0
  0
LINE
  5
47B
100
AcDbEntity
  8
LAY-6
  6
CONTINUOUS
 62
     1
100
AcDbLine
 10
667.899999
 20
177.0
 30
0.0
 11
667.399999
 21
180.0
 31
0.0
  0
LINE
  5
47C
100
AcDbEntity
  8
LAY-6
  6
CONTINUOUS
 62
     1
100
AcDbLine
 10
667.399999
 20
180.0
 30
0.0
 11
666.899999
 21
177.0
 31
0.0
  0
LINE
  5
47D
100
AcDbEntity
  8
LAY-6
  6
CONTINUOUS
 62
     1
100
AcDbLine
 10
666.899999
 20
189.0
 30
0.0
 11
667.399999
 21
186.0
 31
0.0
  0
LINE
  5
47E
100
AcDbEntity
  8
LAY-6
  6
CONTINUOUS
 62
     1
100
AcDbLine
 10
667.399999
 20
186.0
 30
0.0
 11
667.899999
 21
189.0
 31
0.0
  0
LINE
  5
47F
100
AcDbEntity
  8
LAY-6
  6
CONTINUOUS
 62
     1
100
AcDbLine
 10
604.999999
 20
256.0
 30
0.0
 11
604.999999
 21
264.6
 31
0.0
  0
LINE
  5
480
100
AcDbEntity
  8
LAY-6
  6
CONTINUOUS
 62
     1
100
AcDbLine
 10
610.999999
 20
255.2
 30
0.0
 11
610.999999
 21
264.6
 31
0.0
  0
TEXT
  5
481
100
AcDbEntity
  8
LAY-6
  6
CONTINUOUS
 62
     2
100
AcDbText
 10
605.999999
 20
263.6
 30
0.0
 40
5.0
  1
６
 41
0.672
  7
EXCADSTD
 72
     5
 11
609.199999
 21
263.6
 31
0.0
100
AcDbText
  0
LINE
  5
482
100
AcDbEntity
  8
LAY-6
  6
CONTINUOUS
 62
     1
100
AcDbLine
 10
599.999999
 20
263.1
 30
0.0
 11
604.999999
 21
263.1
 31
0.0
  0
LINE
  5
483
100
AcDbEntity
  8
LAY-6
  6
CONTINUOUS
 62
     1
100
AcDbLine
 10
610.999999
 20
263.1
 30
0.0
 11
615.999999
 21
263.1
 31
0.0
  0
LINE
  5
484
100
AcDbEntity
  8
LAY-6
  6
CONTINUOUS
 62
     1
100
AcDbLine
 10
601.999999
 20
262.6
 30
0.0
 11
604.999999
 21
263.1
 31
0.0
  0
LINE
  5
485
100
AcDbEntity
  8
LAY-6
  6
CONTINUOUS
 62
     1
100
AcDbLine
 10
604.999999
 20
263.1
 30
0.0
 11
601.999999
 21
263.6
 31
0.0
  0
LINE
  5
486
100
AcDbEntity
  8
LAY-6
  6
CONTINUOUS
 62
     1
100
AcDbLine
 10
613.999999
 20
263.6
 30
0.0
 11
610.999999
 21
263.1
 31
0.0
  0
LINE
  5
487
100
AcDbEntity
  8
LAY-6
  6
CONTINUOUS
 62
     1
100
AcDbLine
 10
610.999999
 20
263.1
 30
0.0
 11
613.999999
 21
262.6
 31
0.0
  0
LINE
  5
488
100
AcDbEntity
  8
LAY-6
  6
CONTINUOUS
 62
     1
100
AcDbLine
 10
625.999999
 20
243.2
 30
0.0
 11
625.999999
 21
264.6
 31
0.0
  0
TEXT
  5
489
100
AcDbEntity
  8
LAY-6
  6
CONTINUOUS
 62
     2
100
AcDbText
 10
614.499999
 20
263.6
 30
0.0
 40
5.0
  1
１５
 41
0.672
  7
EXCADSTD
 72
     5
 11
621.832799
 21
263.6
 31
0.0
100
AcDbText
  0
LINE
  5
48A
100
AcDbEntity
  8
LAY-6
  6
CONTINUOUS
 62
     1
100
AcDbLine
 10
610.999999
 20
263.1
 30
0.0
 11
625.999999
 21
263.1
 31
0.0
  0
LINE
  5
48B
100
AcDbEntity
  8
LAY-6
  6
CONTINUOUS
 62
     1
100
AcDbLine
 10
613.999999
 20
263.6
 30
0.0
 11
610.999999
 21
263.1
 31
0.0
  0
LINE
  5
48C
100
AcDbEntity
  8
LAY-6
  6
CONTINUOUS
 62
     1
100
AcDbLine
 10
610.999999
 20
263.1
 30
0.0
 11
613.999999
 21
262.6
 31
0.0
  0
LINE
  5
48D
100
AcDbEntity
  8
LAY-6
  6
CONTINUOUS
 62
     1
100
AcDbLine
 10
622.999999
 20
262.6
 30
0.0
 11
625.999999
 21
263.1
 31
0.0
  0
LINE
  5
48E
100
AcDbEntity
  8
LAY-6
  6
CONTINUOUS
 62
     1
100
AcDbLine
 10
625.999999
 20
263.1
 30
0.0
 11
622.999999
 21
263.6
 31
0.0
  0
LINE
  5
48F
100
AcDbEntity
  8
LAY-6
  6
CONTINUOUS
 62
     1
100
AcDbLine
 10
625.999999
 20
243.2
 30
0.0
 11
625.999999
 21
264.6
 31
0.0
  0
LINE
  5
490
100
AcDbEntity
  8
LAY-6
  6
CONTINUOUS
 62
     1
100
AcDbLine
 10
631.999999
 20
256.0
 30
0.0
 11
631.999999
 21
264.6
 31
0.0
  0
TEXT
  5
491
100
AcDbEntity
  8
LAY-6
  6
CONTINUOUS
 62
     2
100
AcDbText
 10
626.999999
 20
263.6
 30
0.0
 40
5.0
  1
６
 41
0.672
  7
EXCADSTD
 72
     5
 11
630.199999
 21
263.6
 31
0.0
100
AcDbText
  0
LINE
  5
492
100
AcDbEntity
  8
LAY-6
  6
CONTINUOUS
 62
     1
100
AcDbLine
 10
620.999999
 20
263.1
 30
0.0
 11
625.999999
 21
263.1
 31
0.0
  0
LINE
  5
493
100
AcDbEntity
  8
LAY-6
  6
CONTINUOUS
 62
     1
100
AcDbLine
 10
631.999999
 20
263.1
 30
0.0
 11
636.999999
 21
263.1
 31
0.0
  0
LINE
  5
494
100
AcDbEntity
  8
LAY-6
  6
CONTINUOUS
 62
     1
100
AcDbLine
 10
622.999999
 20
262.6
 30
0.0
 11
625.999999
 21
263.1
 31
0.0
  0
LINE
  5
495
100
AcDbEntity
  8
LAY-6
  6
CONTINUOUS
 62
     1
100
AcDbLine
 10
625.999999
 20
263.1
 30
0.0
 11
622.999999
 21
263.6
 31
0.0
  0
LINE
  5
496
100
AcDbEntity
  8
LAY-6
  6
CONTINUOUS
 62
     1
100
AcDbLine
 10
634.999999
 20
263.6
 30
0.0
 11
631.999999
 21
263.1
 31
0.0
  0
LINE
  5
497
100
AcDbEntity
  8
LAY-6
  6
CONTINUOUS
 62
     1
100
AcDbLine
 10
631.999999
 20
263.1
 30
0.0
 11
634.999999
 21
262.6
 31
0.0
  0
LINE
  5
498
100
AcDbEntity
  8
LAY-6
  6
CONTINUOUS
 62
     1
100
AcDbLine
 10
597.999999
 20
226.0
 30
0.0
 11
597.999999
 21
273.9
 31
0.0
  0
LINE
  5
499
100
AcDbEntity
  8
LAY-6
  6
CONTINUOUS
 62
     1
100
AcDbLine
 10
604.999999
 20
264.6
 30
0.0
 11
604.999999
 21
273.9
 31
0.0
  0
TEXT
  5
49A
100
AcDbEntity
  8
LAY-6
  6
CONTINUOUS
 62
     2
100
AcDbText
 10
593.399999
 20
272.7
 30
0.0
 40
5.0
  1
７
 41
0.672
  7
EXCADSTD
 72
     5
 11
596.599999
 21
272.7
 31
0.0
100
AcDbText
  0
LINE
  5
49B
100
AcDbEntity
  8
LAY-6
  6
CONTINUOUS
 62
     1
100
AcDbLine
 10
597.999999
 20
272.4
 30
0.0
 11
604.999999
 21
272.4
 31
0.0
  0
LINE
  5
49C
100
AcDbEntity
  8
LAY-6
  6
CONTINUOUS
 62
     1
100
AcDbLine
 10
600.999999
 20
272.9
 30
0.0
 11
597.999999
 21
272.4
 31
0.0
  0
LINE
  5
49D
100
AcDbEntity
  8
LAY-6
  6
CONTINUOUS
 62
     1
100
AcDbLine
 10
597.999999
 20
272.4
 30
0.0
 11
600.999999
 21
271.9
 31
0.0
  0
LINE
  5
49E
100
AcDbEntity
  8
LAY-6
  6
CONTINUOUS
 62
     1
100
AcDbLine
 10
601.999999
 20
271.9
 30
0.0
 11
604.999999
 21
272.4
 31
0.0
  0
LINE
  5
49F
100
AcDbEntity
  8
LAY-6
  6
CONTINUOUS
 62
     1
100
AcDbLine
 10
604.999999
 20
272.4
 30
0.0
 11
601.999999
 21
272.9
 31
0.0
  0
LINE
  5
4A0
100
AcDbEntity
  8
LAY-6
  6
CONTINUOUS
 62
     1
100
AcDbLine
 10
631.999999
 20
264.6
 30
0.0
 11
631.999999
 21
273.9
 31
0.0
  0
TEXT
  5
4A1
100
AcDbEntity
  8
LAY-6
  6
CONTINUOUS
 62
     2
100
AcDbText
 10
614.499999
 20
272.9
 30
0.0
 40
5.0
  1
２７
 41
0.672
  7
EXCADSTD
 72
     5
 11
621.832799
 21
272.9
 31
0.0
100
AcDbText
  0
LINE
  5
4A2
100
AcDbEntity
  8
LAY-6
  6
CONTINUOUS
 62
     1
100
AcDbLine
 10
604.999999
 20
272.4
 30
0.0
 11
631.999999
 21
272.4
 31
0.0
  0
LINE
  5
4A3
100
AcDbEntity
  8
LAY-6
  6
CONTINUOUS
 62
     1
100
AcDbLine
 10
607.999999
 20
272.9
 30
0.0
 11
604.999999
 21
272.4
 31
0.0
  0
LINE
  5
4A4
100
AcDbEntity
  8
LAY-6
  6
CONTINUOUS
 62
     1
100
AcDbLine
 10
604.999999
 20
272.4
 30
0.0
 11
607.999999
 21
271.9
 31
0.0
  0
LINE
  5
4A5
100
AcDbEntity
  8
LAY-6
  6
CONTINUOUS
 62
     1
100
AcDbLine
 10
628.999999
 20
271.9
 30
0.0
 11
631.999999
 21
272.4
 31
0.0
  0
LINE
  5
4A6
100
AcDbEntity
  8
LAY-6
  6
CONTINUOUS
 62
     1
100
AcDbLine
 10
631.999999
 20
272.4
 30
0.0
 11
628.999999
 21
272.9
 31
0.0
  0
LINE
  5
4A7
100
AcDbEntity
  8
LAY-6
  6
CONTINUOUS
 62
     1
100
AcDbLine
 10
583.999999
 20
212.5
 30
0.0
 11
583.999999
 21
231.8
 31
0.0
  0
LINE
  5
4A8
100
AcDbEntity
  8
LAY-6
  6
CONTINUOUS
 62
     1
100
AcDbLine
 10
600.999999
 20
207.0
 30
0.0
 11
600.999999
 21
231.8
 31
0.0
  0
TEXT
  5
4A9
100
AcDbEntity
  8
LAY-6
  6
CONTINUOUS
 62
     2
100
AcDbText
 10
588.499999
 20
230.8
 30
0.0
 40
5.0
  1
１７
 41
0.672
  7
EXCADSTD
 72
     5
 11
595.832799
 21
230.8
 31
0.0
100
AcDbText
  0
LINE
  5
4AA
100
AcDbEntity
  8
LAY-6
  6
CONTINUOUS
 62
     1
100
AcDbLine
 10
583.999999
 20
230.3
 30
0.0
 11
600.999999
 21
230.3
 31
0.0
  0
LINE
  5
4AB
100
AcDbEntity
  8
LAY-6
  6
CONTINUOUS
 62
     1
100
AcDbLine
 10
586.999999
 20
230.8
 30
0.0
 11
583.999999
 21
230.3
 31
0.0
  0
LINE
  5
4AC
100
AcDbEntity
  8
LAY-6
  6
CONTINUOUS
 62
     1
100
AcDbLine
 10
583.999999
 20
230.3
 30
0.0
 11
586.999999
 21
229.8
 31
0.0
  0
LINE
  5
4AD
100
AcDbEntity
  8
LAY-6
  6
CONTINUOUS
 62
     1
100
AcDbLine
 10
597.999999
 20
229.8
 30
0.0
 11
600.999999
 21
230.3
 31
0.0
  0
LINE
  5
4AE
100
AcDbEntity
  8
LAY-6
  6
CONTINUOUS
 62
     1
100
AcDbLine
 10
600.999999
 20
230.3
 30
0.0
 11
597.999999
 21
230.8
 31
0.0
  0
LINE
  5
4AF
100
AcDbEntity
  8
LAY-6
  6
CONTINUOUS
 62
     1
100
AcDbLine
 10
624.999999
 20
193.0
 30
0.0
 11
624.999999
 21
231.8
 31
0.0
  0
TEXT
  5
4B0
100
AcDbEntity
  8
LAY-6
  6
CONTINUOUS
 62
     2
100
AcDbText
 10
608.999999
 20
230.8
 30
0.0
 40
5.0
  1
２４
 41
0.672
  7
EXCADSTD
 72
     5
 11
616.332799
 21
230.8
 31
0.0
100
AcDbText
  0
LINE
  5
4B1
100
AcDbEntity
  8
LAY-6
  6
CONTINUOUS
 62
     1
100
AcDbLine
 10
600.999999
 20
230.3
 30
0.0
 11
624.999999
 21
230.3
 31
0.0
  0
LINE
  5
4B2
100
AcDbEntity
  8
LAY-6
  6
CONTINUOUS
 62
     1
100
AcDbLine
 10
603.999999
 20
230.8
 30
0.0
 11
600.999999
 21
230.3
 31
0.0
  0
LINE
  5
4B3
100
AcDbEntity
  8
LAY-6
  6
CONTINUOUS
 62
     1
100
AcDbLine
 10
600.999999
 20
230.3
 30
0.0
 11
603.999999
 21
229.8
 31
0.0
  0
LINE
  5
4B4
100
AcDbEntity
  8
LAY-6
  6
CONTINUOUS
 62
     1
100
AcDbLine
 10
621.999999
 20
229.8
 30
0.0
 11
624.999999
 21
230.3
 31
0.0
  0
LINE
  5
4B5
100
AcDbEntity
  8
LAY-6
  6
CONTINUOUS
 62
     1
100
AcDbLine
 10
624.999999
 20
230.3
 30
0.0
 11
621.999999
 21
230.8
 31
0.0
  0
LINE
  5
4B6
100
AcDbEntity
  8
LAY-6
  6
CONTINUOUS
 62
     1
100
AcDbLine
 10
154.0
 20
256.0
 30
0.0
 11
154.0
 21
269.1
 31
0.0
  0
LINE
  5
4B7
100
AcDbEntity
  8
LAY-6
  6
CONTINUOUS
 62
     1
100
AcDbLine
 10
158.0
 20
262.0
 30
0.0
 11
158.0
 21
269.1
 31
0.0
  0
TEXT
  5
4B8
100
AcDbEntity
  8
LAY-6
  6
CONTINUOUS
 62
     2
100
AcDbText
 10
154.0
 20
268.1
 30
0.0
 40
5.0
  1
４
 41
0.672
  7
EXCADSTD
 72
     5
 11
157.2
 21
268.1
 31
0.0
100
AcDbText
  0
LINE
  5
4B9
100
AcDbEntity
  8
LAY-6
  6
CONTINUOUS
 62
     1
100
AcDbLine
 10
149.0
 20
267.6
 30
0.0
 11
154.0
 21
267.6
 31
0.0
  0
LINE
  5
4BA
100
AcDbEntity
  8
LAY-6
  6
CONTINUOUS
 62
     1
100
AcDbLine
 10
158.0
 20
267.6
 30
0.0
 11
163.0
 21
267.6
 31
0.0
  0
LINE
  5
4BB
100
AcDbEntity
  8
LAY-6
  6
CONTINUOUS
 62
     1
100
AcDbLine
 10
151.0
 20
267.1
 30
0.0
 11
154.0
 21
267.6
 31
0.0
  0
LINE
  5
4BC
100
AcDbEntity
  8
LAY-6
  6
CONTINUOUS
 62
     1
100
AcDbLine
 10
154.0
 20
267.6
 30
0.0
 11
151.0
 21
268.1
 31
0.0
  0
LINE
  5
4BD
100
AcDbEntity
  8
LAY-6
  6
CONTINUOUS
 62
     1
100
AcDbLine
 10
161.0
 20
268.1
 30
0.0
 11
158.0
 21
267.6
 31
0.0
  0
LINE
  5
4BE
100
AcDbEntity
  8
LAY-6
  6
CONTINUOUS
 62
     1
100
AcDbLine
 10
158.0
 20
267.6
 30
0.0
 11
161.0
 21
267.1
 31
0.0
  0
LINE
  5
4BF
100
AcDbEntity
  8
LAY-6
  6
CONTINUOUS
 62
     1
100
AcDbLine
 10
178.0
 20
225.7
 30
0.0
 11
178.0
 21
269.1
 31
0.0
  0
TEXT
  5
4C0
100
AcDbEntity
  8
LAY-6
  6
CONTINUOUS
 62
     2
100
AcDbText
 10
163.0
 20
268.1
 30
0.0
 40
5.0
  1
２０
 41
0.672
  7
EXCADSTD
 72
     5
 11
170.3328
 21
268.1
 31
0.0
100
AcDbText
  0
LINE
  5
4C1
100
AcDbEntity
  8
LAY-6
  6
CONTINUOUS
 62
     1
100
AcDbLine
 10
158.0
 20
267.6
 30
0.0
 11
178.0
 21
267.6
 31
0.0
  0
LINE
  5
4C2
100
AcDbEntity
  8
LAY-6
  6
CONTINUOUS
 62
     1
100
AcDbLine
 10
161.0
 20
268.1
 30
0.0
 11
158.0
 21
267.6
 31
0.0
  0
LINE
  5
4C3
100
AcDbEntity
  8
LAY-6
  6
CONTINUOUS
 62
     1
100
AcDbLine
 10
158.0
 20
267.6
 30
0.0
 11
161.0
 21
267.1
 31
0.0
  0
LINE
  5
4C4
100
AcDbEntity
  8
LAY-6
  6
CONTINUOUS
 62
     1
100
AcDbLine
 10
175.0
 20
267.1
 30
0.0
 11
178.0
 21
267.6
 31
0.0
  0
LINE
  5
4C5
100
AcDbEntity
  8
LAY-6
  6
CONTINUOUS
 62
     1
100
AcDbLine
 10
178.0
 20
267.6
 30
0.0
 11
175.0
 21
268.1
 31
0.0
  0
LINE
  5
4C6
100
AcDbEntity
  8
LAY-6
  6
CONTINUOUS
 62
     1
100
AcDbLine
 10
149.9
 20
208.0
 30
0.0
 11
120.1
 21
208.0
 31
0.0
  0
LINE
  5
4C7
100
AcDbEntity
  8
LAY-6
  6
CONTINUOUS
 62
     1
100
AcDbLine
 10
154.0
 20
222.0
 30
0.0
 11
109.2
 21
222.0
 31
0.0
  0
TEXT
  5
4C8
100
AcDbEntity
  8
LAY-6
  6
CONTINUOUS
 62
     2
100
AcDbText
 10
121.1
 20
211.0
 30
0.0
 40
5.0
  1
１４
 50
90.0
 41
0.672
  7
EXCADSTD
 72
     5
 11
121.1
 21
218.3328
 31
0.0
100
AcDbText
  0
LINE
  5
4C9
100
AcDbEntity
  8
LAY-6
  6
CONTINUOUS
 62
     1
100
AcDbLine
 10
121.6
 20
208.0
 30
0.0
 11
121.6
 21
222.0
 31
0.0
  0
LINE
  5
4CA
100
AcDbEntity
  8
LAY-6
  6
CONTINUOUS
 62
     1
100
AcDbLine
 10
121.1
 20
211.0
 30
0.0
 11
121.6
 21
208.0
 31
0.0
  0
LINE
  5
4CB
100
AcDbEntity
  8
LAY-6
  6
CONTINUOUS
 62
     1
100
AcDbLine
 10
121.6
 20
208.0
 30
0.0
 11
122.1
 21
211.0
 31
0.0
  0
LINE
  5
4CC
100
AcDbEntity
  8
LAY-6
  6
CONTINUOUS
 62
     1
100
AcDbLine
 10
122.1
 20
219.0
 30
0.0
 11
121.6
 21
222.0
 31
0.0
  0
LINE
  5
4CD
100
AcDbEntity
  8
LAY-6
  6
CONTINUOUS
 62
     1
100
AcDbLine
 10
121.6
 20
222.0
 30
0.0
 11
121.1
 21
219.0
 31
0.0
  0
LINE
  5
4CE
100
AcDbEntity
  8
LAY-6
  6
CONTINUOUS
 62
     1
100
AcDbLine
 10
154.0
 20
256.0
 30
0.0
 11
120.1
 21
256.0
 31
0.0
  0
TEXT
  5
4CF
100
AcDbEntity
  8
LAY-6
  6
CONTINUOUS
 62
     2
100
AcDbText
 10
121.1
 20
235.0
 30
0.0
 40
5.0
  1
３４
 50
90.0
 41
0.672
  7
EXCADSTD
 72
     5
 11
121.1
 21
242.3328
 31
0.0
100
AcDbText
  0
LINE
  5
4D0
100
AcDbEntity
  8
LAY-6
  6
CONTINUOUS
 62
     1
100
AcDbLine
 10
121.6
 20
222.0
 30
0.0
 11
121.6
 21
256.0
 31
0.0
  0
LINE
  5
4D1
100
AcDbEntity
  8
LAY-6
  6
CONTINUOUS
 62
     1
100
AcDbLine
 10
121.1
 20
225.0
 30
0.0
 11
121.6
 21
222.0
 31
0.0
  0
LINE
  5
4D2
100
AcDbEntity
  8
LAY-6
  6
CONTINUOUS
 62
     1
100
AcDbLine
 10
121.6
 20
222.0
 30
0.0
 11
122.1
 21
225.0
 31
0.0
  0
LINE
  5
4D3
100
AcDbEntity
  8
LAY-6
  6
CONTINUOUS
 62
     1
100
AcDbLine
 10
122.1
 20
253.0
 30
0.0
 11
121.6
 21
256.0
 31
0.0
  0
LINE
  5
4D4
100
AcDbEntity
  8
LAY-6
  6
CONTINUOUS
 62
     1
100
AcDbLine
 10
121.6
 20
256.0
 30
0.0
 11
121.1
 21
253.0
 31
0.0
  0
TEXT
  5
4D5
100
AcDbEntity
  8
LAY-6
  6
CONTINUOUS
 62
     2
100
AcDbText
 10
190.416025
 20
215.233013
 30
0.0
 40
5.0
  1
Ｒ
 50
30.0
 41
0.672
  7
EXCADSTD
 72
     5
 11
193.187307
 21
216.833013
 31
0.0
100
AcDbText
  0
TEXT
  5
4D6
100
AcDbEntity
  8
LAY-6
  6
CONTINUOUS
 62
     2
100
AcDbText
 10
193.880127
 20
217.233013
 30
0.0
 40
5.0
  1
１４
 50
30.0
 41
0.672
  7
EXCADSTD
 72
     5
 11
200.230518
 21
220.899413
 31
0.0
100
AcDbText
  0
LINE
  5
4D7
100
AcDbEntity
  8
LAY-6
  6
CONTINUOUS
 62
     1
100
AcDbLine
 10
190.124356
 20
215.0
 30
0.0
 11
178.0
 21
208.0
 31
0.0
  0
LINE
  5
4D8
100
AcDbEntity
  8
LAY-6
  6
CONTINUOUS
 62
     1
100
AcDbLine
 10
187.776279
 20
213.066987
 30
0.0
 11
190.124356
 21
215.0
 31
0.0
  0
LINE
  5
4D9
100
AcDbEntity
  8
LAY-6
  6
CONTINUOUS
 62
     1
100
AcDbLine
 10
190.124356
 20
215.0
 30
0.0
 11
187.276279
 21
213.933013
 31
0.0
  0
LINE
  5
4DA
100
AcDbEntity
  8
LAY-6
  6
CONTINUOUS
 62
     1
100
AcDbLine
 10
154.0
 20
404.0
 30
0.0
 11
154.0
 21
417.1
 31
0.0
  0
LINE
  5
4DB
100
AcDbEntity
  8
LAY-6
  6
CONTINUOUS
 62
     1
100
AcDbLine
 10
158.0
 20
410.0
 30
0.0
 11
158.0
 21
417.1
 31
0.0
  0
TEXT
  5
4DC
100
AcDbEntity
  8
LAY-6
  6
CONTINUOUS
 62
     2
100
AcDbText
 10
154.0
 20
416.1
 30
0.0
 40
5.0
  1
４
 41
0.672
  7
EXCADSTD
 72
     5
 11
157.2
 21
416.1
 31
0.0
100
AcDbText
  0
LINE
  5
4DD
100
AcDbEntity
  8
LAY-6
  6
CONTINUOUS
 62
     1
100
AcDbLine
 10
149.0
 20
415.6
 30
0.0
 11
154.0
 21
415.6
 31
0.0
  0
LINE
  5
4DE
100
AcDbEntity
  8
LAY-6
  6
CONTINUOUS
 62
     1
100
AcDbLine
 10
158.0
 20
415.6
 30
0.0
 11
163.0
 21
415.6
 31
0.0
  0
LINE
  5
4DF
100
AcDbEntity
  8
LAY-6
  6
CONTINUOUS
 62
     1
100
AcDbLine
 10
151.0
 20
415.1
 30
0.0
 11
154.0
 21
415.6
 31
0.0
  0
LINE
  5
4E0
100
AcDbEntity
  8
LAY-6
  6
CONTINUOUS
 62
     1
100
AcDbLine
 10
154.0
 20
415.6
 30
0.0
 11
151.0
 21
416.1
 31
0.0
  0
LINE
  5
4E1
100
AcDbEntity
  8
LAY-6
  6
CONTINUOUS
 62
     1
100
AcDbLine
 10
161.0
 20
416.1
 30
0.0
 11
158.0
 21
415.6
 31
0.0
  0
LINE
  5
4E2
100
AcDbEntity
  8
LAY-6
  6
CONTINUOUS
 62
     1
100
AcDbLine
 10
158.0
 20
415.6
 30
0.0
 11
161.0
 21
415.1
 31
0.0
  0
LINE
  5
4E3
100
AcDbEntity
  8
LAY-6
  6
CONTINUOUS
 62
     1
100
AcDbLine
 10
178.0
 20
373.7
 30
0.0
 11
178.0
 21
417.1
 31
0.0
  0
TEXT
  5
4E4
100
AcDbEntity
  8
LAY-6
  6
CONTINUOUS
 62
     2
100
AcDbText
 10
163.0
 20
416.1
 30
0.0
 40
5.0
  1
２０
 41
0.672
  7
EXCADSTD
 72
     5
 11
170.3328
 21
416.1
 31
0.0
100
AcDbText
  0
LINE
  5
4E5
100
AcDbEntity
  8
LAY-6
  6
CONTINUOUS
 62
     1
100
AcDbLine
 10
158.0
 20
415.6
 30
0.0
 11
178.0
 21
415.6
 31
0.0
  0
LINE
  5
4E6
100
AcDbEntity
  8
LAY-6
  6
CONTINUOUS
 62
     1
100
AcDbLine
 10
161.0
 20
416.1
 30
0.0
 11
158.0
 21
415.6
 31
0.0
  0
LINE
  5
4E7
100
AcDbEntity
  8
LAY-6
  6
CONTINUOUS
 62
     1
100
AcDbLine
 10
158.0
 20
415.6
 30
0.0
 11
161.0
 21
415.1
 31
0.0
  0
LINE
  5
4E8
100
AcDbEntity
  8
LAY-6
  6
CONTINUOUS
 62
     1
100
AcDbLine
 10
175.0
 20
415.1
 30
0.0
 11
178.0
 21
415.6
 31
0.0
  0
LINE
  5
4E9
100
AcDbEntity
  8
LAY-6
  6
CONTINUOUS
 62
     1
100
AcDbLine
 10
178.0
 20
415.6
 30
0.0
 11
175.0
 21
416.1
 31
0.0
  0
LINE
  5
4EA
100
AcDbEntity
  8
LAY-6
  6
CONTINUOUS
 62
     1
100
AcDbLine
 10
149.9
 20
356.0
 30
0.0
 11
120.1
 21
356.0
 31
0.0
  0
TEXT
  5
4EB
100
AcDbEntity
  8
LAY-6
  6
CONTINUOUS
 62
     2
100
AcDbText
 10
121.1
 20
359.0
 30
0.0
 40
5.0
  1
１４
 50
90.0
 41
0.672
  7
EXCADSTD
 72
     5
 11
121.1
 21
366.3328
 31
0.0
100
AcDbText
  0
LINE
  5
4EC
100
AcDbEntity
  8
LAY-6
  6
CONTINUOUS
 62
     1
100
AcDbLine
 10
121.6
 20
356.0
 30
0.0
 11
121.6
 21
370.0
 31
0.0
  0
LINE
  5
4ED
100
AcDbEntity
  8
LAY-6
  6
CONTINUOUS
 62
     1
100
AcDbLine
 10
121.1
 20
359.0
 30
0.0
 11
121.6
 21
356.0
 31
0.0
  0
LINE
  5
4EE
100
AcDbEntity
  8
LAY-6
  6
CONTINUOUS
 62
     1
100
AcDbLine
 10
121.6
 20
356.0
 30
0.0
 11
122.1
 21
359.0
 31
0.0
  0
LINE
  5
4EF
100
AcDbEntity
  8
LAY-6
  6
CONTINUOUS
 62
     1
100
AcDbLine
 10
122.1
 20
367.0
 30
0.0
 11
121.6
 21
370.0
 31
0.0
  0
LINE
  5
4F0
100
AcDbEntity
  8
LAY-6
  6
CONTINUOUS
 62
     1
100
AcDbLine
 10
121.6
 20
370.0
 30
0.0
 11
121.1
 21
367.0
 31
0.0
  0
LINE
  5
4F1
100
AcDbEntity
  8
LAY-6
  6
CONTINUOUS
 62
     1
100
AcDbLine
 10
154.0
 20
404.0
 30
0.0
 11
120.1
 21
404.0
 31
0.0
  0
TEXT
  5
4F2
100
AcDbEntity
  8
LAY-6
  6
CONTINUOUS
 62
     2
100
AcDbText
 10
121.1
 20
383.0
 30
0.0
 40
5.0
  1
３４
 50
90.0
 41
0.672
  7
EXCADSTD
 72
     5
 11
121.1
 21
390.3328
 31
0.0
100
AcDbText
  0
LINE
  5
4F3
100
AcDbEntity
  8
LAY-6
  6
CONTINUOUS
 62
     1
100
AcDbLine
 10
121.6
 20
370.0
 30
0.0
 11
121.6
 21
404.0
 31
0.0
  0
LINE
  5
4F4
100
AcDbEntity
  8
LAY-6
  6
CONTINUOUS
 62
     1
100
AcDbLine
 10
121.1
 20
373.0
 30
0.0
 11
121.6
 21
370.0
 31
0.0
  0
LINE
  5
4F5
100
AcDbEntity
  8
LAY-6
  6
CONTINUOUS
 62
     1
100
AcDbLine
 10
121.6
 20
370.0
 30
0.0
 11
122.1
 21
373.0
 31
0.0
  0
LINE
  5
4F6
100
AcDbEntity
  8
LAY-6
  6
CONTINUOUS
 62
     1
100
AcDbLine
 10
122.1
 20
401.0
 30
0.0
 11
121.6
 21
404.0
 31
0.0
  0
LINE
  5
4F7
100
AcDbEntity
  8
LAY-6
  6
CONTINUOUS
 62
     1
100
AcDbLine
 10
121.6
 20
404.0
 30
0.0
 11
121.1
 21
401.0
 31
0.0
  0
TEXT
  5
4F8
100
AcDbEntity
  8
LAY-6
  6
CONTINUOUS
 62
     2
100
AcDbText
 10
190.416025
 20
363.233013
 30
0.0
 40
5.0
  1
Ｒ
 50
30.0
 41
0.672
  7
EXCADSTD
 72
     5
 11
193.187307
 21
364.833013
 31
0.0
100
AcDbText
  0
TEXT
  5
4F9
100
AcDbEntity
  8
LAY-6
  6
CONTINUOUS
 62
     2
100
AcDbText
 10
193.880127
 20
365.233013
 30
0.0
 40
5.0
  1
１４
 50
30.0
 41
0.672
  7
EXCADSTD
 72
     5
 11
200.230518
 21
368.899413
 31
0.0
100
AcDbText
  0
LINE
  5
4FA
100
AcDbEntity
  8
LAY-6
  6
CONTINUOUS
 62
     1
100
AcDbLine
 10
190.124356
 20
363.0
 30
0.0
 11
178.0
 21
356.0
 31
0.0
  0
LINE
  5
4FB
100
AcDbEntity
  8
LAY-6
  6
CONTINUOUS
 62
     1
100
AcDbLine
 10
187.776279
 20
361.066987
 30
0.0
 11
190.124356
 21
363.0
 31
0.0
  0
LINE
  5
4FC
100
AcDbEntity
  8
LAY-6
  6
CONTINUOUS
 62
     1
100
AcDbLine
 10
190.124356
 20
363.0
 30
0.0
 11
187.276279
 21
361.933013
 31
0.0
  0
LINE
  5
4FD
100
AcDbEntity
  8
LAY-6
  6
CONTINUOUS
 62
     1
100
AcDbLine
 10
300.0
 20
225.0
 30
0.0
 11
300.0
 21
228.7
 31
0.0
  0
LINE
  5
4FE
100
AcDbEntity
  8
LAY-6
  6
CONTINUOUS
 62
     1
100
AcDbLine
 10
320.0
 20
225.0
 30
0.0
 11
320.0
 21
228.7
 31
0.0
  0
TEXT
  5
4FF
100
AcDbEntity
  8
LAY-6
  6
CONTINUOUS
 62
     2
100
AcDbText
 10
306.0
 20
227.7
 30
0.0
 40
5.0
  1
２０
 41
0.672
  7
EXCADSTD
 72
     5
 11
313.3328
 21
227.7
 31
0.0
100
AcDbText
  0
LINE
  5
500
100
AcDbEntity
  8
LAY-6
  6
CONTINUOUS
 62
     1
100
AcDbLine
 10
300.0
 20
227.2
 30
0.0
 11
320.0
 21
227.2
 31
0.0
  0
LINE
  5
501
100
AcDbEntity
  8
LAY-6
  6
CONTINUOUS
 62
     1
100
AcDbLine
 10
303.0
 20
227.7
 30
0.0
 11
300.0
 21
227.2
 31
0.0
  0
LINE
  5
502
100
AcDbEntity
  8
LAY-6
  6
CONTINUOUS
 62
     1
100
AcDbLine
 10
300.0
 20
227.2
 30
0.0
 11
303.0
 21
226.7
 31
0.0
  0
LINE
  5
503
100
AcDbEntity
  8
LAY-6
  6
CONTINUOUS
 62
     1
100
AcDbLine
 10
317.0
 20
226.7
 30
0.0
 11
320.0
 21
227.2
 31
0.0
  0
LINE
  5
504
100
AcDbEntity
  8
LAY-6
  6
CONTINUOUS
 62
     1
100
AcDbLine
 10
320.0
 20
227.2
 30
0.0
 11
317.0
 21
227.7
 31
0.0
  0
LINE
  5
505
100
AcDbEntity
  8
LAY-6
  6
CONTINUOUS
 62
     1
100
AcDbLine
 10
293.0
 20
225.0
 30
0.0
 11
293.0
 21
236.0
 31
0.0
  0
LINE
  5
506
100
AcDbEntity
  8
LAY-6
  6
CONTINUOUS
 62
     1
100
AcDbLine
 10
310.0
 20
235.3
 30
0.0
 11
310.0
 21
233.0
 31
0.0
  0
TEXT
  5
507
100
AcDbEntity
  8
LAY-6
  6
CONTINUOUS
 62
     2
100
AcDbText
 10
296.5
 20
235.0
 30
0.0
 40
5.0
  1
１７
 41
0.672
  7
EXCADSTD
 72
     5
 11
303.8328
 21
235.0
 31
0.0
100
AcDbText
  0
LINE
  5
508
100
AcDbEntity
  8
LAY-6
  6
CONTINUOUS
 62
     1
100
AcDbLine
 10
293.0
 20
234.5
 30
0.0
 11
310.0
 21
234.5
 31
0.0
  0
LINE
  5
509
100
AcDbEntity
  8
LAY-6
  6
CONTINUOUS
 62
     1
100
AcDbLine
 10
296.0
 20
235.0
 30
0.0
 11
293.0
 21
234.5
 31
0.0
  0
LINE
  5
50A
100
AcDbEntity
  8
LAY-6
  6
CONTINUOUS
 62
     1
100
AcDbLine
 10
293.0
 20
234.5
 30
0.0
 11
296.0
 21
234.0
 31
0.0
  0
LINE
  5
50B
100
AcDbEntity
  8
LAY-6
  6
CONTINUOUS
 62
     1
100
AcDbLine
 10
307.0
 20
234.0
 30
0.0
 11
310.0
 21
234.5
 31
0.0
  0
LINE
  5
50C
100
AcDbEntity
  8
LAY-6
  6
CONTINUOUS
 62
     1
100
AcDbLine
 10
310.0
 20
234.5
 30
0.0
 11
307.0
 21
235.0
 31
0.0
  0
TEXT
  5
50D
100
AcDbEntity
  8
LAY-6
  6
CONTINUOUS
 62
     2
100
AcDbText
 10
286.99167
 20
194.833013
 30
0.0
 40
5.0
  1
Ｒ
 50
30.0
 41
0.672
  7
EXCADSTD
 72
     5
 11
289.762951
 21
196.433013
 31
0.0
100
AcDbText
  0
TEXT
  5
50E
100
AcDbEntity
  8
LAY-6
  6
CONTINUOUS
 62
     2
100
AcDbText
 10
290.455771
 20
196.833013
 30
0.0
 40
5.0
  1
１４
 50
30.0
 41
0.672
  7
EXCADSTD
 72
     5
 11
296.806162
 21
200.499413
 31
0.0
100
AcDbText
  0
LINE
  5
50F
100
AcDbEntity
  8
LAY-6
  6
CONTINUOUS
 62
     1
100
AcDbLine
 10
297.875644
 20
201.0
 30
0.0
 11
310.0
 21
208.0
 31
0.0
  0
LINE
  5
510
100
AcDbEntity
  8
LAY-6
  6
CONTINUOUS
 62
     1
100
AcDbLine
 10
300.223721
 20
202.933013
 30
0.0
 11
297.875644
 21
201.0
 31
0.0
  0
LINE
  5
511
100
AcDbEntity
  8
LAY-6
  6
CONTINUOUS
 62
     1
100
AcDbLine
 10
297.875644
 20
201.0
 30
0.0
 11
300.723721
 21
202.066987
 31
0.0
  0
LINE
  5
512
100
AcDbEntity
  8
LAY-6
  6
CONTINUOUS
 62
     1
100
AcDbLine
 10
320.0
 20
231.0
 30
0.0
 11
378.3
 21
231.0
 31
0.0
  0
LINE
  5
513
100
AcDbEntity
  8
LAY-6
  6
CONTINUOUS
 62
     1
100
AcDbLine
 10
370.6
 20
240.0
 30
0.0
 11
378.3
 21
240.0
 31
0.0
  0
TEXT
  5
514
100
AcDbEntity
  8
LAY-6
  6
CONTINUOUS
 62
     2
100
AcDbText
 10
376.3
 20
233.5
 30
0.0
 40
5.0
  1
９
 50
90.0
 41
0.672
  7
EXCADSTD
 72
     5
 11
376.3
 21
236.7
 31
0.0
100
AcDbText
  0
LINE
  5
515
100
AcDbEntity
  8
LAY-6
  6
CONTINUOUS
 62
     1
100
AcDbLine
 10
376.8
 20
231.0
 30
0.0
 11
376.8
 21
240.0
 31
0.0
  0
LINE
  5
516
100
AcDbEntity
  8
LAY-6
  6
CONTINUOUS
 62
     1
100
AcDbLine
 10
376.3
 20
234.0
 30
0.0
 11
376.8
 21
231.0
 31
0.0
  0
LINE
  5
517
100
AcDbEntity
  8
LAY-6
  6
CONTINUOUS
 62
     1
100
AcDbLine
 10
376.8
 20
231.0
 30
0.0
 11
377.3
 21
234.0
 31
0.0
  0
LINE
  5
518
100
AcDbEntity
  8
LAY-6
  6
CONTINUOUS
 62
     1
100
AcDbLine
 10
377.3
 20
237.0
 30
0.0
 11
376.8
 21
240.0
 31
0.0
  0
LINE
  5
519
100
AcDbEntity
  8
LAY-6
  6
CONTINUOUS
 62
     1
100
AcDbLine
 10
376.8
 20
240.0
 30
0.0
 11
376.3
 21
237.0
 31
0.0
  0
LINE
  5
51A
100
AcDbEntity
  8
LAY-6
  6
CONTINUOUS
 62
     1
100
AcDbLine
 10
328.8
 20
208.0
 30
0.0
 11
441.8
 21
208.0
 31
0.0
  0
LINE
  5
51B
100
AcDbEntity
  8
LAY-6
  6
CONTINUOUS
 62
     1
100
AcDbLine
 10
469.0
 20
225.0
 30
0.0
 11
438.8
 21
225.0
 31
0.0
  0
TEXT
  5
51C
100
AcDbEntity
  8
LAY-6
  6
CONTINUOUS
 62
     2
100
AcDbText
 10
439.8
 20
212.5
 30
0.0
 40
5.0
  1
１７
 50
90.0
 41
0.672
  7
EXCADSTD
 72
     5
 11
439.8
 21
219.8328
 31
0.0
100
AcDbText
  0
LINE
  5
51D
100
AcDbEntity
  8
LAY-6
  6
CONTINUOUS
 62
     1
100
AcDbLine
 10
440.3
 20
208.0
 30
0.0
 11
440.3
 21
225.0
 31
0.0
  0
LINE
  5
51E
100
AcDbEntity
  8
LAY-6
  6
CONTINUOUS
 62
     1
100
AcDbLine
 10
439.8
 20
211.0
 30
0.0
 11
440.3
 21
208.0
 31
0.0
  0
LINE
  5
51F
100
AcDbEntity
  8
LAY-6
  6
CONTINUOUS
 62
     1
100
AcDbLine
 10
440.3
 20
208.0
 30
0.0
 11
440.8
 21
211.0
 31
0.0
  0
LINE
  5
520
100
AcDbEntity
  8
LAY-6
  6
CONTINUOUS
 62
     1
100
AcDbLine
 10
440.8
 20
222.0
 30
0.0
 11
440.3
 21
225.0
 31
0.0
  0
LINE
  5
521
100
AcDbEntity
  8
LAY-6
  6
CONTINUOUS
 62
     1
100
AcDbLine
 10
440.3
 20
225.0
 30
0.0
 11
439.8
 21
222.0
 31
0.0
  0
LINE
  5
522
100
AcDbEntity
  8
LAY-6
  6
CONTINUOUS
 62
     1
100
AcDbLine
 10
469.0
 20
225.0
 30
0.0
 11
438.8
 21
225.0
 31
0.0
  0
LINE
  5
523
100
AcDbEntity
  8
LAY-6
  6
CONTINUOUS
 62
     1
100
AcDbLine
 10
430.0
 20
231.0
 30
0.0
 11
441.8
 21
231.0
 31
0.0
  0
TEXT
  5
524
100
AcDbEntity
  8
LAY-6
  6
CONTINUOUS
 62
     2
100
AcDbText
 10
439.8
 20
226.0
 30
0.0
 40
5.0
  1
６
 50
90.0
 41
0.672
  7
EXCADSTD
 72
     5
 11
439.8
 21
229.2
 31
0.0
100
AcDbText
  0
LINE
  5
525
100
AcDbEntity
  8
LAY-6
  6
CONTINUOUS
 62
     1
100
AcDbLine
 10
440.3
 20
220.0
 30
0.0
 11
440.3
 21
225.0
 31
0.0
  0
LINE
  5
526
100
AcDbEntity
  8
LAY-6
  6
CONTINUOUS
 62
     1
100
AcDbLine
 10
440.3
 20
231.0
 30
0.0
 11
440.3
 21
236.0
 31
0.0
  0
LINE
  5
527
100
AcDbEntity
  8
LAY-6
  6
CONTINUOUS
 62
     1
100
AcDbLine
 10
440.8
 20
222.0
 30
0.0
 11
440.3
 21
225.0
 31
0.0
  0
LINE
  5
528
100
AcDbEntity
  8
LAY-6
  6
CONTINUOUS
 62
     1
100
AcDbLine
 10
440.3
 20
225.0
 30
0.0
 11
439.8
 21
222.0
 31
0.0
  0
LINE
  5
529
100
AcDbEntity
  8
LAY-6
  6
CONTINUOUS
 62
     1
100
AcDbLine
 10
439.8
 20
234.0
 30
0.0
 11
440.3
 21
231.0
 31
0.0
  0
LINE
  5
52A
100
AcDbEntity
  8
LAY-6
  6
CONTINUOUS
 62
     1
100
AcDbLine
 10
440.3
 20
231.0
 30
0.0
 11
440.8
 21
234.0
 31
0.0
  0
LINE
  5
52B
100
AcDbEntity
  8
LAY-6
  6
CONTINUOUS
 62
     1
100
AcDbLine
 10
430.0
 20
249.0
 30
0.0
 11
441.8
 21
249.0
 31
0.0
  0
TEXT
  5
52C
100
AcDbEntity
  8
LAY-6
  6
CONTINUOUS
 62
     2
100
AcDbText
 10
439.8
 20
236.0
 30
0.0
 40
5.0
  1
１８
 50
90.0
 41
0.672
  7
EXCADSTD
 72
     5
 11
439.8
 21
243.3328
 31
0.0
100
AcDbText
  0
LINE
  5
52D
100
AcDbEntity
  8
LAY-6
  6
CONTINUOUS
 62
     1
100
AcDbLine
 10
440.3
 20
231.0
 30
0.0
 11
440.3
 21
249.0
 31
0.0
  0
LINE
  5
52E
100
AcDbEntity
  8
LAY-6
  6
CONTINUOUS
 62
     1
100
AcDbLine
 10
439.8
 20
234.0
 30
0.0
 11
440.3
 21
231.0
 31
0.0
  0
LINE
  5
52F
100
AcDbEntity
  8
LAY-6
  6
CONTINUOUS
 62
     1
100
AcDbLine
 10
440.3
 20
231.0
 30
0.0
 11
440.8
 21
234.0
 31
0.0
  0
LINE
  5
530
100
AcDbEntity
  8
LAY-6
  6
CONTINUOUS
 62
     1
100
AcDbLine
 10
440.8
 20
246.0
 30
0.0
 11
440.3
 21
249.0
 31
0.0
  0
LINE
  5
531
100
AcDbEntity
  8
LAY-6
  6
CONTINUOUS
 62
     1
100
AcDbLine
 10
440.3
 20
249.0
 30
0.0
 11
439.8
 21
246.0
 31
0.0
  0
LINE
  5
532
100
AcDbEntity
  8
LAY-6
  6
CONTINUOUS
 62
     1
100
AcDbLine
 10
300.0
 20
249.0
 30
0.0
 11
300.0
 21
266.7
 31
0.0
  0
LINE
  5
533
100
AcDbEntity
  8
LAY-6
  6
CONTINUOUS
 62
     1
100
AcDbLine
 10
308.0
 20
248.3
 30
0.0
 11
308.0
 21
266.7
 31
0.0
  0
TEXT
  5
534
100
AcDbEntity
  8
LAY-6
  6
CONTINUOUS
 62
     2
100
AcDbText
 10
302.0
 20
265.7
 30
0.0
 40
5.0
  1
８
 41
0.672
  7
EXCADSTD
 72
     5
 11
305.2
 21
265.7
 31
0.0
100
AcDbText
  0
LINE
  5
535
100
AcDbEntity
  8
LAY-6
  6
CONTINUOUS
 62
     1
100
AcDbLine
 10
300.0
 20
265.2
 30
0.0
 11
308.0
 21
265.2
 31
0.0
  0
LINE
  5
536
100
AcDbEntity
  8
LAY-6
  6
CONTINUOUS
 62
     1
100
AcDbLine
 10
303.0
 20
265.7
 30
0.0
 11
300.0
 21
265.2
 31
0.0
  0
LINE
  5
537
100
AcDbEntity
  8
LAY-6
  6
CONTINUOUS
 62
     1
100
AcDbLine
 10
300.0
 20
265.2
 30
0.0
 11
303.0
 21
264.7
 31
0.0
  0
LINE
  5
538
100
AcDbEntity
  8
LAY-6
  6
CONTINUOUS
 62
     1
100
AcDbLine
 10
305.0
 20
264.7
 30
0.0
 11
308.0
 21
265.2
 31
0.0
  0
LINE
  5
539
100
AcDbEntity
  8
LAY-6
  6
CONTINUOUS
 62
     1
100
AcDbLine
 10
308.0
 20
265.2
 30
0.0
 11
305.0
 21
265.7
 31
0.0
  0
LINE
  5
53A
100
AcDbEntity
  8
LAY-6
  6
CONTINUOUS
 62
     1
100
AcDbLine
 10
340.0
 20
242.3
 30
0.0
 11
340.0
 21
266.7
 31
0.0
  0
TEXT
  5
53B
100
AcDbEntity
  8
LAY-6
  6
CONTINUOUS
 62
     2
100
AcDbText
 10
320.0
 20
265.7
 30
0.0
 40
5.0
  1
３２
 41
0.672
  7
EXCADSTD
 72
     5
 11
327.3328
 21
265.7
 31
0.0
100
AcDbText
  0
LINE
  5
53C
100
AcDbEntity
  8
LAY-6
  6
CONTINUOUS
 62
     1
100
AcDbLine
 10
308.0
 20
265.2
 30
0.0
 11
340.0
 21
265.2
 31
0.0
  0
LINE
  5
53D
100
AcDbEntity
  8
LAY-6
  6
CONTINUOUS
 62
     1
100
AcDbLine
 10
311.0
 20
265.7
 30
0.0
 11
308.0
 21
265.2
 31
0.0
  0
LINE
  5
53E
100
AcDbEntity
  8
LAY-6
  6
CONTINUOUS
 62
     1
100
AcDbLine
 10
308.0
 20
265.2
 30
0.0
 11
311.0
 21
264.7
 31
0.0
  0
LINE
  5
53F
100
AcDbEntity
  8
LAY-6
  6
CONTINUOUS
 62
     1
100
AcDbLine
 10
337.0
 20
264.7
 30
0.0
 11
340.0
 21
265.2
 31
0.0
  0
LINE
  5
540
100
AcDbEntity
  8
LAY-6
  6
CONTINUOUS
 62
     1
100
AcDbLine
 10
340.0
 20
265.2
 30
0.0
 11
337.0
 21
265.7
 31
0.0
  0
LINE
  5
541
100
AcDbEntity
  8
LAY-6
  6
CONTINUOUS
 62
     1
100
AcDbLine
 10
365.0
 20
245.3
 30
0.0
 11
365.0
 21
266.7
 31
0.0
  0
TEXT
  5
542
100
AcDbEntity
  8
LAY-6
  6
CONTINUOUS
 62
     2
100
AcDbText
 10
348.5
 20
265.7
 30
0.0
 40
5.0
  1
２５
 41
0.672
  7
EXCADSTD
 72
     5
 11
355.8328
 21
265.7
 31
0.0
100
AcDbText
  0
LINE
  5
543
100
AcDbEntity
  8
LAY-6
  6
CONTINUOUS
 62
     1
100
AcDbLine
 10
340.0
 20
265.2
 30
0.0
 11
365.0
 21
265.2
 31
0.0
  0
LINE
  5
544
100
AcDbEntity
  8
LAY-6
  6
CONTINUOUS
 62
     1
100
AcDbLine
 10
343.0
 20
265.7
 30
0.0
 11
340.0
 21
265.2
 31
0.0
  0
LINE
  5
545
100
AcDbEntity
  8
LAY-6
  6
CONTINUOUS
 62
     1
100
AcDbLine
 10
340.0
 20
265.2
 30
0.0
 11
343.0
 21
264.7
 31
0.0
  0
LINE
  5
546
100
AcDbEntity
  8
LAY-6
  6
CONTINUOUS
 62
     1
100
AcDbLine
 10
362.0
 20
264.7
 30
0.0
 11
365.0
 21
265.2
 31
0.0
  0
LINE
  5
547
100
AcDbEntity
  8
LAY-6
  6
CONTINUOUS
 62
     1
100
AcDbLine
 10
365.0
 20
265.2
 30
0.0
 11
362.0
 21
265.7
 31
0.0
  0
LINE
  5
548
100
AcDbEntity
  8
LAY-6
  6
CONTINUOUS
 62
     1
100
AcDbLine
 10
390.0
 20
248.3
 30
0.0
 11
390.0
 21
266.7
 31
0.0
  0
TEXT
  5
549
100
AcDbEntity
  8
LAY-6
  6
CONTINUOUS
 62
     2
100
AcDbText
 10
373.5
 20
265.7
 30
0.0
 40
5.0
  1
２５
 41
0.672
  7
EXCADSTD
 72
     5
 11
380.8328
 21
265.7
 31
0.0
100
AcDbText
  0
LINE
  5
54A
100
AcDbEntity
  8
LAY-6
  6
CONTINUOUS
 62
     1
100
AcDbLine
 10
365.0
 20
265.2
 30
0.0
 11
390.0
 21
265.2
 31
0.0
  0
LINE
  5
54B
100
AcDbEntity
  8
LAY-6
  6
CONTINUOUS
 62
     1
100
AcDbLine
 10
368.0
 20
265.7
 30
0.0
 11
365.0
 21
265.2
 31
0.0
  0
LINE
  5
54C
100
AcDbEntity
  8
LAY-6
  6
CONTINUOUS
 62
     1
100
AcDbLine
 10
365.0
 20
265.2
 30
0.0
 11
368.0
 21
264.7
 31
0.0
  0
LINE
  5
54D
100
AcDbEntity
  8
LAY-6
  6
CONTINUOUS
 62
     1
100
AcDbLine
 10
387.0
 20
264.7
 30
0.0
 11
390.0
 21
265.2
 31
0.0
  0
LINE
  5
54E
100
AcDbEntity
  8
LAY-6
  6
CONTINUOUS
 62
     1
100
AcDbLine
 10
390.0
 20
265.2
 30
0.0
 11
387.0
 21
265.7
 31
0.0
  0
LINE
  5
54F
100
AcDbEntity
  8
LAY-6
  6
CONTINUOUS
 62
     1
100
AcDbLine
 10
420.0
 20
242.3
 30
0.0
 11
420.0
 21
266.7
 31
0.0
  0
TEXT
  5
550
100
AcDbEntity
  8
LAY-6
  6
CONTINUOUS
 62
     2
100
AcDbText
 10
401.0
 20
265.7
 30
0.0
 40
5.0
  1
３０
 41
0.672
  7
EXCADSTD
 72
     5
 11
408.3328
 21
265.7
 31
0.0
100
AcDbText
  0
LINE
  5
551
100
AcDbEntity
  8
LAY-6
  6
CONTINUOUS
 62
     1
100
AcDbLine
 10
390.0
 20
265.2
 30
0.0
 11
420.0
 21
265.2
 31
0.0
  0
LINE
  5
552
100
AcDbEntity
  8
LAY-6
  6
CONTINUOUS
 62
     1
100
AcDbLine
 10
393.0
 20
265.7
 30
0.0
 11
390.0
 21
265.2
 31
0.0
  0
LINE
  5
553
100
AcDbEntity
  8
LAY-6
  6
CONTINUOUS
 62
     1
100
AcDbLine
 10
390.0
 20
265.2
 30
0.0
 11
393.0
 21
264.7
 31
0.0
  0
LINE
  5
554
100
AcDbEntity
  8
LAY-6
  6
CONTINUOUS
 62
     1
100
AcDbLine
 10
417.0
 20
264.7
 30
0.0
 11
420.0
 21
265.2
 31
0.0
  0
LINE
  5
555
100
AcDbEntity
  8
LAY-6
  6
CONTINUOUS
 62
     1
100
AcDbLine
 10
420.0
 20
265.2
 30
0.0
 11
417.0
 21
265.7
 31
0.0
  0
LINE
  5
556
100
AcDbEntity
  8
LAY-6
  6
CONTINUOUS
 62
     1
100
AcDbLine
 10
293.0
 20
260.0
 30
0.0
 11
293.0
 21
275.9
 31
0.0
  0
LINE
  5
557
100
AcDbEntity
  8
LAY-6
  6
CONTINUOUS
 62
     1
100
AcDbLine
 10
300.0
 20
266.7
 30
0.0
 11
300.0
 21
275.9
 31
0.0
  0
TEXT
  5
558
100
AcDbEntity
  8
LAY-6
  6
CONTINUOUS
 62
     2
100
AcDbText
 10
294.5
 20
274.9
 30
0.0
 40
5.0
  1
７
 41
0.672
  7
EXCADSTD
 72
     5
 11
297.7
 21
274.9
 31
0.0
100
AcDbText
  0
LINE
  5
559
100
AcDbEntity
  8
LAY-6
  6
CONTINUOUS
 62
     1
100
AcDbLine
 10
293.0
 20
274.4
 30
0.0
 11
300.0
 21
274.4
 31
0.0
  0
LINE
  5
55A
100
AcDbEntity
  8
LAY-6
  6
CONTINUOUS
 62
     1
100
AcDbLine
 10
296.0
 20
274.9
 30
0.0
 11
293.0
 21
274.4
 31
0.0
  0
LINE
  5
55B
100
AcDbEntity
  8
LAY-6
  6
CONTINUOUS
 62
     1
100
AcDbLine
 10
293.0
 20
274.4
 30
0.0
 11
296.0
 21
273.9
 31
0.0
  0
LINE
  5
55C
100
AcDbEntity
  8
LAY-6
  6
CONTINUOUS
 62
     1
100
AcDbLine
 10
297.0
 20
273.9
 30
0.0
 11
300.0
 21
274.4
 31
0.0
  0
LINE
  5
55D
100
AcDbEntity
  8
LAY-6
  6
CONTINUOUS
 62
     1
100
AcDbLine
 10
300.0
 20
274.4
 30
0.0
 11
297.0
 21
274.9
 31
0.0
  0
LINE
  5
55E
100
AcDbEntity
  8
LAY-6
  6
CONTINUOUS
 62
     1
100
AcDbLine
 10
430.0
 20
249.0
 30
0.0
 11
430.0
 21
275.9
 31
0.0
  0
TEXT
  5
55F
100
AcDbEntity
  8
LAY-6
  6
CONTINUOUS
 62
     2
100
AcDbText
 10
359.0
 20
274.9
 30
0.0
 40
5.0
  1
１３０
 41
0.672
  7
EXCADSTD
 72
     5
 11
371.0
 21
274.9
 31
0.0
100
AcDbText
  0
LINE
  5
560
100
AcDbEntity
  8
LAY-6
  6
CONTINUOUS
 62
     1
100
AcDbLine
 10
300.0
 20
274.4
 30
0.0
 11
430.0
 21
274.4
 31
0.0
  0
LINE
  5
561
100
AcDbEntity
  8
LAY-6
  6
CONTINUOUS
 62
     1
100
AcDbLine
 10
303.0
 20
274.9
 30
0.0
 11
300.0
 21
274.4
 31
0.0
  0
LINE
  5
562
100
AcDbEntity
  8
LAY-6
  6
CONTINUOUS
 62
     1
100
AcDbLine
 10
300.0
 20
274.4
 30
0.0
 11
303.0
 21
273.9
 31
0.0
  0
LINE
  5
563
100
AcDbEntity
  8
LAY-6
  6
CONTINUOUS
 62
     1
100
AcDbLine
 10
427.0
 20
273.9
 30
0.0
 11
430.0
 21
274.4
 31
0.0
  0
LINE
  5
564
100
AcDbEntity
  8
LAY-6
  6
CONTINUOUS
 62
     1
100
AcDbLine
 10
430.0
 20
274.4
 30
0.0
 11
427.0
 21
274.9
 31
0.0
  0
LINE
  5
565
100
AcDbEntity
  8
LAY-6
  6
CONTINUOUS
 62
     1
100
AcDbLine
 10
347.7
 20
385.0
 30
0.0
 11
355.9
 21
385.0
 31
0.0
  0
LINE
  5
566
100
AcDbEntity
  8
LAY-6
  6
CONTINUOUS
 62
     1
100
AcDbLine
 10
381.8
 20
391.0
 30
0.0
 11
352.9
 21
391.0
 31
0.0
  0
TEXT
  5
567
100
AcDbEntity
  8
LAY-6
  6
CONTINUOUS
 62
     2
100
AcDbText
 10
353.9
 20
386.0
 30
0.0
 40
5.0
  1
６
 50
90.0
 41
0.672
  7
EXCADSTD
 72
     5
 11
353.9
 21
389.2
 31
0.0
100
AcDbText
  0
LINE
  5
568
100
AcDbEntity
  8
LAY-6
  6
CONTINUOUS
 62
     1
100
AcDbLine
 10
354.4
 20
380.0
 30
0.0
 11
354.4
 21
385.0
 31
0.0
  0
LINE
  5
569
100
AcDbEntity
  8
LAY-6
  6
CONTINUOUS
 62
     1
100
AcDbLine
 10
354.4
 20
391.0
 30
0.0
 11
354.4
 21
396.0
 31
0.0
  0
CIRCLE
  5
56A
100
AcDbEntity
  8
LAY-6
  6
CONTINUOUS
 62
     1
100
AcDbCircle
 10
354.4
 20
385.0
 30
0.0
 40
0.5
  0
CIRCLE
  5
56B
100
AcDbEntity
  8
LAY-6
  6
CONTINUOUS
 62
     1
100
AcDbCircle
 10
354.4
 20
385.0
 30
0.0
 40
0.25
  0
LINE
  5
56C
100
AcDbEntity
  8
LAY-6
  6
CONTINUOUS
 62
     1
100
AcDbLine
 10
353.9
 20
394.0
 30
0.0
 11
354.4
 21
391.0
 31
0.0
  0
LINE
  5
56D
100
AcDbEntity
  8
LAY-6
  6
CONTINUOUS
 62
     1
100
AcDbLine
 10
354.4
 20
391.0
 30
0.0
 11
354.9
 21
394.0
 31
0.0
  0
TEXT
  5
56E
100
AcDbEntity
  8
LAY-6
  6
CONTINUOUS
 62
     2
100
AcDbText
 10
353.9
 20
380.0
 30
0.0
 40
5.0
  1
６
 50
90.0
 41
0.672
  7
EXCADSTD
 72
     5
 11
353.9
 21
383.2
 31
0.0
100
AcDbText
  0
LINE
  5
56F
100
AcDbEntity
  8
LAY-6
  6
CONTINUOUS
 62
     1
100
AcDbLine
 10
355.9
 20
385.0
 30
0.0
 11
352.9
 21
385.0
 31
0.0
  0
LINE
  5
570
100
AcDbEntity
  8
LAY-6
  6
CONTINUOUS
 62
     1
100
AcDbLine
 10
354.4
 20
390.0
 30
0.0
 11
354.4
 21
385.0
 31
0.0
  0
LINE
  5
571
100
AcDbEntity
  8
LAY-6
  6
CONTINUOUS
 62
     1
100
AcDbLine
 10
354.4
 20
379.0
 30
0.0
 11
354.4
 21
374.0
 31
0.0
  0
CIRCLE
  5
572
100
AcDbEntity
  8
LAY-6
  6
CONTINUOUS
 62
     1
100
AcDbCircle
 10
354.4
 20
385.0
 30
0.0
 40
0.5
  0
CIRCLE
  5
573
100
AcDbEntity
  8
LAY-6
  6
CONTINUOUS
 62
     1
100
AcDbCircle
 10
354.4
 20
385.0
 30
0.0
 40
0.25
  0
LINE
  5
574
100
AcDbEntity
  8
LAY-6
  6
CONTINUOUS
 62
     1
100
AcDbLine
 10
354.9
 20
376.0
 30
0.0
 11
354.4
 21
379.0
 31
0.0
  0
LINE
  5
575
100
AcDbEntity
  8
LAY-6
  6
CONTINUOUS
 62
     1
100
AcDbLine
 10
354.4
 20
379.0
 30
0.0
 11
353.9
 21
376.0
 31
0.0
  0
LINE
  5
576
100
AcDbEntity
  8
LAY-6
  6
CONTINUOUS
 62
     1
100
AcDbLine
 10
300.0
 20
373.0
 30
0.0
 11
300.0
 21
376.7
 31
0.0
  0
LINE
  5
577
100
AcDbEntity
  8
LAY-6
  6
CONTINUOUS
 62
     1
100
AcDbLine
 10
320.0
 20
373.0
 30
0.0
 11
320.0
 21
376.7
 31
0.0
  0
TEXT
  5
578
100
AcDbEntity
  8
LAY-6
  6
CONTINUOUS
 62
     2
100
AcDbText
 10
306.0
 20
375.7
 30
0.0
 40
5.0
  1
２０
 41
0.672
  7
EXCADSTD
 72
     5
 11
313.3328
 21
375.7
 31
0.0
100
AcDbText
  0
LINE
  5
579
100
AcDbEntity
  8
LAY-6
  6
CONTINUOUS
 62
     1
100
AcDbLine
 10
300.0
 20
375.2
 30
0.0
 11
320.0
 21
375.2
 31
0.0
  0
LINE
  5
57A
100
AcDbEntity
  8
LAY-6
  6
CONTINUOUS
 62
     1
100
AcDbLine
 10
303.0
 20
375.7
 30
0.0
 11
300.0
 21
375.2
 31
0.0
  0
LINE
  5
57B
100
AcDbEntity
  8
LAY-6
  6
CONTINUOUS
 62
     1
100
AcDbLine
 10
300.0
 20
375.2
 30
0.0
 11
303.0
 21
374.7
 31
0.0
  0
LINE
  5
57C
100
AcDbEntity
  8
LAY-6
  6
CONTINUOUS
 62
     1
100
AcDbLine
 10
317.0
 20
374.7
 30
0.0
 11
320.0
 21
375.2
 31
0.0
  0
LINE
  5
57D
100
AcDbEntity
  8
LAY-6
  6
CONTINUOUS
 62
     1
100
AcDbLine
 10
320.0
 20
375.2
 30
0.0
 11
317.0
 21
375.7
 31
0.0
  0
LINE
  5
57E
100
AcDbEntity
  8
LAY-6
  6
CONTINUOUS
 62
     1
100
AcDbLine
 10
293.0
 20
373.0
 30
0.0
 11
293.0
 21
384.0
 31
0.0
  0
LINE
  5
57F
100
AcDbEntity
  8
LAY-6
  6
CONTINUOUS
 62
     1
100
AcDbLine
 10
310.0
 20
383.3
 30
0.0
 11
310.0
 21
381.0
 31
0.0
  0
TEXT
  5
580
100
AcDbEntity
  8
LAY-6
  6
CONTINUOUS
 62
     2
100
AcDbText
 10
296.5
 20
383.0
 30
0.0
 40
5.0
  1
１７
 41
0.672
  7
EXCADSTD
 72
     5
 11
303.8328
 21
383.0
 31
0.0
100
AcDbText
  0
LINE
  5
581
100
AcDbEntity
  8
LAY-6
  6
CONTINUOUS
 62
     1
100
AcDbLine
 10
293.0
 20
382.5
 30
0.0
 11
310.0
 21
382.5
 31
0.0
  0
LINE
  5
582
100
AcDbEntity
  8
LAY-6
  6
CONTINUOUS
 62
     1
100
AcDbLine
 10
296.0
 20
383.0
 30
0.0
 11
293.0
 21
382.5
 31
0.0
  0
LINE
  5
583
100
AcDbEntity
  8
LAY-6
  6
CONTINUOUS
 62
     1
100
AcDbLine
 10
293.0
 20
382.5
 30
0.0
 11
296.0
 21
382.0
 31
0.0
  0
LINE
  5
584
100
AcDbEntity
  8
LAY-6
  6
CONTINUOUS
 62
     1
100
AcDbLine
 10
307.0
 20
382.0
 30
0.0
 11
310.0
 21
382.5
 31
0.0
  0
LINE
  5
585
100
AcDbEntity
  8
LAY-6
  6
CONTINUOUS
 62
     1
100
AcDbLine
 10
310.0
 20
382.5
 30
0.0
 11
307.0
 21
383.0
 31
0.0
  0
TEXT
  5
586
100
AcDbEntity
  8
LAY-6
  6
CONTINUOUS
 62
     2
100
AcDbText
 10
286.99167
 20
342.833013
 30
0.0
 40
5.0
  1
Ｒ
 50
30.0
 41
0.672
  7
EXCADSTD
 72
     5
 11
289.762951
 21
344.433013
 31
0.0
100
AcDbText
  0
TEXT
  5
587
100
AcDbEntity
  8
LAY-6
  6
CONTINUOUS
 62
     2
100
AcDbText
 10
290.455771
 20
344.833013
 30
0.0
 40
5.0
  1
１４
 50
30.0
 41
0.672
  7
EXCADSTD
 72
     5
 11
296.806162
 21
348.499413
 31
0.0
100
AcDbText
  0
LINE
  5
588
100
AcDbEntity
  8
LAY-6
  6
CONTINUOUS
 62
     1
100
AcDbLine
 10
297.875644
 20
349.0
 30
0.0
 11
310.0
 21
356.0
 31
0.0
  0
LINE
  5
589
100
AcDbEntity
  8
LAY-6
  6
CONTINUOUS
 62
     1
100
AcDbLine
 10
300.223721
 20
350.933013
 30
0.0
 11
297.875644
 21
349.0
 31
0.0
  0
LINE
  5
58A
100
AcDbEntity
  8
LAY-6
  6
CONTINUOUS
 62
     1
100
AcDbLine
 10
297.875644
 20
349.0
 30
0.0
 11
300.723721
 21
350.066987
 31
0.0
  0
TEXT
  5
58B
100
AcDbEntity
  8
LAY-6
  6
CONTINUOUS
 62
     2
100
AcDbText
 10
376.3
 20
381.5
 30
0.0
 40
5.0
  1
９
 50
90.0
 41
0.672
  7
EXCADSTD
 72
     5
 11
376.3
 21
384.7
 31
0.0
100
AcDbText
  0
LINE
  5
58C
100
AcDbEntity
  8
LAY-6
  6
CONTINUOUS
 62
     1
100
AcDbLine
 10
371.1
 20
388.0
 30
0.0
 11
378.3
 21
388.0
 31
0.0
  0
LINE
  5
58D
100
AcDbEntity
  8
LAY-6
  6
CONTINUOUS
 62
     1
100
AcDbLine
 10
376.8
 20
379.0
 30
0.0
 11
376.8
 21
388.0
 31
0.0
  0
LINE
  5
58E
100
AcDbEntity
  8
LAY-6
  6
CONTINUOUS
 62
     1
100
AcDbLine
 10
376.3
 20
382.0
 30
0.0
 11
376.8
 21
379.0
 31
0.0
  0
LINE
  5
58F
100
AcDbEntity
  8
LAY-6
  6
CONTINUOUS
 62
     1
100
AcDbLine
 10
376.8
 20
379.0
 30
0.0
 11
377.3
 21
382.0
 31
0.0
  0
LINE
  5
590
100
AcDbEntity
  8
LAY-6
  6
CONTINUOUS
 62
     1
100
AcDbLine
 10
377.3
 20
385.0
 30
0.0
 11
376.8
 21
388.0
 31
0.0
  0
LINE
  5
591
100
AcDbEntity
  8
LAY-6
  6
CONTINUOUS
 62
     1
100
AcDbLine
 10
376.8
 20
388.0
 30
0.0
 11
376.3
 21
385.0
 31
0.0
  0
LINE
  5
592
100
AcDbEntity
  8
LAY-6
  6
CONTINUOUS
 62
     1
100
AcDbLine
 10
328.8
 20
356.0
 30
0.0
 11
441.8
 21
356.0
 31
0.0
  0
TEXT
  5
593
100
AcDbEntity
  8
LAY-6
  6
CONTINUOUS
 62
     2
100
AcDbText
 10
439.8
 20
360.5
 30
0.0
 40
5.0
  1
１７
 50
90.0
 41
0.672
  7
EXCADSTD
 72
     5
 11
439.8
 21
367.8328
 31
0.0
100
AcDbText
  0
LINE
  5
594
100
AcDbEntity
  8
LAY-6
  6
CONTINUOUS
 62
     1
100
AcDbLine
 10
440.3
 20
356.0
 30
0.0
 11
440.3
 21
373.0
 31
0.0
  0
LINE
  5
595
100
AcDbEntity
  8
LAY-6
  6
CONTINUOUS
 62
     1
100
AcDbLine
 10
439.8
 20
359.0
 30
0.0
 11
440.3
 21
356.0
 31
0.0
  0
LINE
  5
596
100
AcDbEntity
  8
LAY-6
  6
CONTINUOUS
 62
     1
100
AcDbLine
 10
440.3
 20
356.0
 30
0.0
 11
440.8
 21
359.0
 31
0.0
  0
LINE
  5
597
100
AcDbEntity
  8
LAY-6
  6
CONTINUOUS
 62
     1
100
AcDbLine
 10
440.8
 20
370.0
 30
0.0
 11
440.3
 21
373.0
 31
0.0
  0
LINE
  5
598
100
AcDbEntity
  8
LAY-6
  6
CONTINUOUS
 62
     1
100
AcDbLine
 10
440.3
 20
373.0
 30
0.0
 11
439.8
 21
370.0
 31
0.0
  0
TEXT
  5
599
100
AcDbEntity
  8
LAY-6
  6
CONTINUOUS
 62
     2
100
AcDbText
 10
439.8
 20
374.0
 30
0.0
 40
5.0
  1
６
 50
90.0
 41
0.672
  7
EXCADSTD
 72
     5
 11
439.8
 21
377.2
 31
0.0
100
AcDbText
  0
LINE
  5
59A
100
AcDbEntity
  8
LAY-6
  6
CONTINUOUS
 62
     1
100
AcDbLine
 10
430.0
 20
379.0
 30
0.0
 11
441.8
 21
379.0
 31
0.0
  0
LINE
  5
59B
100
AcDbEntity
  8
LAY-6
  6
CONTINUOUS
 62
     1
100
AcDbLine
 10
440.3
 20
368.0
 30
0.0
 11
440.3
 21
384.0
 31
0.0
  0
LINE
  5
59C
100
AcDbEntity
  8
LAY-6
  6
CONTINUOUS
 62
     1
100
AcDbLine
 10
440.8
 20
370.0
 30
0.0
 11
440.3
 21
373.0
 31
0.0
  0
LINE
  5
59D
100
AcDbEntity
  8
LAY-6
  6
CONTINUOUS
 62
     1
100
AcDbLine
 10
440.3
 20
373.0
 30
0.0
 11
439.8
 21
370.0
 31
0.0
  0
LINE
  5
59E
100
AcDbEntity
  8
LAY-6
  6
CONTINUOUS
 62
     1
100
AcDbLine
 10
439.8
 20
382.0
 30
0.0
 11
440.3
 21
379.0
 31
0.0
  0
LINE
  5
59F
100
AcDbEntity
  8
LAY-6
  6
CONTINUOUS
 62
     1
100
AcDbLine
 10
440.3
 20
379.0
 30
0.0
 11
440.8
 21
382.0
 31
0.0
  0
LINE
  5
5A0
100
AcDbEntity
  8
LAY-6
  6
CONTINUOUS
 62
     1
100
AcDbLine
 10
430.0
 20
397.0
 30
0.0
 11
441.8
 21
397.0
 31
0.0
  0
TEXT
  5
5A1
100
AcDbEntity
  8
LAY-6
  6
CONTINUOUS
 62
     2
100
AcDbText
 10
439.8
 20
384.0
 30
0.0
 40
5.0
  1
１８
 50
90.0
 41
0.672
  7
EXCADSTD
 72
     5
 11
439.8
 21
391.3328
 31
0.0
100
AcDbText
  0
LINE
  5
5A2
100
AcDbEntity
  8
LAY-6
  6
CONTINUOUS
 62
     1
100
AcDbLine
 10
440.3
 20
379.0
 30
0.0
 11
440.3
 21
397.0
 31
0.0
  0
LINE
  5
5A3
100
AcDbEntity
  8
LAY-6
  6
CONTINUOUS
 62
     1
100
AcDbLine
 10
439.8
 20
382.0
 30
0.0
 11
440.3
 21
379.0
 31
0.0
  0
LINE
  5
5A4
100
AcDbEntity
  8
LAY-6
  6
CONTINUOUS
 62
     1
100
AcDbLine
 10
440.3
 20
379.0
 30
0.0
 11
440.8
 21
382.0
 31
0.0
  0
LINE
  5
5A5
100
AcDbEntity
  8
LAY-6
  6
CONTINUOUS
 62
     1
100
AcDbLine
 10
440.8
 20
394.0
 30
0.0
 11
440.3
 21
397.0
 31
0.0
  0
LINE
  5
5A6
100
AcDbEntity
  8
LAY-6
  6
CONTINUOUS
 62
     1
100
AcDbLine
 10
440.3
 20
397.0
 30
0.0
 11
439.8
 21
394.0
 31
0.0
  0
LINE
  5
5A7
100
AcDbEntity
  8
LAY-6
  6
CONTINUOUS
 62
     1
100
AcDbLine
 10
300.0
 20
397.0
 30
0.0
 11
300.0
 21
414.7
 31
0.0
  0
LINE
  5
5A8
100
AcDbEntity
  8
LAY-6
  6
CONTINUOUS
 62
     1
100
AcDbLine
 10
308.0
 20
396.3
 30
0.0
 11
308.0
 21
414.7
 31
0.0
  0
TEXT
  5
5A9
100
AcDbEntity
  8
LAY-6
  6
CONTINUOUS
 62
     2
100
AcDbText
 10
302.0
 20
413.7
 30
0.0
 40
5.0
  1
８
 41
0.672
  7
EXCADSTD
 72
     5
 11
305.2
 21
413.7
 31
0.0
100
AcDbText
  0
LINE
  5
5AA
100
AcDbEntity
  8
LAY-6
  6
CONTINUOUS
 62
     1
100
AcDbLine
 10
300.0
 20
413.2
 30
0.0
 11
308.0
 21
413.2
 31
0.0
  0
LINE
  5
5AB
100
AcDbEntity
  8
LAY-6
  6
CONTINUOUS
 62
     1
100
AcDbLine
 10
303.0
 20
413.7
 30
0.0
 11
300.0
 21
413.2
 31
0.0
  0
LINE
  5
5AC
100
AcDbEntity
  8
LAY-6
  6
CONTINUOUS
 62
     1
100
AcDbLine
 10
300.0
 20
413.2
 30
0.0
 11
303.0
 21
412.7
 31
0.0
  0
LINE
  5
5AD
100
AcDbEntity
  8
LAY-6
  6
CONTINUOUS
 62
     1
100
AcDbLine
 10
305.0
 20
412.7
 30
0.0
 11
308.0
 21
413.2
 31
0.0
  0
LINE
  5
5AE
100
AcDbEntity
  8
LAY-6
  6
CONTINUOUS
 62
     1
100
AcDbLine
 10
308.0
 20
413.2
 30
0.0
 11
305.0
 21
413.7
 31
0.0
  0
LINE
  5
5AF
100
AcDbEntity
  8
LAY-6
  6
CONTINUOUS
 62
     1
100
AcDbLine
 10
340.0
 20
390.3
 30
0.0
 11
340.0
 21
414.7
 31
0.0
  0
TEXT
  5
5B0
100
AcDbEntity
  8
LAY-6
  6
CONTINUOUS
 62
     2
100
AcDbText
 10
320.0
 20
413.7
 30
0.0
 40
5.0
  1
３２
 41
0.672
  7
EXCADSTD
 72
     5
 11
327.3328
 21
413.7
 31
0.0
100
AcDbText
  0
LINE
  5
5B1
100
AcDbEntity
  8
LAY-6
  6
CONTINUOUS
 62
     1
100
AcDbLine
 10
308.0
 20
413.2
 30
0.0
 11
340.0
 21
413.2
 31
0.0
  0
LINE
  5
5B2
100
AcDbEntity
  8
LAY-6
  6
CONTINUOUS
 62
     1
100
AcDbLine
 10
311.0
 20
413.7
 30
0.0
 11
308.0
 21
413.2
 31
0.0
  0
LINE
  5
5B3
100
AcDbEntity
  8
LAY-6
  6
CONTINUOUS
 62
     1
100
AcDbLine
 10
308.0
 20
413.2
 30
0.0
 11
311.0
 21
412.7
 31
0.0
  0
LINE
  5
5B4
100
AcDbEntity
  8
LAY-6
  6
CONTINUOUS
 62
     1
100
AcDbLine
 10
337.0
 20
412.7
 30
0.0
 11
340.0
 21
413.2
 31
0.0
  0
LINE
  5
5B5
100
AcDbEntity
  8
LAY-6
  6
CONTINUOUS
 62
     1
100
AcDbLine
 10
340.0
 20
413.2
 30
0.0
 11
337.0
 21
413.7
 31
0.0
  0
LINE
  5
5B6
100
AcDbEntity
  8
LAY-6
  6
CONTINUOUS
 62
     1
100
AcDbLine
 10
365.0
 20
393.3
 30
0.0
 11
365.0
 21
414.7
 31
0.0
  0
TEXT
  5
5B7
100
AcDbEntity
  8
LAY-6
  6
CONTINUOUS
 62
     2
100
AcDbText
 10
348.5
 20
413.7
 30
0.0
 40
5.0
  1
２５
 41
0.672
  7
EXCADSTD
 72
     5
 11
355.8328
 21
413.7
 31
0.0
100
AcDbText
  0
LINE
  5
5B8
100
AcDbEntity
  8
LAY-6
  6
CONTINUOUS
 62
     1
100
AcDbLine
 10
340.0
 20
413.2
 30
0.0
 11
365.0
 21
413.2
 31
0.0
  0
LINE
  5
5B9
100
AcDbEntity
  8
LAY-6
  6
CONTINUOUS
 62
     1
100
AcDbLine
 10
343.0
 20
413.7
 30
0.0
 11
340.0
 21
413.2
 31
0.0
  0
LINE
  5
5BA
100
AcDbEntity
  8
LAY-6
  6
CONTINUOUS
 62
     1
100
AcDbLine
 10
340.0
 20
413.2
 30
0.0
 11
343.0
 21
412.7
 31
0.0
  0
LINE
  5
5BB
100
AcDbEntity
  8
LAY-6
  6
CONTINUOUS
 62
     1
100
AcDbLine
 10
362.0
 20
412.7
 30
0.0
 11
365.0
 21
413.2
 31
0.0
  0
LINE
  5
5BC
100
AcDbEntity
  8
LAY-6
  6
CONTINUOUS
 62
     1
100
AcDbLine
 10
365.0
 20
413.2
 30
0.0
 11
362.0
 21
413.7
 31
0.0
  0
LINE
  5
5BD
100
AcDbEntity
  8
LAY-6
  6
CONTINUOUS
 62
     1
100
AcDbLine
 10
390.0
 20
396.3
 30
0.0
 11
390.0
 21
414.7
 31
0.0
  0
TEXT
  5
5BE
100
AcDbEntity
  8
LAY-6
  6
CONTINUOUS
 62
     2
100
AcDbText
 10
373.5
 20
413.7
 30
0.0
 40
5.0
  1
２５
 41
0.672
  7
EXCADSTD
 72
     5
 11
380.8328
 21
413.7
 31
0.0
100
AcDbText
  0
LINE
  5
5BF
100
AcDbEntity
  8
LAY-6
  6
CONTINUOUS
 62
     1
100
AcDbLine
 10
365.0
 20
413.2
 30
0.0
 11
390.0
 21
413.2
 31
0.0
  0
LINE
  5
5C0
100
AcDbEntity
  8
LAY-6
  6
CONTINUOUS
 62
     1
100
AcDbLine
 10
368.0
 20
413.7
 30
0.0
 11
365.0
 21
413.2
 31
0.0
  0
LINE
  5
5C1
100
AcDbEntity
  8
LAY-6
  6
CONTINUOUS
 62
     1
100
AcDbLine
 10
365.0
 20
413.2
 30
0.0
 11
368.0
 21
412.7
 31
0.0
  0
LINE
  5
5C2
100
AcDbEntity
  8
LAY-6
  6
CONTINUOUS
 62
     1
100
AcDbLine
 10
387.0
 20
412.7
 30
0.0
 11
390.0
 21
413.2
 31
0.0
  0
LINE
  5
5C3
100
AcDbEntity
  8
LAY-6
  6
CONTINUOUS
 62
     1
100
AcDbLine
 10
390.0
 20
413.2
 30
0.0
 11
387.0
 21
413.7
 31
0.0
  0
LINE
  5
5C4
100
AcDbEntity
  8
LAY-6
  6
CONTINUOUS
 62
     1
100
AcDbLine
 10
420.0
 20
390.3
 30
0.0
 11
420.0
 21
414.7
 31
0.0
  0
TEXT
  5
5C5
100
AcDbEntity
  8
LAY-6
  6
CONTINUOUS
 62
     2
100
AcDbText
 10
401.0
 20
413.7
 30
0.0
 40
5.0
  1
３０
 41
0.672
  7
EXCADSTD
 72
     5
 11
408.3328
 21
413.7
 31
0.0
100
AcDbText
  0
LINE
  5
5C6
100
AcDbEntity
  8
LAY-6
  6
CONTINUOUS
 62
     1
100
AcDbLine
 10
390.0
 20
413.2
 30
0.0
 11
420.0
 21
413.2
 31
0.0
  0
LINE
  5
5C7
100
AcDbEntity
  8
LAY-6
  6
CONTINUOUS
 62
     1
100
AcDbLine
 10
393.0
 20
413.7
 30
0.0
 11
390.0
 21
413.2
 31
0.0
  0
LINE
  5
5C8
100
AcDbEntity
  8
LAY-6
  6
CONTINUOUS
 62
     1
100
AcDbLine
 10
390.0
 20
413.2
 30
0.0
 11
393.0
 21
412.7
 31
0.0
  0
LINE
  5
5C9
100
AcDbEntity
  8
LAY-6
  6
CONTINUOUS
 62
     1
100
AcDbLine
 10
417.0
 20
412.7
 30
0.0
 11
420.0
 21
413.2
 31
0.0
  0
LINE
  5
5CA
100
AcDbEntity
  8
LAY-6
  6
CONTINUOUS
 62
     1
100
AcDbLine
 10
420.0
 20
413.2
 30
0.0
 11
417.0
 21
413.7
 31
0.0
  0
LINE
  5
5CB
100
AcDbEntity
  8
LAY-6
  6
CONTINUOUS
 62
     1
100
AcDbLine
 10
293.0
 20
408.0
 30
0.0
 11
293.0
 21
423.9
 31
0.0
  0
LINE
  5
5CC
100
AcDbEntity
  8
LAY-6
  6
CONTINUOUS
 62
     1
100
AcDbLine
 10
300.0
 20
414.7
 30
0.0
 11
300.0
 21
423.9
 31
0.0
  0
TEXT
  5
5CD
100
AcDbEntity
  8
LAY-6
  6
CONTINUOUS
 62
     2
100
AcDbText
 10
294.5
 20
422.9
 30
0.0
 40
5.0
  1
７
 41
0.672
  7
EXCADSTD
 72
     5
 11
297.7
 21
422.9
 31
0.0
100
AcDbText
  0
LINE
  5
5CE
100
AcDbEntity
  8
LAY-6
  6
CONTINUOUS
 62
     1
100
AcDbLine
 10
293.0
 20
422.4
 30
0.0
 11
300.0
 21
422.4
 31
0.0
  0
LINE
  5
5CF
100
AcDbEntity
  8
LAY-6
  6
CONTINUOUS
 62
     1
100
AcDbLine
 10
296.0
 20
422.9
 30
0.0
 11
293.0
 21
422.4
 31
0.0
  0
LINE
  5
5D0
100
AcDbEntity
  8
LAY-6
  6
CONTINUOUS
 62
     1
100
AcDbLine
 10
293.0
 20
422.4
 30
0.0
 11
296.0
 21
421.9
 31
0.0
  0
LINE
  5
5D1
100
AcDbEntity
  8
LAY-6
  6
CONTINUOUS
 62
     1
100
AcDbLine
 10
297.0
 20
421.9
 30
0.0
 11
300.0
 21
422.4
 31
0.0
  0
LINE
  5
5D2
100
AcDbEntity
  8
LAY-6
  6
CONTINUOUS
 62
     1
100
AcDbLine
 10
300.0
 20
422.4
 30
0.0
 11
297.0
 21
422.9
 31
0.0
  0
LINE
  5
5D3
100
AcDbEntity
  8
LAY-6
  6
CONTINUOUS
 62
     1
100
AcDbLine
 10
430.0
 20
397.0
 30
0.0
 11
430.0
 21
423.9
 31
0.0
  0
TEXT
  5
5D4
100
AcDbEntity
  8
LAY-6
  6
CONTINUOUS
 62
     2
100
AcDbText
 10
359.0
 20
422.9
 30
0.0
 40
5.0
  1
１３０
 41
0.672
  7
EXCADSTD
 72
     5
 11
371.0
 21
422.9
 31
0.0
100
AcDbText
  0
LINE
  5
5D5
100
AcDbEntity
  8
LAY-6
  6
CONTINUOUS
 62
     1
100
AcDbLine
 10
300.0
 20
422.4
 30
0.0
 11
430.0
 21
422.4
 31
0.0
  0
LINE
  5
5D6
100
AcDbEntity
  8
LAY-6
  6
CONTINUOUS
 62
     1
100
AcDbLine
 10
303.0
 20
422.9
 30
0.0
 11
300.0
 21
422.4
 31
0.0
  0
LINE
  5
5D7
100
AcDbEntity
  8
LAY-6
  6
CONTINUOUS
 62
     1
100
AcDbLine
 10
300.0
 20
422.4
 30
0.0
 11
303.0
 21
421.9
 31
0.0
  0
LINE
  5
5D8
100
AcDbEntity
  8
LAY-6
  6
CONTINUOUS
 62
     1
100
AcDbLine
 10
427.0
 20
421.9
 30
0.0
 11
430.0
 21
422.4
 31
0.0
  0
LINE
  5
5D9
100
AcDbEntity
  8
LAY-6
  6
CONTINUOUS
 62
     1
100
AcDbLine
 10
430.0
 20
422.4
 30
0.0
 11
427.0
 21
422.9
 31
0.0
  0
CIRCLE
  5
5DA
100
AcDbEntity
  8
LAY-6
  6
CONTINUOUS
 62
     1
100
AcDbCircle
 10
559.599999
 20
459.7
 30
0.0
 40
4.0
  0
POLYLINE
  5
5DB
100
AcDbEntity
  8
LAY-6
  6
CONTINUOUS
 62
     1
100
AcDb2dPolyline
 66
     1
 10
0.0
 20
0.0
 30
0.0
 70
   128
  0
VERTEX
  5
5DC
100
AcDbEntity
  8
LAY-6
  6
CONTINUOUS
 62
     1
100
AcDbVertex
100
AcDb2dVertex
 10
579.499999
 20
439.0
 30
0.0
  0
VERTEX
  5
5DD
100
AcDbEntity
  8
LAY-6
  6
CONTINUOUS
 62
     1
100
AcDbVertex
100
AcDb2dVertex
 10
562.372156
 20
456.8164
 30
0.0
  0
SEQEND
  5
5DE
100
AcDbEntity
  8
LAY-6
  6
CONTINUOUS
 62
     1
  0
LINE
  5
5DF
100
AcDbEntity
  8
LAY-6
  6
CONTINUOUS
 62
     1
100
AcDbLine
 10
577.060432
 20
440.81618
 30
0.0
 11
579.499999
 21
439.0
 31
0.0
  0
LINE
  5
5E0
100
AcDbEntity
  8
LAY-6
  6
CONTINUOUS
 62
     1
100
AcDbLine
 10
579.499999
 20
439.0
 30
0.0
 11
577.781332
 21
441.50922
 31
0.0
  0
TEXT
  5
5E1
100
AcDbEntity
  8
LAY-6
  6
CONTINUOUS
 62
     2
100
AcDbText
 10
556.771572
 20
456.871573
 30
0.0
 40
5.656854
  1
１
 41
0.84
  7
EXCADSTD
 72
     5
 11
561.297056
 21
456.871573
 31
0.0
100
AcDbText
  0
CIRCLE
  5
5E2
100
AcDbEntity
  8
LAY-6
  6
CONTINUOUS
 62
     1
100
AcDbCircle
 10
559.599999
 20
391.3
 30
0.0
 40
4.0
  0
POLYLINE
  5
5E3
100
AcDbEntity
  8
LAY-6
  6
CONTINUOUS
 62
     1
100
AcDb2dPolyline
 66
     1
 10
0.0
 20
0.0
 30
0.0
 70
   128
  0
VERTEX
  5
5E4
100
AcDbEntity
  8
LAY-6
  6
CONTINUOUS
 62
     1
100
AcDbVertex
100
AcDb2dVertex
 10
579.499999
 20
412.0
 30
0.0
  0
VERTEX
  5
5E5
100
AcDbEntity
  8
LAY-6
  6
CONTINUOUS
 62
     1
100
AcDbVertex
100
AcDb2dVertex
 10
562.372156
 20
394.1836
 30
0.0
  0
SEQEND
  5
5E6
100
AcDbEntity
  8
LAY-6
  6
CONTINUOUS
 62
     1
  0
LINE
  5
5E7
100
AcDbEntity
  8
LAY-6
  6
CONTINUOUS
 62
     1
100
AcDbLine
 10
577.781332
 20
409.49078
 30
0.0
 11
579.499999
 21
412.0
 31
0.0
  0
LINE
  5
5E8
100
AcDbEntity
  8
LAY-6
  6
CONTINUOUS
 62
     1
100
AcDbLine
 10
579.499999
 20
412.0
 30
0.0
 11
577.060432
 21
410.18382
 31
0.0
  0
TEXT
  5
5E9
100
AcDbEntity
  8
LAY-6
  6
CONTINUOUS
 62
     2
100
AcDbText
 10
556.771572
 20
388.471573
 30
0.0
 40
5.656854
  1
２
 41
0.84
  7
EXCADSTD
 72
     5
 11
561.297056
 21
388.471573
 31
0.0
100
AcDbText
  0
CIRCLE
  5
5EA
100
AcDbEntity
  8
LAY-6
  6
CONTINUOUS
 62
     1
100
AcDbCircle
 10
555.199999
 20
228.5
 30
0.0
 40
4.0
  0
POLYLINE
  5
5EB
100
AcDbEntity
  8
LAY-6
  6
CONTINUOUS
 62
     1
100
AcDb2dPolyline
 66
     1
 10
0.0
 20
0.0
 30
0.0
 70
   128
  0
VERTEX
  5
5EC
100
AcDbEntity
  8
LAY-6
  6
CONTINUOUS
 62
     1
100
AcDbVertex
100
AcDb2dVertex
 10
578.599999
 20
207.0
 30
0.0
  0
VERTEX
  5
5ED
100
AcDbEntity
  8
LAY-6
  6
CONTINUOUS
 62
     1
100
AcDbVertex
100
AcDb2dVertex
 10
558.145479
 20
225.793683
 30
0.0
  0
SEQEND
  5
5EE
100
AcDbEntity
  8
LAY-6
  6
CONTINUOUS
 62
     1
  0
LINE
  5
5EF
100
AcDbEntity
  8
LAY-6
  6
CONTINUOUS
 62
     1
100
AcDbLine
 10
576.0526
 20
208.661553
 30
0.0
 11
578.599999
 21
207.0
 31
0.0
  0
LINE
  5
5F0
100
AcDbEntity
  8
LAY-6
  6
CONTINUOUS
 62
     1
100
AcDbLine
 10
578.599999
 20
207.0
 30
0.0
 11
576.729179
 21
209.397922
 31
0.0
  0
TEXT
  5
5F1
100
AcDbEntity
  8
LAY-6
  6
CONTINUOUS
 62
     2
100
AcDbText
 10
552.371572
 20
225.671573
 30
0.0
 40
5.656854
  1
３
 41
0.84
  7
EXCADSTD
 72
     5
 11
556.897056
 21
225.671573
 31
0.0
100
AcDbText
  0
POLYLINE
  5
5F2
100
AcDbEntity
  8
LAY-6
  6
CONTINUOUS
 62
     1
100
AcDb2dPolyline
 66
     1
 10
0.0
 20
0.0
 30
0.0
 70
   128
  0
VERTEX
  5
5F3
100
AcDbEntity
  8
LAY-6
  6
CONTINUOUS
 62
     1
100
AcDbVertex
100
AcDb2dVertex
 10
580.099999
 20
180.0
 30
0.0
  0
VERTEX
  5
5F4
100
AcDbEntity
  8
LAY-6
  6
CONTINUOUS
 62
     1
100
AcDbVertex
100
AcDb2dVertex
 10
567.009861
 20
152.316127
 30
0.0
  0
SEQEND
  5
5F5
100
AcDbEntity
  8
LAY-6
  6
CONTINUOUS
 62
     1
  0
LINE
  5
5F6
100
AcDbEntity
  8
LAY-6
  6
CONTINUOUS
 62
     1
100
AcDbLine
 10
579.269619
 20
177.074172
 30
0.0
 11
580.099999
 21
180.0
 31
0.0
  0
LINE
  5
5F7
100
AcDbEntity
  8
LAY-6
  6
CONTINUOUS
 62
     1
100
AcDbLine
 10
580.099999
 20
180.0
 30
0.0
 11
578.365587
 21
177.501638
 31
0.0
  0
TEXT
  5
5F8
100
AcDbEntity
  8
LAY-6
  6
CONTINUOUS
 62
     2
100
AcDbText
 10
562.471572
 20
145.871573
 30
0.0
 40
5.656854
  1
４
 41
0.84
  7
EXCADSTD
 72
     5
 11
566.997056
 21
145.871573
 31
0.0
100
AcDbText
  0
CIRCLE
  5
5F9
100
AcDbEntity
  8
LAY-6
  6
CONTINUOUS
 62
     1
100
AcDbCircle
 10
565.299999
 20
148.7
 30
0.0
 40
4.0
  0
LINE
  5
5FA
100
AcDbEntity
  8
LAY-6
  6
CONTINUOUS
 62
     1
100
AcDbLine
 10
668.899999
 20
186.0
 30
0.0
 11
679.699999
 21
186.0
 31
0.0
  0
LINE
  5
5FB
100
AcDbEntity
  8
LAY-6
  6
CONTINUOUS
 62
     1
100
AcDbLine
 10
649.199999
 20
427.0
 30
0.0
 11
679.699999
 21
427.0
 31
0.0
  0
TEXT
  5
5FC
100
AcDbEntity
  8
LAY-6
  6
CONTINUOUS
 62
     2
100
AcDbText
 10
677.699999
 20
302.5
 30
0.0
 40
5.0
  1
ＤＨ
 50
90.0
 41
0.672
  7
EXCADSTD
 72
     5
 11
677.699999
 21
309.8328
 31
0.0
100
AcDbText
  0
LINE
  5
5FD
100
AcDbEntity
  8
LAY-6
  6
CONTINUOUS
 62
     1
100
AcDbLine
 10
678.199999
 20
186.0
 30
0.0
 11
678.199999
 21
427.0
 31
0.0
  0
LINE
  5
5FE
100
AcDbEntity
  8
LAY-6
  6
CONTINUOUS
 62
     1
100
AcDbLine
 10
677.699999
 20
189.0
 30
0.0
 11
678.199999
 21
186.0
 31
0.0
  0
LINE
  5
5FF
100
AcDbEntity
  8
LAY-6
  6
CONTINUOUS
 62
     1
100
AcDbLine
 10
678.199999
 20
186.0
 30
0.0
 11
678.699999
 21
189.0
 31
0.0
  0
LINE
  5
600
100
AcDbEntity
  8
LAY-6
  6
CONTINUOUS
 62
     1
100
AcDbLine
 10
678.699999
 20
424.0
 30
0.0
 11
678.199999
 21
427.0
 31
0.0
  0
LINE
  5
601
100
AcDbEntity
  8
LAY-6
  6
CONTINUOUS
 62
     1
100
AcDbLine
 10
678.199999
 20
427.0
 30
0.0
 11
677.699999
 21
424.0
 31
0.0
  0
TEXT
  5
602
100
AcDbEntity
  8
LAY-6
  6
CONTINUOUS
 62
     2
100
AcDbText
 10
631.299999
 20
451.5
 30
0.0
 40
5.0
  1
３－φ４×３０ナベタッピンネジ
 41
0.672
  7
EXCADSTD
 72
     5
 11
691.299999
 21
451.5
 31
0.0
100
AcDbText
  0
POLYLINE
  5
603
100
AcDbEntity
  8
LAY-6
  6
CONTINUOUS
 62
     1
100
AcDb2dPolyline
 66
     1
 10
0.0
 20
0.0
 30
0.0
 70
   128
  0
VERTEX
  5
604
100
AcDbEntity
  8
LAY-6
  6
CONTINUOUS
 62
     1
100
AcDbVertex
100
AcDb2dVertex
 10
618.999999
 20
426.1
 30
0.0
  0
VERTEX
  5
605
100
AcDbEntity
  8
LAY-6
  6
CONTINUOUS
 62
     1
100
AcDbVertex
100
AcDb2dVertex
 10
630.999999
 20
451.5
 30
0.0
  0
VERTEX
  5
606
100
AcDbEntity
  8
LAY-6
  6
CONTINUOUS
 62
     1
100
AcDbVertex
100
AcDb2dVertex
 10
691.299999
 20
451.5
 30
0.0
  0
SEQEND
  5
607
100
AcDbEntity
  8
LAY-6
  6
CONTINUOUS
 62
     1
  0
LINE
  5
608
100
AcDbEntity
  8
LAY-6
  6
CONTINUOUS
 62
     1
100
AcDbLine
 10
619.829417
 20
429.026101
 30
0.0
 11
618.999999
 21
426.1
 31
0.0
  0
LINE
  5
609
100
AcDbEntity
  8
LAY-6
  6
CONTINUOUS
 62
     1
100
AcDbLine
 10
618.999999
 20
426.1
 30
0.0
 11
620.73359
 21
428.598933
 31
0.0
  0
POLYLINE
  5
60A
100
AcDbEntity
  8
LAY-6
  6
CONTINUOUS
 62
     1
100
AcDb2dPolyline
 66
     1
 10
0.0
 20
0.0
 30
0.0
 70
   128
  0
VERTEX
  5
60B
100
AcDbEntity
  8
LAY-6
  6
CONTINUOUS
 62
     1
100
AcDbVertex
100
AcDb2dVertex
 10
618.999999
 20
192.9
 30
0.0
  0
VERTEX
  5
60C
100
AcDbEntity
  8
LAY-6
  6
CONTINUOUS
 62
     1
100
AcDbVertex
100
AcDb2dVertex
 10
630.899999
 20
156.2
 30
0.0
  0
VERTEX
  5
60D
100
AcDbEntity
  8
LAY-6
  6
CONTINUOUS
 62
     1
100
AcDbVertex
100
AcDb2dVertex
 10
691.799999
 20
156.2
 30
0.0
  0
SEQEND
  5
60E
100
AcDbEntity
  8
LAY-6
  6
CONTINUOUS
 62
     1
  0
LINE
  5
60F
100
AcDbEntity
  8
LAY-6
  6
CONTINUOUS
 62
     1
100
AcDbLine
 10
620.400945
 20
190.200491
 30
0.0
 11
618.999999
 21
192.9
 31
0.0
  0
LINE
  5
610
100
AcDbEntity
  8
LAY-6
  6
CONTINUOUS
 62
     1
100
AcDbLine
 10
618.999999
 20
192.9
 30
0.0
 11
619.449702
 21
189.892049
 31
0.0
  0
POLYLINE
  5
611
100
AcDbEntity
  8
LAY-6
  6
CONTINUOUS
 62
     1
100
AcDb2dPolyline
 66
     1
 10
0.0
 20
0.0
 30
0.0
 70
   128
  0
VERTEX
  5
612
100
AcDbEntity
  8
LAY-6
  6
CONTINUOUS
 62
     1
100
AcDbVertex
100
AcDb2dVertex
 10
128.0
 20
398.0
 30
0.0
  0
VERTEX
  5
613
100
AcDbEntity
  8
LAY-6
  6
CONTINUOUS
 62
     1
100
AcDbVertex
100
AcDb2dVertex
 10
118.3
 20
431.9
 30
0.0
  0
VERTEX
  5
614
100
AcDbEntity
  8
LAY-6
  6
CONTINUOUS
 62
     1
100
AcDbVertex
100
AcDb2dVertex
 10
178.5
 20
431.9
 30
0.0
  0
SEQEND
  5
615
100
AcDbEntity
  8
LAY-6
  6
CONTINUOUS
 62
     1
  0
LINE
  5
616
100
AcDbEntity
  8
LAY-6
  6
CONTINUOUS
 62
     1
100
AcDbLine
 10
126.694005
 20
400.746703
 30
0.0
 11
128.0
 21
398.0
 31
0.0
  0
LINE
  5
617
100
AcDbEntity
  8
LAY-6
  6
CONTINUOUS
 62
     1
100
AcDbLine
 10
128.0
 20
398.0
 30
0.0
 11
127.655421
 21
401.021798
 31
0.0
  0
TEXT
  5
618
100
AcDbEntity
  8
LAY-6
  6
CONTINUOUS
 62
     2
100
AcDbText
 10
118.5
 20
431.9
 30
0.0
 40
5.0
  1
４－φ４×３０サラタッピンネジ
 41
0.672
  7
EXCADSTD
 72
     5
 11
178.5
 21
431.9
 31
0.0
100
AcDbText
  0
POLYLINE
  5
619
100
AcDbEntity
  8
LAY-6
  6
CONTINUOUS
 62
     1
100
AcDb2dPolyline
 66
     1
 10
0.0
 20
0.0
 30
0.0
 70
   128
  0
VERTEX
  5
61A
100
AcDbEntity
  8
LAY-6
  6
CONTINUOUS
 62
     1
100
AcDbVertex
100
AcDb2dVertex
 10
128.0
 20
250.0
 30
0.0
  0
VERTEX
  5
61B
100
AcDbEntity
  8
LAY-6
  6
CONTINUOUS
 62
     1
100
AcDbVertex
100
AcDb2dVertex
 10
118.3
 20
283.9
 30
0.0
  0
VERTEX
  5
61C
100
AcDbEntity
  8
LAY-6
  6
CONTINUOUS
 62
     1
100
AcDbVertex
100
AcDb2dVertex
 10
178.5
 20
283.9
 30
0.0
  0
SEQEND
  5
61D
100
AcDbEntity
  8
LAY-6
  6
CONTINUOUS
 62
     1
  0
LINE
  5
61E
100
AcDbEntity
  8
LAY-6
  6
CONTINUOUS
 62
     1
100
AcDbLine
 10
126.694005
 20
252.746703
 30
0.0
 11
128.0
 21
250.0
 31
0.0
  0
LINE
  5
61F
100
AcDbEntity
  8
LAY-6
  6
CONTINUOUS
 62
     1
100
AcDbLine
 10
128.0
 20
250.0
 30
0.0
 11
127.655421
 21
253.021798
 31
0.0
  0
TEXT
  5
620
100
AcDbEntity
  8
LAY-6
  6
CONTINUOUS
 62
     2
100
AcDbText
 10
118.5
 20
283.9
 30
0.0
 40
5.0
  1
４－φ４×３０サラタッピンネジ
 41
0.672
  7
EXCADSTD
 72
     5
 11
178.5
 21
283.9
 31
0.0
100
AcDbText
  0
TEXT
  5
621
100
AcDbEntity
  8
LAY-6
  6
CONTINUOUS
 62
     2
100
AcDbText
 10
445.1
 20
237.5
 30
0.0
 40
5.0
  1
木製ドア
 41
0.672
  7
EXCADSTD
 72
     5
 11
461.1
 21
237.5
 31
0.0
100
AcDbText
  0
TEXT
  5
622
100
AcDbEntity
  8
LAY-6
  6
CONTINUOUS
 62
     2
100
AcDbText
 10
446.1
 20
386.5
 30
0.0
 40
5.0
  1
木製ドア
 41
0.672
  7
EXCADSTD
 72
     5
 11
462.1
 21
386.5
 31
0.0
100
AcDbText
  0
TEXT
  5
623
100
AcDbEntity
  8
LAY-6
  6
CONTINUOUS
 62
     2
100
AcDbText
 10
610.599999
 20
288.5
 30
0.0
 40
5.0
  1
木製ドア
 41
0.672
  7
EXCADSTD
 72
     5
 11
626.599999
 21
288.5
 31
0.0
100
AcDbText
  0
TEXT
  5
624
100
AcDbEntity
  8
LAY-6
  6
CONTINUOUS
 62
     2
100
AcDbText
 10
249.169985
 20
419.562049
 30
0.0
 40
5.0
  1
面取り又はＲ
 41
0.672
  7
EXCADSTD
 72
     5
 11
273.169985
 21
419.562049
 31
0.0
100
AcDbText
  0
POLYLINE
  5
625
100
AcDbEntity
  8
LAY-6
  6
CONTINUOUS
 62
     1
100
AcDb2dPolyline
 66
     1
 10
0.0
 20
0.0
 30
0.0
 70
   128
  0
VERTEX
  5
626
100
AcDbEntity
  8
LAY-6
  6
CONTINUOUS
 62
     1
100
AcDbVertex
100
AcDb2dVertex
 10
293.0
 20
408.0
 30
0.0
  0
VERTEX
  5
627
100
AcDbEntity
  8
LAY-6
  6
CONTINUOUS
 62
     1
100
AcDbVertex
100
AcDb2dVertex
 10
273.839969
 20
419.062049
 30
0.0
  0
VERTEX
  5
628
100
AcDbEntity
  8
LAY-6
  6
CONTINUOUS
 62
     1
100
AcDbVertex
100
AcDb2dVertex
 10
248.5
 20
419.062049
 30
0.0
  0
SEQEND
  5
629
100
AcDbEntity
  8
LAY-6
  6
CONTINUOUS
 62
     1
  0
LINE
  5
62A
100
AcDbEntity
  8
LAY-6
  6
CONTINUOUS
 62
     1
100
AcDbLine
 10
291.101283
 20
408.711325
 30
0.0
 11
293.0
 21
408.0
 31
0.0
  0
LINE
  5
62B
100
AcDbEntity
  8
LAY-6
  6
CONTINUOUS
 62
     1
100
AcDbLine
 10
293.0
 20
408.0
 30
0.0
 11
291.434616
 21
409.288675
 31
0.0
  0
TEXT
  5
62C
100
AcDbEntity
  8
LAY-6
  6
CONTINUOUS
 62
     2
100
AcDbText
 10
249.169985
 20
271.562049
 30
0.0
 40
5.0
  1
面取り又はＲ
 41
0.672
  7
EXCADSTD
 72
     5
 11
273.169985
 21
271.562049
 31
0.0
100
AcDbText
  0
POLYLINE
  5
62D
100
AcDbEntity
  8
LAY-6
  6
CONTINUOUS
 62
     1
100
AcDb2dPolyline
 66
     1
 10
0.0
 20
0.0
 30
0.0
 70
   128
  0
VERTEX
  5
62E
100
AcDbEntity
  8
LAY-6
  6
CONTINUOUS
 62
     1
100
AcDbVertex
100
AcDb2dVertex
 10
293.0
 20
260.0
 30
0.0
  0
VERTEX
  5
62F
100
AcDbEntity
  8
LAY-6
  6
CONTINUOUS
 62
     1
100
AcDbVertex
100
AcDb2dVertex
 10
273.839969
 20
271.062049
 30
0.0
  0
VERTEX
  5
630
100
AcDbEntity
  8
LAY-6
  6
CONTINUOUS
 62
     1
100
AcDbVertex
100
AcDb2dVertex
 10
248.5
 20
271.062049
 30
0.0
  0
SEQEND
  5
631
100
AcDbEntity
  8
LAY-6
  6
CONTINUOUS
 62
     1
  0
LINE
  5
632
100
AcDbEntity
  8
LAY-6
  6
CONTINUOUS
 62
     1
100
AcDbLine
 10
291.101283
 20
260.711325
 30
0.0
 11
293.0
 21
260.0
 31
0.0
  0
LINE
  5
633
100
AcDbEntity
  8
LAY-6
  6
CONTINUOUS
 62
     1
100
AcDbLine
 10
293.0
 20
260.0
 30
0.0
 11
291.434616
 21
261.288675
 31
0.0
  0
ARC
  5
634
100
AcDbEntity
  8
LAY-6
  6
CONTINUOUS
 62
     4
100
AcDbCircle
 10
756.999999
 20
101.0
 30
0.0
 40
18.0
100
AcDbArc
 50
180.0
 51
225.487766
  0
ARC
  5
635
100
AcDbEntity
  8
LAY-6
  6
CONTINUOUS
 62
     4
100
AcDbCircle
 10
721.0
 20
101.0
 30
0.0
 40
18.0
100
AcDbArc
 50
314.424746
 51
0.0
  0
LINE
  5
636
100
AcDbEntity
  8
LAY-6
  6
CONTINUOUS
 62
     4
100
AcDbLine
 10
742.658807
 20
90.122032
 30
0.0
 11
761.5
 21
101.0
 31
0.0
  0
LINE
  5
637
100
AcDbEntity
  8
LAY-6
  6
CONTINUOUS
 62
     4
100
AcDbLine
 10
735.341193
 20
90.122032
 30
0.0
 11
716.499999
 21
101.0
 31
0.0
  0
LINE
  5
638
100
AcDbEntity
  8
LAY-6
  6
CONTINUOUS
 62
     4
100
AcDbLine
 10
716.5
 20
101.0
 30
0.0
 11
761.5
 21
101.0
 31
0.0
  0
LINE
  5
639
100
AcDbEntity
  8
LAY-6
  6
CONTINUOUS
 62
     4
100
AcDbLine
 10
761.5
 20
104.75
 30
0.0
 11
769.0
 21
104.75
 31
0.0
  0
LINE
  5
63A
100
AcDbEntity
  8
LAY-6
  6
CONTINUOUS
 62
     4
100
AcDbLine
 10
716.5
 20
104.75
 30
0.0
 11
709.0
 21
104.75
 31
0.0
  0
LINE
  5
63B
100
AcDbEntity
  8
LAY-6
  6
CONTINUOUS
 62
     4
100
AcDbLine
 10
716.5
 20
97.25
 30
0.0
 11
709.0
 21
97.25
 31
0.0
  0
LINE
  5
63C
100
AcDbEntity
  8
LAY-6
  6
CONTINUOUS
 62
     4
100
AcDbLine
 10
716.5
 20
97.25
 30
0.0
 11
716.5
 21
104.75
 31
0.0
  0
LINE
  5
63D
100
AcDbEntity
  8
LAY-6
  6
CONTINUOUS
 62
     4
100
AcDbLine
 10
709.0
 20
97.25
 30
0.0
 11
709.0
 21
104.75
 31
0.0
  0
LINE
  5
63E
100
AcDbEntity
  8
LAY-6
  6
CONTINUOUS
 62
     4
100
AcDbLine
 10
761.5
 20
97.25
 30
0.0
 11
769.0
 21
97.25
 31
0.0
  0
LINE
  5
63F
100
AcDbEntity
  8
LAY-6
  6
CONTINUOUS
 62
     4
100
AcDbLine
 10
761.5
 20
97.25
 30
0.0
 11
761.5
 21
104.75
 31
0.0
  0
LINE
  5
640
100
AcDbEntity
  8
LAY-6
  6
CONTINUOUS
 62
     4
100
AcDbLine
 10
769.0
 20
97.25
 30
0.0
 11
769.0
 21
104.75
 31
0.0
  0
LINE
  5
641
100
AcDbEntity
  8
LAY-6
  6
CONTINUOUS
 62
     2
100
AcDbLine
 10
745.000003
 20
113.765001
 30
0.0
 11
739.0
 21
107.764998
 31
0.0
  0
LINE
  5
642
100
AcDbEntity
  8
LAY-6
  6
CONTINUOUS
 62
     2
100
AcDbLine
 10
742.0
 20
113.765
 30
0.0
 11
745.000003
 21
113.765001
 31
0.0
  0
LINE
  5
643
100
AcDbEntity
  8
LAY-6
  6
CONTINUOUS
 62
     2
100
AcDbLine
 10
733.000003
 20
113.764995
 30
0.0
 11
739.0
 21
107.764998
 31
0.0
  0
LINE
  5
644
100
AcDbEntity
  8
LAY-6
  6
CONTINUOUS
 62
     2
100
AcDbLine
 10
733.000003
 20
113.764995
 30
0.0
 11
736.0
 21
113.764996
 31
0.0
  0
LINE
  5
645
100
AcDbEntity
  8
LAY-6
  6
CONTINUOUS
 62
     2
100
AcDbLine
 10
742.0
 20
113.765
 30
0.0
 11
742.0
 21
119.765
 31
0.0
  0
LINE
  5
646
100
AcDbEntity
  8
LAY-6
  6
CONTINUOUS
 62
     2
100
AcDbLine
 10
742.0
 20
119.765
 30
0.0
 11
739.0
 21
119.765
 31
0.0
  0
LINE
  5
647
100
AcDbEntity
  8
LAY-6
  6
CONTINUOUS
 62
     2
100
AcDbLine
 10
739.0
 20
119.765
 30
0.0
 11
736.0
 21
119.765
 31
0.0
  0
LINE
  5
648
100
AcDbEntity
  8
LAY-6
  6
CONTINUOUS
 62
     2
100
AcDbLine
 10
736.0
 20
113.764996
 30
0.0
 11
736.0
 21
119.764999
 31
0.0
  0
TEXT
  5
649
100
AcDbEntity
  8
LAY-6
  6
CONTINUOUS
 62
     2
100
AcDbText
 10
705.322841
 20
126.108318
 30
0.0
 40
9.0
  1
ドアの開き勝手基準
 41
0.672
  7
EXCADSTD
 72
     5
 11
770.122844
 21
126.108318
 31
0.0
100
AcDbText
  0
LINE
  5
64A
100
AcDbEntity
  8
LAY-6
  6
CONTINUOUS
 62
     2
100
AcDbLine
 10
704.113457
 20
124.279497
 30
0.0
 11
773.263457
 21
124.279497
 31
0.0
  0
TEXT
  5
64B
100
AcDbEntity
  8
LAY-6
  6
CONTINUOUS
 62
     2
100
AcDbText
 10
701.244428
 20
71.110529
 30
0.0
 40
9.0
  1
本図は右開きを示します
 41
0.672
  7
EXCADSTD
 72
     5
 11
780.444431
 21
71.110529
 31
0.0
100
AcDbText
  0
TEXT
  5
64C
100
AcDbEntity
  8
LAY-6
  6
CONTINUOUS
 62
     2
100
AcDbText
 10
730.813134
 20
92.896519
 30
0.0
 40
7.5
  1
右
 41
0.672
  7
EXCADSTD
 72
     5
 11
735.613134
 21
92.896519
 31
0.0
100
AcDbText
  0
TEXT
  5
64D
100
AcDbEntity
  8
LAY-6
  6
CONTINUOUS
 62
     2
100
AcDbText
 10
741.528085
 20
92.885
 30
0.0
 40
7.5
  1
左
 41
0.672
  7
EXCADSTD
 72
     5
 11
746.328085
 21
92.885
 31
0.0
100
AcDbText
  0
INSERT
  5
64E
100
AcDbEntity
  8
LAY-6
  6
CONTINUOUS
 62
     0
100
AcDbBlockReference
  2
SYM-2
 10
119.0
 20
452.0
 30
0.0
  0
LINE
  5
64F
100
AcDbEntity
  8
LAY-6
  6
CONTINUOUS
 62
     1
100
AcDbLine
 10
200.579165
 20
221.036087
 30
0.0
 11
190.124356
 21
215.0
 31
0.0
  0
LINE
  5
650
100
AcDbEntity
  8
LAY-6
  6
CONTINUOUS
 62
     1
100
AcDbLine
 10
200.579165
 20
369.036087
 30
0.0
 11
190.124356
 21
363.0
 31
0.0
  0
TEXT
  5
651
100
AcDbEntity
  8
LAY-6
  6
CONTINUOUS
 62
     2
100
AcDbText
 10
125.6
 20
298.8
 30
0.0
 40
7.0
  1
床面軸座
 41
0.672
  7
EXCADSTD
 72
     5
 11
148.0
 21
298.8
 31
0.0
100
AcDbText
  0
CIRCLE
  5
652
100
AcDbEntity
  8
LAY-6
  6
CONTINUOUS
 62
     1
100
AcDbCircle
 10
119.0
 20
302.0
 30
0.0
 40
4.0
  0
TEXT
  5
653
100
AcDbEntity
  8
LAY-6
  6
CONTINUOUS
 62
     2
100
AcDbText
 10
116.171573
 20
299.171573
 30
0.0
 40
5.656854
  1
４
 41
0.84
  7
EXCADSTD
 72
     5
 11
120.697056
 21
299.171573
 31
0.0
100
AcDbText
  0
LINE
  5
654
100
AcDbEntity
  8
LAY-6
  6
CONTINUOUS
 62
     1
100
AcDbLine
 10
123.0
 20
298.3
 30
0.0
 11
148.2
 21
298.3
 31
0.0
  0
LINE
  5
655
100
AcDbEntity
  8
LAY-6
  6
CONTINUOUS
 62
     1
100
AcDbLine
 10
603.099999
 20
430.0
 30
0.0
 11
603.099999
 21
413.9
 31
0.0
  0
LINE
  5
656
100
AcDbEntity
  8
LAY-6
  6
CONTINUOUS
 62
     1
100
AcDbLine
 10
603.099999
 20
405.0
 30
0.0
 11
603.099999
 21
390.0
 31
0.0
  0
LINE
  5
657
100
AcDbEntity
  8
LAY-6
  6
CONTINUOUS
 62
     1
100
AcDbLine
 10
604.999999
 20
341.1
 30
0.0
 11
592.799999
 21
341.1
 31
0.0
  0
LINE
  5
658
100
AcDbEntity
  8
LAY-6
  6
CONTINUOUS
 62
     1
100
AcDbLine
 10
603.099999
 20
226.0
 30
0.0
 11
603.099999
 21
209.9
 31
0.0
  0
LINE
  5
659
100
AcDbEntity
  8
LAY-6
  6
CONTINUOUS
 62
     1
100
AcDbLine
 10
603.099999
 20
201.0
 30
0.0
 11
603.099999
 21
186.0
 31
0.0
  0
LINE
  5
65A
100
AcDbEntity
  8
LAY-6
  6
CONTINUOUS
 62
     1
100
AcDbLine
 10
597.999999
 20
272.4
 30
0.0
 11
592.899999
 21
272.4
 31
0.0
  0
TEXT
  5
65B
100
AcDbEntity
  8
LAY-6
  6
CONTINUOUS
 62
     2
100
AcDbText
 10
631.299999
 20
445.5
 30
0.0
 40
5.0
  1
２－φ４×３０サラタッピンネジ
 41
0.672
  7
EXCADSTD
 72
     5
 11
691.299999
 21
445.5
 31
0.0
100
AcDbText
  0
TEXT
  5
65C
100
AcDbEntity
  8
LAY-6
  6
CONTINUOUS
 62
     2
100
AcDbText
 10
631.299999
 20
156.5
 30
0.0
 40
5.0
  1
３－φ４×３０ナベタッピンネジ
 41
0.672
  7
EXCADSTD
 72
     5
 11
691.299999
 21
156.5
 31
0.0
100
AcDbText
  0
TEXT
  5
65D
100
AcDbEntity
  8
LAY-6
  6
CONTINUOUS
 62
     2
100
AcDbText
 10
631.299999
 20
150.5
 30
0.0
 40
5.0
  1
２－φ４×３０サラタッピンネジ
 41
0.672
  7
EXCADSTD
 72
     5
 11
691.299999
 21
150.5
 31
0.0
100
AcDbText
  0
INSERT
  5
65E
100
AcDbEntity
  8
LAY-6
  6
CONTINUOUS
 62
     0
100
AcDbBlockReference
  2
SYM-3
 10
279.0
 20
452.0
 30
0.0
  0
LINE
  5
65F
100
AcDbEntity
  8
LAY-6
  6
CONTINUOUS
 62
     1
100
AcDbLine
 10
354.4
 20
243.0
 30
0.0
 11
354.4
 21
231.0
 31
0.0
  0
CIRCLE
  5
660
100
AcDbEntity
  8
LAY-6
  6
CONTINUOUS
 62
     1
100
AcDbCircle
 10
279.0
 20
302.0
 30
0.0
 40
4.0
  0
TEXT
  5
661
100
AcDbEntity
  8
LAY-6
  6
CONTINUOUS
 62
     2
100
AcDbText
 10
276.171573
 20
299.171573
 30
0.0
 40
5.656854
  1
３
 41
0.84
  7
EXCADSTD
 72
     5
 11
280.697056
 21
299.171573
 31
0.0
100
AcDbText
  0
LINE
  5
662
100
AcDbEntity
  8
LAY-6
  6
CONTINUOUS
 62
     1
100
AcDbLine
 10
283.0
 20
298.3
 30
0.0
 11
314.2
 21
298.3
 31
0.0
  0
TEXT
  5
663
100
AcDbEntity
  8
LAY-6
  6
CONTINUOUS
 62
     2
100
AcDbText
 10
285.6
 20
298.8
 30
0.0
 40
7.0
  1
ア　ー　ム
 41
0.672
  7
EXCADSTD
 72
     5
 11
313.6
 21
298.8
 31
0.0
100
AcDbText
  0
LINE
  5
664
100
AcDbEntity
  8
LAY-6
  6
CONTINUOUS
 62
     1
100
AcDbLine
 10
286.592726
 20
194.485804
 30
0.0
 11
297.875644
 21
201.0
 31
0.0
  0
LINE
  5
665
100
AcDbEntity
  8
LAY-6
  6
CONTINUOUS
 62
     1
100
AcDbLine
 10
354.4
 20
391.0
 30
0.0
 11
354.4
 21
379.0
 31
0.0
  0
LINE
  5
666
100
AcDbEntity
  8
LAY-6
  6
CONTINUOUS
 62
     1
100
AcDbLine
 10
286.592726
 20
342.485804
 30
0.0
 11
297.875644
 21
349.0
 31
0.0
  0
TEXT
  5
667
100
AcDbEntity
  8
LAY-6
  6
CONTINUOUS
 62
     2
100
AcDbText
 10
512.0
 20
276.0
 30
0.0
 40
5.0
  1
軸座ネジ
 41
0.672
  7
EXCADSTD
 72
     5
 11
528.0
 21
276.0
 31
0.0
100
AcDbText
  0
TEXT
  5
668
100
AcDbEntity
  8
LAY-6
  6
CONTINUOUS
 62
     2
100
AcDbText
 10
512.0
 20
271.0
 30
0.0
 40
5.0
  1
Ｍ６×２０十字穴付き止めネジ
 41
0.672
  7
EXCADSTD
 72
     5
 11
568.0
 21
271.0
 31
0.0
100
AcDbText
  0
POLYLINE
  5
669
100
AcDbEntity
  8
LAY-6
  6
CONTINUOUS
 62
     1
100
AcDb2dPolyline
 66
     1
 10
0.0
 20
0.0
 30
0.0
 70
   128
  0
VERTEX
  5
66A
100
AcDbEntity
  8
LAY-6
  6
CONTINUOUS
 62
     1
100
AcDbVertex
100
AcDb2dVertex
 10
583.999999
 20
207.0
 30
0.0
  0
VERTEX
  5
66B
100
AcDbEntity
  8
LAY-6
  6
CONTINUOUS
 62
     1
100
AcDbVertex
100
AcDb2dVertex
 10
569.1
 20
270.5
 30
0.0
  0
VERTEX
  5
66C
100
AcDbEntity
  8
LAY-6
  6
CONTINUOUS
 62
     1
100
AcDbVertex
100
AcDb2dVertex
 10
509.6
 20
270.5
 30
0.0
  0
SEQEND
  5
66D
100
AcDbEntity
  8
LAY-6
  6
CONTINUOUS
 62
     1
  0
LINE
  5
66E
100
AcDbEntity
  8
LAY-6
  6
CONTINUOUS
 62
     1
100
AcDbLine
 10
583.218598
 20
208.870968
 30
0.0
 11
583.999999
 21
207.0
 31
0.0
  0
LINE
  5
66F
100
AcDbEntity
  8
LAY-6
  6
CONTINUOUS
 62
     1
100
AcDbLine
 10
583.999999
 20
207.0
 30
0.0
 11
583.867637
 21
209.023263
 31
0.0
  0
TEXT
  5
670
100
AcDbEntity
  8
LAY-6
  6
CONTINUOUS
 62
     2
100
AcDbText
 10
508.0
 20
264.8
 30
0.0
 40
5.0
  1
軸座ネジは床面にあたるまで軽く
 41
0.672
  7
EXCADSTD
 72
     5
 11
568.0
 21
264.8
 31
0.0
100
AcDbText
  0
TEXT
  5
671
100
AcDbEntity
  8
LAY-6
  6
CONTINUOUS
 62
     2
100
AcDbText
 10
508.0
 20
259.3
 30
0.0
 40
5.0
  1
締め込んで下さい。
 41
0.672
  7
EXCADSTD
 72
     5
 11
544.0
 21
259.3
 31
0.0
100
AcDbText
  0
LINE
  5
672
100
AcDbEntity
  8
LAY-9
  6
CONTINUOUS
 62
    14
100
AcDbLine
 10
597.999999
 20
442.356854
 30
0.0
 11
600.643145
 21
445.0
 31
0.0
  0
LINE
  5
673
100
AcDbEntity
  8
LAY-9
  6
CONTINUOUS
 62
    14
100
AcDbLine
 10
597.999999
 20
439.528427
 30
0.0
 11
603.471572
 21
445.0
 31
0.0
  0
LINE
  5
674
100
AcDbEntity
  8
LAY-9
  6
CONTINUOUS
 62
    14
100
AcDbLine
 10
597.999999
 20
436.7
 30
0.0
 11
600.999999
 21
439.7
 31
0.0
  0
LINE
  5
675
100
AcDbEntity
  8
LAY-9
  6
CONTINUOUS
 62
    14
100
AcDbLine
 10
603.299999
 20
442.0
 30
0.0
 11
606.299999
 21
445.0
 31
0.0
  0
LINE
  5
676
100
AcDbEntity
  8
LAY-9
  6
CONTINUOUS
 62
    14
100
AcDbLine
 10
597.999999
 20
433.871573
 30
0.0
 11
600.999999
 21
436.871573
 31
0.0
  0
LINE
  5
677
100
AcDbEntity
  8
LAY-9
  6
CONTINUOUS
 62
    14
100
AcDbLine
 10
606.128427
 20
442.0
 30
0.0
 11
609.128427
 21
445.0
 31
0.0
  0
LINE
  5
678
100
AcDbEntity
  8
LAY-9
  6
CONTINUOUS
 62
    14
100
AcDbLine
 10
597.999999
 20
431.043146
 30
0.0
 11
600.999999
 21
434.043146
 31
0.0
  0
LINE
  5
679
100
AcDbEntity
  8
LAY-9
  6
CONTINUOUS
 62
    14
100
AcDbLine
 10
608.956854
 20
442.0
 30
0.0
 11
611.956854
 21
445.0
 31
0.0
  0
LINE
  5
67A
100
AcDbEntity
  8
LAY-9
  6
CONTINUOUS
 62
    14
100
AcDbLine
 10
599.785281
 20
430.0
 30
0.0
 11
602.785281
 21
433.0
 31
0.0
  0
LINE
  5
67B
100
AcDbEntity
  8
LAY-9
  6
CONTINUOUS
 62
    14
100
AcDbLine
 10
611.785281
 20
442.0
 30
0.0
 11
614.785281
 21
445.0
 31
0.0
  0
LINE
  5
67C
100
AcDbEntity
  8
LAY-9
  6
CONTINUOUS
 62
    14
100
AcDbLine
 10
602.613708
 20
430.0
 30
0.0
 11
605.613708
 21
433.0
 31
0.0
  0
LINE
  5
67D
100
AcDbEntity
  8
LAY-9
  6
CONTINUOUS
 62
    14
100
AcDbLine
 10
614.613708
 20
442.0
 30
0.0
 11
615.999999
 21
443.386292
 31
0.0
  0
LINE
  5
67E
100
AcDbEntity
  8
LAY-9
  6
CONTINUOUS
 62
    14
100
AcDbLine
 10
605.442135
 20
430.0
 30
0.0
 11
608.442135
 21
433.0
 31
0.0
  0
LINE
  5
67F
100
AcDbEntity
  8
LAY-9
  6
CONTINUOUS
 62
    14
100
AcDbLine
 10
608.270562
 20
430.0
 30
0.0
 11
611.270562
 21
433.0
 31
0.0
  0
LINE
  5
680
100
AcDbEntity
  8
LAY-9
  6
CONTINUOUS
 62
    14
100
AcDbLine
 10
611.098989
 20
430.0
 30
0.0
 11
614.098989
 21
433.0
 31
0.0
  0
LINE
  5
681
100
AcDbEntity
  8
LAY-9
  6
CONTINUOUS
 62
    14
100
AcDbLine
 10
613.927416
 20
430.0
 30
0.0
 11
616.927416
 21
433.0
 31
0.0
  0
LINE
  5
682
100
AcDbEntity
  8
LAY-9
  6
CONTINUOUS
 62
    14
100
AcDbLine
 10
616.755844
 20
430.0
 30
0.0
 11
619.755844
 21
433.0
 31
0.0
  0
LINE
  5
683
100
AcDbEntity
  8
LAY-9
  6
CONTINUOUS
 62
    14
100
AcDbLine
 10
619.584271
 20
430.0
 30
0.0
 11
622.584271
 21
433.0
 31
0.0
  0
LINE
  5
684
100
AcDbEntity
  8
LAY-9
  6
CONTINUOUS
 62
    14
100
AcDbLine
 10
622.412698
 20
430.0
 30
0.0
 11
625.412698
 21
433.0
 31
0.0
  0
LINE
  5
685
100
AcDbEntity
  8
LAY-9
  6
CONTINUOUS
 62
    14
100
AcDbLine
 10
625.241125
 20
430.0
 30
0.0
 11
628.241125
 21
433.0
 31
0.0
  0
LINE
  5
686
100
AcDbEntity
  8
LAY-9
  6
CONTINUOUS
 62
    14
100
AcDbLine
 10
628.069552
 20
430.0
 30
0.0
 11
631.069552
 21
433.0
 31
0.0
  0
LINE
  5
687
100
AcDbEntity
  8
LAY-9
  6
CONTINUOUS
 62
    14
100
AcDbLine
 10
630.897979
 20
430.0
 30
0.0
 11
633.897979
 21
433.0
 31
0.0
  0
LINE
  5
688
100
AcDbEntity
  8
LAY-9
  6
CONTINUOUS
 62
    14
100
AcDbLine
 10
633.726406
 20
430.0
 30
0.0
 11
636.726406
 21
433.0
 31
0.0
  0
LINE
  5
689
100
AcDbEntity
  8
LAY-9
  6
CONTINUOUS
 62
    14
100
AcDbLine
 10
636.554833
 20
430.0
 30
0.0
 11
639.554833
 21
433.0
 31
0.0
  0
LINE
  5
68A
100
AcDbEntity
  8
LAY-9
  6
CONTINUOUS
 62
    14
100
AcDbLine
 10
637.999999
 20
428.616739
 30
0.0
 11
640.999999
 21
431.616739
 31
0.0
  0
LINE
  5
68B
100
AcDbEntity
  8
LAY-9
  6
CONTINUOUS
 62
    14
100
AcDbLine
 10
637.999999
 20
425.788312
 30
0.0
 11
640.999999
 21
428.788312
 31
0.0
  0
LINE
  5
68C
100
AcDbEntity
  8
LAY-9
  6
CONTINUOUS
 62
    14
100
AcDbLine
 10
637.999999
 20
422.959885
 30
0.0
 11
640.999999
 21
425.959885
 31
0.0
  0
LINE
  5
68D
100
AcDbEntity
  8
LAY-9
  6
CONTINUOUS
 62
    14
100
AcDbLine
 10
637.999999
 20
420.131458
 30
0.0
 11
640.999999
 21
423.131458
 31
0.0
  0
LINE
  5
68E
100
AcDbEntity
  8
LAY-9
  6
CONTINUOUS
 62
    14
100
AcDbLine
 10
638.696969
 20
418.0
 30
0.0
 11
640.999999
 21
420.30303
 31
0.0
  0
LINE
  5
68F
100
AcDbEntity
  8
LAY-9
  6
CONTINUOUS
 62
    14
100
AcDbLine
 10
600.999999
 20
415.685281
 30
0.0
 11
603.314718
 21
418.0
 31
0.0
  0
LINE
  5
690
100
AcDbEntity
  8
LAY-9
  6
CONTINUOUS
 62
    14
100
AcDbLine
 10
600.999999
 20
412.856854
 30
0.0
 11
603.999999
 21
415.856854
 31
0.0
  0
LINE
  5
691
100
AcDbEntity
  8
LAY-9
  6
CONTINUOUS
 62
    14
100
AcDbLine
 10
600.999999
 20
401.543146
 30
0.0
 11
603.999999
 21
404.543146
 31
0.0
  0
LINE
  5
692
100
AcDbEntity
  8
LAY-9
  6
CONTINUOUS
 62
    14
100
AcDbLine
 10
600.999999
 20
398.714719
 30
0.0
 11
603.999999
 21
401.714719
 31
0.0
  0
LINE
  5
693
100
AcDbEntity
  8
LAY-9
  6
CONTINUOUS
 62
    14
100
AcDbLine
 10
600.999999
 20
395.886292
 30
0.0
 11
603.999999
 21
398.886292
 31
0.0
  0
LINE
  5
694
100
AcDbEntity
  8
LAY-9
  6
CONTINUOUS
 62
    14
100
AcDbLine
 10
600.999999
 20
393.057864
 30
0.0
 11
603.999999
 21
396.057864
 31
0.0
  0
LINE
  5
695
100
AcDbEntity
  8
LAY-9
  6
CONTINUOUS
 62
    14
100
AcDbLine
 10
600.999999
 20
390.229437
 30
0.0
 11
603.999999
 21
393.229437
 31
0.0
  0
LINE
  5
696
100
AcDbEntity
  8
LAY-9
  6
CONTINUOUS
 62
    14
100
AcDbLine
 10
600.999999
 20
387.40101
 30
0.0
 11
603.999999
 21
390.40101
 31
0.0
  0
LINE
  5
697
100
AcDbEntity
  8
LAY-9
  6
CONTINUOUS
 62
    14
100
AcDbLine
 10
600.999999
 20
384.572583
 30
0.0
 11
603.999999
 21
387.572583
 31
0.0
  0
LINE
  5
698
100
AcDbEntity
  8
LAY-9
  6
CONTINUOUS
 62
    14
100
AcDbLine
 10
600.999999
 20
381.744156
 30
0.0
 11
603.999999
 21
384.744156
 31
0.0
  0
LINE
  5
699
100
AcDbEntity
  8
LAY-9
  6
CONTINUOUS
 62
    14
100
AcDbLine
 10
600.999999
 20
378.915729
 30
0.0
 11
603.999999
 21
381.915729
 31
0.0
  0
LINE
  5
69A
100
AcDbEntity
  8
LAY-9
  6
CONTINUOUS
 62
    14
100
AcDbLine
 10
600.999999
 20
376.087302
 30
0.0
 11
603.999999
 21
379.087302
 31
0.0
  0
LINE
  5
69B
100
AcDbEntity
  8
LAY-9
  6
CONTINUOUS
 62
    14
100
AcDbLine
 10
600.999999
 20
373.258875
 30
0.0
 11
603.999999
 21
376.258875
 31
0.0
  0
LINE
  5
69C
100
AcDbEntity
  8
LAY-9
  6
CONTINUOUS
 62
    14
100
AcDbLine
 10
600.999999
 20
370.430447
 30
0.0
 11
603.999999
 21
373.430447
 31
0.0
  0
LINE
  5
69D
100
AcDbEntity
  8
LAY-9
  6
CONTINUOUS
 62
    14
100
AcDbLine
 10
600.999999
 20
367.60202
 30
0.0
 11
603.999999
 21
370.60202
 31
0.0
  0
LINE
  5
69E
100
AcDbEntity
  8
LAY-9
  6
CONTINUOUS
 62
    14
100
AcDbLine
 10
600.999999
 20
364.773593
 30
0.0
 11
603.999999
 21
367.773593
 31
0.0
  0
LINE
  5
69F
100
AcDbEntity
  8
LAY-9
  6
CONTINUOUS
 62
    14
100
AcDbLine
 10
600.999999
 20
361.945166
 30
0.0
 11
603.999999
 21
364.945166
 31
0.0
  0
LINE
  5
6A0
100
AcDbEntity
  8
LAY-9
  6
CONTINUOUS
 62
    14
100
AcDbLine
 10
600.999999
 20
359.116739
 30
0.0
 11
603.999999
 21
362.116739
 31
0.0
  0
LINE
  5
6A1
100
AcDbEntity
  8
LAY-9
  6
CONTINUOUS
 62
    14
100
AcDbLine
 10
600.999999
 20
356.288312
 30
0.0
 11
603.999999
 21
359.288312
 31
0.0
  0
LINE
  5
6A2
100
AcDbEntity
  8
LAY-9
  6
CONTINUOUS
 62
    14
100
AcDbLine
 10
600.999999
 20
353.459885
 30
0.0
 11
603.999999
 21
356.459885
 31
0.0
  0
LINE
  5
6A3
100
AcDbEntity
  8
LAY-9
  6
CONTINUOUS
 62
    14
100
AcDbLine
 10
600.999999
 20
350.631458
 30
0.0
 11
603.999999
 21
353.631458
 31
0.0
  0
LINE
  5
6A4
100
AcDbEntity
  8
LAY-9
  6
CONTINUOUS
 62
    14
100
AcDbLine
 10
600.999999
 20
347.80303
 30
0.0
 11
603.999999
 21
350.80303
 31
0.0
  0
LINE
  5
6A5
100
AcDbEntity
  8
LAY-9
  6
CONTINUOUS
 62
    14
100
AcDbLine
 10
600.999999
 20
344.974603
 30
0.0
 11
603.999999
 21
347.974603
 31
0.0
  0
LINE
  5
6A6
100
AcDbEntity
  8
LAY-9
  6
CONTINUOUS
 62
    14
100
AcDbLine
 10
600.999999
 20
342.146176
 30
0.0
 11
603.999999
 21
345.146176
 31
0.0
  0
LINE
  5
6A7
100
AcDbEntity
  8
LAY-9
  6
CONTINUOUS
 62
    14
100
AcDbLine
 10
600.999999
 20
339.317749
 30
0.0
 11
603.999999
 21
342.317749
 31
0.0
  0
LINE
  5
6A8
100
AcDbEntity
  8
LAY-9
  6
CONTINUOUS
 62
    14
100
AcDbLine
 10
600.999999
 20
336.489322
 30
0.0
 11
603.999999
 21
339.489322
 31
0.0
  0
LINE
  5
6A9
100
AcDbEntity
  8
LAY-9
  6
CONTINUOUS
 62
    14
100
AcDbLine
 10
600.999999
 20
333.660895
 30
0.0
 11
603.999999
 21
336.660895
 31
0.0
  0
LINE
  5
6AA
100
AcDbEntity
  8
LAY-9
  6
CONTINUOUS
 62
    14
100
AcDbLine
 10
600.999999
 20
330.832468
 30
0.0
 11
603.999999
 21
333.832468
 31
0.0
  0
LINE
  5
6AB
100
AcDbEntity
  8
LAY-9
  6
CONTINUOUS
 62
    14
100
AcDbLine
 10
600.999999
 20
328.004041
 30
0.0
 11
603.999999
 21
331.004041
 31
0.0
  0
LINE
  5
6AC
100
AcDbEntity
  8
LAY-9
  6
CONTINUOUS
 62
    14
100
AcDbLine
 10
600.999999
 20
325.175613
 30
0.0
 11
603.999999
 21
328.175613
 31
0.0
  0
LINE
  5
6AD
100
AcDbEntity
  8
LAY-9
  6
CONTINUOUS
 62
    14
100
AcDbLine
 10
600.999999
 20
322.347186
 30
0.0
 11
603.999999
 21
325.347186
 31
0.0
  0
LINE
  5
6AE
100
AcDbEntity
  8
LAY-9
  6
CONTINUOUS
 62
    14
100
AcDbLine
 10
600.999999
 20
319.518759
 30
0.0
 11
603.999999
 21
322.518759
 31
0.0
  0
LINE
  5
6AF
100
AcDbEntity
  8
LAY-9
  6
CONTINUOUS
 62
    14
100
AcDbLine
 10
600.999999
 20
316.690332
 30
0.0
 11
603.999999
 21
319.690332
 31
0.0
  0
LINE
  5
6B0
100
AcDbEntity
  8
LAY-9
  6
CONTINUOUS
 62
    14
100
AcDbLine
 10
600.999999
 20
313.861905
 30
0.0
 11
603.999999
 21
316.861905
 31
0.0
  0
LINE
  5
6B1
100
AcDbEntity
  8
LAY-9
  6
CONTINUOUS
 62
    14
100
AcDbLine
 10
602.166522
 20
312.2
 30
0.0
 11
603.999999
 21
314.033478
 31
0.0
  0
LINE
  5
6B2
100
AcDbEntity
  8
LAY-9
  6
CONTINUOUS
 62
    14
100
AcDbLine
 10
600.999999
 20
404.371573
 30
0.0
 11
602.364213
 21
405.735786
 31
0.0
  0
LINE
  5
6B3
100
AcDbEntity
  8
LAY-9
  6
CONTINUOUS
 62
    14
100
AcDbLine
 10
626.071572
 20
424.0
 30
0.0
 11
629.071572
 21
427.0
 31
0.0
  0
LINE
  5
6B4
100
AcDbEntity
  8
LAY-9
  6
CONTINUOUS
 62
    14
100
AcDbLine
 10
628.899999
 20
424.0
 30
0.0
 11
631.899999
 21
427.0
 31
0.0
  0
LINE
  5
6B5
100
AcDbEntity
  8
LAY-9
  6
CONTINUOUS
 62
    14
100
AcDbLine
 10
631.728427
 20
424.0
 30
0.0
 11
634.728427
 21
427.0
 31
0.0
  0
LINE
  5
6B6
100
AcDbEntity
  8
LAY-9
  6
CONTINUOUS
 62
    14
100
AcDbLine
 10
632.999999
 20
422.443146
 30
0.0
 11
635.999999
 21
425.443146
 31
0.0
  0
LINE
  5
6B7
100
AcDbEntity
  8
LAY-9
  6
CONTINUOUS
 62
    14
100
AcDbLine
 10
632.999999
 20
419.614719
 30
0.0
 11
635.999999
 21
422.614719
 31
0.0
  0
LINE
  5
6B8
100
AcDbEntity
  8
LAY-9
  6
CONTINUOUS
 62
    14
100
AcDbLine
 10
632.999999
 20
416.786292
 30
0.0
 11
635.999999
 21
419.786292
 31
0.0
  0
LINE
  5
6B9
100
AcDbEntity
  8
LAY-9
  6
CONTINUOUS
 62
    14
100
AcDbLine
 10
632.999999
 20
413.957864
 30
0.0
 11
635.999999
 21
416.957864
 31
0.0
  0
LINE
  5
6BA
100
AcDbEntity
  8
LAY-9
  6
CONTINUOUS
 62
    14
100
AcDbLine
 10
632.999999
 20
411.129437
 30
0.0
 11
635.999999
 21
414.129437
 31
0.0
  0
LINE
  5
6BB
100
AcDbEntity
  8
LAY-9
  6
CONTINUOUS
 62
    14
100
AcDbLine
 10
632.999999
 20
408.30101
 30
0.0
 11
635.999999
 21
411.30101
 31
0.0
  0
LINE
  5
6BC
100
AcDbEntity
  8
LAY-9
  6
CONTINUOUS
 62
    14
100
AcDbLine
 10
632.999999
 20
405.472583
 30
0.0
 11
635.999999
 21
408.472583
 31
0.0
  0
LINE
  5
6BD
100
AcDbEntity
  8
LAY-9
  6
CONTINUOUS
 62
    14
100
AcDbLine
 10
632.999999
 20
402.644156
 30
0.0
 11
635.999999
 21
405.644156
 31
0.0
  0
LINE
  5
6BE
100
AcDbEntity
  8
LAY-9
  6
CONTINUOUS
 62
    14
100
AcDbLine
 10
632.999999
 20
399.815729
 30
0.0
 11
635.999999
 21
402.815729
 31
0.0
  0
LINE
  5
6BF
100
AcDbEntity
  8
LAY-9
  6
CONTINUOUS
 62
    14
100
AcDbLine
 10
632.999999
 20
396.987302
 30
0.0
 11
635.999999
 21
399.987302
 31
0.0
  0
LINE
  5
6C0
100
AcDbEntity
  8
LAY-9
  6
CONTINUOUS
 62
    14
100
AcDbLine
 10
632.999999
 20
394.158875
 30
0.0
 11
635.999999
 21
397.158875
 31
0.0
  0
LINE
  5
6C1
100
AcDbEntity
  8
LAY-9
  6
CONTINUOUS
 62
    14
100
AcDbLine
 10
632.999999
 20
391.330447
 30
0.0
 11
635.999999
 21
394.330447
 31
0.0
  0
LINE
  5
6C2
100
AcDbEntity
  8
LAY-9
  6
CONTINUOUS
 62
    14
100
AcDbLine
 10
632.999999
 20
388.50202
 30
0.0
 11
635.999999
 21
391.50202
 31
0.0
  0
LINE
  5
6C3
100
AcDbEntity
  8
LAY-9
  6
CONTINUOUS
 62
    14
100
AcDbLine
 10
632.999999
 20
385.673593
 30
0.0
 11
635.999999
 21
388.673593
 31
0.0
  0
LINE
  5
6C4
100
AcDbEntity
  8
LAY-9
  6
CONTINUOUS
 62
    14
100
AcDbLine
 10
632.999999
 20
382.845166
 30
0.0
 11
635.999999
 21
385.845166
 31
0.0
  0
LINE
  5
6C5
100
AcDbEntity
  8
LAY-9
  6
CONTINUOUS
 62
    14
100
AcDbLine
 10
632.999999
 20
380.016739
 30
0.0
 11
635.999999
 21
383.016739
 31
0.0
  0
LINE
  5
6C6
100
AcDbEntity
  8
LAY-9
  6
CONTINUOUS
 62
    14
100
AcDbLine
 10
632.999999
 20
377.188312
 30
0.0
 11
635.999999
 21
380.188312
 31
0.0
  0
LINE
  5
6C7
100
AcDbEntity
  8
LAY-9
  6
CONTINUOUS
 62
    14
100
AcDbLine
 10
632.999999
 20
374.359885
 30
0.0
 11
635.999999
 21
377.359885
 31
0.0
  0
LINE
  5
6C8
100
AcDbEntity
  8
LAY-9
  6
CONTINUOUS
 62
    14
100
AcDbLine
 10
632.999999
 20
371.531458
 30
0.0
 11
635.999999
 21
374.531458
 31
0.0
  0
LINE
  5
6C9
100
AcDbEntity
  8
LAY-9
  6
CONTINUOUS
 62
    14
100
AcDbLine
 10
632.999999
 20
368.70303
 30
0.0
 11
635.999999
 21
371.70303
 31
0.0
  0
LINE
  5
6CA
100
AcDbEntity
  8
LAY-9
  6
CONTINUOUS
 62
    14
100
AcDbLine
 10
632.999999
 20
365.874603
 30
0.0
 11
635.999999
 21
368.874603
 31
0.0
  0
LINE
  5
6CB
100
AcDbEntity
  8
LAY-9
  6
CONTINUOUS
 62
    14
100
AcDbLine
 10
632.999999
 20
363.046176
 30
0.0
 11
635.999999
 21
366.046176
 31
0.0
  0
LINE
  5
6CC
100
AcDbEntity
  8
LAY-9
  6
CONTINUOUS
 62
    14
100
AcDbLine
 10
632.999999
 20
360.217749
 30
0.0
 11
635.999999
 21
363.217749
 31
0.0
  0
LINE
  5
6CD
100
AcDbEntity
  8
LAY-9
  6
CONTINUOUS
 62
    14
100
AcDbLine
 10
632.999999
 20
357.389322
 30
0.0
 11
635.999999
 21
360.389322
 31
0.0
  0
LINE
  5
6CE
100
AcDbEntity
  8
LAY-9
  6
CONTINUOUS
 62
    14
100
AcDbLine
 10
632.999999
 20
354.560895
 30
0.0
 11
635.999999
 21
357.560895
 31
0.0
  0
LINE
  5
6CF
100
AcDbEntity
  8
LAY-9
  6
CONTINUOUS
 62
    14
100
AcDbLine
 10
632.999999
 20
351.732468
 30
0.0
 11
635.999999
 21
354.732468
 31
0.0
  0
LINE
  5
6D0
100
AcDbEntity
  8
LAY-9
  6
CONTINUOUS
 62
    14
100
AcDbLine
 10
632.999999
 20
348.904041
 30
0.0
 11
635.999999
 21
351.904041
 31
0.0
  0
LINE
  5
6D1
100
AcDbEntity
  8
LAY-9
  6
CONTINUOUS
 62
    14
100
AcDbLine
 10
632.999999
 20
346.075613
 30
0.0
 11
635.999999
 21
349.075613
 31
0.0
  0
LINE
  5
6D2
100
AcDbEntity
  8
LAY-9
  6
CONTINUOUS
 62
    14
100
AcDbLine
 10
632.999999
 20
343.247186
 30
0.0
 11
635.999999
 21
346.247186
 31
0.0
  0
LINE
  5
6D3
100
AcDbEntity
  8
LAY-9
  6
CONTINUOUS
 62
    14
100
AcDbLine
 10
632.999999
 20
340.418759
 30
0.0
 11
635.999999
 21
343.418759
 31
0.0
  0
LINE
  5
6D4
100
AcDbEntity
  8
LAY-9
  6
CONTINUOUS
 62
    14
100
AcDbLine
 10
632.999999
 20
337.590332
 30
0.0
 11
635.999999
 21
340.590332
 31
0.0
  0
LINE
  5
6D5
100
AcDbEntity
  8
LAY-9
  6
CONTINUOUS
 62
    14
100
AcDbLine
 10
632.999999
 20
334.761905
 30
0.0
 11
635.999999
 21
337.761905
 31
0.0
  0
LINE
  5
6D6
100
AcDbEntity
  8
LAY-9
  6
CONTINUOUS
 62
    14
100
AcDbLine
 10
632.999999
 20
331.933478
 30
0.0
 11
635.999999
 21
334.933478
 31
0.0
  0
LINE
  5
6D7
100
AcDbEntity
  8
LAY-9
  6
CONTINUOUS
 62
    14
100
AcDbLine
 10
632.999999
 20
329.105051
 30
0.0
 11
635.999999
 21
332.105051
 31
0.0
  0
LINE
  5
6D8
100
AcDbEntity
  8
LAY-9
  6
CONTINUOUS
 62
    14
100
AcDbLine
 10
632.999999
 20
326.276624
 30
0.0
 11
635.999999
 21
329.276624
 31
0.0
  0
LINE
  5
6D9
100
AcDbEntity
  8
LAY-9
  6
CONTINUOUS
 62
    14
100
AcDbLine
 10
632.999999
 20
323.448196
 30
0.0
 11
635.999999
 21
326.448196
 31
0.0
  0
LINE
  5
6DA
100
AcDbEntity
  8
LAY-9
  6
CONTINUOUS
 62
    14
100
AcDbLine
 10
632.999999
 20
320.619769
 30
0.0
 11
635.999999
 21
323.619769
 31
0.0
  0
LINE
  5
6DB
100
AcDbEntity
  8
LAY-9
  6
CONTINUOUS
 62
    14
100
AcDbLine
 10
632.999999
 20
317.791342
 30
0.0
 11
635.999999
 21
320.791342
 31
0.0
  0
LINE
  5
6DC
100
AcDbEntity
  8
LAY-9
  6
CONTINUOUS
 62
    14
100
AcDbLine
 10
632.999999
 20
314.962915
 30
0.0
 11
635.999999
 21
317.962915
 31
0.0
  0
LINE
  5
6DD
100
AcDbEntity
  8
LAY-9
  6
CONTINUOUS
 62
    14
100
AcDbLine
 10
633.065512
 20
312.2
 30
0.0
 11
635.999999
 21
315.134488
 31
0.0
  0
LINE
  5
6DE
100
AcDbEntity
  8
LAY-9
  6
CONTINUOUS
 62
    14
100
AcDbLine
 10
635.893939
 20
312.2
 30
0.0
 11
635.999999
 21
312.306061
 31
0.0
  0
LINE
  5
6DF
100
AcDbEntity
  8
LAY-9
  6
CONTINUOUS
 62
    14
100
AcDbLine
 10
624.999999
 20
425.756854
 30
0.0
 11
626.243145
 21
427.0
 31
0.0
  0
LINE
  5
6E0
100
AcDbEntity
  8
LAY-9
  6
CONTINUOUS
 62
    14
100
AcDbLine
 10
600.999999
 20
304.793939
 30
0.0
 11
603.40606
 21
307.2
 31
0.0
  0
LINE
  5
6E1
100
AcDbEntity
  8
LAY-9
  6
CONTINUOUS
 62
    14
100
AcDbLine
 10
600.999999
 20
301.965512
 30
0.0
 11
603.999999
 21
304.965512
 31
0.0
  0
LINE
  5
6E2
100
AcDbEntity
  8
LAY-9
  6
CONTINUOUS
 62
    14
100
AcDbLine
 10
600.999999
 20
299.137085
 30
0.0
 11
603.999999
 21
302.137085
 31
0.0
  0
LINE
  5
6E3
100
AcDbEntity
  8
LAY-9
  6
CONTINUOUS
 62
    14
100
AcDbLine
 10
600.999999
 20
296.308658
 30
0.0
 11
603.999999
 21
299.308658
 31
0.0
  0
LINE
  5
6E4
100
AcDbEntity
  8
LAY-9
  6
CONTINUOUS
 62
    14
100
AcDbLine
 10
600.999999
 20
293.480231
 30
0.0
 11
603.999999
 21
296.480231
 31
0.0
  0
LINE
  5
6E5
100
AcDbEntity
  8
LAY-9
  6
CONTINUOUS
 62
    14
100
AcDbLine
 10
600.999999
 20
290.651804
 30
0.0
 11
603.999999
 21
293.651804
 31
0.0
  0
LINE
  5
6E6
100
AcDbEntity
  8
LAY-9
  6
CONTINUOUS
 62
    14
100
AcDbLine
 10
600.999999
 20
287.823376
 30
0.0
 11
603.999999
 21
290.823376
 31
0.0
  0
LINE
  5
6E7
100
AcDbEntity
  8
LAY-9
  6
CONTINUOUS
 62
    14
100
AcDbLine
 10
600.999999
 20
284.994949
 30
0.0
 11
603.999999
 21
287.994949
 31
0.0
  0
LINE
  5
6E8
100
AcDbEntity
  8
LAY-9
  6
CONTINUOUS
 62
    14
100
AcDbLine
 10
600.999999
 20
282.166522
 30
0.0
 11
603.999999
 21
285.166522
 31
0.0
  0
LINE
  5
6E9
100
AcDbEntity
  8
LAY-9
  6
CONTINUOUS
 62
    14
100
AcDbLine
 10
600.999999
 20
279.338095
 30
0.0
 11
603.999999
 21
282.338095
 31
0.0
  0
LINE
  5
6EA
100
AcDbEntity
  8
LAY-9
  6
CONTINUOUS
 62
    14
100
AcDbLine
 10
600.999999
 20
276.509668
 30
0.0
 11
603.999999
 21
279.509668
 31
0.0
  0
LINE
  5
6EB
100
AcDbEntity
  8
LAY-9
  6
CONTINUOUS
 62
    14
100
AcDbLine
 10
600.999999
 20
273.681241
 30
0.0
 11
603.999999
 21
276.681241
 31
0.0
  0
LINE
  5
6EC
100
AcDbEntity
  8
LAY-9
  6
CONTINUOUS
 62
    14
100
AcDbLine
 10
600.999999
 20
270.852814
 30
0.0
 11
603.999999
 21
273.852814
 31
0.0
  0
LINE
  5
6ED
100
AcDbEntity
  8
LAY-9
  6
CONTINUOUS
 62
    14
100
AcDbLine
 10
600.999999
 20
268.024387
 30
0.0
 11
603.999999
 21
271.024387
 31
0.0
  0
LINE
  5
6EE
100
AcDbEntity
  8
LAY-9
  6
CONTINUOUS
 62
    14
100
AcDbLine
 10
600.999999
 20
265.195959
 30
0.0
 11
603.999999
 21
268.195959
 31
0.0
  0
LINE
  5
6EF
100
AcDbEntity
  8
LAY-9
  6
CONTINUOUS
 62
    14
100
AcDbLine
 10
600.999999
 20
262.367532
 30
0.0
 11
603.999999
 21
265.367532
 31
0.0
  0
LINE
  5
6F0
100
AcDbEntity
  8
LAY-9
  6
CONTINUOUS
 62
    14
100
AcDbLine
 10
600.999999
 20
259.539105
 30
0.0
 11
603.999999
 21
262.539105
 31
0.0
  0
LINE
  5
6F1
100
AcDbEntity
  8
LAY-9
  6
CONTINUOUS
 62
    14
100
AcDbLine
 10
600.999999
 20
256.710678
 30
0.0
 11
603.999999
 21
259.710678
 31
0.0
  0
LINE
  5
6F2
100
AcDbEntity
  8
LAY-9
  6
CONTINUOUS
 62
    14
100
AcDbLine
 10
600.999999
 20
253.882251
 30
0.0
 11
603.999999
 21
256.882251
 31
0.0
  0
LINE
  5
6F3
100
AcDbEntity
  8
LAY-9
  6
CONTINUOUS
 62
    14
100
AcDbLine
 10
600.999999
 20
251.053824
 30
0.0
 11
603.999999
 21
254.053824
 31
0.0
  0
LINE
  5
6F4
100
AcDbEntity
  8
LAY-9
  6
CONTINUOUS
 62
    14
100
AcDbLine
 10
600.999999
 20
248.225397
 30
0.0
 11
603.999999
 21
251.225397
 31
0.0
  0
LINE
  5
6F5
100
AcDbEntity
  8
LAY-9
  6
CONTINUOUS
 62
    14
100
AcDbLine
 10
600.999999
 20
245.39697
 30
0.0
 11
603.999999
 21
248.39697
 31
0.0
  0
LINE
  5
6F6
100
AcDbEntity
  8
LAY-9
  6
CONTINUOUS
 62
    14
100
AcDbLine
 10
600.999999
 20
242.568542
 30
0.0
 11
603.999999
 21
245.568542
 31
0.0
  0
LINE
  5
6F7
100
AcDbEntity
  8
LAY-9
  6
CONTINUOUS
 62
    14
100
AcDbLine
 10
600.999999
 20
239.740115
 30
0.0
 11
603.999999
 21
242.740115
 31
0.0
  0
LINE
  5
6F8
100
AcDbEntity
  8
LAY-9
  6
CONTINUOUS
 62
    14
100
AcDbLine
 10
600.999999
 20
236.911688
 30
0.0
 11
603.999999
 21
239.911688
 31
0.0
  0
LINE
  5
6F9
100
AcDbEntity
  8
LAY-9
  6
CONTINUOUS
 62
    14
100
AcDbLine
 10
600.999999
 20
234.083261
 30
0.0
 11
603.999999
 21
237.083261
 31
0.0
  0
LINE
  5
6FA
100
AcDbEntity
  8
LAY-9
  6
CONTINUOUS
 62
    14
100
AcDbLine
 10
600.999999
 20
231.254834
 30
0.0
 11
603.999999
 21
234.254834
 31
0.0
  0
LINE
  5
6FB
100
AcDbEntity
  8
LAY-9
  6
CONTINUOUS
 62
    14
100
AcDbLine
 10
600.999999
 20
228.426407
 30
0.0
 11
603.999999
 21
231.426407
 31
0.0
  0
LINE
  5
6FC
100
AcDbEntity
  8
LAY-9
  6
CONTINUOUS
 62
    14
100
AcDbLine
 10
600.999999
 20
225.59798
 30
0.0
 11
603.999999
 21
228.59798
 31
0.0
  0
LINE
  5
6FD
100
AcDbEntity
  8
LAY-9
  6
CONTINUOUS
 62
    14
100
AcDbLine
 10
600.999999
 20
222.769553
 30
0.0
 11
603.999999
 21
225.769553
 31
0.0
  0
LINE
  5
6FE
100
AcDbEntity
  8
LAY-9
  6
CONTINUOUS
 62
    14
100
AcDbLine
 10
600.999999
 20
219.941125
 30
0.0
 11
603.999999
 21
222.941125
 31
0.0
  0
LINE
  5
6FF
100
AcDbEntity
  8
LAY-9
  6
CONTINUOUS
 62
    14
100
AcDbLine
 10
600.999999
 20
217.112698
 30
0.0
 11
603.999999
 21
220.112698
 31
0.0
  0
LINE
  5
700
100
AcDbEntity
  8
LAY-9
  6
CONTINUOUS
 62
    14
100
AcDbLine
 10
600.999999
 20
214.284271
 30
0.0
 11
603.999999
 21
217.284271
 31
0.0
  0
LINE
  5
701
100
AcDbEntity
  8
LAY-9
  6
CONTINUOUS
 62
    14
100
AcDbLine
 10
600.999999
 20
211.455844
 30
0.0
 11
603.999999
 21
214.455844
 31
0.0
  0
LINE
  5
702
100
AcDbEntity
  8
LAY-9
  6
CONTINUOUS
 62
    14
100
AcDbLine
 10
600.999999
 20
208.627417
 30
0.0
 11
603.999999
 21
211.627417
 31
0.0
  0
LINE
  5
703
100
AcDbEntity
  8
LAY-9
  6
CONTINUOUS
 62
    14
100
AcDbLine
 10
632.999999
 20
305.681241
 30
0.0
 11
634.518759
 21
307.2
 31
0.0
  0
LINE
  5
704
100
AcDbEntity
  8
LAY-9
  6
CONTINUOUS
 62
    14
100
AcDbLine
 10
632.999999
 20
302.852814
 30
0.0
 11
635.999999
 21
305.852814
 31
0.0
  0
LINE
  5
705
100
AcDbEntity
  8
LAY-9
  6
CONTINUOUS
 62
    14
100
AcDbLine
 10
632.999999
 20
300.024387
 30
0.0
 11
635.999999
 21
303.024387
 31
0.0
  0
LINE
  5
706
100
AcDbEntity
  8
LAY-9
  6
CONTINUOUS
 62
    14
100
AcDbLine
 10
632.999999
 20
297.195959
 30
0.0
 11
635.999999
 21
300.195959
 31
0.0
  0
LINE
  5
707
100
AcDbEntity
  8
LAY-9
  6
CONTINUOUS
 62
    14
100
AcDbLine
 10
632.999999
 20
294.367532
 30
0.0
 11
635.999999
 21
297.367532
 31
0.0
  0
LINE
  5
708
100
AcDbEntity
  8
LAY-9
  6
CONTINUOUS
 62
    14
100
AcDbLine
 10
632.999999
 20
291.539105
 30
0.0
 11
635.999999
 21
294.539105
 31
0.0
  0
LINE
  5
709
100
AcDbEntity
  8
LAY-9
  6
CONTINUOUS
 62
    14
100
AcDbLine
 10
632.999999
 20
288.710678
 30
0.0
 11
635.999999
 21
291.710678
 31
0.0
  0
LINE
  5
70A
100
AcDbEntity
  8
LAY-9
  6
CONTINUOUS
 62
    14
100
AcDbLine
 10
632.999999
 20
285.882251
 30
0.0
 11
635.999999
 21
288.882251
 31
0.0
  0
LINE
  5
70B
100
AcDbEntity
  8
LAY-9
  6
CONTINUOUS
 62
    14
100
AcDbLine
 10
632.999999
 20
283.053824
 30
0.0
 11
635.999999
 21
286.053824
 31
0.0
  0
LINE
  5
70C
100
AcDbEntity
  8
LAY-9
  6
CONTINUOUS
 62
    14
100
AcDbLine
 10
632.999999
 20
280.225397
 30
0.0
 11
635.999999
 21
283.225397
 31
0.0
  0
LINE
  5
70D
100
AcDbEntity
  8
LAY-9
  6
CONTINUOUS
 62
    14
100
AcDbLine
 10
632.999999
 20
277.39697
 30
0.0
 11
635.999999
 21
280.39697
 31
0.0
  0
LINE
  5
70E
100
AcDbEntity
  8
LAY-9
  6
CONTINUOUS
 62
    14
100
AcDbLine
 10
632.999999
 20
274.568542
 30
0.0
 11
635.999999
 21
277.568542
 31
0.0
  0
LINE
  5
70F
100
AcDbEntity
  8
LAY-9
  6
CONTINUOUS
 62
    14
100
AcDbLine
 10
632.999999
 20
271.740115
 30
0.0
 11
635.999999
 21
274.740115
 31
0.0
  0
LINE
  5
710
100
AcDbEntity
  8
LAY-9
  6
CONTINUOUS
 62
    14
100
AcDbLine
 10
632.999999
 20
268.911688
 30
0.0
 11
635.999999
 21
271.911688
 31
0.0
  0
LINE
  5
711
100
AcDbEntity
  8
LAY-9
  6
CONTINUOUS
 62
    14
100
AcDbLine
 10
632.999999
 20
266.083261
 30
0.0
 11
635.999999
 21
269.083261
 31
0.0
  0
LINE
  5
712
100
AcDbEntity
  8
LAY-9
  6
CONTINUOUS
 62
    14
100
AcDbLine
 10
632.999999
 20
263.254834
 30
0.0
 11
635.999999
 21
266.254834
 31
0.0
  0
LINE
  5
713
100
AcDbEntity
  8
LAY-9
  6
CONTINUOUS
 62
    14
100
AcDbLine
 10
632.999999
 20
260.426407
 30
0.0
 11
635.999999
 21
263.426407
 31
0.0
  0
LINE
  5
714
100
AcDbEntity
  8
LAY-9
  6
CONTINUOUS
 62
    14
100
AcDbLine
 10
632.999999
 20
257.59798
 30
0.0
 11
635.999999
 21
260.59798
 31
0.0
  0
LINE
  5
715
100
AcDbEntity
  8
LAY-9
  6
CONTINUOUS
 62
    14
100
AcDbLine
 10
632.999999
 20
254.769553
 30
0.0
 11
635.999999
 21
257.769553
 31
0.0
  0
LINE
  5
716
100
AcDbEntity
  8
LAY-9
  6
CONTINUOUS
 62
    14
100
AcDbLine
 10
632.999999
 20
251.941125
 30
0.0
 11
635.999999
 21
254.941125
 31
0.0
  0
LINE
  5
717
100
AcDbEntity
  8
LAY-9
  6
CONTINUOUS
 62
    14
100
AcDbLine
 10
632.999999
 20
249.112698
 30
0.0
 11
635.999999
 21
252.112698
 31
0.0
  0
LINE
  5
718
100
AcDbEntity
  8
LAY-9
  6
CONTINUOUS
 62
    14
100
AcDbLine
 10
632.999999
 20
246.284271
 30
0.0
 11
635.999999
 21
249.284271
 31
0.0
  0
LINE
  5
719
100
AcDbEntity
  8
LAY-9
  6
CONTINUOUS
 62
    14
100
AcDbLine
 10
632.999999
 20
243.455844
 30
0.0
 11
635.999999
 21
246.455844
 31
0.0
  0
LINE
  5
71A
100
AcDbEntity
  8
LAY-9
  6
CONTINUOUS
 62
    14
100
AcDbLine
 10
632.999999
 20
240.627417
 30
0.0
 11
635.999999
 21
243.627417
 31
0.0
  0
LINE
  5
71B
100
AcDbEntity
  8
LAY-9
  6
CONTINUOUS
 62
    14
100
AcDbLine
 10
632.999999
 20
237.79899
 30
0.0
 11
635.999999
 21
240.79899
 31
0.0
  0
LINE
  5
71C
100
AcDbEntity
  8
LAY-9
  6
CONTINUOUS
 62
    14
100
AcDbLine
 10
632.999999
 20
234.970563
 30
0.0
 11
635.999999
 21
237.970563
 31
0.0
  0
LINE
  5
71D
100
AcDbEntity
  8
LAY-9
  6
CONTINUOUS
 62
    14
100
AcDbLine
 10
632.999999
 20
232.142136
 30
0.0
 11
635.999999
 21
235.142136
 31
0.0
  0
LINE
  5
71E
100
AcDbEntity
  8
LAY-9
  6
CONTINUOUS
 62
    14
100
AcDbLine
 10
632.999999
 20
229.313708
 30
0.0
 11
635.999999
 21
232.313708
 31
0.0
  0
LINE
  5
71F
100
AcDbEntity
  8
LAY-9
  6
CONTINUOUS
 62
    14
100
AcDbLine
 10
632.999999
 20
226.485281
 30
0.0
 11
635.999999
 21
229.485281
 31
0.0
  0
LINE
  5
720
100
AcDbEntity
  8
LAY-9
  6
CONTINUOUS
 62
    14
100
AcDbLine
 10
600.999999
 20
191.656854
 30
0.0
 11
601.343145
 21
192.0
 31
0.0
  0
LINE
  5
721
100
AcDbEntity
  8
LAY-9
  6
CONTINUOUS
 62
    14
100
AcDbLine
 10
632.999999
 20
223.656854
 30
0.0
 11
635.999999
 21
226.656854
 31
0.0
  0
LINE
  5
722
100
AcDbEntity
  8
LAY-9
  6
CONTINUOUS
 62
    14
100
AcDbLine
 10
600.999999
 20
188.828427
 30
0.0
 11
603.999999
 21
191.828427
 31
0.0
  0
LINE
  5
723
100
AcDbEntity
  8
LAY-9
  6
CONTINUOUS
 62
    14
100
AcDbLine
 10
632.999999
 20
220.828427
 30
0.0
 11
635.999999
 21
223.828427
 31
0.0
  0
LINE
  5
724
100
AcDbEntity
  8
LAY-9
  6
CONTINUOUS
 62
    14
100
AcDbLine
 10
600.999999
 20
186.0
 30
0.0
 11
603.999999
 21
189.0
 31
0.0
  0
LINE
  5
725
100
AcDbEntity
  8
LAY-9
  6
CONTINUOUS
 62
    14
100
AcDbLine
 10
632.999999
 20
218.0
 30
0.0
 11
635.999999
 21
221.0
 31
0.0
  0
LINE
  5
726
100
AcDbEntity
  8
LAY-9
  6
CONTINUOUS
 62
    14
100
AcDbLine
 10
603.828427
 20
186.0
 30
0.0
 11
606.828427
 21
189.0
 31
0.0
  0
LINE
  5
727
100
AcDbEntity
  8
LAY-9
  6
CONTINUOUS
 62
    14
100
AcDbLine
 10
632.999999
 20
215.171573
 30
0.0
 11
635.999999
 21
218.171573
 31
0.0
  0
LINE
  5
728
100
AcDbEntity
  8
LAY-9
  6
CONTINUOUS
 62
    14
100
AcDbLine
 10
606.656854
 20
186.0
 30
0.0
 11
609.656854
 21
189.0
 31
0.0
  0
LINE
  5
729
100
AcDbEntity
  8
LAY-9
  6
CONTINUOUS
 62
    14
100
AcDbLine
 10
632.999999
 20
212.343146
 30
0.0
 11
635.999999
 21
215.343146
 31
0.0
  0
LINE
  5
72A
100
AcDbEntity
  8
LAY-9
  6
CONTINUOUS
 62
    14
100
AcDbLine
 10
609.485281
 20
186.0
 30
0.0
 11
612.485281
 21
189.0
 31
0.0
  0
LINE
  5
72B
100
AcDbEntity
  8
LAY-9
  6
CONTINUOUS
 62
    14
100
AcDbLine
 10
632.999999
 20
209.514719
 30
0.0
 11
635.999999
 21
212.514719
 31
0.0
  0
LINE
  5
72C
100
AcDbEntity
  8
LAY-9
  6
CONTINUOUS
 62
    14
100
AcDbLine
 10
612.313708
 20
186.0
 30
0.0
 11
615.313708
 21
189.0
 31
0.0
  0
LINE
  5
72D
100
AcDbEntity
  8
LAY-9
  6
CONTINUOUS
 62
    14
100
AcDbLine
 10
632.999999
 20
206.686292
 30
0.0
 11
635.999999
 21
209.686292
 31
0.0
  0
LINE
  5
72E
100
AcDbEntity
  8
LAY-9
  6
CONTINUOUS
 62
    14
100
AcDbLine
 10
615.142135
 20
186.0
 30
0.0
 11
618.142135
 21
189.0
 31
0.0
  0
LINE
  5
72F
100
AcDbEntity
  8
LAY-9
  6
CONTINUOUS
 62
    14
100
AcDbLine
 10
632.999999
 20
203.857864
 30
0.0
 11
635.999999
 21
206.857864
 31
0.0
  0
LINE
  5
730
100
AcDbEntity
  8
LAY-9
  6
CONTINUOUS
 62
    14
100
AcDbLine
 10
617.970562
 20
186.0
 30
0.0
 11
620.970562
 21
189.0
 31
0.0
  0
LINE
  5
731
100
AcDbEntity
  8
LAY-9
  6
CONTINUOUS
 62
    14
100
AcDbLine
 10
632.999999
 20
201.029437
 30
0.0
 11
635.999999
 21
204.029437
 31
0.0
  0
LINE
  5
732
100
AcDbEntity
  8
LAY-9
  6
CONTINUOUS
 62
    14
100
AcDbLine
 10
620.798989
 20
186.0
 30
0.0
 11
623.798989
 21
189.0
 31
0.0
  0
LINE
  5
733
100
AcDbEntity
  8
LAY-9
  6
CONTINUOUS
 62
    14
100
AcDbLine
 10
632.999999
 20
198.20101
 30
0.0
 11
635.999999
 21
201.20101
 31
0.0
  0
LINE
  5
734
100
AcDbEntity
  8
LAY-9
  6
CONTINUOUS
 62
    14
100
AcDbLine
 10
623.627416
 20
186.0
 30
0.0
 11
626.627416
 21
189.0
 31
0.0
  0
LINE
  5
735
100
AcDbEntity
  8
LAY-9
  6
CONTINUOUS
 62
    14
100
AcDbLine
 10
632.999999
 20
195.372583
 30
0.0
 11
635.999999
 21
198.372583
 31
0.0
  0
LINE
  5
736
100
AcDbEntity
  8
LAY-9
  6
CONTINUOUS
 62
    14
100
AcDbLine
 10
626.455844
 20
186.0
 30
0.0
 11
629.455844
 21
189.0
 31
0.0
  0
LINE
  5
737
100
AcDbEntity
  8
LAY-9
  6
CONTINUOUS
 62
    14
100
AcDbLine
 10
632.999999
 20
192.544156
 30
0.0
 11
635.999999
 21
195.544156
 31
0.0
  0
LINE
  5
738
100
AcDbEntity
  8
LAY-9
  6
CONTINUOUS
 62
    14
100
AcDbLine
 10
629.284271
 20
186.0
 30
0.0
 11
632.284271
 21
189.0
 31
0.0
  0
LINE
  5
739
100
AcDbEntity
  8
LAY-9
  6
CONTINUOUS
 62
    14
100
AcDbLine
 10
632.999999
 20
189.715729
 30
0.0
 11
635.999999
 21
192.715729
 31
0.0
  0
LINE
  5
73A
100
AcDbEntity
  8
LAY-9
  6
CONTINUOUS
 62
    14
100
AcDbLine
 10
632.112698
 20
186.0
 30
0.0
 11
635.999999
 21
189.887302
 31
0.0
  0
LINE
  5
73B
100
AcDbEntity
  8
LAY-9
  6
CONTINUOUS
 62
    14
100
AcDbLine
 10
634.941125
 20
186.0
 30
0.0
 11
635.999999
 21
187.058875
 31
0.0
  0
LINE
  5
73C
100
AcDbEntity
  8
LAY-9
  6
CONTINUOUS
 62
    14
100
AcDbLine
 10
537.999999
 20
179.164502
 30
0.0
 11
538.835498
 21
180.0
 31
0.0
  0
LINE
  5
73D
100
AcDbEntity
  8
LAY-9
  6
CONTINUOUS
 62
    14
100
AcDbLine
 10
538.663925
 20
177.0
 30
0.0
 11
541.663925
 21
180.0
 31
0.0
  0
LINE
  5
73E
100
AcDbEntity
  8
LAY-9
  6
CONTINUOUS
 62
    14
100
AcDbLine
 10
541.492352
 20
177.0
 30
0.0
 11
544.492352
 21
180.0
 31
0.0
  0
LINE
  5
73F
100
AcDbEntity
  8
LAY-9
  6
CONTINUOUS
 62
    14
100
AcDbLine
 10
544.320779
 20
177.0
 30
0.0
 11
547.320779
 21
180.0
 31
0.0
  0
LINE
  5
740
100
AcDbEntity
  8
LAY-9
  6
CONTINUOUS
 62
    14
100
AcDbLine
 10
547.149206
 20
177.0
 30
0.0
 11
550.149206
 21
180.0
 31
0.0
  0
LINE
  5
741
100
AcDbEntity
  8
LAY-9
  6
CONTINUOUS
 62
    14
100
AcDbLine
 10
549.977633
 20
177.0
 30
0.0
 11
552.977633
 21
180.0
 31
0.0
  0
LINE
  5
742
100
AcDbEntity
  8
LAY-9
  6
CONTINUOUS
 62
    14
100
AcDbLine
 10
552.80606
 20
177.0
 30
0.0
 11
555.80606
 21
180.0
 31
0.0
  0
LINE
  5
743
100
AcDbEntity
  8
LAY-9
  6
CONTINUOUS
 62
    14
100
AcDbLine
 10
555.634487
 20
177.0
 30
0.0
 11
558.634487
 21
180.0
 31
0.0
  0
LINE
  5
744
100
AcDbEntity
  8
LAY-9
  6
CONTINUOUS
 62
    14
100
AcDbLine
 10
558.462914
 20
177.0
 30
0.0
 11
561.462914
 21
180.0
 31
0.0
  0
LINE
  5
745
100
AcDbEntity
  8
LAY-9
  6
CONTINUOUS
 62
    14
100
AcDbLine
 10
561.291342
 20
177.0
 30
0.0
 11
564.291342
 21
180.0
 31
0.0
  0
LINE
  5
746
100
AcDbEntity
  8
LAY-9
  6
CONTINUOUS
 62
    14
100
AcDbLine
 10
564.119769
 20
177.0
 30
0.0
 11
567.119769
 21
180.0
 31
0.0
  0
LINE
  5
747
100
AcDbEntity
  8
LAY-9
  6
CONTINUOUS
 62
    14
100
AcDbLine
 10
566.948196
 20
177.0
 30
0.0
 11
569.948196
 21
180.0
 31
0.0
  0
LINE
  5
748
100
AcDbEntity
  8
LAY-9
  6
CONTINUOUS
 62
    14
100
AcDbLine
 10
569.776623
 20
177.0
 30
0.0
 11
572.776623
 21
180.0
 31
0.0
  0
LINE
  5
749
100
AcDbEntity
  8
LAY-9
  6
CONTINUOUS
 62
    14
100
AcDbLine
 10
572.60505
 20
177.0
 30
0.0
 11
575.60505
 21
180.0
 31
0.0
  0
LINE
  5
74A
100
AcDbEntity
  8
LAY-9
  6
CONTINUOUS
 62
    14
100
AcDbLine
 10
575.433477
 20
177.0
 30
0.0
 11
578.433477
 21
180.0
 31
0.0
  0
LINE
  5
74B
100
AcDbEntity
  8
LAY-9
  6
CONTINUOUS
 62
    14
100
AcDbLine
 10
578.261904
 20
177.0
 30
0.0
 11
581.261904
 21
180.0
 31
0.0
  0
LINE
  5
74C
100
AcDbEntity
  8
LAY-9
  6
CONTINUOUS
 62
    14
100
AcDbLine
 10
581.090331
 20
177.0
 30
0.0
 11
584.090331
 21
180.0
 31
0.0
  0
LINE
  5
74D
100
AcDbEntity
  8
LAY-9
  6
CONTINUOUS
 62
    14
100
AcDbLine
 10
583.918759
 20
177.0
 30
0.0
 11
586.918759
 21
180.0
 31
0.0
  0
LINE
  5
74E
100
AcDbEntity
  8
LAY-9
  6
CONTINUOUS
 62
    14
100
AcDbLine
 10
586.747186
 20
177.0
 30
0.0
 11
589.747186
 21
180.0
 31
0.0
  0
LINE
  5
74F
100
AcDbEntity
  8
LAY-9
  6
CONTINUOUS
 62
    14
100
AcDbLine
 10
589.575613
 20
177.0
 30
0.0
 11
592.575613
 21
180.0
 31
0.0
  0
LINE
  5
750
100
AcDbEntity
  8
LAY-9
  6
CONTINUOUS
 62
    14
100
AcDbLine
 10
592.40404
 20
177.0
 30
0.0
 11
595.40404
 21
180.0
 31
0.0
  0
LINE
  5
751
100
AcDbEntity
  8
LAY-9
  6
CONTINUOUS
 62
    14
100
AcDbLine
 10
595.232467
 20
177.0
 30
0.0
 11
598.232467
 21
180.0
 31
0.0
  0
LINE
  5
752
100
AcDbEntity
  8
LAY-9
  6
CONTINUOUS
 62
    14
100
AcDbLine
 10
598.060894
 20
177.0
 30
0.0
 11
601.060894
 21
180.0
 31
0.0
  0
LINE
  5
753
100
AcDbEntity
  8
LAY-9
  6
CONTINUOUS
 62
    14
100
AcDbLine
 10
600.889321
 20
177.0
 30
0.0
 11
603.889321
 21
180.0
 31
0.0
  0
LINE
  5
754
100
AcDbEntity
  8
LAY-9
  6
CONTINUOUS
 62
    14
100
AcDbLine
 10
603.717748
 20
177.0
 30
0.0
 11
606.717748
 21
180.0
 31
0.0
  0
LINE
  5
755
100
AcDbEntity
  8
LAY-9
  6
CONTINUOUS
 62
    14
100
AcDbLine
 10
606.546176
 20
177.0
 30
0.0
 11
609.546176
 21
180.0
 31
0.0
  0
LINE
  5
756
100
AcDbEntity
  8
LAY-9
  6
CONTINUOUS
 62
    14
100
AcDbLine
 10
609.374603
 20
177.0
 30
0.0
 11
612.374603
 21
180.0
 31
0.0
  0
LINE
  5
757
100
AcDbEntity
  8
LAY-9
  6
CONTINUOUS
 62
    14
100
AcDbLine
 10
612.20303
 20
177.0
 30
0.0
 11
615.20303
 21
180.0
 31
0.0
  0
LINE
  5
758
100
AcDbEntity
  8
LAY-9
  6
CONTINUOUS
 62
    14
100
AcDbLine
 10
615.031457
 20
177.0
 30
0.0
 11
618.031457
 21
180.0
 31
0.0
  0
LINE
  5
759
100
AcDbEntity
  8
LAY-9
  6
CONTINUOUS
 62
    14
100
AcDbLine
 10
617.859884
 20
177.0
 30
0.0
 11
620.859884
 21
180.0
 31
0.0
  0
LINE
  5
75A
100
AcDbEntity
  8
LAY-9
  6
CONTINUOUS
 62
    14
100
AcDbLine
 10
620.688311
 20
177.0
 30
0.0
 11
623.688311
 21
180.0
 31
0.0
  0
LINE
  5
75B
100
AcDbEntity
  8
LAY-9
  6
CONTINUOUS
 62
    14
100
AcDbLine
 10
623.516738
 20
177.0
 30
0.0
 11
626.516738
 21
180.0
 31
0.0
  0
LINE
  5
75C
100
AcDbEntity
  8
LAY-9
  6
CONTINUOUS
 62
    14
100
AcDbLine
 10
626.345165
 20
177.0
 30
0.0
 11
629.345165
 21
180.0
 31
0.0
  0
LINE
  5
75D
100
AcDbEntity
  8
LAY-9
  6
CONTINUOUS
 62
    14
100
AcDbLine
 10
629.173593
 20
177.0
 30
0.0
 11
632.173593
 21
180.0
 31
0.0
  0
LINE
  5
75E
100
AcDbEntity
  8
LAY-9
  6
CONTINUOUS
 62
    14
100
AcDbLine
 10
632.00202
 20
177.0
 30
0.0
 11
635.00202
 21
180.0
 31
0.0
  0
LINE
  5
75F
100
AcDbEntity
  8
LAY-9
  6
CONTINUOUS
 62
    14
100
AcDbLine
 10
634.830447
 20
177.0
 30
0.0
 11
637.830447
 21
180.0
 31
0.0
  0
LINE
  5
760
100
AcDbEntity
  8
LAY-9
  6
CONTINUOUS
 62
    14
100
AcDbLine
 10
637.658874
 20
177.0
 30
0.0
 11
640.658874
 21
180.0
 31
0.0
  0
LINE
  5
761
100
AcDbEntity
  8
LAY-9
  6
CONTINUOUS
 62
    14
100
AcDbLine
 10
640.487301
 20
177.0
 30
0.0
 11
643.487301
 21
180.0
 31
0.0
  0
LINE
  5
762
100
AcDbEntity
  8
LAY-9
  6
CONTINUOUS
 62
    14
100
AcDbLine
 10
643.315728
 20
177.0
 30
0.0
 11
646.315728
 21
180.0
 31
0.0
  0
LINE
  5
763
100
AcDbEntity
  8
LAY-9
  6
CONTINUOUS
 62
    14
100
AcDbLine
 10
646.144155
 20
177.0
 30
0.0
 11
649.144155
 21
180.0
 31
0.0
  0
LINE
  5
764
100
AcDbEntity
  8
LAY-9
  6
CONTINUOUS
 62
    14
100
AcDbLine
 10
648.972582
 20
177.0
 30
0.0
 11
651.972582
 21
180.0
 31
0.0
  0
LINE
  5
765
100
AcDbEntity
  8
LAY-9
  6
CONTINUOUS
 62
    14
100
AcDbLine
 10
651.80101
 20
177.0
 30
0.0
 11
654.80101
 21
180.0
 31
0.0
  0
LINE
  5
766
100
AcDbEntity
  8
LAY-9
  6
CONTINUOUS
 62
    14
100
AcDbLine
 10
654.629437
 20
177.0
 30
0.0
 11
657.629437
 21
180.0
 31
0.0
  0
LINE
  5
767
100
AcDbEntity
  8
LAY-9
  6
CONTINUOUS
 62
    14
100
AcDbLine
 10
657.457864
 20
177.0
 30
0.0
 11
660.457864
 21
180.0
 31
0.0
  0
LINE
  5
768
100
AcDbEntity
  8
LAY-9
  6
CONTINUOUS
 62
    14
100
AcDbLine
 10
660.286291
 20
177.0
 30
0.0
 11
663.286291
 21
180.0
 31
0.0
  0
LINE
  5
769
100
AcDbEntity
  8
LAY-9
  6
CONTINUOUS
 62
    14
100
AcDbLine
 10
663.114718
 20
177.0
 30
0.0
 11
666.114718
 21
180.0
 31
0.0
  0
LINE
  5
76A
100
AcDbEntity
  8
LAY-9
  6
CONTINUOUS
 62
    14
100
AcDbLine
 10
665.943145
 20
177.0
 30
0.0
 11
668.943145
 21
180.0
 31
0.0
  0
LINE
  5
76B
100
AcDbEntity
  8
LAY-9
  6
CONTINUOUS
 62
    14
100
AcDbLine
 10
668.771572
 20
177.0
 30
0.0
 11
671.771572
 21
180.0
 31
0.0
  0
LINE
  5
76C
100
AcDbEntity
  8
LAY-9
  6
CONTINUOUS
 62
    14
100
AcDbLine
 10
671.599999
 20
177.0
 30
0.0
 11
674.599999
 21
180.0
 31
0.0
  0
LINE
  5
76D
100
AcDbEntity
  8
LAY-9
  6
CONTINUOUS
 62
    14
100
AcDbLine
 10
674.428427
 20
177.0
 30
0.0
 11
677.428427
 21
180.0
 31
0.0
  0
LINE
  5
76E
100
AcDbEntity
  8
LAY-9
  6
CONTINUOUS
 62
    14
100
AcDbLine
 10
677.256854
 20
177.0
 30
0.0
 11
678.999999
 21
178.743146
 31
0.0
  0
LINE
  5
76F
100
AcDbEntity
  8
LAY-9
  6
CONTINUOUS
 62
    14
100
AcDbLine
 10
109.2
 20
222.412698
 30
0.0
 11
111.787302
 21
225.0
 31
0.0
  0
LINE
  5
770
100
AcDbEntity
  8
LAY-9
  6
CONTINUOUS
 62
    14
100
AcDbLine
 10
111.615729
 20
222.0
 30
0.0
 11
114.615729
 21
225.0
 31
0.0
  0
LINE
  5
771
100
AcDbEntity
  8
LAY-9
  6
CONTINUOUS
 62
    14
100
AcDbLine
 10
114.444156
 20
222.0
 30
0.0
 11
117.444156
 21
225.0
 31
0.0
  0
LINE
  5
772
100
AcDbEntity
  8
LAY-9
  6
CONTINUOUS
 62
    14
100
AcDbLine
 10
151.0
 20
258.555844
 30
0.0
 11
151.444156
 21
259.0
 31
0.0
  0
LINE
  5
773
100
AcDbEntity
  8
LAY-9
  6
CONTINUOUS
 62
    14
100
AcDbLine
 10
155.0
 20
262.555844
 30
0.0
 11
157.444156
 21
265.0
 31
0.0
  0
LINE
  5
774
100
AcDbEntity
  8
LAY-9
  6
CONTINUOUS
 62
    14
100
AcDbLine
 10
170.0
 20
277.555844
 30
0.0
 11
172.444156
 21
280.0
 31
0.0
  0
LINE
  5
775
100
AcDbEntity
  8
LAY-9
  6
CONTINUOUS
 62
    14
100
AcDbLine
 10
117.272583
 20
222.0
 30
0.0
 11
120.272583
 21
225.0
 31
0.0
  0
LINE
  5
776
100
AcDbEntity
  8
LAY-9
  6
CONTINUOUS
 62
    14
100
AcDbLine
 10
151.0
 20
255.727417
 30
0.0
 11
154.272583
 21
259.0
 31
0.0
  0
LINE
  5
777
100
AcDbEntity
  8
LAY-9
  6
CONTINUOUS
 62
    14
100
AcDbLine
 10
155.0
 20
259.727417
 30
0.0
 11
160.272583
 21
265.0
 31
0.0
  0
LINE
  5
778
100
AcDbEntity
  8
LAY-9
  6
CONTINUOUS
 62
    14
100
AcDbLine
 10
170.0
 20
274.727417
 30
0.0
 11
173.0
 21
277.727417
 31
0.0
  0
LINE
  5
779
100
AcDbEntity
  8
LAY-9
  6
CONTINUOUS
 62
    14
100
AcDbLine
 10
120.10101
 20
222.0
 30
0.0
 11
123.10101
 21
225.0
 31
0.0
  0
LINE
  5
77A
100
AcDbEntity
  8
LAY-9
  6
CONTINUOUS
 62
    14
100
AcDbLine
 10
151.0
 20
252.89899
 30
0.0
 11
154.0
 21
255.89899
 31
0.0
  0
LINE
  5
77B
100
AcDbEntity
  8
LAY-9
  6
CONTINUOUS
 62
    14
100
AcDbLine
 10
154.10101
 20
256.0
 30
0.0
 11
158.0
 21
259.89899
 31
0.0
  0
LINE
  5
77C
100
AcDbEntity
  8
LAY-9
  6
CONTINUOUS
 62
    14
100
AcDbLine
 10
160.10101
 20
262.0
 30
0.0
 11
163.10101
 21
265.0
 31
0.0
  0
LINE
  5
77D
100
AcDbEntity
  8
LAY-9
  6
CONTINUOUS
 62
    14
100
AcDbLine
 10
170.0
 20
271.89899
 30
0.0
 11
173.0
 21
274.89899
 31
0.0
  0
LINE
  5
77E
100
AcDbEntity
  8
LAY-9
  6
CONTINUOUS
 62
    14
100
AcDbLine
 10
122.929437
 20
222.0
 30
0.0
 11
125.929437
 21
225.0
 31
0.0
  0
LINE
  5
77F
100
AcDbEntity
  8
LAY-9
  6
CONTINUOUS
 62
    14
100
AcDbLine
 10
151.0
 20
250.070563
 30
0.0
 11
154.0
 21
253.070563
 31
0.0
  0
LINE
  5
780
100
AcDbEntity
  8
LAY-9
  6
CONTINUOUS
 62
    14
100
AcDbLine
 10
156.929437
 20
256.0
 30
0.0
 11
158.0
 21
257.070563
 31
0.0
  0
LINE
  5
781
100
AcDbEntity
  8
LAY-9
  6
CONTINUOUS
 62
    14
100
AcDbLine
 10
162.929437
 20
262.0
 30
0.0
 11
165.929437
 21
265.0
 31
0.0
  0
LINE
  5
782
100
AcDbEntity
  8
LAY-9
  6
CONTINUOUS
 62
    14
100
AcDbLine
 10
170.0
 20
269.070563
 30
0.0
 11
173.0
 21
272.070563
 31
0.0
  0
LINE
  5
783
100
AcDbEntity
  8
LAY-9
  6
CONTINUOUS
 62
    14
100
AcDbLine
 10
125.757864
 20
222.0
 30
0.0
 11
128.757864
 21
225.0
 31
0.0
  0
LINE
  5
784
100
AcDbEntity
  8
LAY-9
  6
CONTINUOUS
 62
    14
100
AcDbLine
 10
151.0
 20
247.242136
 30
0.0
 11
154.0
 21
250.242136
 31
0.0
  0
LINE
  5
785
100
AcDbEntity
  8
LAY-9
  6
CONTINUOUS
 62
    14
100
AcDbLine
 10
165.757864
 20
262.0
 30
0.0
 11
168.757864
 21
265.0
 31
0.0
  0
LINE
  5
786
100
AcDbEntity
  8
LAY-9
  6
CONTINUOUS
 62
    14
100
AcDbLine
 10
170.0
 20
266.242136
 30
0.0
 11
173.0
 21
269.242136
 31
0.0
  0
LINE
  5
787
100
AcDbEntity
  8
LAY-9
  6
CONTINUOUS
 62
    14
100
AcDbLine
 10
128.586292
 20
222.0
 30
0.0
 11
131.586292
 21
225.0
 31
0.0
  0
LINE
  5
788
100
AcDbEntity
  8
LAY-9
  6
CONTINUOUS
 62
    14
100
AcDbLine
 10
151.0
 20
244.413708
 30
0.0
 11
154.0
 21
247.413708
 31
0.0
  0
LINE
  5
789
100
AcDbEntity
  8
LAY-9
  6
CONTINUOUS
 62
    14
100
AcDbLine
 10
168.586292
 20
262.0
 30
0.0
 11
173.0
 21
266.413708
 31
0.0
  0
LINE
  5
78A
100
AcDbEntity
  8
LAY-9
  6
CONTINUOUS
 62
    14
100
AcDbLine
 10
131.414719
 20
222.0
 30
0.0
 11
134.414719
 21
225.0
 31
0.0
  0
LINE
  5
78B
100
AcDbEntity
  8
LAY-9
  6
CONTINUOUS
 62
    14
100
AcDbLine
 10
151.0
 20
241.585281
 30
0.0
 11
154.0
 21
244.585281
 31
0.0
  0
LINE
  5
78C
100
AcDbEntity
  8
LAY-9
  6
CONTINUOUS
 62
    14
100
AcDbLine
 10
171.414719
 20
262.0
 30
0.0
 11
173.0
 21
263.585281
 31
0.0
  0
LINE
  5
78D
100
AcDbEntity
  8
LAY-9
  6
CONTINUOUS
 62
    14
100
AcDbLine
 10
134.243146
 20
222.0
 30
0.0
 11
137.243146
 21
225.0
 31
0.0
  0
LINE
  5
78E
100
AcDbEntity
  8
LAY-9
  6
CONTINUOUS
 62
    14
100
AcDbLine
 10
151.0
 20
238.756854
 30
0.0
 11
154.0
 21
241.756854
 31
0.0
  0
LINE
  5
78F
100
AcDbEntity
  8
LAY-9
  6
CONTINUOUS
 62
    14
100
AcDbLine
 10
137.071573
 20
222.0
 30
0.0
 11
140.071573
 21
225.0
 31
0.0
  0
LINE
  5
790
100
AcDbEntity
  8
LAY-9
  6
CONTINUOUS
 62
    14
100
AcDbLine
 10
151.0
 20
235.928427
 30
0.0
 11
154.0
 21
238.928427
 31
0.0
  0
LINE
  5
791
100
AcDbEntity
  8
LAY-9
  6
CONTINUOUS
 62
    14
100
AcDbLine
 10
139.9
 20
222.0
 30
0.0
 11
142.9
 21
225.0
 31
0.0
  0
LINE
  5
792
100
AcDbEntity
  8
LAY-9
  6
CONTINUOUS
 62
    14
100
AcDbLine
 10
151.0
 20
233.1
 30
0.0
 11
154.0
 21
236.1
 31
0.0
  0
LINE
  5
793
100
AcDbEntity
  8
LAY-9
  6
CONTINUOUS
 62
    14
100
AcDbLine
 10
142.728427
 20
222.0
 30
0.0
 11
145.728427
 21
225.0
 31
0.0
  0
LINE
  5
794
100
AcDbEntity
  8
LAY-9
  6
CONTINUOUS
 62
    14
100
AcDbLine
 10
151.0
 20
230.271573
 30
0.0
 11
154.0
 21
233.271573
 31
0.0
  0
LINE
  5
795
100
AcDbEntity
  8
LAY-9
  6
CONTINUOUS
 62
    14
100
AcDbLine
 10
145.556854
 20
222.0
 30
0.0
 11
148.556854
 21
225.0
 31
0.0
  0
LINE
  5
796
100
AcDbEntity
  8
LAY-9
  6
CONTINUOUS
 62
    14
100
AcDbLine
 10
151.0
 20
227.443146
 30
0.0
 11
154.0
 21
230.443146
 31
0.0
  0
LINE
  5
797
100
AcDbEntity
  8
LAY-9
  6
CONTINUOUS
 62
    14
100
AcDbLine
 10
148.385281
 20
222.0
 30
0.0
 11
154.0
 21
227.614719
 31
0.0
  0
LINE
  5
798
100
AcDbEntity
  8
LAY-9
  6
CONTINUOUS
 62
    14
100
AcDbLine
 10
151.213708
 20
222.0
 30
0.0
 11
154.0
 21
224.786292
 31
0.0
  0
LINE
  5
799
100
AcDbEntity
  8
LAY-9
  6
CONTINUOUS
 62
    14
100
AcDbLine
 10
109.5
 20
372.313708
 30
0.0
 11
110.186292
 21
373.0
 31
0.0
  0
LINE
  5
79A
100
AcDbEntity
  8
LAY-9
  6
CONTINUOUS
 62
    14
100
AcDbLine
 10
110.014719
 20
370.0
 30
0.0
 11
113.014719
 21
373.0
 31
0.0
  0
LINE
  5
79B
100
AcDbEntity
  8
LAY-9
  6
CONTINUOUS
 62
    14
100
AcDbLine
 10
112.843146
 20
370.0
 30
0.0
 11
115.843146
 21
373.0
 31
0.0
  0
LINE
  5
79C
100
AcDbEntity
  8
LAY-9
  6
CONTINUOUS
 62
    14
100
AcDbLine
 10
155.0
 20
412.156854
 30
0.0
 11
155.843146
 21
413.0
 31
0.0
  0
LINE
  5
79D
100
AcDbEntity
  8
LAY-9
  6
CONTINUOUS
 62
    14
100
AcDbLine
 10
170.0
 20
427.156854
 30
0.0
 11
170.843146
 21
428.0
 31
0.0
  0
LINE
  5
79E
100
AcDbEntity
  8
LAY-9
  6
CONTINUOUS
 62
    14
100
AcDbLine
 10
115.671573
 20
370.0
 30
0.0
 11
118.671573
 21
373.0
 31
0.0
  0
LINE
  5
79F
100
AcDbEntity
  8
LAY-9
  6
CONTINUOUS
 62
    14
100
AcDbLine
 10
151.0
 20
405.328427
 30
0.0
 11
152.671573
 21
407.0
 31
0.0
  0
LINE
  5
7A0
100
AcDbEntity
  8
LAY-9
  6
CONTINUOUS
 62
    14
100
AcDbLine
 10
155.0
 20
409.328427
 30
0.0
 11
158.671573
 21
413.0
 31
0.0
  0
LINE
  5
7A1
100
AcDbEntity
  8
LAY-9
  6
CONTINUOUS
 62
    14
100
AcDbLine
 10
170.0
 20
424.328427
 30
0.0
 11
173.0
 21
427.328427
 31
0.0
  0
LINE
  5
7A2
100
AcDbEntity
  8
LAY-9
  6
CONTINUOUS
 62
    14
100
AcDbLine
 10
118.5
 20
370.0
 30
0.0
 11
121.5
 21
373.0
 31
0.0
  0
LINE
  5
7A3
100
AcDbEntity
  8
LAY-9
  6
CONTINUOUS
 62
    14
100
AcDbLine
 10
151.0
 20
402.5
 30
0.0
 11
158.0
 21
409.5
 31
0.0
  0
LINE
  5
7A4
100
AcDbEntity
  8
LAY-9
  6
CONTINUOUS
 62
    14
100
AcDbLine
 10
158.5
 20
410.0
 30
0.0
 11
161.5
 21
413.0
 31
0.0
  0
LINE
  5
7A5
100
AcDbEntity
  8
LAY-9
  6
CONTINUOUS
 62
    14
100
AcDbLine
 10
170.0
 20
421.5
 30
0.0
 11
173.0
 21
424.5
 31
0.0
  0
LINE
  5
7A6
100
AcDbEntity
  8
LAY-9
  6
CONTINUOUS
 62
    14
100
AcDbLine
 10
121.328427
 20
370.0
 30
0.0
 11
124.328427
 21
373.0
 31
0.0
  0
LINE
  5
7A7
100
AcDbEntity
  8
LAY-9
  6
CONTINUOUS
 62
    14
100
AcDbLine
 10
151.0
 20
399.671573
 30
0.0
 11
154.0
 21
402.671573
 31
0.0
  0
LINE
  5
7A8
100
AcDbEntity
  8
LAY-9
  6
CONTINUOUS
 62
    14
100
AcDbLine
 10
155.328427
 20
404.0
 30
0.0
 11
158.0
 21
406.671573
 31
0.0
  0
LINE
  5
7A9
100
AcDbEntity
  8
LAY-9
  6
CONTINUOUS
 62
    14
100
AcDbLine
 10
161.328427
 20
410.0
 30
0.0
 11
164.328427
 21
413.0
 31
0.0
  0
LINE
  5
7AA
100
AcDbEntity
  8
LAY-9
  6
CONTINUOUS
 62
    14
100
AcDbLine
 10
170.0
 20
418.671573
 30
0.0
 11
173.0
 21
421.671573
 31
0.0
  0
LINE
  5
7AB
100
AcDbEntity
  8
LAY-9
  6
CONTINUOUS
 62
    14
100
AcDbLine
 10
124.156854
 20
370.0
 30
0.0
 11
127.156854
 21
373.0
 31
0.0
  0
LINE
  5
7AC
100
AcDbEntity
  8
LAY-9
  6
CONTINUOUS
 62
    14
100
AcDbLine
 10
151.0
 20
396.843146
 30
0.0
 11
154.0
 21
399.843146
 31
0.0
  0
LINE
  5
7AD
100
AcDbEntity
  8
LAY-9
  6
CONTINUOUS
 62
    14
100
AcDbLine
 10
164.156854
 20
410.0
 30
0.0
 11
167.156854
 21
413.0
 31
0.0
  0
LINE
  5
7AE
100
AcDbEntity
  8
LAY-9
  6
CONTINUOUS
 62
    14
100
AcDbLine
 10
170.0
 20
415.843146
 30
0.0
 11
173.0
 21
418.843146
 31
0.0
  0
LINE
  5
7AF
100
AcDbEntity
  8
LAY-9
  6
CONTINUOUS
 62
    14
100
AcDbLine
 10
126.985281
 20
370.0
 30
0.0
 11
129.985281
 21
373.0
 31
0.0
  0
LINE
  5
7B0
100
AcDbEntity
  8
LAY-9
  6
CONTINUOUS
 62
    14
100
AcDbLine
 10
151.0
 20
394.014719
 30
0.0
 11
154.0
 21
397.014719
 31
0.0
  0
LINE
  5
7B1
100
AcDbEntity
  8
LAY-9
  6
CONTINUOUS
 62
    14
100
AcDbLine
 10
166.985281
 20
410.0
 30
0.0
 11
169.985281
 21
413.0
 31
0.0
  0
LINE
  5
7B2
100
AcDbEntity
  8
LAY-9
  6
CONTINUOUS
 62
    14
100
AcDbLine
 10
170.0
 20
413.014719
 30
0.0
 11
173.0
 21
416.014719
 31
0.0
  0
LINE
  5
7B3
100
AcDbEntity
  8
LAY-9
  6
CONTINUOUS
 62
    14
100
AcDbLine
 10
129.813708
 20
370.0
 30
0.0
 11
132.813708
 21
373.0
 31
0.0
  0
LINE
  5
7B4
100
AcDbEntity
  8
LAY-9
  6
CONTINUOUS
 62
    14
100
AcDbLine
 10
151.0
 20
391.186292
 30
0.0
 11
154.0
 21
394.186292
 31
0.0
  0
LINE
  5
7B5
100
AcDbEntity
  8
LAY-9
  6
CONTINUOUS
 62
    14
100
AcDbLine
 10
169.813708
 20
410.0
 30
0.0
 11
173.0
 21
413.186292
 31
0.0
  0
LINE
  5
7B6
100
AcDbEntity
  8
LAY-9
  6
CONTINUOUS
 62
    14
100
AcDbLine
 10
132.642136
 20
370.0
 30
0.0
 11
135.642136
 21
373.0
 31
0.0
  0
LINE
  5
7B7
100
AcDbEntity
  8
LAY-9
  6
CONTINUOUS
 62
    14
100
AcDbLine
 10
151.0
 20
388.357864
 30
0.0
 11
154.0
 21
391.357864
 31
0.0
  0
LINE
  5
7B8
100
AcDbEntity
  8
LAY-9
  6
CONTINUOUS
 62
    14
100
AcDbLine
 10
172.642136
 20
410.0
 30
0.0
 11
173.0
 21
410.357864
 31
0.0
  0
LINE
  5
7B9
100
AcDbEntity
  8
LAY-9
  6
CONTINUOUS
 62
    14
100
AcDbLine
 10
135.470563
 20
370.0
 30
0.0
 11
138.470563
 21
373.0
 31
0.0
  0
LINE
  5
7BA
100
AcDbEntity
  8
LAY-9
  6
CONTINUOUS
 62
    14
100
AcDbLine
 10
151.0
 20
385.529437
 30
0.0
 11
154.0
 21
388.529437
 31
0.0
  0
LINE
  5
7BB
100
AcDbEntity
  8
LAY-9
  6
CONTINUOUS
 62
    14
100
AcDbLine
 10
138.29899
 20
370.0
 30
0.0
 11
141.29899
 21
373.0
 31
0.0
  0
LINE
  5
7BC
100
AcDbEntity
  8
LAY-9
  6
CONTINUOUS
 62
    14
100
AcDbLine
 10
151.0
 20
382.70101
 30
0.0
 11
154.0
 21
385.70101
 31
0.0
  0
LINE
  5
7BD
100
AcDbEntity
  8
LAY-9
  6
CONTINUOUS
 62
    14
100
AcDbLine
 10
141.127417
 20
370.0
 30
0.0
 11
144.127417
 21
373.0
 31
0.0
  0
LINE
  5
7BE
100
AcDbEntity
  8
LAY-9
  6
CONTINUOUS
 62
    14
100
AcDbLine
 10
151.0
 20
379.872583
 30
0.0
 11
154.0
 21
382.872583
 31
0.0
  0
LINE
  5
7BF
100
AcDbEntity
  8
LAY-9
  6
CONTINUOUS
 62
    14
100
AcDbLine
 10
143.955844
 20
370.0
 30
0.0
 11
146.955844
 21
373.0
 31
0.0
  0
LINE
  5
7C0
100
AcDbEntity
  8
LAY-9
  6
CONTINUOUS
 62
    14
100
AcDbLine
 10
151.0
 20
377.044156
 30
0.0
 11
154.0
 21
380.044156
 31
0.0
  0
LINE
  5
7C1
100
AcDbEntity
  8
LAY-9
  6
CONTINUOUS
 62
    14
100
AcDbLine
 10
146.784271
 20
370.0
 30
0.0
 11
149.784271
 21
373.0
 31
0.0
  0
LINE
  5
7C2
100
AcDbEntity
  8
LAY-9
  6
CONTINUOUS
 62
    14
100
AcDbLine
 10
151.0
 20
374.215729
 30
0.0
 11
154.0
 21
377.215729
 31
0.0
  0
LINE
  5
7C3
100
AcDbEntity
  8
LAY-9
  6
CONTINUOUS
 62
    14
100
AcDbLine
 10
149.612698
 20
370.0
 30
0.0
 11
154.0
 21
374.387302
 31
0.0
  0
LINE
  5
7C4
100
AcDbEntity
  8
LAY-9
  6
CONTINUOUS
 62
    14
100
AcDbLine
 10
152.441125
 20
370.0
 30
0.0
 11
154.0
 21
371.558875
 31
0.0
  0
LINE
  5
7C5
100
AcDbEntity
  8
LAY-9
  6
CONTINUOUS
 62
    14
100
AcDbLine
 10
637.999999
 20
417.30303
 30
0.0
 11
638.696969
 21
418.0
 31
0.0
  0
LINE
  5
7C6
100
AcDbEntity
  8
LAY-9
  6
CONTINUOUS
 62
    14
100
AcDbLine
 10
638.525396
 20
415.0
 30
0.0
 11
641.525396
 21
418.0
 31
0.0
  0
LINE
  5
7C7
100
AcDbEntity
  8
LAY-9
  6
CONTINUOUS
 62
    14
100
AcDbLine
 10
641.353823
 20
415.0
 30
0.0
 11
644.353823
 21
418.0
 31
0.0
  0
LINE
  5
7C8
100
AcDbEntity
  8
LAY-9
  6
CONTINUOUS
 62
    14
100
AcDbLine
 10
644.18225
 20
415.0
 30
0.0
 11
647.18225
 21
418.0
 31
0.0
  0
LINE
  5
7C9
100
AcDbEntity
  8
LAY-9
  6
CONTINUOUS
 62
    14
100
AcDbLine
 10
647.010678
 20
415.0
 30
0.0
 11
650.010678
 21
418.0
 31
0.0
  0
LINE
  5
7CA
100
AcDbEntity
  8
LAY-9
  6
CONTINUOUS
 62
    14
100
AcDbLine
 10
649.839105
 20
415.0
 30
0.0
 11
652.839105
 21
418.0
 31
0.0
  0
LINE
  5
7CB
100
AcDbEntity
  8
LAY-9
  6
CONTINUOUS
 62
    14
100
AcDbLine
 10
652.667532
 20
415.0
 30
0.0
 11
655.667532
 21
418.0
 31
0.0
  0
LINE
  5
7CC
100
AcDbEntity
  8
LAY-9
  6
CONTINUOUS
 62
    14
100
AcDbLine
 10
655.495959
 20
415.0
 30
0.0
 11
658.495959
 21
418.0
 31
0.0
  0
LINE
  5
7CD
100
AcDbEntity
  8
LAY-9
  6
CONTINUOUS
 62
    14
100
AcDbLine
 10
658.324386
 20
415.0
 30
0.0
 11
661.324386
 21
418.0
 31
0.0
  0
LINE
  5
7CE
100
AcDbEntity
  8
LAY-9
  6
CONTINUOUS
 62
    14
100
AcDbLine
 10
661.152813
 20
415.0
 30
0.0
 11
662.999999
 21
416.847186
 31
0.0
  0
LINE
  5
7CF
100
AcDbEntity
  8
LAY-9
  6
CONTINUOUS
 62
     1
100
AcDbLine
 10
158.0
 20
370.0
 30
0.0
 11
158.0
 21
410.0
 31
0.0
  0
LINE
  5
7D0
100
AcDbEntity
  8
LAY-9
  6
CONTINUOUS
 62
     1
100
AcDbLine
 10
158.0
 20
410.0
 30
0.0
 11
173.0
 21
410.0
 31
0.0
  0
LINE
  5
7D1
100
AcDbEntity
  8
LAY-9
  6
CONTINUOUS
 62
     1
100
AcDbLine
 10
173.0
 20
410.0
 30
0.0
 11
173.0
 21
428.0
 31
0.0
  0
LINE
  5
7D2
100
AcDbEntity
  8
LAY-9
  6
CONTINUOUS
 62
     1
100
AcDbLine
 10
158.0
 20
222.0
 30
0.0
 11
158.0
 21
262.0
 31
0.0
  0
LINE
  5
7D3
100
AcDbEntity
  8
LAY-9
  6
CONTINUOUS
 62
     1
100
AcDbLine
 10
158.0
 20
262.0
 30
0.0
 11
173.0
 21
262.0
 31
0.0
  0
LINE
  5
7D4
100
AcDbEntity
  8
LAY-9
  6
CONTINUOUS
 62
     1
100
AcDbLine
 10
173.0
 20
262.0
 30
0.0
 11
173.0
 21
280.0
 31
0.0
  0
LINE
  5
7D5
100
AcDbEntity
  8
LAY-9
  6
CONTINUOUS
 62
     1
100
AcDbLine
 10
109.5
 20
370.0
 30
0.0
 11
154.0
 21
370.0
 31
0.0
  0
LINE
  5
7D6
100
AcDbEntity
  8
LAY-9
  6
CONTINUOUS
 62
     1
100
AcDbLine
 10
124.1
 20
222.0
 30
0.0
 11
154.0
 21
222.0
 31
0.0
  0
LINE
  5
7D7
100
AcDbEntity
  8
LAY-9
  6
CONTINUOUS
 62
     1
100
AcDbLine
 10
615.999999
 20
445.0
 30
0.0
 11
597.999999
 21
445.0
 31
0.0
  0
LINE
  5
7D8
100
AcDbEntity
  8
LAY-9
  6
CONTINUOUS
 62
     1
100
AcDbLine
 10
597.999999
 20
430.0
 30
0.0
 11
637.999999
 21
430.0
 31
0.0
  0
LINE
  5
7D9
100
AcDbEntity
  8
LAY-9
  6
CONTINUOUS
 62
     1
100
AcDbLine
 10
678.999999
 20
180.0
 30
0.0
 11
537.999999
 21
180.0
 31
0.0
  0
LINE
  5
7DA
100
AcDbEntity
  8
LAY-9
  6
CONTINUOUS
 62
     1
100
AcDbLine
 10
600.999999
 20
427.0
 30
0.0
 11
635.999999
 21
427.0
 31
0.0
  0
LINE
  5
7DB
100
AcDbEntity
  8
LAY-9
  6
CONTINUOUS
 62
     1
100
AcDbLine
 10
600.999999
 20
186.0
 30
0.0
 11
635.999999
 21
186.0
 31
0.0
  0
LINE
  5
7DC
100
AcDbEntity
  8
LAY-9
  6
CONTINUOUS
 62
     1
100
AcDbLine
 10
597.999999
 20
445.0
 30
0.0
 11
597.999999
 21
430.0
 31
0.0
  0
LINE
  5
7DD
100
AcDbEntity
  8
LAY-9
  6
DIVIDE
 62
     1
100
AcDbLine
 10
588.699999
 20
312.2
 30
0.0
 11
645.899999
 21
312.2
 31
0.0
  0
LINE
  5
7DE
100
AcDbEntity
  8
LAY-9
  6
DIVIDE
 62
     1
100
AcDbLine
 10
588.699999
 20
307.2
 30
0.0
 11
645.899999
 21
307.2
 31
0.0
  0
LINE
  5
7DF
100
AcDbEntity
  8
LAY-9
  6
CONTINUOUS
 62
     1
100
AcDbLine
 10
637.999999
 20
307.2
 30
0.0
 11
637.999999
 21
180.0
 31
0.0
  0
LINE
  5
7E0
100
AcDbEntity
  8
LAY-9
  6
CONTINUOUS
 62
     1
100
AcDbLine
 10
635.999999
 20
427.0
 30
0.0
 11
635.999999
 21
312.2
 31
0.0
  0
LINE
  5
7E1
100
AcDbEntity
  8
LAY-9
  6
CONTINUOUS
 62
     1
100
AcDbLine
 10
635.999999
 20
307.2
 30
0.0
 11
635.999999
 21
186.0
 31
0.0
  0
LINE
  5
7E2
100
AcDbEntity
  8
LAY-9
  6
CONTINUOUS
 62
     1
100
AcDbLine
 10
637.999999
 20
415.0
 30
0.0
 11
662.999999
 21
415.0
 31
0.0
  0
LINE
  5
7E3
100
AcDbEntity
  8
LAY-9
  6
CONTINUOUS
 62
     1
100
AcDbLine
 10
597.999999
 20
430.0
 30
0.0
 11
597.999999
 21
427.0
 31
0.0
  0
LINE
  5
7E4
100
AcDbEntity
  8
LAY-9
  6
CONTINUOUS
 62
     1
100
AcDbLine
 10
597.999999
 20
390.0
 30
0.0
 11
597.999999
 21
312.2
 31
0.0
  0
LINE
  5
7E5
100
AcDbEntity
  8
LAY-9
  6
CONTINUOUS
 62
     1
100
AcDbLine
 10
600.999999
 20
418.0
 30
0.0
 11
600.999999
 21
312.2
 31
0.0
  0
LINE
  5
7E6
100
AcDbEntity
  8
LAY-9
  6
CONTINUOUS
 62
     1
100
AcDbLine
 10
600.999999
 20
307.2
 30
0.0
 11
600.999999
 21
207.0
 31
0.0
  0
LINE
  5
7E7
100
AcDbEntity
  8
LAY-9
  6
CONTINUOUS
 62
     1
100
AcDbLine
 10
600.999999
 20
192.0
 30
0.0
 11
600.999999
 21
186.0
 31
0.0
  0
LINE
  5
7E8
100
AcDbEntity
  8
LAY-9
  6
CONTINUOUS
 62
     1
100
AcDbLine
 10
597.999999
 20
307.2
 30
0.0
 11
597.999999
 21
226.0
 31
0.0
  0
LINE
  5
7E9
100
AcDbEntity
  8
LAY-9
  6
CONTINUOUS
 62
     1
100
AcDbLine
 10
637.999999
 20
430.0
 30
0.0
 11
637.999999
 21
415.0
 31
0.0
  0
LINE
  5
7EA
100
AcDbEntity
  8
LAY-9
  6
CONTINUOUS
 62
     1
100
AcDbLine
 10
637.999999
 20
415.0
 30
0.0
 11
637.999999
 21
312.2
 31
0.0
  0
LINE
  5
7EB
100
AcDbEntity
  8
LAY-9
  6
CONTINUOUS
 62
     1
100
AcDbLine
 10
293.0
 20
408.0
 30
0.0
 11
469.0
 21
408.0
 31
0.0
  0
LINE
  5
7EC
100
AcDbEntity
  8
LAY-9
  6
CONTINUOUS
 62
     1
100
AcDbLine
 10
293.0
 20
260.0
 30
0.0
 11
469.0
 21
260.0
 31
0.0
  0
LINE
  5
7ED
100
AcDbEntity
  8
LAY-9
  6
CONTINUOUS
 62
     1
100
AcDbLine
 10
293.0
 20
408.0
 30
0.0
 11
293.0
 21
373.0
 31
0.0
  0
LINE
  5
7EE
100
AcDbEntity
  8
LAY-9
  6
CONTINUOUS
 62
     1
100
AcDbLine
 10
293.0
 20
260.0
 30
0.0
 11
293.0
 21
225.0
 31
0.0
  0
LINE
  5
7EF
100
AcDbEntity
  8
LAY-9
  6
CONTINUOUS
 62
     1
100
AcDbLine
 10
293.0
 20
373.0
 30
0.0
 11
296.0
 21
373.0
 31
0.0
  0
LINE
  5
7F0
100
AcDbEntity
  8
LAY-9
  6
CONTINUOUS
 62
     1
100
AcDbLine
 10
324.0
 20
373.0
 30
0.0
 11
469.0
 21
373.0
 31
0.0
  0
LINE
  5
7F1
100
AcDbEntity
  8
LAY-9
  6
CONTINUOUS
 62
     1
100
AcDbLine
 10
293.0
 20
225.0
 30
0.0
 11
296.0
 21
225.0
 31
0.0
  0
LINE
  5
7F2
100
AcDbEntity
  8
LAY-9
  6
CONTINUOUS
 62
     1
100
AcDbLine
 10
324.0
 20
225.0
 30
0.0
 11
469.0
 21
225.0
 31
0.0
  0
POLYLINE
  5
7F3
100
AcDbEntity
  8
LAY-9
  6
CONTINUOUS
 62
     1
100
AcDb2dPolyline
 66
     1
 10
0.0
 20
0.0
 30
0.0
 70
   128
  0
VERTEX
  5
7F4
100
AcDbEntity
  8
LAY-9
  6
CONTINUOUS
 62
     1
100
AcDbVertex
100
AcDb2dVertex
 10
469.0
 20
260.0
 30
0.0
  0
VERTEX
  5
7F5
100
AcDbEntity
  8
LAY-9
  6
CONTINUOUS
 62
     1
100
AcDbVertex
100
AcDb2dVertex
 10
469.048327
 20
259.864028
 30
0.0
  0
VERTEX
  5
7F6
100
AcDbEntity
  8
LAY-9
  6
CONTINUOUS
 62
     1
100
AcDbVertex
100
AcDb2dVertex
 10
469.180258
 20
259.478764
 30
0.0
  0
VERTEX
  5
7F7
100
AcDbEntity
  8
LAY-9
  6
CONTINUOUS
 62
     1
100
AcDbVertex
100
AcDb2dVertex
 10
469.376219
 20
258.87819
 30
0.0
  0
VERTEX
  5
7F8
100
AcDbEntity
  8
LAY-9
  6
CONTINUOUS
 62
     1
100
AcDbVertex
100
AcDb2dVertex
 10
469.616635
 20
258.096284
 30
0.0
  0
VERTEX
  5
7F9
100
AcDbEntity
  8
LAY-9
  6
CONTINUOUS
 62
     1
100
AcDbVertex
100
AcDb2dVertex
 10
469.88193
 20
257.167027
 30
0.0
  0
VERTEX
  5
7FA
100
AcDbEntity
  8
LAY-9
  6
CONTINUOUS
 62
     1
100
AcDbVertex
100
AcDb2dVertex
 10
470.152531
 20
256.124399
 30
0.0
  0
VERTEX
  5
7FB
100
AcDbEntity
  8
LAY-9
  6
CONTINUOUS
 62
     1
100
AcDbVertex
100
AcDb2dVertex
 10
470.408863
 20
255.002381
 30
0.0
  0
VERTEX
  5
7FC
100
AcDbEntity
  8
LAY-9
  6
CONTINUOUS
 62
     1
100
AcDbVertex
100
AcDb2dVertex
 10
470.63135
 20
253.834952
 30
0.0
  0
VERTEX
  5
7FD
100
AcDbEntity
  8
LAY-9
  6
CONTINUOUS
 62
     1
100
AcDbVertex
100
AcDb2dVertex
 10
470.800418
 20
252.656092
 30
0.0
  0
VERTEX
  5
7FE
100
AcDbEntity
  8
LAY-9
  6
CONTINUOUS
 62
     1
100
AcDbVertex
100
AcDb2dVertex
 10
470.896493
 20
251.499781
 30
0.0
  0
VERTEX
  5
7FF
100
AcDbEntity
  8
LAY-9
  6
CONTINUOUS
 62
     1
100
AcDbVertex
100
AcDb2dVertex
 10
470.9
 20
250.4
 30
0.0
  0
VERTEX
  5
800
100
AcDbEntity
  8
LAY-9
  6
CONTINUOUS
 62
     1
100
AcDbVertex
100
AcDb2dVertex
 10
470.842909
 20
249.71045
 30
0.0
  0
VERTEX
  5
801
100
AcDbEntity
  8
LAY-9
  6
CONTINUOUS
 62
     1
100
AcDbVertex
100
AcDb2dVertex
 10
470.741496
 20
249.057568
 30
0.0
  0
VERTEX
  5
802
100
AcDbEntity
  8
LAY-9
  6
CONTINUOUS
 62
     1
100
AcDbVertex
100
AcDb2dVertex
 10
470.601613
 20
248.437526
 30
0.0
  0
VERTEX
  5
803
100
AcDbEntity
  8
LAY-9
  6
CONTINUOUS
 62
     1
100
AcDbVertex
100
AcDb2dVertex
 10
470.429113
 20
247.846494
 30
0.0
  0
VERTEX
  5
804
100
AcDbEntity
  8
LAY-9
  6
CONTINUOUS
 62
     1
100
AcDbVertex
100
AcDb2dVertex
 10
470.229849
 20
247.280646
 30
0.0
  0
VERTEX
  5
805
100
AcDbEntity
  8
LAY-9
  6
CONTINUOUS
 62
     1
100
AcDbVertex
100
AcDb2dVertex
 10
470.009675
 20
246.736151
 30
0.0
  0
VERTEX
  5
806
100
AcDbEntity
  8
LAY-9
  6
CONTINUOUS
 62
     1
100
AcDbVertex
100
AcDb2dVertex
 10
469.774444
 20
246.209183
 30
0.0
  0
VERTEX
  5
807
100
AcDbEntity
  8
LAY-9
  6
CONTINUOUS
 62
     1
100
AcDbVertex
100
AcDb2dVertex
 10
469.530007
 20
245.695912
 30
0.0
  0
VERTEX
  5
808
100
AcDbEntity
  8
LAY-9
  6
CONTINUOUS
 62
     1
100
AcDbVertex
100
AcDb2dVertex
 10
469.282219
 20
245.19251
 30
0.0
  0
VERTEX
  5
809
100
AcDbEntity
  8
LAY-9
  6
CONTINUOUS
 62
     1
100
AcDbVertex
100
AcDb2dVertex
 10
469.036932
 20
244.695149
 30
0.0
  0
VERTEX
  5
80A
100
AcDbEntity
  8
LAY-9
  6
CONTINUOUS
 62
     1
100
AcDbVertex
100
AcDb2dVertex
 10
468.8
 20
244.2
 30
0.0
  0
VERTEX
  5
80B
100
AcDbEntity
  8
LAY-9
  6
CONTINUOUS
 62
     1
100
AcDbVertex
100
AcDb2dVertex
 10
468.460697
 20
243.431917
 30
0.0
  0
VERTEX
  5
80C
100
AcDbEntity
  8
LAY-9
  6
CONTINUOUS
 62
     1
100
AcDbVertex
100
AcDb2dVertex
 10
468.156967
 20
242.653891
 30
0.0
  0
VERTEX
  5
80D
100
AcDbEntity
  8
LAY-9
  6
CONTINUOUS
 62
     1
100
AcDbVertex
100
AcDb2dVertex
 10
467.890482
 20
241.859837
 30
0.0
  0
VERTEX
  5
80E
100
AcDbEntity
  8
LAY-9
  6
CONTINUOUS
 62
     1
100
AcDbVertex
100
AcDb2dVertex
 10
467.662914
 20
241.043667
 30
0.0
  0
VERTEX
  5
80F
100
AcDbEntity
  8
LAY-9
  6
CONTINUOUS
 62
     1
100
AcDbVertex
100
AcDb2dVertex
 10
467.475933
 20
240.199295
 30
0.0
  0
VERTEX
  5
810
100
AcDbEntity
  8
LAY-9
  6
CONTINUOUS
 62
     1
100
AcDbVertex
100
AcDb2dVertex
 10
467.331212
 20
239.320636
 30
0.0
  0
VERTEX
  5
811
100
AcDbEntity
  8
LAY-9
  6
CONTINUOUS
 62
     1
100
AcDbVertex
100
AcDb2dVertex
 10
467.230422
 20
238.401602
 30
0.0
  0
VERTEX
  5
812
100
AcDbEntity
  8
LAY-9
  6
CONTINUOUS
 62
     1
100
AcDbVertex
100
AcDb2dVertex
 10
467.175235
 20
237.436108
 30
0.0
  0
VERTEX
  5
813
100
AcDbEntity
  8
LAY-9
  6
CONTINUOUS
 62
     1
100
AcDbVertex
100
AcDb2dVertex
 10
467.167321
 20
236.418067
 30
0.0
  0
VERTEX
  5
814
100
AcDbEntity
  8
LAY-9
  6
CONTINUOUS
 62
     1
100
AcDbVertex
100
AcDb2dVertex
 10
467.208352
 20
235.341393
 30
0.0
  0
VERTEX
  5
815
100
AcDbEntity
  8
LAY-9
  6
CONTINUOUS
 62
     1
100
AcDbVertex
100
AcDb2dVertex
 10
467.3
 20
234.2
 30
0.0
  0
VERTEX
  5
816
100
AcDbEntity
  8
LAY-9
  6
CONTINUOUS
 62
     1
100
AcDbVertex
100
AcDb2dVertex
 10
467.429451
 20
233.086666
 30
0.0
  0
VERTEX
  5
817
100
AcDbEntity
  8
LAY-9
  6
CONTINUOUS
 62
     1
100
AcDbVertex
100
AcDb2dVertex
 10
467.593727
 20
231.941721
 30
0.0
  0
VERTEX
  5
818
100
AcDbEntity
  8
LAY-9
  6
CONTINUOUS
 62
     1
100
AcDbVertex
100
AcDb2dVertex
 10
467.782892
 20
230.794167
 30
0.0
  0
VERTEX
  5
819
100
AcDbEntity
  8
LAY-9
  6
CONTINUOUS
 62
     1
100
AcDbVertex
100
AcDb2dVertex
 10
467.987013
 20
229.673006
 30
0.0
  0
VERTEX
  5
81A
100
AcDbEntity
  8
LAY-9
  6
CONTINUOUS
 62
     1
100
AcDbVertex
100
AcDb2dVertex
 10
468.196152
 20
228.607239
 30
0.0
  0
VERTEX
  5
81B
100
AcDbEntity
  8
LAY-9
  6
CONTINUOUS
 62
     1
100
AcDbVertex
100
AcDb2dVertex
 10
468.400374
 20
227.625867
 30
0.0
  0
VERTEX
  5
81C
100
AcDbEntity
  8
LAY-9
  6
CONTINUOUS
 62
     1
100
AcDbVertex
100
AcDb2dVertex
 10
468.589745
 20
226.757892
 30
0.0
  0
VERTEX
  5
81D
100
AcDbEntity
  8
LAY-9
  6
CONTINUOUS
 62
     1
100
AcDbVertex
100
AcDb2dVertex
 10
468.754328
 20
226.032317
 30
0.0
  0
VERTEX
  5
81E
100
AcDbEntity
  8
LAY-9
  6
CONTINUOUS
 62
     1
100
AcDbVertex
100
AcDb2dVertex
 10
468.884189
 20
225.478142
 30
0.0
  0
VERTEX
  5
81F
100
AcDbEntity
  8
LAY-9
  6
CONTINUOUS
 62
     1
100
AcDbVertex
100
AcDb2dVertex
 10
468.969391
 20
225.124369
 30
0.0
  0
VERTEX
  5
820
100
AcDbEntity
  8
LAY-9
  6
CONTINUOUS
 62
     1
100
AcDbVertex
100
AcDb2dVertex
 10
469.0
 20
225.0
 30
0.0
  0
SEQEND
  5
821
100
AcDbEntity
  8
LAY-9
  6
CONTINUOUS
 62
     1
  0
POLYLINE
  5
822
100
AcDbEntity
  8
LAY-9
  6
CONTINUOUS
 62
     1
100
AcDb2dPolyline
 66
     1
 10
0.0
 20
0.0
 30
0.0
 70
   128
  0
VERTEX
  5
823
100
AcDbEntity
  8
LAY-9
  6
CONTINUOUS
 62
     1
100
AcDbVertex
100
AcDb2dVertex
 10
469.0
 20
408.0
 30
0.0
  0
VERTEX
  5
824
100
AcDbEntity
  8
LAY-9
  6
CONTINUOUS
 62
     1
100
AcDbVertex
100
AcDb2dVertex
 10
469.048327
 20
407.864028
 30
0.0
  0
VERTEX
  5
825
100
AcDbEntity
  8
LAY-9
  6
CONTINUOUS
 62
     1
100
AcDbVertex
100
AcDb2dVertex
 10
469.180258
 20
407.478764
 30
0.0
  0
VERTEX
  5
826
100
AcDbEntity
  8
LAY-9
  6
CONTINUOUS
 62
     1
100
AcDbVertex
100
AcDb2dVertex
 10
469.376219
 20
406.87819
 30
0.0
  0
VERTEX
  5
827
100
AcDbEntity
  8
LAY-9
  6
CONTINUOUS
 62
     1
100
AcDbVertex
100
AcDb2dVertex
 10
469.616635
 20
406.096284
 30
0.0
  0
VERTEX
  5
828
100
AcDbEntity
  8
LAY-9
  6
CONTINUOUS
 62
     1
100
AcDbVertex
100
AcDb2dVertex
 10
469.88193
 20
405.167027
 30
0.0
  0
VERTEX
  5
829
100
AcDbEntity
  8
LAY-9
  6
CONTINUOUS
 62
     1
100
AcDbVertex
100
AcDb2dVertex
 10
470.152531
 20
404.124399
 30
0.0
  0
VERTEX
  5
82A
100
AcDbEntity
  8
LAY-9
  6
CONTINUOUS
 62
     1
100
AcDbVertex
100
AcDb2dVertex
 10
470.408863
 20
403.002381
 30
0.0
  0
VERTEX
  5
82B
100
AcDbEntity
  8
LAY-9
  6
CONTINUOUS
 62
     1
100
AcDbVertex
100
AcDb2dVertex
 10
470.63135
 20
401.834952
 30
0.0
  0
VERTEX
  5
82C
100
AcDbEntity
  8
LAY-9
  6
CONTINUOUS
 62
     1
100
AcDbVertex
100
AcDb2dVertex
 10
470.800418
 20
400.656092
 30
0.0
  0
VERTEX
  5
82D
100
AcDbEntity
  8
LAY-9
  6
CONTINUOUS
 62
     1
100
AcDbVertex
100
AcDb2dVertex
 10
470.896493
 20
399.499781
 30
0.0
  0
VERTEX
  5
82E
100
AcDbEntity
  8
LAY-9
  6
CONTINUOUS
 62
     1
100
AcDbVertex
100
AcDb2dVertex
 10
470.9
 20
398.4
 30
0.0
  0
VERTEX
  5
82F
100
AcDbEntity
  8
LAY-9
  6
CONTINUOUS
 62
     1
100
AcDbVertex
100
AcDb2dVertex
 10
470.842909
 20
397.71045
 30
0.0
  0
VERTEX
  5
830
100
AcDbEntity
  8
LAY-9
  6
CONTINUOUS
 62
     1
100
AcDbVertex
100
AcDb2dVertex
 10
470.741496
 20
397.057568
 30
0.0
  0
VERTEX
  5
831
100
AcDbEntity
  8
LAY-9
  6
CONTINUOUS
 62
     1
100
AcDbVertex
100
AcDb2dVertex
 10
470.601613
 20
396.437526
 30
0.0
  0
VERTEX
  5
832
100
AcDbEntity
  8
LAY-9
  6
CONTINUOUS
 62
     1
100
AcDbVertex
100
AcDb2dVertex
 10
470.429113
 20
395.846494
 30
0.0
  0
VERTEX
  5
833
100
AcDbEntity
  8
LAY-9
  6
CONTINUOUS
 62
     1
100
AcDbVertex
100
AcDb2dVertex
 10
470.229849
 20
395.280646
 30
0.0
  0
VERTEX
  5
834
100
AcDbEntity
  8
LAY-9
  6
CONTINUOUS
 62
     1
100
AcDbVertex
100
AcDb2dVertex
 10
470.009675
 20
394.736151
 30
0.0
  0
VERTEX
  5
835
100
AcDbEntity
  8
LAY-9
  6
CONTINUOUS
 62
     1
100
AcDbVertex
100
AcDb2dVertex
 10
469.774444
 20
394.209183
 30
0.0
  0
VERTEX
  5
836
100
AcDbEntity
  8
LAY-9
  6
CONTINUOUS
 62
     1
100
AcDbVertex
100
AcDb2dVertex
 10
469.530007
 20
393.695912
 30
0.0
  0
VERTEX
  5
837
100
AcDbEntity
  8
LAY-9
  6
CONTINUOUS
 62
     1
100
AcDbVertex
100
AcDb2dVertex
 10
469.282219
 20
393.19251
 30
0.0
  0
VERTEX
  5
838
100
AcDbEntity
  8
LAY-9
  6
CONTINUOUS
 62
     1
100
AcDbVertex
100
AcDb2dVertex
 10
469.036932
 20
392.695149
 30
0.0
  0
VERTEX
  5
839
100
AcDbEntity
  8
LAY-9
  6
CONTINUOUS
 62
     1
100
AcDbVertex
100
AcDb2dVertex
 10
468.8
 20
392.2
 30
0.0
  0
VERTEX
  5
83A
100
AcDbEntity
  8
LAY-9
  6
CONTINUOUS
 62
     1
100
AcDbVertex
100
AcDb2dVertex
 10
468.460697
 20
391.431917
 30
0.0
  0
VERTEX
  5
83B
100
AcDbEntity
  8
LAY-9
  6
CONTINUOUS
 62
     1
100
AcDbVertex
100
AcDb2dVertex
 10
468.156967
 20
390.653891
 30
0.0
  0
VERTEX
  5
83C
100
AcDbEntity
  8
LAY-9
  6
CONTINUOUS
 62
     1
100
AcDbVertex
100
AcDb2dVertex
 10
467.890482
 20
389.859837
 30
0.0
  0
VERTEX
  5
83D
100
AcDbEntity
  8
LAY-9
  6
CONTINUOUS
 62
     1
100
AcDbVertex
100
AcDb2dVertex
 10
467.662914
 20
389.043667
 30
0.0
  0
VERTEX
  5
83E
100
AcDbEntity
  8
LAY-9
  6
CONTINUOUS
 62
     1
100
AcDbVertex
100
AcDb2dVertex
 10
467.475933
 20
388.199295
 30
0.0
  0
VERTEX
  5
83F
100
AcDbEntity
  8
LAY-9
  6
CONTINUOUS
 62
     1
100
AcDbVertex
100
AcDb2dVertex
 10
467.331212
 20
387.320636
 30
0.0
  0
VERTEX
  5
840
100
AcDbEntity
  8
LAY-9
  6
CONTINUOUS
 62
     1
100
AcDbVertex
100
AcDb2dVertex
 10
467.230422
 20
386.401602
 30
0.0
  0
VERTEX
  5
841
100
AcDbEntity
  8
LAY-9
  6
CONTINUOUS
 62
     1
100
AcDbVertex
100
AcDb2dVertex
 10
467.175235
 20
385.436108
 30
0.0
  0
VERTEX
  5
842
100
AcDbEntity
  8
LAY-9
  6
CONTINUOUS
 62
     1
100
AcDbVertex
100
AcDb2dVertex
 10
467.167321
 20
384.418067
 30
0.0
  0
VERTEX
  5
843
100
AcDbEntity
  8
LAY-9
  6
CONTINUOUS
 62
     1
100
AcDbVertex
100
AcDb2dVertex
 10
467.208352
 20
383.341393
 30
0.0
  0
VERTEX
  5
844
100
AcDbEntity
  8
LAY-9
  6
CONTINUOUS
 62
     1
100
AcDbVertex
100
AcDb2dVertex
 10
467.3
 20
382.2
 30
0.0
  0
VERTEX
  5
845
100
AcDbEntity
  8
LAY-9
  6
CONTINUOUS
 62
     1
100
AcDbVertex
100
AcDb2dVertex
 10
467.429451
 20
381.086666
 30
0.0
  0
VERTEX
  5
846
100
AcDbEntity
  8
LAY-9
  6
CONTINUOUS
 62
     1
100
AcDbVertex
100
AcDb2dVertex
 10
467.593727
 20
379.941721
 30
0.0
  0
VERTEX
  5
847
100
AcDbEntity
  8
LAY-9
  6
CONTINUOUS
 62
     1
100
AcDbVertex
100
AcDb2dVertex
 10
467.782892
 20
378.794167
 30
0.0
  0
VERTEX
  5
848
100
AcDbEntity
  8
LAY-9
  6
CONTINUOUS
 62
     1
100
AcDbVertex
100
AcDb2dVertex
 10
467.987013
 20
377.673006
 30
0.0
  0
VERTEX
  5
849
100
AcDbEntity
  8
LAY-9
  6
CONTINUOUS
 62
     1
100
AcDbVertex
100
AcDb2dVertex
 10
468.196152
 20
376.607239
 30
0.0
  0
VERTEX
  5
84A
100
AcDbEntity
  8
LAY-9
  6
CONTINUOUS
 62
     1
100
AcDbVertex
100
AcDb2dVertex
 10
468.400374
 20
375.625867
 30
0.0
  0
VERTEX
  5
84B
100
AcDbEntity
  8
LAY-9
  6
CONTINUOUS
 62
     1
100
AcDbVertex
100
AcDb2dVertex
 10
468.589745
 20
374.757892
 30
0.0
  0
VERTEX
  5
84C
100
AcDbEntity
  8
LAY-9
  6
CONTINUOUS
 62
     1
100
AcDbVertex
100
AcDb2dVertex
 10
468.754328
 20
374.032317
 30
0.0
  0
VERTEX
  5
84D
100
AcDbEntity
  8
LAY-9
  6
CONTINUOUS
 62
     1
100
AcDbVertex
100
AcDb2dVertex
 10
468.884189
 20
373.478142
 30
0.0
  0
VERTEX
  5
84E
100
AcDbEntity
  8
LAY-9
  6
CONTINUOUS
 62
     1
100
AcDbVertex
100
AcDb2dVertex
 10
468.969391
 20
373.124369
 30
0.0
  0
VERTEX
  5
84F
100
AcDbEntity
  8
LAY-9
  6
CONTINUOUS
 62
     1
100
AcDbVertex
100
AcDb2dVertex
 10
469.0
 20
373.0
 30
0.0
  0
SEQEND
  5
850
100
AcDbEntity
  8
LAY-9
  6
CONTINUOUS
 62
     1
  0
LINE
  5
851
100
AcDbEntity
  8
LAY-10
  6
CONTINUOUS
 62
     5
100
AcDbLine
 10
15.0
 20
15.0
 30
0.0
 11
826.0
 21
15.0
 31
0.0
  0
LINE
  5
852
100
AcDbEntity
  8
LAY-10
  6
CONTINUOUS
 62
     5
100
AcDbLine
 10
826.0
 20
15.0
 30
0.0
 11
826.0
 21
579.0
 31
0.0
  0
LINE
  5
853
100
AcDbEntity
  8
LAY-10
  6
CONTINUOUS
 62
     5
100
AcDbLine
 10
15.0
 20
15.0
 30
0.0
 11
15.0
 21
579.0
 31
0.0
  0
LINE
  5
854
100
AcDbEntity
  8
LAY-10
  6
CONTINUOUS
 62
     5
100
AcDbLine
 10
15.0
 20
579.0
 30
0.0
 11
826.0
 21
579.0
 31
0.0
  0
LINE
  5
855
100
AcDbEntity
  8
LAY-10
  6
CONTINUOUS
 62
     5
100
AcDbLine
 10
15.0
 20
40.0
 30
0.0
 11
826.0
 21
40.0
 31
0.0
  0
LINE
  5
856
100
AcDbEntity
  8
LAY-10
  6
CONTINUOUS
 62
     1
100
AcDbLine
 10
224.0
 20
40.0
 30
0.0
 11
224.0
 21
15.0
 31
0.0
  0
LINE
  5
857
100
AcDbEntity
  8
LAY-10
  6
CONTINUOUS
 62
     1
100
AcDbLine
 10
249.5
 20
40.0
 30
0.0
 11
249.5
 21
15.0
 31
0.0
  0
LINE
  5
858
100
AcDbEntity
  8
LAY-10
  6
CONTINUOUS
 62
     1
100
AcDbLine
 10
275.0
 20
40.0
 30
0.0
 11
275.0
 21
15.0
 31
0.0
  0
LINE
  5
859
100
AcDbEntity
  8
LAY-10
  6
CONTINUOUS
 62
     1
100
AcDbLine
 10
300.5
 20
40.0
 30
0.0
 11
300.5
 21
15.0
 31
0.0
  0
LINE
  5
85A
100
AcDbEntity
  8
LAY-10
  6
CONTINUOUS
 62
     1
100
AcDbLine
 10
326.0
 20
40.0
 30
0.0
 11
326.0
 21
15.0
 31
0.0
  0
LINE
  5
85B
100
AcDbEntity
  8
LAY-10
  6
CONTINUOUS
 62
     1
100
AcDbLine
 10
377.0
 20
40.0
 30
0.0
 11
377.0
 21
15.0
 31
0.0
  0
LINE
  5
85C
100
AcDbEntity
  8
LAY-10
  6
CONTINUOUS
 62
     1
100
AcDbLine
 10
738.0
 20
40.0
 30
0.0
 11
738.0
 21
15.0
 31
0.0
  0
LINE
  5
85D
100
AcDbEntity
  8
LAY-10
  6
CONTINUOUS
 62
     1
100
AcDbLine
 10
224.0
 20
32.0
 30
0.0
 11
377.0
 21
32.0
 31
0.0
  0
TEXT
  5
85E
100
AcDbEntity
  8
LAY-10
  6
CONTINUOUS
 62
     4
100
AcDbText
 10
227.5
 20
33.0
 30
0.0
 40
6.0
  1
検　  図
 41
0.57856
  7
EXCADSTD
 72
     5
 11
246.700001
 21
33.0
 31
0.0
100
AcDbText
  0
TEXT
  5
85F
100
AcDbEntity
  8
LAY-10
  6
CONTINUOUS
 62
     4
100
AcDbText
 10
253.2
 20
33.0
 30
0.0
 40
6.0
  1
担　　当
 41
0.672
  7
EXCADSTD
 72
     5
 11
272.400001
 21
33.0
 31
0.0
100
AcDbText
  0
TEXT
  5
860
100
AcDbEntity
  8
LAY-10
  6
CONTINUOUS
 62
     4
100
AcDbText
 10
278.4
 20
33.0
 30
0.0
 40
6.0
  1
製　　図
 41
0.672
  7
EXCADSTD
 72
     5
 11
297.600001
 21
33.0
 31
0.0
100
AcDbText
  0
TEXT
  5
861
100
AcDbEntity
  8
LAY-10
  6
CONTINUOUS
 62
     4
100
AcDbText
 10
303.9
 20
33.0
 30
0.0
 40
6.0
  1
尺　　度
 41
0.672
  7
EXCADSTD
 72
     5
 11
323.100001
 21
33.0
 31
0.0
100
AcDbText
  0
TEXT
  5
862
100
AcDbEntity
  8
LAY-10
  6
CONTINUOUS
 62
     4
100
AcDbText
 10
339.5
 20
33.0
 30
0.0
 40
6.0
  1
作成年月日
 41
0.672
  7
EXCADSTD
 72
     5
 11
363.500001
 21
33.0
 31
0.0
100
AcDbText
  0
TEXT
  5
863
100
AcDbEntity
  8
LAY-10
  6
CONTINUOUS
 62
   134
100
AcDbText
 10
42.98
 20
20.91
 30
0.0
 40
13.0
  1
日本ドアーチエック製造株式会社
 41
0.653908
  7
EXCADSTD
 72
     5
 11
194.779994
 21
20.91
 31
0.0
100
AcDbText
  0
LINE
  5
864
100
AcDbEntity
  8
LAY-10
  6
CONTINUOUS
 62
     1
100
AcDbLine
 10
841.0
 20
0.0
 30
0.0
 11
841.0
 21
2.0
 31
0.0
  0
LINE
  5
865
100
AcDbEntity
  8
LAY-10
  6
CONTINUOUS
 62
     1
100
AcDbLine
 10
841.0
 20
592.0
 30
0.0
 11
841.0
 21
594.0
 31
0.0
  0
LINE
  5
866
100
AcDbEntity
  8
LAY-10
  6
CONTINUOUS
 62
     1
100
AcDbLine
 10
841.0
 20
594.0
 30
0.0
 11
839.0
 21
594.0
 31
0.0
  0
LINE
  5
867
100
AcDbEntity
  8
LAY-10
  6
CONTINUOUS
 62
     1
100
AcDbLine
 10
2.0
 20
594.0
 30
0.0
 11
0.0
 21
594.0
 31
0.0
  0
LINE
  5
868
100
AcDbEntity
  8
LAY-10
  6
CONTINUOUS
 62
     1
100
AcDbLine
 10
0.0
 20
594.0
 30
0.0
 11
0.0
 21
592.0
 31
0.0
  0
LINE
  5
869
100
AcDbEntity
  8
LAY-10
  6
CONTINUOUS
 62
     1
100
AcDbLine
 10
0.0
 20
2.0
 30
0.0
 11
0.0
 21
0.0
 31
0.0
  0
LINE
  5
86A
100
AcDbEntity
  8
LAY-10
  6
CONTINUOUS
 62
     1
100
AcDbLine
 10
0.0
 20
0.0
 30
0.0
 11
2.0
 21
0.0
 31
0.0
  0
LINE
  5
86B
100
AcDbEntity
  8
LAY-10
  6
CONTINUOUS
 62
     1
100
AcDbLine
 10
839.0
 20
0.0
 30
0.0
 11
841.0
 21
0.0
 31
0.0
  0
TEXT
  5
86C
100
AcDbEntity
  8
LAY-10
  6
CONTINUOUS
 62
     4
100
AcDbText
 10
383.0
 20
33.0
 30
0.0
 40
6.0
  1
図 面 名
 41
0.57856
  7
EXCADSTD
 72
     5
 11
402.200001
 21
33.0
 31
0.0
100
AcDbText
  0
TEXT
  5
86D
100
AcDbEntity
  8
LAY-10
  6
CONTINUOUS
 62
     4
100
AcDbText
 10
744.0
 20
33.0
 30
0.0
 40
6.0
  1
図面番号
 41
0.672
  7
EXCADSTD
 72
     5
 11
763.200001
 21
33.0
 31
0.0
100
AcDbText
  0
TEXT
  5
86E
100
AcDbEntity
  8
LAY-10
  6
CONTINUOUS
 62
     2
100
AcDbText
 10
306.5
 20
20.2
 30
0.0
 40
6.0
  1
１／１
 41
0.672
  7
EXCADSTD
 72
     5
 11
320.900001
 21
20.2
 31
0.0
100
AcDbText
  0
TEXT
  5
86F
100
AcDbEntity
  8
LAY-10
  6
CONTINUOUS
 62
     2
100
AcDbText
 10
332.6
 20
20.2
 30
0.0
 40
6.0
  1
Ｈ１３.　７.　２
 41
0.622617
  7
EXCADSTD
 72
     5
 11
371.000002
 21
20.2
 31
0.0
100
AcDbText
  0
TEXT
  5
870
100
AcDbEntity
  8
LAY-10
  6
CONTINUOUS
 62
     2
100
AcDbText
 10
406.828367
 20
19.274519
 30
0.0
 40
10.0
  1
ピボットヒンジ　７Ｎ(竪枠取付型 )　納まり図
 41
0.652562
  7
EXCADSTD
 72
     5
 11
574.828367
 21
19.274519
 31
0.0
100
AcDbText
  0
ENDSEC
  0
SECTION
  2
OBJECTS
  0
DICTIONARY
  5
19
100
AcDbDictionary
  3
ACAD_GROUP
350
1A
  3
ACAD_MLINESTYLE
350
1B
  0
DICTIONARY
  5
1A
102
{ACAD_REACTORS
330
19
102
}
100
AcDbDictionary
  0
DICTIONARY
  5
1B
102
{ACAD_REACTORS
330
19
102
}
100
AcDbDictionary
  3
STANDARD
350
1C
  0
MLINESTYLE
  5
1C
102
{ACAD_REACTORS
330
1B
102
}
100
AcDbMlineStyle
  2
Standard
 70
     0
  3

 62
     0
 51
90.0
 52
90.0
 71
     2
 49
0.5
 62
   256
  6
ByLayer
 49
-0.5
 62
   256
  6
ByLayer
  0
ENDSEC
  0
EOF
