  0
SECTION
  2
HEADER
  9
$ACADVER
  1
AC1014
  9
$ACADMAINTVER
 70
     0
  9
$DWGCODEPAGE
  3
ANSI_932
  9
$INSBASE
 10
0.0
 20
0.0
 30
0.0
  9
$EXTMIN
 10
0.0
 20
0.0
 30
0.0
  9
$EXTMAX
 10
594.0
 20
420.0
 30
0.0
  9
$LIMMIN
 10
0.0
 20
0.0
  9
$LIMMAX
 10
594.0
 20
420.0
  9
$ORTHOMODE
 70
     0
  9
$REGENMODE
 70
     1
  9
$FILLMODE
 70
     1
  9
$QTEXTMODE
 70
     0
  9
$MIRRTEXT
 70
     1
  9
$DRAGMODE
 70
     2
  9
$LTSCALE
 40
1.0
  9
$OSMODE
 70
     0
  9
$ATTMODE
 70
     1
  9
$TEXTSIZE
 40
0.2
  9
$TRACEWID
 40
0.05
  9
$TEXTSTYLE
  7
STANDARD
  9
$CLAYER
  8
LAY-6
  9
$CELTYPE
  6
CONTINUOUS
  9
$CECOLOR
 62
   256
  9
$CELTSCALE
 40
1.0
  9
$DELOBJ
 70
     1
  9
$DISPSILH
 70
     0
  9
$DIMSCALE
 40
1.0
  9
$DIMASZ
 40
0.18
  9
$DIMEXO
 40
0.0625
  9
$DIMDLI
 40
0.38
  9
$DIMRND
 40
0.0
  9
$DIMDLE
 40
0.0
  9
$DIMEXE
 40
0.18
  9
$DIMTP
 40
0.0
  9
$DIMTM
 40
0.0
  9
$DIMTXT
 40
0.18
  9
$DIMCEN
 40
0.09
  9
$DIMTSZ
 40
0.0
  9
$DIMTOL
 70
     0
  9
$DIMLIM
 70
     0
  9
$DIMTIH
 70
     1
  9
$DIMTOH
 70
     1
  9
$DIMSE1
 70
     0
  9
$DIMSE2
 70
     0
  9
$DIMTAD
 70
     0
  9
$DIMZIN
 70
     0
  9
$DIMBLK
  1

  9
$DIMASO
 70
     1
  9
$DIMSHO
 70
     1
  9
$DIMPOST
  1

  9
$DIMAPOST
  1

  9
$DIMALT
 70
     0
  9
$DIMALTD
 70
     2
  9
$DIMALTF
 40
25.4
  9
$DIMLFAC
 40
1.0
  9
$DIMTOFL
 70
     0
  9
$DIMTVP
 40
0.0
  9
$DIMTIX
 70
     0
  9
$DIMSOXD
 70
     0
  9
$DIMSAH
 70
     0
  9
$DIMBLK1
  1

  9
$DIMBLK2
  1

  9
$DIMSTYLE
  2
STANDARD
  9
$DIMCLRD
 70
     0
  9
$DIMCLRE
 70
     0
  9
$DIMCLRT
 70
     0
  9
$DIMTFAC
 40
1.0
  9
$DIMGAP
 40
0.09
  9
$DIMJUST
 70
     0
  9
$DIMSD1
 70
     0
  9
$DIMSD2
 70
     0
  9
$DIMTOLJ
 70
     1
  9
$DIMTZIN
 70
     0
  9
$DIMALTZ
 70
     0
  9
$DIMALTTZ
 70
     0
  9
$DIMFIT
 70
     3
  9
$DIMUPT
 70
     0
  9
$DIMUNIT
 70
     2
  9
$DIMDEC
 70
     4
  9
$DIMTDEC
 70
     4
  9
$DIMALTU
 70
     2
  9
$DIMALTTD
 70
     2
  9
$DIMTXSTY
  7
STANDARD
  9
$DIMAUNIT
 70
     0
  9
$LUNITS
 70
     2
  9
$LUPREC
 70
     4
  9
$SKETCHINC
 40
0.1
  9
$FILLETRAD
 40
0.0
  9
$AUNITS
 70
     0
  9
$AUPREC
 70
     0
  9
$MENU
  1
acad
  9
$ELEVATION
 40
0.0
  9
$PELEVATION
 40
0.0
  9
$THICKNESS
 40
0.0
  9
$LIMCHECK
 70
     0
  9
$BLIPMODE
 70
     1
  9
$CHAMFERA
 40
0.0
  9
$CHAMFERB
 40
0.0
  9
$CHAMFERC
 40
0.0
  9
$CHAMFERD
 40
0.0
  9
$SKPOLY
 70
     0
  9
$TDCREATE
 40
2454542.074481099
  9
$TDUPDATE
 40
2454542.074481099
  9
$TDINDWG
 40
0.0000000000
  9
$TDUSRTIMER
 40
0.0000000000
  9
$USRTIMER
 70
     1
  9
$ANGBASE
 50
0.0
  9
$ANGDIR
 70
     0
  9
$PDMODE
 70
     0
  9
$PDSIZE
 40
0.0
  9
$PLINEWID
 40
0.0
  9
$COORDS
 70
     1
  9
$SPLFRAME
 70
     0
  9
$SPLINETYPE
 70
     6
  9
$SPLINESEGS
 70
     8
  9
$ATTDIA
 70
     0
  9
$ATTREQ
 70
     1
  9
$HANDLING
 70
     1
  9
$HANDSEED
  5
2A4
  9
$SURFTAB1
 70
     6
  9
$SURFTAB2
 70
     6
  9
$SURFTYPE
 70
     6
  9
$SURFU
 70
     6
  9
$SURFV
 70
     6
  9
$UCSNAME
  2

  9
$UCSORG
 10
0.0
 20
0.0
 30
0.0
  9
$UCSXDIR
 10
1.0
 20
0.0
 30
0.0
  9
$UCSYDIR
 10
0.0
 20
1.0
 30
0.0
  9
$PUCSNAME
  2

  9
$PUCSORG
 10
0.0
 20
0.0
 30
0.0
  9
$PUCSXDIR
 10
1.0
 20
0.0
 30
0.0
  9
$PUCSYDIR
 10
0.0
 20
1.0
 30
0.0
  9
$USERI1
 70
     0
  9
$USERI2
 70
     0
  9
$USERI3
 70
     0
  9
$USERI4
 70
     0
  9
$USERI5
 70
     0
  9
$USERR1
 40
0.0
  9
$USERR2
 40
0.0
  9
$USERR3
 40
0.0
  9
$USERR4
 40
0.0
  9
$USERR5
 40
0.0
  9
$WORLDVIEW
 70
     1
  9
$SHADEDGE
 70
     3
  9
$SHADEDIF
 70
    70
  9
$TILEMODE
 70
     1
  9
$MAXACTVP
 70
    16
  9
$PINSBASE
 10
0.0
 20
0.0
 30
0.0
  9
$PLIMCHECK
 70
     0
  9
$PEXTMIN
 10
1.000000E+20
 20
1.000000E+20
 30
1.000000E+20
  9
$PEXTMAX
 10
-1.000000E+20
 20
-1.000000E+20
 30
-1.000000E+20
  9
$PLIMMIN
 10
0.0
 20
0.0
  9
$PLIMMAX
 10
12.0
 20
9.0
  9
$UNITMODE
 70
     0
  9
$VISRETAIN
 70
     0
  9
$PLINEGEN
 70
     1
  9
$PSLTSCALE
 70
     0
  9
$TREEDEPTH
 70
  3020
  9
$PICKSTYLE
 70
     1
  9
$CMLSTYLE
  2
Standard
  9
$CMLJUST
 70
     0
  9
$CMLSCALE
 40
1.0
  9
$PROXYGRAPHICS
 70
     0
  9
$MEASUREMENT
 70
     0
  0
ENDSEC
  0
SECTION
  2
CLASSES
  0
CLASS
  1
LWPOLYLINE
  2
AcDbPolyline
  3
"AutoCAD"
 90
        0
280
     0
281
     1
  0
CLASS
  1
IMAGE
  2
AcDbRasterImage
  3
ISM
 90
      127
280
     0
281
     1
  0
CLASS
  1
OLE2FRAME
  2
AcDbOle2Frame
  3
""
 90
        0
280
     0
281
     1
  0
CLASS
  1
HATCH
  2
AcDbHatch
  3
"ACAD_SEDONA"
 90
        0
280
     0
281
     1
  0
CLASS
  1
DICTIONARYVAR
  2
AcDbDictionaryVar
  3
"AutoCAD"
 90
        0
280
     0
281
     0
  0
CLASS
  1
RASTERVARIABLES
  2
AcDbRasterVariables
  3
ISM
 90
        0
280
     0
281
     0
  0
CLASS
  1
IMAGEDEF
  2
AcDbRasterImageDef
  3
ISM
 90
        0
280
     0
281
     0
  0
CLASS
  1
IMAGEDEF_REACTOR
  2
AcDbRasterImageDefReactor
  3
ISM
 90
        1
280
     0
281
     0
  0
CLASS
  1
IDBUFFER
  2
AcDbIdBuffer
  3
"Acad"
 90
        0
280
     0
281
     0
  0
CLASS
  1
SPATIAL_FILTER
  2
AcDbSpatialFilter
  3
"Acad"
 90
        0
280
     0
281
     0
  0
CLASS
  1
XRECORD
  2
AcDbXrecord
  3
"<Built In>"
 90
        0
280
     0
281
     0
  0
CLASS
  1
SORTENTSTABLE
  2
AcDbSortentsTable
  3
"AutoCAD"
 90
        0
280
     0
281
     0
  0
CLASS
  1
LAYER_INDEX
  2
AcDbLayerIndex
  3
"Acad"
 90
        0
280
     0
281
     0
  0
CLASS
  1
SPATIAL_INDEX
  2
AcDbSpatialIndex
  3
"Acad"
 90
        0
280
     0
281
     0
  0
CLASS
  1
OBJECT_PTR
  2
CAseDLPNTableRecord
  3
"ASE-LPNTableRecord"
 90
        1
280
     0
281
     0
  0
CLASS
  1
LAYOUT
  2
AcDbLayout
  3
"AutoCAD 2000"
 90
        0
280
     0
281
     0
  0
CLASS
  1
PLOTSETTINGS
  2
AcDbPlotSettings
  3
"AutoCAD 2000"
 90
        0
280
     0
281
     0
  0
CLASS
  1
ACDBDICTIONARYWDFLT
  2
AcDbDictionaryWithDefault
  3
"AutoCAD 2000"
 90
        0
280
     0
281
     0
  0
CLASS
  1
ACDBPLACEHOLDER
  2
AcDbPlaceHolder
  3
"AutoCAD 2000"
 90
        0
280
     0
281
     0
  0
CLASS
  1
VBA_PROJECT
  2
AcDbVbaProject
  3
"acadvba"
 90
        0
280
     0
281
     0
  0
CLASS
  1
WIPEOUT
  2
AcDbWipeout
  3
WipeOut|AutoCAD Express Tool|expresstools@autodesk.com
 90
      127
280
     0
281
     1
  0
CLASS
  1
WIPEOUTVARIABLES
  2
AcDbWipeoutVariables
  3
WipeOut|AutoCAD Express Tool|expresstools@autodesk.com
 90
        0
280
     0
281
     0
  0
CLASS
  1
RTEXT
  2
RText
  3
RText|AutoCAD Express Tool|expresstools@autodesk.com
 90
        0
280
     0
281
     1
  0
CLASS
  1
ARCALIGNEDTEXT
  2
AcDbArcAlignedText
  3
ATEXT|AutoCAD Express Tool|expresstools@autodesk.com
 90
        0
280
     0
281
     1
  0
ENDSEC
  0
SECTION
  2
TABLES
  0
TABLE
  2
VPORT
  5
7
100
AcDbSymbolTable
 70
     1
  0
VPORT
  5
15
100
AcDbSymbolTableRecord
100
AcDbViewportTableRecord
  2
*ACTIVE
 70
     0
 10
0.0
 20
0.0
 11
1.0
 21
1.0
 12
297.0
 22
210.0
 13
0.0
 23
0.0
 14
1.0
 24
1.0
 15
0.0
 25
0.0
 16
0.0
 26
0.0
 36
1.0
 17
0.0
 27
0.0
 37
0.0
 40
420.0
 41
1.722533
 42
50.0
 43
0.0
 44
0.0
 50
0.0
 51
0.0
 71
     0
 72
   100
 73
     1
 74
     1
 75
     0
 76
     0
 77
     0
 78
     0
  0
ENDTAB
  0
TABLE
  2
LTYPE
  5
4
100
AcDbSymbolTable
 70
     9
  0
LTYPE
  5
11
100
AcDbSymbolTableRecord
100
AcDbLinetypeTableRecord
  2
BYBLOCK
 70
    64
  3

 72
    65
 73
     0
 40
0.0
  0
LTYPE
  5
12
100
AcDbSymbolTableRecord
100
AcDbLinetypeTableRecord
  2
BYLAYER
 70
    64
  3

 72
    65
 73
     0
 40
0.0
  0
LTYPE
  5
13
100
AcDbSymbolTableRecord
100
AcDbLinetypeTableRecord
  2
CONTINUOUS
 70
    64
  3
実線
 72
    65
 73
     0
 40
0.0
  0
LTYPE
  5
1D
100
AcDbSymbolTableRecord
100
AcDbLinetypeTableRecord
  2
DASHED
 70
    64
  3
Dashed __ __ __ __ __ __ __ __ __ __ __ __ __ _
 72
    65
 73
     2
 40
19.05
 49
12.7
 74
     0
 49
-6.35
 74
     0
  0
LTYPE
  5
1E
100
AcDbSymbolTableRecord
100
AcDbLinetypeTableRecord
  2
DASHED2
 70
    64
  3
Dashed (.5x) _ _ _ _ _ _ _ _ _ _ _ _ _ _ _ _ _ 
 72
    65
 73
     2
 40
9.525
 49
6.35
 74
     0
 49
-3.175
 74
     0
  0
LTYPE
  5
1F
100
AcDbSymbolTableRecord
100
AcDbLinetypeTableRecord
  2
DASHDOT
 70
    64
  3
Dash dot __ . __ . __ . __ . __ . __ . __ . __
 72
    65
 73
     4
 40
25.4
 49
12.7
 74
     0
 49
-6.35
 74
     0
 49
0.0
 74
     0
 49
-6.35
 74
     0
  0
LTYPE
  5
20
100
AcDbSymbolTableRecord
100
AcDbLinetypeTableRecord
  2
DIVIDE
 70
    64
  3
Divide ____ . . ____ . . ____ . . ____ . . ____
 72
    65
 73
     6
 40
31.75
 49
12.7
 74
     0
 49
-6.35
 74
     0
 49
0.0
 74
     0
 49
-6.35
 74
     0
 49
0.0
 74
     0
 49
-6.35
 74
     0
  0
LTYPE
  5
21
100
AcDbSymbolTableRecord
100
AcDbLinetypeTableRecord
  2
ACAD_ISO06W100
 70
    64
  3
ISO long-dash triple-dot ____ ... ____ ... ____
 72
    65
 73
     8
 40
36.0
 49
24.0
 74
     0
 49
-3.0
 74
     0
 49
0.0
 74
     0
 49
-3.0
 74
     0
 49
0.0
 74
     0
 49
-3.0
 74
     0
 49
0.0
 74
     0
 49
-3.0
 74
     0
  0
LTYPE
  5
22
100
AcDbSymbolTableRecord
100
AcDbLinetypeTableRecord
  2
ACAD_ISO15W100
 70
    64
  3
ISO double-dash triple-dot __ __ . . . __ __ . .
 72
    65
 73
    10
 40
39.0
 49
12.0
 74
     0
 49
-3.0
 74
     0
 49
12.0
 74
     0
 49
-3.0
 74
     0
 49
0.0
 74
     0
 49
-3.0
 74
     0
 49
0.0
 74
     0
 49
-3.0
 74
     0
 49
0.0
 74
     0
 49
-3.0
 74
     0
  0
ENDTAB
  0
TABLE
  2
LAYER
  5
2
100
AcDbSymbolTable
 70
     6
  0
LAYER
  5
14
100
AcDbSymbolTableRecord
100
AcDbLayerTableRecord
  2
0
 70
     0
 62
     7
  6
CONTINUOUS
  0
LAYER
  5
25
100
AcDbSymbolTableRecord
100
AcDbLayerTableRecord
  2
LAY-1
 70
    64
 62
     3
  6
CONTINUOUS
  0
LAYER
  5
26
100
AcDbSymbolTableRecord
100
AcDbLayerTableRecord
  2
LAY-5
 70
    64
 62
     1
  6
DASHDOT
  0
LAYER
  5
27
100
AcDbSymbolTableRecord
100
AcDbLayerTableRecord
  2
LAY-6
 70
    64
 62
     2
  6
CONTINUOUS
  0
LAYER
  5
28
100
AcDbSymbolTableRecord
100
AcDbLayerTableRecord
  2
LAY-9
 70
    64
 62
     1
  6
CONTINUOUS
  0
LAYER
  5
29
100
AcDbSymbolTableRecord
100
AcDbLayerTableRecord
  2
LAY-10
 70
    64
 62
     5
  6
CONTINUOUS
  0
ENDTAB
  0
TABLE
  2
STYLE
  5
3
100
AcDbSymbolTable
 70
     3
  0
STYLE
  5
17
100
AcDbSymbolTableRecord
100
AcDbTextStyleTableRecord
  2
STANDARD
 70
     0
 40
0.0
 41
1.0
 50
0.0
 71
     0
 42
0.0
  3
monotxt
  4
extfont
  0
STYLE
  5
23
100
AcDbSymbolTableRecord
100
AcDbTextStyleTableRecord
  2
EXCADSTD
 70
    64
 40
0.0
 41
1.0
 50
0.0
 71
     0
 42
0.2
  3
monotxt
  4
extfont
  0
STYLE
  5
24
100
AcDbSymbolTableRecord
100
AcDbTextStyleTableRecord
  2
EXCADVERT
 70
    68
 40
0.0
 41
1.0
 50
0.0
 71
     0
 42
0.286885
  3
monotxt
  4
extfont
  0
ENDTAB
  0
TABLE
  2
VIEW
  5
5
100
AcDbSymbolTable
 70
     0
  0
ENDTAB
  0
TABLE
  2
UCS
  5
6
100
AcDbSymbolTable
 70
     0
  0
ENDTAB
  0
TABLE
  2
APPID
  5
8
100
AcDbSymbolTable
 70
     1
  0
APPID
  5
16
100
AcDbSymbolTableRecord
100
AcDbRegAppTableRecord
  2
ACAD
 70
     0
  0
ENDTAB
  0
TABLE
  2
DIMSTYLE
  5
9
100
AcDbSymbolTable
 70
     1
  0
DIMSTYLE
105
18
100
AcDbSymbolTableRecord
100
AcDbDimStyleTableRecord
  2
STANDARD
 70
     0
  3

  4

  5

  6

  7

 40
1.0
 41
0.18
 42
0.0625
 43
0.38
 44
0.18
 45
0.0
 46
0.0
 47
0.0
 48
0.0
 71
     0
 72
     0
 73
     1
 74
     1
 75
     0
 76
     0
 77
     0
 78
     0
140
0.18
141
0.09
142
0.0
143
25.4
144
1.0
145
0.0
146
1.0
147
0.09
170
     0
171
     2
172
     1
173
     0
174
     0
175
     0
176
     0
177
     0
178
     0
270
     2
271
     4
272
     4
273
     2
274
     2
275
     0
280
     0
281
     0
282
     0
283
     1
284
     0
285
     0
286
     0
287
     3
288
     0
340
17
  0
ENDTAB
  0
TABLE
  2
BLOCK_RECORD
  5
1
100
AcDbSymbolTable
 70
    14
  0
BLOCK_RECORD
  5
A
100
AcDbSymbolTableRecord
100
AcDbBlockTableRecord
  2
*MODEL_SPACE
  0
BLOCK_RECORD
  5
B
100
AcDbSymbolTableRecord
100
AcDbBlockTableRecord
  2
*PAPER_SPACE
  0
BLOCK_RECORD
  5
2A
100
AcDbSymbolTableRecord
100
AcDbBlockTableRecord
  2
_EX_NORM
  0
BLOCK_RECORD
  5
2B
100
AcDbSymbolTableRecord
100
AcDbBlockTableRecord
  2
_EX_BNORM
  0
BLOCK_RECORD
  5
2C
100
AcDbSymbolTableRecord
100
AcDbBlockTableRecord
  2
_EX_BCIR
  0
BLOCK_RECORD
  5
2D
100
AcDbSymbolTableRecord
100
AcDbBlockTableRecord
  2
_EX_RCIVIL
  0
BLOCK_RECORD
  5
2E
100
AcDbSymbolTableRecord
100
AcDbBlockTableRecord
  2
_EX_SLANT
  0
BLOCK_RECORD
  5
2F
100
AcDbSymbolTableRecord
100
AcDbBlockTableRecord
  2
_EX_NONE
  0
BLOCK_RECORD
  5
30
100
AcDbSymbolTableRecord
100
AcDbBlockTableRecord
  2
_EX_CIVIL
  0
BLOCK_RECORD
  5
31
100
AcDbSymbolTableRecord
100
AcDbBlockTableRecord
  2
_EX_WCIR
  0
BLOCK_RECORD
  5
32
100
AcDbSymbolTableRecord
100
AcDbBlockTableRecord
  2
_EX_WCIR2
  0
BLOCK_RECORD
  5
33
100
AcDbSymbolTableRecord
100
AcDbBlockTableRecord
  2
_EX_WNORM
  0
BLOCK_RECORD
  5
34
100
AcDbSymbolTableRecord
100
AcDbBlockTableRecord
  2
_EX_NNORM
  0
BLOCK_RECORD
  5
35
100
AcDbSymbolTableRecord
100
AcDbBlockTableRecord
  2
_EX_BBOX
  0
BLOCK_RECORD
  5
36
100
AcDbSymbolTableRecord
100
AcDbBlockTableRecord
  2
_EX_WBOX
  0
BLOCK_RECORD
  5
37
100
AcDbSymbolTableRecord
100
AcDbBlockTableRecord
  2
_EX_INTEGRAL
  0
ENDTAB
  0
ENDSEC
  0
SECTION
  2
BLOCKS
  0
BLOCK
  5
D
100
AcDbEntity
  8
0
100
AcDbBlockBegin
  2
*MODEL_SPACE
 70
     0
 10
0.0
 20
0.0
 30
0.0
  3
*MODEL_SPACE
  1

  0
ENDBLK
  5
E
100
AcDbEntity
  8
0
100
AcDbBlockEnd
  0
BLOCK
  5
F
100
AcDbEntity
 67
     1
  8
0
100
AcDbBlockBegin
  2
*PAPER_SPACE
 70
     0
 10
0.0
 20
0.0
 30
0.0
  3
*PAPER_SPACE
  1

  0
ENDBLK
  5
10
100
AcDbEntity
 67
     1
  8
0
100
AcDbBlockEnd
  0
BLOCK
  5
38
100
AcDbEntity
  8
0
100
AcDbBlockBegin
  2
_EX_NORM
 70
     0
 10
0.0
 20
0.0
 30
0.0
  3
_EX_NORM
  1

  0
LINE
  5
39
100
AcDbEntity
  8
0
  6
CONTINUOUS
 62
     0
100
AcDbLine
 10
0.0
 20
0.0
 30
0.0
 11
-1.0
 21
0.0
 31
0.0
  0
LINE
  5
3A
100
AcDbEntity
  8
0
  6
CONTINUOUS
 62
     0
100
AcDbLine
 10
0.0
 20
0.0
 30
0.0
 11
-1.0
 21
0.166667
 31
0.0
  0
LINE
  5
3B
100
AcDbEntity
  8
0
  6
CONTINUOUS
 62
     0
100
AcDbLine
 10
0.0
 20
0.0
 30
0.0
 11
-1.0
 21
-0.166667
 31
0.0
  0
ENDBLK
  5
3C
100
AcDbEntity
  8
0
100
AcDbBlockEnd
  0
BLOCK
  5
3D
100
AcDbEntity
  8
0
100
AcDbBlockBegin
  2
_EX_BNORM
 70
     0
 10
0.0
 20
0.0
 30
0.0
  3
_EX_BNORM
  1

  0
LINE
  5
3E
100
AcDbEntity
  8
0
  6
CONTINUOUS
 62
     0
100
AcDbLine
 10
0.0
 20
0.0
 30
0.0
 11
-1.0
 21
0.0
 31
0.0
  0
LINE
  5
3F
100
AcDbEntity
  8
0
  6
CONTINUOUS
 62
     0
100
AcDbLine
 10
0.0
 20
0.0
 30
0.0
 11
-1.0
 21
0.166667
 31
0.0
  0
LINE
  5
40
100
AcDbEntity
  8
0
  6
CONTINUOUS
 62
     0
100
AcDbLine
 10
0.0
 20
0.0
 30
0.0
 11
-1.0
 21
-0.166667
 31
0.0
  0
LINE
  5
41
100
AcDbEntity
  8
0
  6
CONTINUOUS
 62
     0
100
AcDbLine
 10
0.0
 20
0.0
 30
0.0
 11
-1.0
 21
0.083333
 31
0.0
  0
LINE
  5
42
100
AcDbEntity
  8
0
  6
CONTINUOUS
 62
     0
100
AcDbLine
 10
0.0
 20
0.0
 30
0.0
 11
-1.0
 21
-0.083333
 31
0.0
  0
LINE
  5
43
100
AcDbEntity
  8
0
  6
CONTINUOUS
 62
     0
100
AcDbLine
 10
-1.0
 20
0.166667
 30
0.0
 11
-1.0
 21
-0.166667
 31
0.0
  0
ENDBLK
  5
44
100
AcDbEntity
  8
0
100
AcDbBlockEnd
  0
BLOCK
  5
45
100
AcDbEntity
  8
0
100
AcDbBlockBegin
  2
_EX_BCIR
 70
     0
 10
0.0
 20
0.0
 30
0.0
  3
_EX_BCIR
  1

  0
LINE
  5
46
100
AcDbEntity
  8
0
  6
CONTINUOUS
 62
     0
100
AcDbLine
 10
0.0
 20
0.0
 30
0.0
 11
-1.0
 21
0.0
 31
0.0
  0
CIRCLE
  5
47
100
AcDbEntity
  8
0
  6
CONTINUOUS
 62
     0
100
AcDbCircle
 10
0.0
 20
0.0
 30
0.0
 40
0.5
  0
CIRCLE
  5
48
100
AcDbEntity
  8
0
  6
CONTINUOUS
 62
     0
100
AcDbCircle
 10
0.0
 20
0.0
 30
0.0
 40
0.25
  0
ENDBLK
  5
49
100
AcDbEntity
  8
0
100
AcDbBlockEnd
  0
BLOCK
  5
4A
100
AcDbEntity
  8
0
100
AcDbBlockBegin
  2
_EX_RCIVIL
 70
     0
 10
0.0
 20
0.0
 30
0.0
  3
_EX_RCIVIL
  1

  0
LINE
  5
4B
100
AcDbEntity
  8
0
  6
CONTINUOUS
 62
     0
100
AcDbLine
 10
0.0
 20
0.0
 30
0.0
 11
-1.0
 21
0.0
 31
0.0
  0
LINE
  5
4C
100
AcDbEntity
  8
0
  6
CONTINUOUS
 62
     0
100
AcDbLine
 10
-1.0
 20
-0.25
 30
0.0
 11
0.0
 21
-0.25
 31
0.0
  0
LINE
  5
4D
100
AcDbEntity
  8
0
  6
CONTINUOUS
 62
     0
100
AcDbLine
 10
-1.0
 20
-0.125
 30
0.0
 11
0.0
 21
-0.125
 31
0.0
  0
ENDBLK
  5
4E
100
AcDbEntity
  8
0
100
AcDbBlockEnd
  0
BLOCK
  5
4F
100
AcDbEntity
  8
0
100
AcDbBlockBegin
  2
_EX_SLANT
 70
     0
 10
0.0
 20
0.0
 30
0.0
  3
_EX_SLANT
  1

  0
LINE
  5
50
100
AcDbEntity
  8
0
  6
CONTINUOUS
 62
     0
100
AcDbLine
 10
0.0
 20
0.0
 30
0.0
 11
-1.0
 21
0.0
 31
0.0
  0
LINE
  5
51
100
AcDbEntity
  8
0
  6
CONTINUOUS
 62
     0
100
AcDbLine
 10
0.707107
 20
0.707107
 30
0.0
 11
-0.707107
 21
-0.707107
 31
0.0
  0
ENDBLK
  5
52
100
AcDbEntity
  8
0
100
AcDbBlockEnd
  0
BLOCK
  5
53
100
AcDbEntity
  8
0
100
AcDbBlockBegin
  2
_EX_NONE
 70
     0
 10
0.0
 20
0.0
 30
0.0
  3
_EX_NONE
  1

  0
LINE
  5
54
100
AcDbEntity
  8
0
  6
CONTINUOUS
 62
     0
100
AcDbLine
 10
0.0
 20
0.0
 30
0.0
 11
-1.0
 21
0.0
 31
0.0
  0
ENDBLK
  5
55
100
AcDbEntity
  8
0
100
AcDbBlockEnd
  0
BLOCK
  5
56
100
AcDbEntity
  8
0
100
AcDbBlockBegin
  2
_EX_CIVIL
 70
     0
 10
0.0
 20
0.0
 30
0.0
  3
_EX_CIVIL
  1

  0
LINE
  5
57
100
AcDbEntity
  8
0
  6
CONTINUOUS
 62
     0
100
AcDbLine
 10
0.0
 20
0.0
 30
0.0
 11
-1.0
 21
0.0
 31
0.0
  0
LINE
  5
58
100
AcDbEntity
  8
0
  6
CONTINUOUS
 62
     0
100
AcDbLine
 10
-1.0
 20
0.25
 30
0.0
 11
0.0
 21
0.25
 31
0.0
  0
LINE
  5
59
100
AcDbEntity
  8
0
  6
CONTINUOUS
 62
     0
100
AcDbLine
 10
-1.0
 20
0.125
 30
0.0
 11
0.0
 21
0.125
 31
0.0
  0
ENDBLK
  5
5A
100
AcDbEntity
  8
0
100
AcDbBlockEnd
  0
BLOCK
  5
5B
100
AcDbEntity
  8
0
100
AcDbBlockBegin
  2
_EX_WCIR
 70
     0
 10
0.0
 20
0.0
 30
0.0
  3
_EX_WCIR
  1

  0
LINE
  5
5C
100
AcDbEntity
  8
0
  6
CONTINUOUS
 62
     0
100
AcDbLine
 10
0.0
 20
0.0
 30
0.0
 11
-1.0
 21
0.0
 31
0.0
  0
CIRCLE
  5
5D
100
AcDbEntity
  8
0
  6
CONTINUOUS
 62
     0
100
AcDbCircle
 10
0.0
 20
0.0
 30
0.0
 40
0.5
  0
ENDBLK
  5
5E
100
AcDbEntity
  8
0
100
AcDbBlockEnd
  0
BLOCK
  5
5F
100
AcDbEntity
  8
0
100
AcDbBlockBegin
  2
_EX_WCIR2
 70
     0
 10
0.0
 20
0.0
 30
0.0
  3
_EX_WCIR2
  1

  0
LINE
  5
60
100
AcDbEntity
  8
0
  6
CONTINUOUS
 62
     0
100
AcDbLine
 10
-0.5
 20
0.0
 30
0.0
 11
-1.0
 21
0.0
 31
0.0
  0
CIRCLE
  5
61
100
AcDbEntity
  8
0
  6
CONTINUOUS
 62
     0
100
AcDbCircle
 10
0.0
 20
0.0
 30
0.0
 40
0.5
  0
ENDBLK
  5
62
100
AcDbEntity
  8
0
100
AcDbBlockEnd
  0
BLOCK
  5
63
100
AcDbEntity
  8
0
100
AcDbBlockBegin
  2
_EX_WNORM
 70
     0
 10
0.0
 20
0.0
 30
0.0
  3
_EX_WNORM
  1

  0
LINE
  5
64
100
AcDbEntity
  8
0
  6
CONTINUOUS
 62
     0
100
AcDbLine
 10
-1.0
 20
0.0
 30
0.0
 11
-1.0
 21
0.0
 31
0.0
  0
LINE
  5
65
100
AcDbEntity
  8
0
  6
CONTINUOUS
 62
     0
100
AcDbLine
 10
0.0
 20
0.0
 30
0.0
 11
-1.0
 21
0.166667
 31
0.0
  0
LINE
  5
66
100
AcDbEntity
  8
0
  6
CONTINUOUS
 62
     0
100
AcDbLine
 10
0.0
 20
0.0
 30
0.0
 11
-1.0
 21
-0.166667
 31
0.0
  0
LINE
  5
67
100
AcDbEntity
  8
0
  6
CONTINUOUS
 62
     0
100
AcDbLine
 10
-1.0
 20
0.166667
 30
0.0
 11
-1.0
 21
-0.166667
 31
0.0
  0
ENDBLK
  5
68
100
AcDbEntity
  8
0
100
AcDbBlockEnd
  0
BLOCK
  5
69
100
AcDbEntity
  8
0
100
AcDbBlockBegin
  2
_EX_NNORM
 70
     0
 10
0.0
 20
0.0
 30
0.0
  3
_EX_NNORM
  1

  0
LINE
  5
6A
100
AcDbEntity
  8
0
  6
CONTINUOUS
 62
     0
100
AcDbLine
 10
0.0
 20
0.0
 30
0.0
 11
-1.0
 21
0.0
 31
0.0
  0
LINE
  5
6B
100
AcDbEntity
  8
0
  6
CONTINUOUS
 62
     0
100
AcDbLine
 10
0.0
 20
0.0
 30
0.0
 11
-1.0
 21
0.166667
 31
0.0
  0
LINE
  5
6C
100
AcDbEntity
  8
0
  6
CONTINUOUS
 62
     0
100
AcDbLine
 10
0.0
 20
0.0
 30
0.0
 11
-1.0
 21
-0.166667
 31
0.0
  0
LINE
  5
6D
100
AcDbEntity
  8
0
  6
CONTINUOUS
 62
     0
100
AcDbLine
 10
-1.0
 20
0.166667
 30
0.0
 11
-1.0
 21
-0.166667
 31
0.0
  0
ENDBLK
  5
6E
100
AcDbEntity
  8
0
100
AcDbBlockEnd
  0
BLOCK
  5
6F
100
AcDbEntity
  8
0
100
AcDbBlockBegin
  2
_EX_BBOX
 70
     0
 10
0.0
 20
0.0
 30
0.0
  3
_EX_BBOX
  1

  0
LINE
  5
70
100
AcDbEntity
  8
0
  6
CONTINUOUS
 62
     0
100
AcDbLine
 10
0.0
 20
0.0
 30
0.0
 11
-1.0
 21
0.0
 31
0.0
  0
LINE
  5
71
100
AcDbEntity
  8
0
  6
CONTINUOUS
 62
     0
100
AcDbLine
 10
-0.5
 20
0.5
 30
0.0
 11
0.5
 21
0.5
 31
0.0
  0
LINE
  5
72
100
AcDbEntity
  8
0
  6
CONTINUOUS
 62
     0
100
AcDbLine
 10
0.5
 20
0.5
 30
0.0
 11
0.5
 21
-0.5
 31
0.0
  0
LINE
  5
73
100
AcDbEntity
  8
0
  6
CONTINUOUS
 62
     0
100
AcDbLine
 10
0.5
 20
-0.5
 30
0.0
 11
-0.5
 21
-0.5
 31
0.0
  0
LINE
  5
74
100
AcDbEntity
  8
0
  6
CONTINUOUS
 62
     0
100
AcDbLine
 10
-0.5
 20
-0.5
 30
0.0
 11
-0.5
 21
0.5
 31
0.0
  0
LINE
  5
75
100
AcDbEntity
  8
0
  6
CONTINUOUS
 62
     0
100
AcDbLine
 10
-0.25
 20
0.25
 30
0.0
 11
0.25
 21
0.25
 31
0.0
  0
LINE
  5
76
100
AcDbEntity
  8
0
  6
CONTINUOUS
 62
     0
100
AcDbLine
 10
0.25
 20
0.25
 30
0.0
 11
0.25
 21
-0.25
 31
0.0
  0
LINE
  5
77
100
AcDbEntity
  8
0
  6
CONTINUOUS
 62
     0
100
AcDbLine
 10
0.25
 20
-0.25
 30
0.0
 11
-0.25
 21
-0.25
 31
0.0
  0
LINE
  5
78
100
AcDbEntity
  8
0
  6
CONTINUOUS
 62
     0
100
AcDbLine
 10
-0.25
 20
-0.25
 30
0.0
 11
-0.25
 21
0.25
 31
0.0
  0
ENDBLK
  5
79
100
AcDbEntity
  8
0
100
AcDbBlockEnd
  0
BLOCK
  5
7A
100
AcDbEntity
  8
0
100
AcDbBlockBegin
  2
_EX_WBOX
 70
     0
 10
0.0
 20
0.0
 30
0.0
  3
_EX_WBOX
  1

  0
LINE
  5
7B
100
AcDbEntity
  8
0
  6
CONTINUOUS
 62
     0
100
AcDbLine
 10
-0.5
 20
0.0
 30
0.0
 11
-1.0
 21
0.0
 31
0.0
  0
LINE
  5
7C
100
AcDbEntity
  8
0
  6
CONTINUOUS
 62
     0
100
AcDbLine
 10
-0.5
 20
0.5
 30
0.0
 11
0.5
 21
0.5
 31
0.0
  0
LINE
  5
7D
100
AcDbEntity
  8
0
  6
CONTINUOUS
 62
     0
100
AcDbLine
 10
0.5
 20
0.5
 30
0.0
 11
0.5
 21
-0.5
 31
0.0
  0
LINE
  5
7E
100
AcDbEntity
  8
0
  6
CONTINUOUS
 62
     0
100
AcDbLine
 10
0.5
 20
-0.5
 30
0.0
 11
-0.5
 21
-0.5
 31
0.0
  0
LINE
  5
7F
100
AcDbEntity
  8
0
  6
CONTINUOUS
 62
     0
100
AcDbLine
 10
-0.5
 20
-0.5
 30
0.0
 11
-0.5
 21
0.5
 31
0.0
  0
ENDBLK
  5
80
100
AcDbEntity
  8
0
100
AcDbBlockEnd
  0
BLOCK
  5
81
100
AcDbEntity
  8
0
100
AcDbBlockBegin
  2
_EX_INTEGRAL
 70
     0
 10
0.0
 20
0.0
 30
0.0
  3
_EX_INTEGRAL
  1

  0
LINE
  5
82
100
AcDbEntity
  8
0
  6
CONTINUOUS
 62
     0
100
AcDbLine
 10
0.0
 20
0.0
 30
0.0
 11
-1.0
 21
0.0
 31
0.0
  0
ARC
  5
83
100
AcDbEntity
  8
0
  6
CONTINUOUS
 62
     0
100
AcDbCircle
 10
0.542115
 20
0.164992
 30
0.0
 40
0.56667
100
AcDbArc
 50
73.07249
 51
196.927513
  0
ARC
  5
84
100
AcDbEntity
  8
0
  6
CONTINUOUS
 62
     0
100
AcDbCircle
 10
-0.542115
 20
-0.164992
 30
0.0
 40
0.56667
100
AcDbArc
 50
253.072487
 51
16.927513
  0
ENDBLK
  5
85
100
AcDbEntity
  8
0
100
AcDbBlockEnd
  0
ENDSEC
  0
SECTION
  2
ENTITIES
  0
CIRCLE
  5
86
100
AcDbEntity
  8
LAY-1
  6
CONTINUOUS
 62
     3
100
AcDbCircle
 10
200.0
 20
200.0
 30
0.0
 40
7.5
  0
LINE
  5
87
100
AcDbEntity
  8
LAY-1
  6
CONTINUOUS
 62
     3
100
AcDbLine
 10
191.5
 20
203.0
 30
0.0
 11
191.5
 21
197.0
 31
0.0
  0
LINE
  5
88
100
AcDbEntity
  8
LAY-1
  6
DASHED2
 62
     1
100
AcDbLine
 10
196.5
 20
202.5
 30
0.0
 11
196.5
 21
197.5
 31
0.0
  0
LINE
  5
89
100
AcDbEntity
  8
LAY-1
  6
DASHED2
 62
     3
100
AcDbLine
 10
196.0
 20
203.0
 30
0.0
 11
196.0
 21
197.0
 31
0.0
  0
LINE
  5
8A
100
AcDbEntity
  8
LAY-1
  6
DASHED2
 62
     1
100
AcDbLine
 10
196.0
 20
203.0
 30
0.0
 11
196.5
 21
202.5
 31
0.0
  0
LINE
  5
8B
100
AcDbEntity
  8
LAY-1
  6
DASHED2
 62
     1
100
AcDbLine
 10
196.5
 20
197.5
 30
0.0
 11
196.0
 21
197.0
 31
0.0
  0
LINE
  5
8C
100
AcDbEntity
  8
LAY-1
  6
CONTINUOUS
 62
     1
100
AcDbLine
 10
191.5
 20
203.0
 30
0.0
 11
192.047013
 21
203.0
 31
0.0
  0
LINE
  5
8D
100
AcDbEntity
  8
LAY-1
  6
DASHED2
 62
     1
100
AcDbLine
 10
192.047013
 20
203.0
 30
0.0
 11
196.0
 21
203.0
 31
0.0
  0
LINE
  5
8E
100
AcDbEntity
  8
LAY-1
  6
CONTINUOUS
 62
     3
100
AcDbLine
 10
191.5
 20
202.5
 30
0.0
 11
191.875962
 21
202.5
 31
0.0
  0
LINE
  5
8F
100
AcDbEntity
  8
LAY-1
  6
DASHED2
 62
     3
100
AcDbLine
 10
191.875962
 20
202.5
 30
0.0
 11
196.5
 21
202.5
 31
0.0
  0
LINE
  5
90
100
AcDbEntity
  8
LAY-1
  6
CONTINUOUS
 62
     3
100
AcDbLine
 10
191.5
 20
197.5
 30
0.0
 11
191.875962
 21
197.5
 31
0.0
  0
LINE
  5
91
100
AcDbEntity
  8
LAY-1
  6
DASHED2
 62
     3
100
AcDbLine
 10
191.875962
 20
197.5
 30
0.0
 11
196.5
 21
197.5
 31
0.0
  0
LINE
  5
92
100
AcDbEntity
  8
LAY-1
  6
CONTINUOUS
 62
     1
100
AcDbLine
 10
191.5
 20
197.0
 30
0.0
 11
192.047013
 21
197.0
 31
0.0
  0
LINE
  5
93
100
AcDbEntity
  8
LAY-1
  6
DASHED2
 62
     1
100
AcDbLine
 10
192.047013
 20
197.0
 30
0.0
 11
196.0
 21
197.0
 31
0.0
  0
CIRCLE
  5
94
100
AcDbEntity
  8
LAY-1
  6
DASHED2
 62
     3
100
AcDbCircle
 10
200.0
 20
200.0
 30
0.0
 40
5.0
  0
CIRCLE
  5
95
100
AcDbEntity
  8
LAY-1
  6
DASHED2
 62
     3
100
AcDbCircle
 10
200.0
 20
200.0
 30
0.0
 40
3.5
  0
LINE
  5
96
100
AcDbEntity
  8
LAY-1
  6
CONTINUOUS
 62
     3
100
AcDbLine
 10
197.853835
 20
207.186374
 30
0.0
 11
197.855639
 21
207.180333
 31
0.0
  0
ARC
  5
97
100
AcDbEntity
  8
LAY-1
  6
CONTINUOUS
 62
     3
100
AcDbCircle
 10
202.0
 20
210.307764
 30
0.0
 40
2.0
100
AcDbArc
 50
180.0
 51
259.019425
  0
LINE
  5
98
100
AcDbEntity
  8
LAY-1
  6
CONTINUOUS
 62
     3
100
AcDbLine
 10
200.0
 20
257.0
 30
0.0
 11
200.0
 21
210.307764
 31
0.0
  0
LINE
  5
99
100
AcDbEntity
  8
LAY-1
  6
CONTINUOUS
 62
     3
100
AcDbLine
 10
197.0
 20
257.0
 30
0.0
 11
197.0
 21
210.307764
 31
0.0
  0
ARC
  5
9A
100
AcDbEntity
  8
LAY-1
  6
CONTINUOUS
 62
     3
100
AcDbCircle
 10
200.0
 20
200.0
 30
0.0
 40
8.5
100
AcDbArc
 50
107.091912
 51
79.019425
  0
ARC
  5
9B
100
AcDbEntity
  8
LAY-1
  6
CONTINUOUS
 62
     3
100
AcDbCircle
 10
202.0
 20
210.307764
 30
0.0
 40
5.0
100
AcDbArc
 50
180.0
 51
217.816471
  0
LINE
  5
9C
100
AcDbEntity
  8
LAY-1
  6
CONTINUOUS
 62
     3
100
AcDbLine
 10
191.0
 20
256.0
 30
0.0
 11
194.0
 21
256.0
 31
0.0
  0
LINE
  5
9D
100
AcDbEntity
  8
LAY-1
  6
DASHED2
 62
     3
100
AcDbLine
 10
202.430482
 20
240.55
 30
0.0
 11
203.797023
 21
235.45
 31
0.0
  0
LINE
  5
9E
100
AcDbEntity
  8
LAY-1
  6
DASHED2
 62
     3
100
AcDbLine
 10
202.430482
 20
240.55
 30
0.0
 11
199.9
 21
240.55
 31
0.0
  0
LINE
  5
9F
100
AcDbEntity
  8
LAY-1
  6
DASHED2
 62
     3
100
AcDbLine
 10
203.797023
 20
235.45
 30
0.0
 11
199.9
 21
235.45
 31
0.0
  0
LINE
  5
A0
100
AcDbEntity
  8
LAY-1
  6
DASHED2
 62
     3
100
AcDbLine
 10
197.0
 20
232.55
 30
0.0
 11
199.9
 21
235.45
 31
0.0
  0
LINE
  5
A1
100
AcDbEntity
  8
LAY-1
  6
DASHED2
 62
     3
100
AcDbLine
 10
197.0
 20
243.45
 30
0.0
 11
199.9
 21
240.55
 31
0.0
  0
LINE
  5
A2
100
AcDbEntity
  8
LAY-1
  6
CONTINUOUS
 62
     3
100
AcDbLine
 10
197.0
 20
232.0
 30
0.0
 11
200.0
 21
232.0
 31
0.0
  0
LINE
  5
A3
100
AcDbEntity
  8
LAY-1
  6
DASHED2
 62
     3
100
AcDbLine
 10
202.430482
 20
253.55
 30
0.0
 11
203.797023
 21
248.45
 31
0.0
  0
LINE
  5
A4
100
AcDbEntity
  8
LAY-1
  6
DASHED2
 62
     3
100
AcDbLine
 10
202.430482
 20
253.55
 30
0.0
 11
199.9
 21
253.55
 31
0.0
  0
LINE
  5
A5
100
AcDbEntity
  8
LAY-1
  6
DASHED2
 62
     3
100
AcDbLine
 10
203.797023
 20
248.45
 30
0.0
 11
199.9
 21
248.45
 31
0.0
  0
LINE
  5
A6
100
AcDbEntity
  8
LAY-1
  6
DASHED2
 62
     3
100
AcDbLine
 10
197.0
 20
245.55
 30
0.0
 11
199.9
 21
248.45
 31
0.0
  0
LINE
  5
A7
100
AcDbEntity
  8
LAY-1
  6
DASHED2
 62
     3
100
AcDbLine
 10
197.0
 20
256.45
 30
0.0
 11
199.9
 21
253.55
 31
0.0
  0
LINE
  5
A8
100
AcDbEntity
  8
LAY-1
  6
CONTINUOUS
 62
     3
100
AcDbLine
 10
197.0
 20
257.0
 30
0.0
 11
200.0
 21
257.0
 31
0.0
  0
LINE
  5
A9
100
AcDbEntity
  8
LAY-1
  6
DASHED2
 62
     3
100
AcDbLine
 10
188.569518
 20
239.55
 30
0.0
 11
187.202977
 21
234.45
 31
0.0
  0
LINE
  5
AA
100
AcDbEntity
  8
LAY-1
  6
DASHED2
 62
     3
100
AcDbLine
 10
188.569518
 20
239.55
 30
0.0
 11
191.1
 21
239.55
 31
0.0
  0
LINE
  5
AB
100
AcDbEntity
  8
LAY-1
  6
DASHED2
 62
     3
100
AcDbLine
 10
187.202977
 20
234.45
 30
0.0
 11
191.1
 21
234.45
 31
0.0
  0
LINE
  5
AC
100
AcDbEntity
  8
LAY-1
  6
DASHED2
 62
     3
100
AcDbLine
 10
194.0
 20
231.55
 30
0.0
 11
191.1
 21
234.45
 31
0.0
  0
LINE
  5
AD
100
AcDbEntity
  8
LAY-1
  6
DASHED2
 62
     3
100
AcDbLine
 10
194.0
 20
242.45
 30
0.0
 11
191.1
 21
239.55
 31
0.0
  0
LINE
  5
AE
100
AcDbEntity
  8
LAY-1
  6
CONTINUOUS
 62
     3
100
AcDbLine
 10
194.0
 20
231.0
 30
0.0
 11
191.0
 21
231.0
 31
0.0
  0
LINE
  5
AF
100
AcDbEntity
  8
LAY-1
  6
DASHED2
 62
     3
100
AcDbLine
 10
188.569518
 20
252.55
 30
0.0
 11
187.202977
 21
247.45
 31
0.0
  0
LINE
  5
B0
100
AcDbEntity
  8
LAY-1
  6
DASHED2
 62
     3
100
AcDbLine
 10
188.569518
 20
252.55
 30
0.0
 11
191.1
 21
252.55
 31
0.0
  0
LINE
  5
B1
100
AcDbEntity
  8
LAY-1
  6
DASHED2
 62
     3
100
AcDbLine
 10
187.202977
 20
247.45
 30
0.0
 11
191.1
 21
247.45
 31
0.0
  0
LINE
  5
B2
100
AcDbEntity
  8
LAY-1
  6
DASHED2
 62
     3
100
AcDbLine
 10
194.0
 20
244.55
 30
0.0
 11
191.1
 21
247.45
 31
0.0
  0
LINE
  5
B3
100
AcDbEntity
  8
LAY-1
  6
DASHED2
 62
     3
100
AcDbLine
 10
194.0
 20
255.45
 30
0.0
 11
191.1
 21
252.55
 31
0.0
  0
LINE
  5
B4
100
AcDbEntity
  8
LAY-1
  6
CONTINUOUS
 62
     3
100
AcDbLine
 10
194.0
 20
256.0
 30
0.0
 11
194.0
 21
216.484865
 31
0.0
  0
LINE
  5
B5
100
AcDbEntity
  8
LAY-1
  6
CONTINUOUS
 62
     3
100
AcDbLine
 10
191.0
 20
256.0
 30
0.0
 11
191.0
 21
216.484865
 31
0.0
  0
ARC
  5
B6
100
AcDbEntity
  8
LAY-1
  6
CONTINUOUS
 62
     3
100
AcDbCircle
 10
194.0
 20
216.484865
 30
0.0
 40
3.0
100
AcDbArc
 50
180.0
 51
200.0
  0
ARC
  5
B7
100
AcDbEntity
  8
LAY-1
  6
CONTINUOUS
 62
     3
100
AcDbCircle
 10
197.708552
 20
209.219505
 30
0.0
 40
1.0
100
AcDbArc
 50
200.0
 51
254.439392
  0
LINE
  5
B8
100
AcDbEntity
  8
LAY-1
  6
CONTINUOUS
 62
     3
100
AcDbLine
 10
194.0
 20
216.484865
 30
0.0
 11
196.76886
 21
208.877485
 31
0.0
  0
ARC
  5
B9
100
AcDbEntity
  8
LAY-1
  6
CONTINUOUS
 62
     3
100
AcDbCircle
 10
197.708552
 20
209.219505
 30
0.0
 40
4.0
100
AcDbArc
 50
200.0
 51
220.532641
  0
LINE
  5
BA
100
AcDbEntity
  8
LAY-1
  6
CONTINUOUS
 62
     3
100
AcDbLine
 10
191.180922
 20
215.458804
 30
0.0
 11
193.949782
 21
207.851424
 31
0.0
  0
LINE
  5
BB
100
AcDbEntity
  8
LAY-1
  6
CONTINUOUS
 62
     3
100
AcDbLine
 10
372.499992
 20
260.2
 30
0.0
 11
387.499992
 21
260.2
 31
0.0
  0
LINE
  5
BC
100
AcDbEntity
  8
LAY-1
  6
CONTINUOUS
 62
     3
100
AcDbLine
 10
372.499992
 20
260.2
 30
0.0
 11
372.499992
 21
257.2
 31
0.0
  0
LINE
  5
BD
100
AcDbEntity
  8
LAY-1
  6
CONTINUOUS
 62
     3
100
AcDbLine
 10
387.499992
 20
260.2
 30
0.0
 11
387.499992
 21
257.2
 31
0.0
  0
CIRCLE
  5
BE
100
AcDbEntity
  8
LAY-1
  6
DASHED2
 62
     1
100
AcDbCircle
 10
379.999992
 20
244.7
 30
0.0
 40
3.0
  0
CIRCLE
  5
BF
100
AcDbEntity
  8
LAY-1
  6
DASHED2
 62
     3
100
AcDbCircle
 10
379.999992
 20
244.7
 30
0.0
 40
2.5
  0
LINE
  5
C0
100
AcDbEntity
  8
LAY-1
  6
CONTINUOUS
 62
     3
100
AcDbLine
 10
411.999992
 20
268.7
 30
0.0
 11
411.999992
 21
258.2
 31
0.0
  0
LINE
  5
C1
100
AcDbEntity
  8
LAY-1
  6
CONTINUOUS
 62
     3
100
AcDbLine
 10
412.999992
 20
269.7
 30
0.0
 11
435.999992
 21
269.7
 31
0.0
  0
ARC
  5
C2
100
AcDbEntity
  8
LAY-1
  6
CONTINUOUS
 62
     3
100
AcDbCircle
 10
412.999992
 20
268.7
 30
0.0
 40
1.0
100
AcDbArc
 50
90.0
 51
180.0
  0
ARC
  5
C3
100
AcDbEntity
  8
LAY-1
  6
CONTINUOUS
 62
     3
100
AcDbCircle
 10
410.999992
 20
258.2
 30
0.0
 40
1.0
100
AcDbArc
 50
270.0
 51
0.0
  0
LINE
  5
C4
100
AcDbEntity
  8
LAY-1
  6
CONTINUOUS
 62
     3
100
AcDbLine
 10
388.499992
 20
257.2
 30
0.0
 11
388.499992
 21
232.2
 31
0.0
  0
LINE
  5
C5
100
AcDbEntity
  8
LAY-1
  6
CONTINUOUS
 62
     3
100
AcDbLine
 10
371.499992
 20
257.2
 30
0.0
 11
371.499992
 21
232.2
 31
0.0
  0
LINE
  5
C6
100
AcDbEntity
  8
LAY-1
  6
CONTINUOUS
 62
     3
100
AcDbLine
 10
436.999992
 20
268.7
 30
0.0
 11
436.999992
 21
220.7
 31
0.0
  0
ARC
  5
C7
100
AcDbEntity
  8
LAY-1
  6
CONTINUOUS
 62
     3
100
AcDbCircle
 10
435.999992
 20
220.7
 30
0.0
 40
1.0
100
AcDbArc
 50
270.0
 51
0.0
  0
ARC
  5
C8
100
AcDbEntity
  8
LAY-1
  6
CONTINUOUS
 62
     3
100
AcDbCircle
 10
435.999992
 20
268.7
 30
0.0
 40
1.0
100
AcDbArc
 50
0.0
 51
90.0
  0
CIRCLE
  5
C9
100
AcDbEntity
  8
LAY-1
  6
DASHED2
 62
     3
100
AcDbCircle
 10
417.999992
 20
263.7
 30
0.0
 40
5.0
  0
CIRCLE
  5
CA
100
AcDbEntity
  8
LAY-1
  6
CONTINUOUS
 62
     3
100
AcDbCircle
 10
417.999992
 20
263.7
 30
0.0
 40
2.55
  0
CIRCLE
  5
CB
100
AcDbEntity
  8
LAY-1
  6
DASHED2
 62
     3
100
AcDbCircle
 10
430.999992
 20
244.7
 30
0.0
 40
5.0
  0
CIRCLE
  5
CC
100
AcDbEntity
  8
LAY-1
  6
CONTINUOUS
 62
     3
100
AcDbCircle
 10
430.999992
 20
244.7
 30
0.0
 40
2.55
  0
CIRCLE
  5
CD
100
AcDbEntity
  8
LAY-1
  6
DASHED2
 62
     3
100
AcDbCircle
 10
417.999992
 20
225.7
 30
0.0
 40
5.0
  0
CIRCLE
  5
CE
100
AcDbEntity
  8
LAY-1
  6
CONTINUOUS
 62
     3
100
AcDbCircle
 10
417.999992
 20
225.7
 30
0.0
 40
2.55
  0
LINE
  5
CF
100
AcDbEntity
  8
LAY-1
  6
CONTINUOUS
 62
     3
100
AcDbLine
 10
371.499992
 20
202.2
 30
0.0
 11
398.999992
 21
202.2
 31
0.0
  0
LINE
  5
D0
100
AcDbEntity
  8
LAY-1
  6
CONTINUOUS
 62
     3
100
AcDbLine
 10
371.499992
 20
227.2
 30
0.0
 11
371.499992
 21
202.2
 31
0.0
  0
LINE
  5
D1
100
AcDbEntity
  8
LAY-1
  6
CONTINUOUS
 62
     3
100
AcDbLine
 10
388.499992
 20
227.2
 30
0.0
 11
388.499992
 21
202.2
 31
0.0
  0
ARC
  5
D2
100
AcDbEntity
  8
LAY-1
  6
DASHED2
 62
     3
100
AcDbCircle
 10
411.999992
 20
190.7
 30
0.0
 40
1.0
100
AcDbArc
 50
180.0
 51
270.0
  0
LINE
  5
D3
100
AcDbEntity
  8
LAY-1
  6
CONTINUOUS
 62
     3
100
AcDbLine
 10
371.499992
 20
202.2
 30
0.0
 11
401.999992
 21
202.2
 31
0.0
  0
LINE
  5
D4
100
AcDbEntity
  8
LAY-1
  6
CONTINUOUS
 62
     3
100
AcDbLine
 10
371.499992
 20
227.2
 30
0.0
 11
401.999992
 21
227.2
 31
0.0
  0
LINE
  5
D5
100
AcDbEntity
  8
LAY-1
  6
DASHED2
 62
     3
100
AcDbLine
 10
401.999992
 20
202.2
 30
0.0
 11
409.999992
 21
202.2
 31
0.0
  0
LINE
  5
D6
100
AcDbEntity
  8
LAY-1
  6
DASHED2
 62
     3
100
AcDbLine
 10
410.999992
 20
201.2
 30
0.0
 11
410.999992
 21
190.7
 31
0.0
  0
ARC
  5
D7
100
AcDbEntity
  8
LAY-1
  6
DASHED2
 62
     3
100
AcDbCircle
 10
409.999992
 20
201.2
 30
0.0
 40
1.0
100
AcDbArc
 50
0.0
 51
90.0
  0
LINE
  5
D8
100
AcDbEntity
  8
LAY-1
  6
DASHED2
 62
     3
100
AcDbLine
 10
411.999992
 20
189.7
 30
0.0
 11
434.999992
 21
189.7
 31
0.0
  0
LINE
  5
D9
100
AcDbEntity
  8
LAY-1
  6
DASHED2
 62
     3
100
AcDbLine
 10
435.999992
 20
214.7
 30
0.0
 11
435.999992
 21
190.7
 31
0.0
  0
ARC
  5
DA
100
AcDbEntity
  8
LAY-1
  6
DASHED2
 62
     3
100
AcDbCircle
 10
434.999992
 20
190.7
 30
0.0
 40
1.0
100
AcDbArc
 50
270.0
 51
0.0
  0
LINE
  5
DB
100
AcDbEntity
  8
LAY-1
  6
DASHED2
 62
     3
100
AcDbLine
 10
435.999992
 20
214.7
 30
0.0
 11
435.999992
 21
238.7
 31
0.0
  0
LINE
  5
DC
100
AcDbEntity
  8
LAY-1
  6
DASHED2
 62
     3
100
AcDbLine
 10
401.999992
 20
227.2
 30
0.0
 11
409.999992
 21
227.2
 31
0.0
  0
ARC
  5
DD
100
AcDbEntity
  8
LAY-1
  6
DASHED2
 62
     3
100
AcDbCircle
 10
409.999992
 20
228.2
 30
0.0
 40
1.0
100
AcDbArc
 50
270.0
 51
0.0
  0
ARC
  5
DE
100
AcDbEntity
  8
LAY-1
  6
DASHED2
 62
     3
100
AcDbCircle
 10
411.999992
 20
238.7
 30
0.0
 40
1.0
100
AcDbArc
 50
90.0
 51
180.0
  0
LINE
  5
DF
100
AcDbEntity
  8
LAY-1
  6
DASHED2
 62
     3
100
AcDbLine
 10
410.999992
 20
228.2
 30
0.0
 11
410.999992
 21
238.7
 31
0.0
  0
LINE
  5
E0
100
AcDbEntity
  8
LAY-1
  6
DASHED2
 62
     3
100
AcDbLine
 10
411.999992
 20
239.7
 30
0.0
 11
434.999992
 21
239.7
 31
0.0
  0
ARC
  5
E1
100
AcDbEntity
  8
LAY-1
  6
DASHED2
 62
     3
100
AcDbCircle
 10
434.999992
 20
238.7
 30
0.0
 40
1.0
100
AcDbArc
 50
0.0
 51
90.0
  0
CIRCLE
  5
E2
100
AcDbEntity
  8
LAY-1
  6
DASHED2
 62
     3
100
AcDbCircle
 10
416.999992
 20
195.7
 30
0.0
 40
5.0
  0
LINE
  5
E3
100
AcDbEntity
  8
LAY-1
  6
CONTINUOUS
 62
     3
100
AcDbLine
 10
411.999992
 20
220.7
 30
0.0
 11
411.999992
 21
231.2
 31
0.0
  0
ARC
  5
E4
100
AcDbEntity
  8
LAY-1
  6
CONTINUOUS
 62
     3
100
AcDbCircle
 10
410.999992
 20
231.2
 30
0.0
 40
1.0
100
AcDbArc
 50
0.0
 51
90.0
  0
LINE
  5
E5
100
AcDbEntity
  8
LAY-1
  6
CONTINUOUS
 62
     3
100
AcDbLine
 10
371.499992
 20
232.2
 30
0.0
 11
410.999992
 21
232.2
 31
0.0
  0
ARC
  5
E6
100
AcDbEntity
  8
LAY-1
  6
CONTINUOUS
 62
     3
100
AcDbCircle
 10
412.999992
 20
220.7
 30
0.0
 40
1.0
100
AcDbArc
 50
180.0
 51
270.0
  0
LINE
  5
E7
100
AcDbEntity
  8
LAY-1
  6
CONTINUOUS
 62
     3
100
AcDbLine
 10
412.939
 20
219.7
 30
0.0
 11
435.999992
 21
219.7
 31
0.0
  0
CIRCLE
  5
E8
100
AcDbEntity
  8
LAY-1
  6
DASHED2
 62
     3
100
AcDbCircle
 10
416.999992
 20
195.7
 30
0.0
 40
2.55
  0
CIRCLE
  5
E9
100
AcDbEntity
  8
LAY-1
  6
DASHED2
 62
     3
100
AcDbCircle
 10
416.999992
 20
233.7
 30
0.0
 40
5.0
  0
CIRCLE
  5
EA
100
AcDbEntity
  8
LAY-1
  6
DASHED2
 62
     3
100
AcDbCircle
 10
416.999992
 20
233.7
 30
0.0
 40
2.55
  0
CIRCLE
  5
EB
100
AcDbEntity
  8
LAY-1
  6
DASHED2
 62
     3
100
AcDbCircle
 10
429.999992
 20
214.7
 30
0.0
 40
5.0
  0
CIRCLE
  5
EC
100
AcDbEntity
  8
LAY-1
  6
DASHED2
 62
     3
100
AcDbCircle
 10
429.999992
 20
214.7
 30
0.0
 40
2.55
  0
LINE
  5
ED
100
AcDbEntity
  8
LAY-1
  6
CONTINUOUS
 62
     3
100
AcDbLine
 10
371.499992
 20
257.2
 30
0.0
 11
410.999992
 21
257.2
 31
0.0
  0
LINE
  5
EE
100
AcDbEntity
  8
LAY-1
  6
CONTINUOUS
 62
     3
100
AcDbLine
 10
385.249992
 20
232.2
 30
0.0
 11
385.249992
 21
227.2
 31
0.0
  0
LINE
  5
EF
100
AcDbEntity
  8
LAY-1
  6
CONTINUOUS
 62
     3
100
AcDbLine
 10
374.749992
 20
232.2
 30
0.0
 11
374.749992
 21
227.2
 31
0.0
  0
LINE
  5
F0
100
AcDbEntity
  8
LAY-5
  6
DASHDOT
 62
     1
100
AcDbLine
 10
187.8
 20
200.0
 30
0.0
 11
212.2
 21
200.0
 31
0.0
  0
LINE
  5
F1
100
AcDbEntity
  8
LAY-5
  6
DASHDOT
 62
     1
100
AcDbLine
 10
195.9
 20
238.0
 30
0.0
 11
225.4
 21
238.0
 31
0.0
  0
LINE
  5
F2
100
AcDbEntity
  8
LAY-5
  6
DASHDOT
 62
     1
100
AcDbLine
 10
195.1
 20
237.0
 30
0.0
 11
165.6
 21
237.0
 31
0.0
  0
LINE
  5
F3
100
AcDbEntity
  8
LAY-5
  6
DASHDOT
 62
     1
100
AcDbLine
 10
195.1
 20
250.0
 30
0.0
 11
165.6
 21
250.0
 31
0.0
  0
LINE
  5
F4
100
AcDbEntity
  8
LAY-5
  6
DASHDOT
 62
     1
100
AcDbLine
 10
200.0
 20
213.8
 30
0.0
 11
200.0
 21
189.1
 31
0.0
  0
LINE
  5
F5
100
AcDbEntity
  8
LAY-5
  6
DASHDOT
 62
     1
100
AcDbLine
 10
374.589
 20
244.7
 30
0.0
 11
385.289
 21
244.7
 31
0.0
  0
LINE
  5
F6
100
AcDbEntity
  8
LAY-5
  6
DASHDOT
 62
     1
100
AcDbLine
 10
389.089
 20
313.8
 30
0.0
 11
455.289
 21
313.8
 31
0.0
  0
LINE
  5
F7
100
AcDbEntity
  8
LAY-5
  6
DASHDOT
 62
     1
100
AcDbLine
 10
389.089
 20
140.9
 30
0.0
 11
455.289
 21
140.9
 31
0.0
  0
LINE
  5
F8
100
AcDbEntity
  8
LAY-5
  6
DASHDOT
 62
     1
100
AcDbLine
 10
417.999992
 20
270.5
 30
0.0
 11
417.999992
 21
256.9
 31
0.0
  0
LINE
  5
F9
100
AcDbEntity
  8
LAY-5
  6
DASHDOT
 62
     1
100
AcDbLine
 10
411.089
 20
263.7
 30
0.0
 11
424.889
 21
263.7
 31
0.0
  0
LINE
  5
FA
100
AcDbEntity
  8
LAY-5
  6
DASHDOT
 62
     1
100
AcDbLine
 10
430.999992
 20
251.5
 30
0.0
 11
430.999992
 21
237.9
 31
0.0
  0
LINE
  5
FB
100
AcDbEntity
  8
LAY-5
  6
DASHDOT
 62
     1
100
AcDbLine
 10
424.089
 20
244.7
 30
0.0
 11
437.889
 21
244.7
 31
0.0
  0
LINE
  5
FC
100
AcDbEntity
  8
LAY-5
  6
DASHDOT
 62
     1
100
AcDbLine
 10
417.999992
 20
232.5
 30
0.0
 11
417.999992
 21
218.9
 31
0.0
  0
LINE
  5
FD
100
AcDbEntity
  8
LAY-5
  6
DASHDOT
 62
     1
100
AcDbLine
 10
411.089
 20
225.7
 30
0.0
 11
424.889
 21
225.7
 31
0.0
  0
LINE
  5
FE
100
AcDbEntity
  8
LAY-5
  6
DASHDOT
 62
     1
100
AcDbLine
 10
379.999992
 20
262.7
 30
0.0
 11
379.999992
 21
199.2
 31
0.0
  0
LINE
  5
FF
100
AcDbEntity
  8
LAY-5
  6
DASHDOT
 62
     1
100
AcDbLine
 10
410.999992
 20
195.7
 30
0.0
 11
423.989
 21
195.7
 31
0.0
  0
LINE
  5
100
100
AcDbEntity
  8
LAY-5
  6
DASHDOT
 62
     1
100
AcDbLine
 10
416.999992
 20
202.3
 30
0.0
 11
416.999992
 21
189.7
 31
0.0
  0
LINE
  5
101
100
AcDbEntity
  8
LAY-5
  6
DASHDOT
 62
     1
100
AcDbLine
 10
416.999992
 20
227.1
 30
0.0
 11
416.999992
 21
239.7
 31
0.0
  0
LINE
  5
102
100
AcDbEntity
  8
LAY-5
  6
DASHDOT
 62
     1
100
AcDbLine
 10
410.999992
 20
233.7
 30
0.0
 11
423.989
 21
233.7
 31
0.0
  0
LINE
  5
103
100
AcDbEntity
  8
LAY-5
  6
DASHDOT
 62
     1
100
AcDbLine
 10
423.999992
 20
214.7
 30
0.0
 11
436.989
 21
214.7
 31
0.0
  0
LINE
  5
104
100
AcDbEntity
  8
LAY-5
  6
DASHDOT
 62
     1
100
AcDbLine
 10
429.999992
 20
221.3
 30
0.0
 11
429.999992
 21
208.7
 31
0.0
  0
LINE
  5
105
100
AcDbEntity
  8
LAY-5
  6
CONTINUOUS
 62
     1
100
AcDbLine
 10
379.999992
 20
262.7
 30
0.0
 11
379.999992
 21
291.1
 31
0.0
  0
LINE
  5
106
100
AcDbEntity
  8
LAY-5
  6
CONTINUOUS
 62
     1
100
AcDbLine
 10
401.999992
 20
293.1
 30
0.0
 11
401.999992
 21
287.1
 31
0.0
  0
LINE
  5
107
100
AcDbEntity
  8
LAY-5
  6
CONTINUOUS
 62
     1
100
AcDbLine
 10
379.999992
 20
289.6
 30
0.0
 11
401.999992
 21
289.6
 31
0.0
  0
LINE
  5
108
100
AcDbEntity
  8
LAY-5
  6
CONTINUOUS
 62
     1
100
AcDbLine
 10
379.999992
 20
289.6
 30
0.0
 11
382.89777
 21
290.376457
 31
0.0
  0
LINE
  5
109
100
AcDbEntity
  8
LAY-5
  6
CONTINUOUS
 62
     1
100
AcDbLine
 10
379.999992
 20
289.6
 30
0.0
 11
382.89777
 21
288.823543
 31
0.0
  0
LINE
  5
10A
100
AcDbEntity
  8
LAY-5
  6
CONTINUOUS
 62
     1
100
AcDbLine
 10
401.999992
 20
289.6
 30
0.0
 11
399.102215
 21
288.823543
 31
0.0
  0
LINE
  5
10B
100
AcDbEntity
  8
LAY-5
  6
CONTINUOUS
 62
     1
100
AcDbLine
 10
401.999992
 20
289.6
 30
0.0
 11
399.102215
 21
290.376457
 31
0.0
  0
TEXT
  5
10C
100
AcDbEntity
  8
LAY-5
  6
CONTINUOUS
 62
     2
100
AcDbText
 10
386.999992
 20
290.1
 30
0.0
 40
5.0
  1
２２
 41
0.672
  7
EXCADSTD
 72
     5
 11
394.332792
 21
290.1
 31
0.0
100
AcDbText
  0
LINE
  5
10D
100
AcDbEntity
  8
LAY-5
  6
DASHDOT
 62
     1
100
AcDbLine
 10
247.0
 20
267.0
 30
0.0
 11
247.0
 21
217.7
 31
0.0
  0
LINE
  5
10E
100
AcDbEntity
  8
LAY-6
  6
CONTINUOUS
 62
     1
100
AcDbLine
 10
186.3
 20
200.0
 30
0.0
 11
161.5
 21
200.0
 31
0.0
  0
LINE
  5
10F
100
AcDbEntity
  8
LAY-6
  6
CONTINUOUS
 62
     1
100
AcDbLine
 10
189.5
 20
219.0
 30
0.0
 11
161.5
 21
219.0
 31
0.0
  0
TEXT
  5
110
100
AcDbEntity
  8
LAY-6
  6
CONTINUOUS
 62
     2
100
AcDbText
 10
162.5
 20
205.5
 30
0.0
 40
5.0
  1
１９
 50
90.0
 41
0.672
  7
EXCADSTD
 72
     5
 11
162.5
 21
212.8328
 31
0.0
100
AcDbText
  0
LINE
  5
111
100
AcDbEntity
  8
LAY-6
  6
CONTINUOUS
 62
     1
100
AcDbLine
 10
163.0
 20
200.0
 30
0.0
 11
163.0
 21
219.0
 31
0.0
  0
LINE
  5
112
100
AcDbEntity
  8
LAY-6
  6
CONTINUOUS
 62
     1
100
AcDbLine
 10
162.666667
 20
202.0
 30
0.0
 11
163.0
 21
200.0
 31
0.0
  0
LINE
  5
113
100
AcDbEntity
  8
LAY-6
  6
CONTINUOUS
 62
     1
100
AcDbLine
 10
163.0
 20
200.0
 30
0.0
 11
163.333333
 21
202.0
 31
0.0
  0
LINE
  5
114
100
AcDbEntity
  8
LAY-6
  6
CONTINUOUS
 62
     1
100
AcDbLine
 10
163.333333
 20
217.0
 30
0.0
 11
163.0
 21
219.0
 31
0.0
  0
LINE
  5
115
100
AcDbEntity
  8
LAY-6
  6
CONTINUOUS
 62
     1
100
AcDbLine
 10
163.0
 20
219.0
 30
0.0
 11
162.666667
 21
217.0
 31
0.0
  0
LINE
  5
116
100
AcDbEntity
  8
LAY-6
  6
CONTINUOUS
 62
     1
100
AcDbLine
 10
189.5
 20
256.0
 30
0.0
 11
161.5
 21
256.0
 31
0.0
  0
TEXT
  5
117
100
AcDbEntity
  8
LAY-6
  6
CONTINUOUS
 62
     2
100
AcDbText
 10
162.5
 20
233.5
 30
0.0
 40
5.0
  1
３７
 50
90.0
 41
0.672
  7
EXCADSTD
 72
     5
 11
162.5
 21
240.8328
 31
0.0
100
AcDbText
  0
LINE
  5
118
100
AcDbEntity
  8
LAY-6
  6
CONTINUOUS
 62
     1
100
AcDbLine
 10
163.0
 20
219.0
 30
0.0
 11
163.0
 21
256.0
 31
0.0
  0
LINE
  5
119
100
AcDbEntity
  8
LAY-6
  6
CONTINUOUS
 62
     1
100
AcDbLine
 10
162.666667
 20
221.0
 30
0.0
 11
163.0
 21
219.0
 31
0.0
  0
LINE
  5
11A
100
AcDbEntity
  8
LAY-6
  6
CONTINUOUS
 62
     1
100
AcDbLine
 10
163.0
 20
219.0
 30
0.0
 11
163.333333
 21
221.0
 31
0.0
  0
LINE
  5
11B
100
AcDbEntity
  8
LAY-6
  6
CONTINUOUS
 62
     1
100
AcDbLine
 10
163.333333
 20
254.0
 30
0.0
 11
163.0
 21
256.0
 31
0.0
  0
LINE
  5
11C
100
AcDbEntity
  8
LAY-6
  6
CONTINUOUS
 62
     1
100
AcDbLine
 10
163.0
 20
256.0
 30
0.0
 11
162.666667
 21
254.0
 31
0.0
  0
LINE
  5
11D
100
AcDbEntity
  8
LAY-6
  6
CONTINUOUS
 62
     1
100
AcDbLine
 10
410.999992
 20
189.2
 30
0.0
 11
410.999992
 21
177.3
 31
0.0
  0
LINE
  5
11E
100
AcDbEntity
  8
LAY-6
  6
CONTINUOUS
 62
     1
100
AcDbLine
 10
435.999992
 20
189.2
 30
0.0
 11
435.999992
 21
177.3
 31
0.0
  0
LINE
  5
11F
100
AcDbEntity
  8
LAY-6
  6
CONTINUOUS
 62
     1
100
AcDbLine
 10
379.999992
 20
197.7
 30
0.0
 11
379.999992
 21
165.8
 31
0.0
  0
LINE
  5
120
100
AcDbEntity
  8
LAY-6
  6
CONTINUOUS
 62
     1
100
AcDbLine
 10
398.999992
 20
167.9
 30
0.0
 11
398.999992
 21
165.8
 31
0.0
  0
TEXT
  5
121
100
AcDbEntity
  8
LAY-6
  6
CONTINUOUS
 62
     2
100
AcDbText
 10
385.499992
 20
167.8
 30
0.0
 40
5.0
  1
１９
 41
0.672
  7
EXCADSTD
 72
     5
 11
392.832792
 21
167.8
 31
0.0
100
AcDbText
  0
LINE
  5
122
100
AcDbEntity
  8
LAY-6
  6
CONTINUOUS
 62
     1
100
AcDbLine
 10
379.999992
 20
167.3
 30
0.0
 11
398.999992
 21
167.3
 31
0.0
  0
LINE
  5
123
100
AcDbEntity
  8
LAY-6
  6
CONTINUOUS
 62
     1
100
AcDbLine
 10
381.999992
 20
167.633333
 30
0.0
 11
379.999992
 21
167.3
 31
0.0
  0
LINE
  5
124
100
AcDbEntity
  8
LAY-6
  6
CONTINUOUS
 62
     1
100
AcDbLine
 10
379.999992
 20
167.3
 30
0.0
 11
381.999992
 21
166.966667
 31
0.0
  0
LINE
  5
125
100
AcDbEntity
  8
LAY-6
  6
CONTINUOUS
 62
     1
100
AcDbLine
 10
396.999992
 20
166.966667
 30
0.0
 11
398.999992
 21
167.3
 31
0.0
  0
LINE
  5
126
100
AcDbEntity
  8
LAY-6
  6
CONTINUOUS
 62
     1
100
AcDbLine
 10
398.999992
 20
167.3
 30
0.0
 11
396.999992
 21
167.633333
 31
0.0
  0
LINE
  5
127
100
AcDbEntity
  8
LAY-6
  6
CONTINUOUS
 62
     1
100
AcDbLine
 10
410.999992
 20
189.2
 30
0.0
 11
410.999992
 21
165.8
 31
0.0
  0
TEXT
  5
128
100
AcDbEntity
  8
LAY-6
  6
CONTINUOUS
 62
     2
100
AcDbText
 10
400.999992
 20
167.8
 30
0.0
 40
5.0
  1
１２
 41
0.672
  7
EXCADSTD
 72
     5
 11
408.332792
 21
167.8
 31
0.0
100
AcDbText
  0
LINE
  5
129
100
AcDbEntity
  8
LAY-6
  6
CONTINUOUS
 62
     1
100
AcDbLine
 10
398.999992
 20
167.3
 30
0.0
 11
410.999992
 21
167.3
 31
0.0
  0
LINE
  5
12A
100
AcDbEntity
  8
LAY-6
  6
CONTINUOUS
 62
     1
100
AcDbLine
 10
400.999992
 20
167.633333
 30
0.0
 11
398.999992
 21
167.3
 31
0.0
  0
LINE
  5
12B
100
AcDbEntity
  8
LAY-6
  6
CONTINUOUS
 62
     1
100
AcDbLine
 10
398.999992
 20
167.3
 30
0.0
 11
400.999992
 21
166.966667
 31
0.0
  0
LINE
  5
12C
100
AcDbEntity
  8
LAY-6
  6
CONTINUOUS
 62
     1
100
AcDbLine
 10
408.999992
 20
166.966667
 30
0.0
 11
410.999992
 21
167.3
 31
0.0
  0
LINE
  5
12D
100
AcDbEntity
  8
LAY-6
  6
CONTINUOUS
 62
     1
100
AcDbLine
 10
410.999992
 20
167.3
 30
0.0
 11
408.999992
 21
167.633333
 31
0.0
  0
LINE
  5
12E
100
AcDbEntity
  8
LAY-6
  6
CONTINUOUS
 62
     1
100
AcDbLine
 10
410.999992
 20
189.2
 30
0.0
 11
410.999992
 21
165.7
 31
0.0
  0
LINE
  5
12F
100
AcDbEntity
  8
LAY-6
  6
CONTINUOUS
 62
     1
100
AcDbLine
 10
435.999992
 20
190.0
 30
0.0
 11
435.999992
 21
165.7
 31
0.0
  0
TEXT
  5
130
100
AcDbEntity
  8
LAY-6
  6
CONTINUOUS
 62
     2
100
AcDbText
 10
419.499992
 20
167.7
 30
0.0
 40
5.0
  1
２５
 41
0.672
  7
EXCADSTD
 72
     5
 11
426.832792
 21
167.7
 31
0.0
100
AcDbText
  0
LINE
  5
131
100
AcDbEntity
  8
LAY-6
  6
CONTINUOUS
 62
     1
100
AcDbLine
 10
410.999992
 20
167.2
 30
0.0
 11
435.999992
 21
167.2
 31
0.0
  0
LINE
  5
132
100
AcDbEntity
  8
LAY-6
  6
CONTINUOUS
 62
     1
100
AcDbLine
 10
412.999992
 20
167.533333
 30
0.0
 11
410.999992
 21
167.2
 31
0.0
  0
LINE
  5
133
100
AcDbEntity
  8
LAY-6
  6
CONTINUOUS
 62
     1
100
AcDbLine
 10
410.999992
 20
167.2
 30
0.0
 11
412.999992
 21
166.866667
 31
0.0
  0
LINE
  5
134
100
AcDbEntity
  8
LAY-6
  6
CONTINUOUS
 62
     1
100
AcDbLine
 10
433.999992
 20
166.866667
 30
0.0
 11
435.999992
 21
167.2
 31
0.0
  0
LINE
  5
135
100
AcDbEntity
  8
LAY-6
  6
CONTINUOUS
 62
     1
100
AcDbLine
 10
435.999992
 20
167.2
 30
0.0
 11
433.999992
 21
167.533333
 31
0.0
  0
LINE
  5
136
100
AcDbEntity
  8
LAY-6
  6
CONTINUOUS
 62
     1
100
AcDbLine
 10
411.999992
 20
270.2
 30
0.0
 11
411.999992
 21
281.2
 31
0.0
  0
LINE
  5
137
100
AcDbEntity
  8
LAY-6
  6
CONTINUOUS
 62
     1
100
AcDbLine
 10
417.999992
 20
271.2
 30
0.0
 11
417.999992
 21
281.2
 31
0.0
  0
TEXT
  5
138
100
AcDbEntity
  8
LAY-6
  6
CONTINUOUS
 62
     2
100
AcDbText
 10
412.999992
 20
280.2
 30
0.0
 40
5.0
  1
６
 41
0.672
  7
EXCADSTD
 72
     5
 11
416.199992
 21
280.2
 31
0.0
100
AcDbText
  0
LINE
  5
139
100
AcDbEntity
  8
LAY-6
  6
CONTINUOUS
 62
     1
100
AcDbLine
 10
411.999992
 20
279.7
 30
0.0
 11
417.999992
 21
279.7
 31
0.0
  0
LINE
  5
13A
100
AcDbEntity
  8
LAY-6
  6
CONTINUOUS
 62
     1
100
AcDbLine
 10
413.999992
 20
280.033333
 30
0.0
 11
411.999992
 21
279.7
 31
0.0
  0
LINE
  5
13B
100
AcDbEntity
  8
LAY-6
  6
CONTINUOUS
 62
     1
100
AcDbLine
 10
411.999992
 20
279.7
 30
0.0
 11
413.999992
 21
279.366667
 31
0.0
  0
LINE
  5
13C
100
AcDbEntity
  8
LAY-6
  6
CONTINUOUS
 62
     1
100
AcDbLine
 10
415.999992
 20
279.366667
 30
0.0
 11
417.999992
 21
279.7
 31
0.0
  0
LINE
  5
13D
100
AcDbEntity
  8
LAY-6
  6
CONTINUOUS
 62
     1
100
AcDbLine
 10
417.999992
 20
279.7
 30
0.0
 11
415.999992
 21
280.033333
 31
0.0
  0
LINE
  5
13E
100
AcDbEntity
  8
LAY-6
  6
CONTINUOUS
 62
     1
100
AcDbLine
 10
430.999992
 20
253.0
 30
0.0
 11
430.999992
 21
281.2
 31
0.0
  0
TEXT
  5
13F
100
AcDbEntity
  8
LAY-6
  6
CONTINUOUS
 62
     2
100
AcDbText
 10
420.499992
 20
280.2
 30
0.0
 40
5.0
  1
１３
 41
0.672
  7
EXCADSTD
 72
     5
 11
427.832792
 21
280.2
 31
0.0
100
AcDbText
  0
LINE
  5
140
100
AcDbEntity
  8
LAY-6
  6
CONTINUOUS
 62
     1
100
AcDbLine
 10
417.999992
 20
279.7
 30
0.0
 11
430.999992
 21
279.7
 31
0.0
  0
LINE
  5
141
100
AcDbEntity
  8
LAY-6
  6
CONTINUOUS
 62
     1
100
AcDbLine
 10
419.999992
 20
280.033333
 30
0.0
 11
417.999992
 21
279.7
 31
0.0
  0
LINE
  5
142
100
AcDbEntity
  8
LAY-6
  6
CONTINUOUS
 62
     1
100
AcDbLine
 10
417.999992
 20
279.7
 30
0.0
 11
419.999992
 21
279.366667
 31
0.0
  0
LINE
  5
143
100
AcDbEntity
  8
LAY-6
  6
CONTINUOUS
 62
     1
100
AcDbLine
 10
428.999992
 20
279.366667
 30
0.0
 11
430.999992
 21
279.7
 31
0.0
  0
LINE
  5
144
100
AcDbEntity
  8
LAY-6
  6
CONTINUOUS
 62
     1
100
AcDbLine
 10
430.999992
 20
279.7
 30
0.0
 11
428.999992
 21
280.033333
 31
0.0
  0
LINE
  5
145
100
AcDbEntity
  8
LAY-6
  6
CONTINUOUS
 62
     1
100
AcDbLine
 10
437.499992
 20
219.7
 30
0.0
 11
455.499992
 21
219.7
 31
0.0
  0
LINE
  5
146
100
AcDbEntity
  8
LAY-6
  6
CONTINUOUS
 62
     1
100
AcDbLine
 10
426.389
 20
225.7
 30
0.0
 11
455.499992
 21
225.7
 31
0.0
  0
TEXT
  5
147
100
AcDbEntity
  8
LAY-6
  6
CONTINUOUS
 62
     2
100
AcDbText
 10
453.499992
 20
220.7
 30
0.0
 40
5.0
  1
６
 50
90.0
 41
0.672
  7
EXCADSTD
 72
     5
 11
453.499992
 21
223.9
 31
0.0
100
AcDbText
  0
LINE
  5
148
100
AcDbEntity
  8
LAY-6
  6
CONTINUOUS
 62
     1
100
AcDbLine
 10
453.999992
 20
219.7
 30
0.0
 11
453.999992
 21
225.7
 31
0.0
  0
LINE
  5
149
100
AcDbEntity
  8
LAY-6
  6
CONTINUOUS
 62
     1
100
AcDbLine
 10
453.666659
 20
221.7
 30
0.0
 11
453.999992
 21
219.7
 31
0.0
  0
LINE
  5
14A
100
AcDbEntity
  8
LAY-6
  6
CONTINUOUS
 62
     1
100
AcDbLine
 10
453.999992
 20
219.7
 30
0.0
 11
454.333326
 21
221.7
 31
0.0
  0
LINE
  5
14B
100
AcDbEntity
  8
LAY-6
  6
CONTINUOUS
 62
     1
100
AcDbLine
 10
454.333326
 20
223.7
 30
0.0
 11
453.999992
 21
225.7
 31
0.0
  0
LINE
  5
14C
100
AcDbEntity
  8
LAY-6
  6
CONTINUOUS
 62
     1
100
AcDbLine
 10
453.999992
 20
225.7
 30
0.0
 11
453.666659
 21
223.7
 31
0.0
  0
LINE
  5
14D
100
AcDbEntity
  8
LAY-6
  6
CONTINUOUS
 62
     1
100
AcDbLine
 10
438.499992
 20
244.7
 30
0.0
 11
455.499992
 21
244.7
 31
0.0
  0
TEXT
  5
14E
100
AcDbEntity
  8
LAY-6
  6
CONTINUOUS
 62
     2
100
AcDbText
 10
453.499992
 20
231.2
 30
0.0
 40
5.0
  1
１９
 50
90.0
 41
0.672
  7
EXCADSTD
 72
     5
 11
453.499992
 21
238.5328
 31
0.0
100
AcDbText
  0
LINE
  5
14F
100
AcDbEntity
  8
LAY-6
  6
CONTINUOUS
 62
     1
100
AcDbLine
 10
453.999992
 20
225.7
 30
0.0
 11
453.999992
 21
244.7
 31
0.0
  0
LINE
  5
150
100
AcDbEntity
  8
LAY-6
  6
CONTINUOUS
 62
     1
100
AcDbLine
 10
453.666659
 20
227.7
 30
0.0
 11
453.999992
 21
225.7
 31
0.0
  0
LINE
  5
151
100
AcDbEntity
  8
LAY-6
  6
CONTINUOUS
 62
     1
100
AcDbLine
 10
453.999992
 20
225.7
 30
0.0
 11
454.333326
 21
227.7
 31
0.0
  0
LINE
  5
152
100
AcDbEntity
  8
LAY-6
  6
CONTINUOUS
 62
     1
100
AcDbLine
 10
454.333326
 20
242.7
 30
0.0
 11
453.999992
 21
244.7
 31
0.0
  0
LINE
  5
153
100
AcDbEntity
  8
LAY-6
  6
CONTINUOUS
 62
     1
100
AcDbLine
 10
453.999992
 20
244.7
 30
0.0
 11
453.666659
 21
242.7
 31
0.0
  0
LINE
  5
154
100
AcDbEntity
  8
LAY-6
  6
CONTINUOUS
 62
     1
100
AcDbLine
 10
426.389
 20
263.7
 30
0.0
 11
455.499992
 21
263.7
 31
0.0
  0
TEXT
  5
155
100
AcDbEntity
  8
LAY-6
  6
CONTINUOUS
 62
     2
100
AcDbText
 10
453.499992
 20
250.2
 30
0.0
 40
5.0
  1
１９
 50
90.0
 41
0.672
  7
EXCADSTD
 72
     5
 11
453.499992
 21
257.5328
 31
0.0
100
AcDbText
  0
LINE
  5
156
100
AcDbEntity
  8
LAY-6
  6
CONTINUOUS
 62
     1
100
AcDbLine
 10
453.999992
 20
244.7
 30
0.0
 11
453.999992
 21
263.7
 31
0.0
  0
LINE
  5
157
100
AcDbEntity
  8
LAY-6
  6
CONTINUOUS
 62
     1
100
AcDbLine
 10
453.666659
 20
246.7
 30
0.0
 11
453.999992
 21
244.7
 31
0.0
  0
LINE
  5
158
100
AcDbEntity
  8
LAY-6
  6
CONTINUOUS
 62
     1
100
AcDbLine
 10
453.999992
 20
244.7
 30
0.0
 11
454.333326
 21
246.7
 31
0.0
  0
LINE
  5
159
100
AcDbEntity
  8
LAY-6
  6
CONTINUOUS
 62
     1
100
AcDbLine
 10
454.333326
 20
261.7
 30
0.0
 11
453.999992
 21
263.7
 31
0.0
  0
LINE
  5
15A
100
AcDbEntity
  8
LAY-6
  6
CONTINUOUS
 62
     1
100
AcDbLine
 10
453.999992
 20
263.7
 30
0.0
 11
453.666659
 21
261.7
 31
0.0
  0
LINE
  5
15B
100
AcDbEntity
  8
LAY-6
  6
CONTINUOUS
 62
     1
100
AcDbLine
 10
437.499992
 20
269.7
 30
0.0
 11
455.499992
 21
269.7
 31
0.0
  0
TEXT
  5
15C
100
AcDbEntity
  8
LAY-6
  6
CONTINUOUS
 62
     2
100
AcDbText
 10
453.499992
 20
264.7
 30
0.0
 40
5.0
  1
６
 50
90.0
 41
0.672
  7
EXCADSTD
 72
     5
 11
453.499992
 21
267.9
 31
0.0
100
AcDbText
  0
LINE
  5
15D
100
AcDbEntity
  8
LAY-6
  6
CONTINUOUS
 62
     1
100
AcDbLine
 10
453.999992
 20
263.7
 30
0.0
 11
453.999992
 21
269.7
 31
0.0
  0
LINE
  5
15E
100
AcDbEntity
  8
LAY-6
  6
CONTINUOUS
 62
     1
100
AcDbLine
 10
453.666659
 20
265.7
 30
0.0
 11
453.999992
 21
263.7
 31
0.0
  0
LINE
  5
15F
100
AcDbEntity
  8
LAY-6
  6
CONTINUOUS
 62
     1
100
AcDbLine
 10
453.999992
 20
263.7
 30
0.0
 11
454.333326
 21
265.7
 31
0.0
  0
LINE
  5
160
100
AcDbEntity
  8
LAY-6
  6
CONTINUOUS
 62
     1
100
AcDbLine
 10
454.333326
 20
267.7
 30
0.0
 11
453.999992
 21
269.7
 31
0.0
  0
LINE
  5
161
100
AcDbEntity
  8
LAY-6
  6
CONTINUOUS
 62
     1
100
AcDbLine
 10
453.999992
 20
269.7
 30
0.0
 11
453.666659
 21
267.7
 31
0.0
  0
LINE
  5
162
100
AcDbEntity
  8
LAY-6
  6
CONTINUOUS
 62
     1
100
AcDbLine
 10
436.499992
 20
189.7
 30
0.0
 11
475.499992
 21
189.7
 31
0.0
  0
LINE
  5
163
100
AcDbEntity
  8
LAY-6
  6
CONTINUOUS
 62
     1
100
AcDbLine
 10
423.499992
 20
195.7
 30
0.0
 11
475.499992
 21
195.7
 31
0.0
  0
TEXT
  5
164
100
AcDbEntity
  8
LAY-6
  6
CONTINUOUS
 62
     2
100
AcDbText
 10
473.499992
 20
190.7
 30
0.0
 40
5.0
  1
６
 50
90.0
 41
0.672
  7
EXCADSTD
 72
     5
 11
473.499992
 21
193.9
 31
0.0
100
AcDbText
  0
LINE
  5
165
100
AcDbEntity
  8
LAY-6
  6
CONTINUOUS
 62
     1
100
AcDbLine
 10
473.999992
 20
189.7
 30
0.0
 11
473.999992
 21
195.7
 31
0.0
  0
LINE
  5
166
100
AcDbEntity
  8
LAY-6
  6
CONTINUOUS
 62
     1
100
AcDbLine
 10
473.666659
 20
191.7
 30
0.0
 11
473.999992
 21
189.7
 31
0.0
  0
LINE
  5
167
100
AcDbEntity
  8
LAY-6
  6
CONTINUOUS
 62
     1
100
AcDbLine
 10
473.999992
 20
189.7
 30
0.0
 11
474.333326
 21
191.7
 31
0.0
  0
LINE
  5
168
100
AcDbEntity
  8
LAY-6
  6
CONTINUOUS
 62
     1
100
AcDbLine
 10
474.333326
 20
193.7
 30
0.0
 11
473.999992
 21
195.7
 31
0.0
  0
LINE
  5
169
100
AcDbEntity
  8
LAY-6
  6
CONTINUOUS
 62
     1
100
AcDbLine
 10
473.999992
 20
195.7
 30
0.0
 11
473.666659
 21
193.7
 31
0.0
  0
LINE
  5
16A
100
AcDbEntity
  8
LAY-6
  6
CONTINUOUS
 62
     1
100
AcDbLine
 10
438.489
 20
214.7
 30
0.0
 11
475.499992
 21
214.7
 31
0.0
  0
TEXT
  5
16B
100
AcDbEntity
  8
LAY-6
  6
CONTINUOUS
 62
     2
100
AcDbText
 10
473.499992
 20
201.2
 30
0.0
 40
5.0
  1
１９
 50
90.0
 41
0.672
  7
EXCADSTD
 72
     5
 11
473.499992
 21
208.5328
 31
0.0
100
AcDbText
  0
LINE
  5
16C
100
AcDbEntity
  8
LAY-6
  6
CONTINUOUS
 62
     1
100
AcDbLine
 10
473.999992
 20
195.7
 30
0.0
 11
473.999992
 21
214.7
 31
0.0
  0
LINE
  5
16D
100
AcDbEntity
  8
LAY-6
  6
CONTINUOUS
 62
     1
100
AcDbLine
 10
473.666659
 20
197.7
 30
0.0
 11
473.999992
 21
195.7
 31
0.0
  0
LINE
  5
16E
100
AcDbEntity
  8
LAY-6
  6
CONTINUOUS
 62
     1
100
AcDbLine
 10
473.999992
 20
195.7
 30
0.0
 11
474.333326
 21
197.7
 31
0.0
  0
LINE
  5
16F
100
AcDbEntity
  8
LAY-6
  6
CONTINUOUS
 62
     1
100
AcDbLine
 10
474.333326
 20
212.7
 30
0.0
 11
473.999992
 21
214.7
 31
0.0
  0
LINE
  5
170
100
AcDbEntity
  8
LAY-6
  6
CONTINUOUS
 62
     1
100
AcDbLine
 10
473.999992
 20
214.7
 30
0.0
 11
473.666659
 21
212.7
 31
0.0
  0
LINE
  5
171
100
AcDbEntity
  8
LAY-6
  6
CONTINUOUS
 62
     1
100
AcDbLine
 10
425.489
 20
233.7
 30
0.0
 11
475.499992
 21
233.7
 31
0.0
  0
TEXT
  5
172
100
AcDbEntity
  8
LAY-6
  6
CONTINUOUS
 62
     2
100
AcDbText
 10
473.499992
 20
220.2
 30
0.0
 40
5.0
  1
１９
 50
90.0
 41
0.672
  7
EXCADSTD
 72
     5
 11
473.499992
 21
227.5328
 31
0.0
100
AcDbText
  0
LINE
  5
173
100
AcDbEntity
  8
LAY-6
  6
CONTINUOUS
 62
     1
100
AcDbLine
 10
473.999992
 20
214.7
 30
0.0
 11
473.999992
 21
233.7
 31
0.0
  0
LINE
  5
174
100
AcDbEntity
  8
LAY-6
  6
CONTINUOUS
 62
     1
100
AcDbLine
 10
473.666659
 20
216.7
 30
0.0
 11
473.999992
 21
214.7
 31
0.0
  0
LINE
  5
175
100
AcDbEntity
  8
LAY-6
  6
CONTINUOUS
 62
     1
100
AcDbLine
 10
473.999992
 20
214.7
 30
0.0
 11
474.333326
 21
216.7
 31
0.0
  0
LINE
  5
176
100
AcDbEntity
  8
LAY-6
  6
CONTINUOUS
 62
     1
100
AcDbLine
 10
474.333326
 20
231.7
 30
0.0
 11
473.999992
 21
233.7
 31
0.0
  0
LINE
  5
177
100
AcDbEntity
  8
LAY-6
  6
CONTINUOUS
 62
     1
100
AcDbLine
 10
473.999992
 20
233.7
 30
0.0
 11
473.666659
 21
231.7
 31
0.0
  0
LINE
  5
178
100
AcDbEntity
  8
LAY-6
  6
CONTINUOUS
 62
     1
100
AcDbLine
 10
436.499992
 20
239.7
 30
0.0
 11
475.499992
 21
239.7
 31
0.0
  0
TEXT
  5
179
100
AcDbEntity
  8
LAY-6
  6
CONTINUOUS
 62
     2
100
AcDbText
 10
473.499992
 20
234.7
 30
0.0
 40
5.0
  1
６
 50
90.0
 41
0.672
  7
EXCADSTD
 72
     5
 11
473.499992
 21
237.9
 31
0.0
100
AcDbText
  0
LINE
  5
17A
100
AcDbEntity
  8
LAY-6
  6
CONTINUOUS
 62
     1
100
AcDbLine
 10
473.999992
 20
233.7
 30
0.0
 11
473.999992
 21
239.7
 31
0.0
  0
LINE
  5
17B
100
AcDbEntity
  8
LAY-6
  6
CONTINUOUS
 62
     1
100
AcDbLine
 10
473.666659
 20
235.7
 30
0.0
 11
473.999992
 21
233.7
 31
0.0
  0
LINE
  5
17C
100
AcDbEntity
  8
LAY-6
  6
CONTINUOUS
 62
     1
100
AcDbLine
 10
473.999992
 20
233.7
 30
0.0
 11
474.333326
 21
235.7
 31
0.0
  0
LINE
  5
17D
100
AcDbEntity
  8
LAY-6
  6
CONTINUOUS
 62
     1
100
AcDbLine
 10
474.333326
 20
237.7
 30
0.0
 11
473.999992
 21
239.7
 31
0.0
  0
LINE
  5
17E
100
AcDbEntity
  8
LAY-6
  6
CONTINUOUS
 62
     1
100
AcDbLine
 10
473.999992
 20
239.7
 30
0.0
 11
473.666659
 21
237.7
 31
0.0
  0
LINE
  5
17F
100
AcDbEntity
  8
LAY-6
  6
CONTINUOUS
 62
     1
100
AcDbLine
 10
410.999992
 20
189.2
 30
0.0
 11
410.999992
 21
175.7
 31
0.0
  0
LINE
  5
180
100
AcDbEntity
  8
LAY-6
  6
CONTINUOUS
 62
     1
100
AcDbLine
 10
416.999992
 20
188.2
 30
0.0
 11
416.999992
 21
175.7
 31
0.0
  0
TEXT
  5
181
100
AcDbEntity
  8
LAY-6
  6
CONTINUOUS
 62
     2
100
AcDbText
 10
411.999992
 20
177.7
 30
0.0
 40
5.0
  1
６
 41
0.672
  7
EXCADSTD
 72
     5
 11
415.199992
 21
177.7
 31
0.0
100
AcDbText
  0
LINE
  5
182
100
AcDbEntity
  8
LAY-6
  6
CONTINUOUS
 62
     1
100
AcDbLine
 10
410.999992
 20
177.2
 30
0.0
 11
416.999992
 21
177.2
 31
0.0
  0
LINE
  5
183
100
AcDbEntity
  8
LAY-6
  6
CONTINUOUS
 62
     1
100
AcDbLine
 10
412.999992
 20
177.533333
 30
0.0
 11
410.999992
 21
177.2
 31
0.0
  0
LINE
  5
184
100
AcDbEntity
  8
LAY-6
  6
CONTINUOUS
 62
     1
100
AcDbLine
 10
410.999992
 20
177.2
 30
0.0
 11
412.999992
 21
176.866667
 31
0.0
  0
LINE
  5
185
100
AcDbEntity
  8
LAY-6
  6
CONTINUOUS
 62
     1
100
AcDbLine
 10
414.999992
 20
176.866667
 30
0.0
 11
416.999992
 21
177.2
 31
0.0
  0
LINE
  5
186
100
AcDbEntity
  8
LAY-6
  6
CONTINUOUS
 62
     1
100
AcDbLine
 10
416.999992
 20
177.2
 30
0.0
 11
414.999992
 21
177.533333
 31
0.0
  0
LINE
  5
187
100
AcDbEntity
  8
LAY-6
  6
CONTINUOUS
 62
     1
100
AcDbLine
 10
429.999992
 20
207.2
 30
0.0
 11
429.999992
 21
175.7
 31
0.0
  0
TEXT
  5
188
100
AcDbEntity
  8
LAY-6
  6
CONTINUOUS
 62
     2
100
AcDbText
 10
419.499992
 20
177.7
 30
0.0
 40
5.0
  1
１３
 41
0.672
  7
EXCADSTD
 72
     5
 11
426.832792
 21
177.7
 31
0.0
100
AcDbText
  0
LINE
  5
189
100
AcDbEntity
  8
LAY-6
  6
CONTINUOUS
 62
     1
100
AcDbLine
 10
416.999992
 20
177.2
 30
0.0
 11
429.999992
 21
177.2
 31
0.0
  0
LINE
  5
18A
100
AcDbEntity
  8
LAY-6
  6
CONTINUOUS
 62
     1
100
AcDbLine
 10
418.999992
 20
177.533333
 30
0.0
 11
416.999992
 21
177.2
 31
0.0
  0
LINE
  5
18B
100
AcDbEntity
  8
LAY-6
  6
CONTINUOUS
 62
     1
100
AcDbLine
 10
416.999992
 20
177.2
 30
0.0
 11
418.999992
 21
176.866667
 31
0.0
  0
LINE
  5
18C
100
AcDbEntity
  8
LAY-6
  6
CONTINUOUS
 62
     1
100
AcDbLine
 10
427.999992
 20
176.866667
 30
0.0
 11
429.999992
 21
177.2
 31
0.0
  0
LINE
  5
18D
100
AcDbEntity
  8
LAY-6
  6
CONTINUOUS
 62
     1
100
AcDbLine
 10
429.999992
 20
177.2
 30
0.0
 11
427.999992
 21
177.533333
 31
0.0
  0
POLYLINE
  5
18E
100
AcDbEntity
  8
LAY-6
  6
CONTINUOUS
 62
     1
100
AcDb2dPolyline
 66
     1
 10
0.0
 20
0.0
 30
0.0
 70
   128
  0
VERTEX
  5
18F
100
AcDbEntity
  8
LAY-6
  6
CONTINUOUS
 62
     1
100
AcDbVertex
100
AcDb2dVertex
 10
191.5
 20
200.0
 30
0.0
  0
VERTEX
  5
190
100
AcDbEntity
  8
LAY-6
  6
CONTINUOUS
 62
     1
100
AcDbVertex
100
AcDb2dVertex
 10
178.33139
 20
186.83139
 30
0.0
  0
VERTEX
  5
191
100
AcDbEntity
  8
LAY-6
  6
CONTINUOUS
 62
     1
100
AcDbVertex
100
AcDb2dVertex
 10
136.535351
 20
186.83139
 30
0.0
  0
SEQEND
  5
192
100
AcDbEntity
  8
LAY-6
  6
CONTINUOUS
 62
     1
  0
LINE
  5
193
100
AcDbEntity
  8
LAY-6
  6
CONTINUOUS
 62
     1
100
AcDbLine
 10
190.321489
 20
198.350084
 30
0.0
 11
191.5
 21
200.0
 31
0.0
  0
LINE
  5
194
100
AcDbEntity
  8
LAY-6
  6
CONTINUOUS
 62
     1
100
AcDbLine
 10
191.5
 20
200.0
 30
0.0
 11
189.850084
 21
198.821489
 31
0.0
  0
TEXT
  5
195
100
AcDbEntity
  8
LAY-6
  6
CONTINUOUS
 62
     2
100
AcDbText
 10
137.43337
 20
187.33139
 30
0.0
 40
5.0
  1
セットネジ(Ｍ６×５)
 41
0.632066
  7
EXCADSTD
 72
     5
 11
177.43337
 21
187.33139
 31
0.0
100
AcDbText
  0
LINE
  5
196
100
AcDbEntity
  8
LAY-6
  6
CONTINUOUS
 62
     1
100
AcDbLine
 10
370.999992
 20
202.2
 30
0.0
 11
359.999992
 21
202.2
 31
0.0
  0
LINE
  5
197
100
AcDbEntity
  8
LAY-6
  6
CONTINUOUS
 62
     1
100
AcDbLine
 10
370.999992
 20
227.2
 30
0.0
 11
359.999992
 21
227.2
 31
0.0
  0
TEXT
  5
198
100
AcDbEntity
  8
LAY-6
  6
CONTINUOUS
 62
     2
100
AcDbText
 10
360.999992
 20
210.7
 30
0.0
 40
5.0
  1
２５
 50
90.0
 41
0.672
  7
EXCADSTD
 72
     5
 11
360.999992
 21
218.0328
 31
0.0
100
AcDbText
  0
LINE
  5
199
100
AcDbEntity
  8
LAY-6
  6
CONTINUOUS
 62
     1
100
AcDbLine
 10
361.499992
 20
202.2
 30
0.0
 11
361.499992
 21
227.2
 31
0.0
  0
LINE
  5
19A
100
AcDbEntity
  8
LAY-6
  6
CONTINUOUS
 62
     1
100
AcDbLine
 10
361.166659
 20
204.2
 30
0.0
 11
361.499992
 21
202.2
 31
0.0
  0
LINE
  5
19B
100
AcDbEntity
  8
LAY-6
  6
CONTINUOUS
 62
     1
100
AcDbLine
 10
361.499992
 20
202.2
 30
0.0
 11
361.833326
 21
204.2
 31
0.0
  0
LINE
  5
19C
100
AcDbEntity
  8
LAY-6
  6
CONTINUOUS
 62
     1
100
AcDbLine
 10
361.833326
 20
225.2
 30
0.0
 11
361.499992
 21
227.2
 31
0.0
  0
LINE
  5
19D
100
AcDbEntity
  8
LAY-6
  6
CONTINUOUS
 62
     1
100
AcDbLine
 10
361.499992
 20
227.2
 30
0.0
 11
361.166659
 21
225.2
 31
0.0
  0
LINE
  5
19E
100
AcDbEntity
  8
LAY-6
  6
CONTINUOUS
 62
     1
100
AcDbLine
 10
370.999992
 20
232.2
 30
0.0
 11
359.999992
 21
232.2
 31
0.0
  0
TEXT
  5
19F
100
AcDbEntity
  8
LAY-6
  6
CONTINUOUS
 62
     2
100
AcDbText
 10
360.999992
 20
227.7
 30
0.0
 40
5.0
  1
５
 50
90.0
 41
0.672
  7
EXCADSTD
 72
     5
 11
360.999992
 21
230.9
 31
0.0
100
AcDbText
  0
LINE
  5
1A0
100
AcDbEntity
  8
LAY-6
  6
CONTINUOUS
 62
     1
100
AcDbLine
 10
361.499992
 20
227.2
 30
0.0
 11
361.499992
 21
232.2
 31
0.0
  0
LINE
  5
1A1
100
AcDbEntity
  8
LAY-6
  6
CONTINUOUS
 62
     1
100
AcDbLine
 10
370.999992
 20
257.2
 30
0.0
 11
359.999992
 21
257.2
 31
0.0
  0
TEXT
  5
1A2
100
AcDbEntity
  8
LAY-6
  6
CONTINUOUS
 62
     2
100
AcDbText
 10
360.999992
 20
240.7
 30
0.0
 40
5.0
  1
２５
 50
90.0
 41
0.672
  7
EXCADSTD
 72
     5
 11
360.999992
 21
248.0328
 31
0.0
100
AcDbText
  0
LINE
  5
1A3
100
AcDbEntity
  8
LAY-6
  6
CONTINUOUS
 62
     1
100
AcDbLine
 10
361.499992
 20
232.2
 30
0.0
 11
361.499992
 21
257.2
 31
0.0
  0
LINE
  5
1A4
100
AcDbEntity
  8
LAY-6
  6
CONTINUOUS
 62
     1
100
AcDbLine
 10
361.166659
 20
234.2
 30
0.0
 11
361.499992
 21
232.2
 31
0.0
  0
LINE
  5
1A5
100
AcDbEntity
  8
LAY-6
  6
CONTINUOUS
 62
     1
100
AcDbLine
 10
361.499992
 20
232.2
 30
0.0
 11
361.833326
 21
234.2
 31
0.0
  0
LINE
  5
1A6
100
AcDbEntity
  8
LAY-6
  6
CONTINUOUS
 62
     1
100
AcDbLine
 10
361.833326
 20
255.2
 30
0.0
 11
361.499992
 21
257.2
 31
0.0
  0
LINE
  5
1A7
100
AcDbEntity
  8
LAY-6
  6
CONTINUOUS
 62
     1
100
AcDbLine
 10
361.499992
 20
257.2
 30
0.0
 11
361.166659
 21
255.2
 31
0.0
  0
LINE
  5
1A8
100
AcDbEntity
  8
LAY-6
  6
CONTINUOUS
 62
     1
100
AcDbLine
 10
412.499992
 20
269.7
 30
0.0
 11
359.999992
 21
269.7
 31
0.0
  0
TEXT
  5
1A9
100
AcDbEntity
  8
LAY-6
  6
CONTINUOUS
 62
     2
100
AcDbText
 10
360.999992
 20
256.45
 30
0.0
 40
5.0
  1
１２.５
 50
90.0
 41
0.616
  7
EXCADSTD
 72
     5
 11
360.999992
 21
270.45
 31
0.0
100
AcDbText
  0
LINE
  5
1AA
100
AcDbEntity
  8
LAY-6
  6
CONTINUOUS
 62
     1
100
AcDbLine
 10
361.499992
 20
257.2
 30
0.0
 11
361.499992
 21
269.7
 31
0.0
  0
LINE
  5
1AB
100
AcDbEntity
  8
LAY-6
  6
CONTINUOUS
 62
     1
100
AcDbLine
 10
361.166659
 20
259.2
 30
0.0
 11
361.499992
 21
257.2
 31
0.0
  0
LINE
  5
1AC
100
AcDbEntity
  8
LAY-6
  6
CONTINUOUS
 62
     1
100
AcDbLine
 10
361.499992
 20
257.2
 30
0.0
 11
361.833326
 21
259.2
 31
0.0
  0
LINE
  5
1AD
100
AcDbEntity
  8
LAY-6
  6
CONTINUOUS
 62
     1
100
AcDbLine
 10
361.833326
 20
267.7
 30
0.0
 11
361.499992
 21
269.7
 31
0.0
  0
LINE
  5
1AE
100
AcDbEntity
  8
LAY-6
  6
CONTINUOUS
 62
     1
100
AcDbLine
 10
361.499992
 20
269.7
 30
0.0
 11
361.166659
 21
267.7
 31
0.0
  0
LINE
  5
1AF
100
AcDbEntity
  8
LAY-6
  6
CONTINUOUS
 62
     1
100
AcDbLine
 10
387.999992
 20
260.2
 30
0.0
 11
397.124351
 21
260.2
 31
0.0
  0
TEXT
  5
1B0
100
AcDbEntity
  8
LAY-6
  6
CONTINUOUS
 62
     2
100
AcDbText
 10
395.124351
 20
262.2
 30
0.0
 40
5.0
  1
３
 50
90.0
 41
0.672
  7
EXCADSTD
 72
     5
 11
395.124351
 21
265.4
 31
0.0
100
AcDbText
  0
LINE
  5
1B1
100
AcDbEntity
  8
LAY-6
  6
CONTINUOUS
 62
     1
100
AcDbLine
 10
395.624351
 20
266.7
 30
0.0
 11
395.624351
 21
254.2
 31
0.0
  0
LINE
  5
1B2
100
AcDbEntity
  8
LAY-6
  6
CONTINUOUS
 62
     1
100
AcDbLine
 10
395.291017
 20
262.2
 30
0.0
 11
395.624351
 21
260.2
 31
0.0
  0
LINE
  5
1B3
100
AcDbEntity
  8
LAY-6
  6
CONTINUOUS
 62
     1
100
AcDbLine
 10
395.624351
 20
260.2
 30
0.0
 11
395.957684
 21
262.2
 31
0.0
  0
LINE
  5
1B4
100
AcDbEntity
  8
LAY-6
  6
CONTINUOUS
 62
     1
100
AcDbLine
 10
395.957684
 20
255.2
 30
0.0
 11
395.624351
 21
257.2
 31
0.0
  0
LINE
  5
1B5
100
AcDbEntity
  8
LAY-6
  6
CONTINUOUS
 62
     1
100
AcDbLine
 10
395.624351
 20
257.2
 30
0.0
 11
395.291017
 21
255.2
 31
0.0
  0
LINE
  5
1B6
100
AcDbEntity
  8
LAY-6
  6
CONTINUOUS
 62
     1
100
AcDbLine
 10
411.499992
 20
189.7
 30
0.0
 11
359.999992
 21
189.7
 31
0.0
  0
TEXT
  5
1B7
100
AcDbEntity
  8
LAY-6
  6
CONTINUOUS
 62
     2
100
AcDbText
 10
360.999992
 20
188.95
 30
0.0
 40
5.0
  1
１２.５
 50
90.0
 41
0.616
  7
EXCADSTD
 72
     5
 11
360.999992
 21
202.95
 31
0.0
100
AcDbText
  0
LINE
  5
1B8
100
AcDbEntity
  8
LAY-6
  6
CONTINUOUS
 62
     1
100
AcDbLine
 10
361.499992
 20
202.2
 30
0.0
 11
361.499992
 21
189.7
 31
0.0
  0
LINE
  5
1B9
100
AcDbEntity
  8
LAY-6
  6
CONTINUOUS
 62
     1
100
AcDbLine
 10
361.833326
 20
200.2
 30
0.0
 11
361.499992
 21
202.2
 31
0.0
  0
LINE
  5
1BA
100
AcDbEntity
  8
LAY-6
  6
CONTINUOUS
 62
     1
100
AcDbLine
 10
361.499992
 20
202.2
 30
0.0
 11
361.166659
 21
200.2
 31
0.0
  0
LINE
  5
1BB
100
AcDbEntity
  8
LAY-6
  6
CONTINUOUS
 62
     1
100
AcDbLine
 10
361.166659
 20
191.7
 30
0.0
 11
361.499992
 21
189.7
 31
0.0
  0
LINE
  5
1BC
100
AcDbEntity
  8
LAY-6
  6
CONTINUOUS
 62
     1
100
AcDbLine
 10
361.499992
 20
189.7
 30
0.0
 11
361.833326
 21
191.7
 31
0.0
  0
TEXT
  5
1BD
100
AcDbEntity
  8
LAY-6
  6
CONTINUOUS
 62
     2
100
AcDbText
 10
334.545466
 20
220.0312
 30
0.0
 40
5.0
  1
φ
 41
0.672
  7
EXCADSTD
 72
     5
 11
337.745466
 21
220.0312
 31
0.0
100
AcDbText
  0
TEXT
  5
1BE
100
AcDbEntity
  8
LAY-6
  6
CONTINUOUS
 62
     2
100
AcDbText
 10
338.545466
 20
220.0312
 30
0.0
 40
5.0
  1
１０.５
 41
0.616
  7
EXCADSTD
 72
     5
 11
352.545466
 21
220.0312
 31
0.0
100
AcDbText
  0
LINE
  5
1BF
100
AcDbEntity
  8
LAY-6
  6
CONTINUOUS
 62
     1
100
AcDbLine
 10
374.749992
 20
229.7
 30
0.0
 11
385.249992
 21
229.7
 31
0.0
  0
LINE
  5
1C0
100
AcDbEntity
  8
LAY-6
  6
CONTINUOUS
 62
     1
100
AcDbLine
 10
376.749992
 20
230.033333
 30
0.0
 11
374.749992
 21
229.7
 31
0.0
  0
LINE
  5
1C1
100
AcDbEntity
  8
LAY-6
  6
CONTINUOUS
 62
     1
100
AcDbLine
 10
374.749992
 20
229.7
 30
0.0
 11
376.749992
 21
229.366667
 31
0.0
  0
LINE
  5
1C2
100
AcDbEntity
  8
LAY-6
  6
CONTINUOUS
 62
     1
100
AcDbLine
 10
383.249992
 20
229.366667
 30
0.0
 11
385.249992
 21
229.7
 31
0.0
  0
LINE
  5
1C3
100
AcDbEntity
  8
LAY-6
  6
CONTINUOUS
 62
     1
100
AcDbLine
 10
385.249992
 20
229.7
 30
0.0
 11
383.249992
 21
230.033333
 31
0.0
  0
TEXT
  5
1C4
100
AcDbEntity
  8
LAY-6
  6
CONTINUOUS
 62
     2
100
AcDbText
 10
503.041832
 20
50.108022
 30
0.0
 40
8.0
  1
本図は右開きを示す。
 41
0.672
  7
EXCADSTD
 72
     5
 11
567.041833
 21
50.108022
 31
0.0
100
AcDbText
  0
LINE
  5
1C5
100
AcDbEntity
  8
LAY-6
  6
CONTINUOUS
 62
     1
100
AcDbLine
 10
436.499992
 20
269.7
 30
0.0
 11
465.499992
 21
269.7
 31
0.0
  0
LINE
  5
1C6
100
AcDbEntity
  8
LAY-6
  6
CONTINUOUS
 62
     1
100
AcDbLine
 10
436.499992
 20
219.7
 30
0.0
 11
465.499992
 21
219.7
 31
0.0
  0
TEXT
  5
1C7
100
AcDbEntity
  8
LAY-6
  6
CONTINUOUS
 62
     2
100
AcDbText
 10
463.499992
 20
240.7
 30
0.0
 40
5.0
  1
５０
 50
90.0
 41
0.672
  7
EXCADSTD
 72
     5
 11
463.499992
 21
248.0328
 31
0.0
100
AcDbText
  0
LINE
  5
1C8
100
AcDbEntity
  8
LAY-6
  6
CONTINUOUS
 62
     1
100
AcDbLine
 10
463.999992
 20
269.7
 30
0.0
 11
463.999992
 21
219.7
 31
0.0
  0
LINE
  5
1C9
100
AcDbEntity
  8
LAY-6
  6
CONTINUOUS
 62
     1
100
AcDbLine
 10
464.333326
 20
267.7
 30
0.0
 11
463.999992
 21
269.7
 31
0.0
  0
LINE
  5
1CA
100
AcDbEntity
  8
LAY-6
  6
CONTINUOUS
 62
     1
100
AcDbLine
 10
463.999992
 20
269.7
 30
0.0
 11
463.666659
 21
267.7
 31
0.0
  0
LINE
  5
1CB
100
AcDbEntity
  8
LAY-6
  6
CONTINUOUS
 62
     1
100
AcDbLine
 10
463.666659
 20
221.7
 30
0.0
 11
463.999992
 21
219.7
 31
0.0
  0
LINE
  5
1CC
100
AcDbEntity
  8
LAY-6
  6
CONTINUOUS
 62
     1
100
AcDbLine
 10
463.999992
 20
219.7
 30
0.0
 11
464.333326
 21
221.7
 31
0.0
  0
LINE
  5
1CD
100
AcDbEntity
  8
LAY-6
  6
CONTINUOUS
 62
     1
100
AcDbLine
 10
437.499992
 20
239.7
 30
0.0
 11
485.499992
 21
239.7
 31
0.0
  0
LINE
  5
1CE
100
AcDbEntity
  8
LAY-6
  6
CONTINUOUS
 62
     1
100
AcDbLine
 10
435.499992
 20
189.7
 30
0.0
 11
485.499992
 21
189.7
 31
0.0
  0
TEXT
  5
1CF
100
AcDbEntity
  8
LAY-6
  6
CONTINUOUS
 62
     2
100
AcDbText
 10
483.499992
 20
210.7
 30
0.0
 40
5.0
  1
５０
 50
90.0
 41
0.672
  7
EXCADSTD
 72
     5
 11
483.499992
 21
218.0328
 31
0.0
100
AcDbText
  0
LINE
  5
1D0
100
AcDbEntity
  8
LAY-6
  6
CONTINUOUS
 62
     1
100
AcDbLine
 10
483.999992
 20
239.7
 30
0.0
 11
483.999992
 21
189.7
 31
0.0
  0
LINE
  5
1D1
100
AcDbEntity
  8
LAY-6
  6
CONTINUOUS
 62
     1
100
AcDbLine
 10
484.333326
 20
237.7
 30
0.0
 11
483.999992
 21
239.7
 31
0.0
  0
LINE
  5
1D2
100
AcDbEntity
  8
LAY-6
  6
CONTINUOUS
 62
     1
100
AcDbLine
 10
483.999992
 20
239.7
 30
0.0
 11
483.666659
 21
237.7
 31
0.0
  0
LINE
  5
1D3
100
AcDbEntity
  8
LAY-6
  6
CONTINUOUS
 62
     1
100
AcDbLine
 10
483.666659
 20
191.7
 30
0.0
 11
483.999992
 21
189.7
 31
0.0
  0
LINE
  5
1D4
100
AcDbEntity
  8
LAY-6
  6
CONTINUOUS
 62
     1
100
AcDbLine
 10
483.999992
 20
189.7
 30
0.0
 11
484.333326
 21
191.7
 31
0.0
  0
LINE
  5
1D5
100
AcDbEntity
  8
LAY-6
  6
CONTINUOUS
 62
     1
100
AcDbLine
 10
191.0
 20
256.5
 30
0.0
 11
191.0
 21
272.1
 31
0.0
  0
LINE
  5
1D6
100
AcDbEntity
  8
LAY-6
  6
CONTINUOUS
 62
     1
100
AcDbLine
 10
194.0
 20
264.5
 30
0.0
 11
194.0
 21
272.1
 31
0.0
  0
TEXT
  5
1D7
100
AcDbEntity
  8
LAY-6
  6
CONTINUOUS
 62
     2
100
AcDbText
 10
186.2
 20
271.1
 30
0.0
 40
5.0
  1
３
 41
0.672
  7
EXCADSTD
 72
     5
 11
189.4
 21
271.1
 31
0.0
100
AcDbText
  0
LINE
  5
1D8
100
AcDbEntity
  8
LAY-6
  6
CONTINUOUS
 62
     1
100
AcDbLine
 10
186.0
 20
270.6
 30
0.0
 11
194.0
 21
270.6
 31
0.0
  0
LINE
  5
1D9
100
AcDbEntity
  8
LAY-6
  6
CONTINUOUS
 62
     1
100
AcDbLine
 10
189.0
 20
270.266667
 30
0.0
 11
191.0
 21
270.6
 31
0.0
  0
LINE
  5
1DA
100
AcDbEntity
  8
LAY-6
  6
CONTINUOUS
 62
     1
100
AcDbLine
 10
191.0
 20
270.6
 30
0.0
 11
189.0
 21
270.933333
 31
0.0
  0
LINE
  5
1DB
100
AcDbEntity
  8
LAY-6
  6
CONTINUOUS
 62
     1
100
AcDbLine
 10
197.0
 20
260.9
 30
0.0
 11
197.0
 21
272.1
 31
0.0
  0
TEXT
  5
1DC
100
AcDbEntity
  8
LAY-6
  6
CONTINUOUS
 62
     2
100
AcDbText
 10
193.5
 20
271.1
 30
0.0
 40
5.0
  1
３
 41
0.672
  7
EXCADSTD
 72
     5
 11
196.7
 21
271.1
 31
0.0
100
AcDbText
  0
LINE
  5
1DD
100
AcDbEntity
  8
LAY-6
  6
CONTINUOUS
 62
     1
100
AcDbLine
 10
194.0
 20
270.6
 30
0.0
 11
197.0
 21
270.6
 31
0.0
  0
CIRCLE
  5
1DE
100
AcDbEntity
  8
LAY-6
  6
CONTINUOUS
 62
     1
100
AcDbCircle
 10
194.0
 20
270.6
 30
0.0
 40
0.5
  0
CIRCLE
  5
1DF
100
AcDbEntity
  8
LAY-6
  6
CONTINUOUS
 62
     1
100
AcDbCircle
 10
194.0
 20
270.6
 30
0.0
 40
0.25
  0
LINE
  5
1E0
100
AcDbEntity
  8
LAY-6
  6
CONTINUOUS
 62
     1
100
AcDbLine
 10
200.0
 20
257.5
 30
0.0
 11
200.0
 21
272.1
 31
0.0
  0
TEXT
  5
1E1
100
AcDbEntity
  8
LAY-6
  6
CONTINUOUS
 62
     2
100
AcDbText
 10
201.1
 20
271.1
 30
0.0
 40
5.0
  1
３
 41
0.672
  7
EXCADSTD
 72
     5
 11
204.3
 21
271.1
 31
0.0
100
AcDbText
  0
LINE
  5
1E2
100
AcDbEntity
  8
LAY-6
  6
CONTINUOUS
 62
     1
100
AcDbLine
 10
197.0
 20
270.6
 30
0.0
 11
205.0
 21
270.6
 31
0.0
  0
CIRCLE
  5
1E3
100
AcDbEntity
  8
LAY-6
  6
CONTINUOUS
 62
     1
100
AcDbCircle
 10
197.0
 20
270.6
 30
0.0
 40
0.5
  0
CIRCLE
  5
1E4
100
AcDbEntity
  8
LAY-6
  6
CONTINUOUS
 62
     1
100
AcDbCircle
 10
197.0
 20
270.6
 30
0.0
 40
0.25
  0
LINE
  5
1E5
100
AcDbEntity
  8
LAY-6
  6
CONTINUOUS
 62
     1
100
AcDbLine
 10
202.0
 20
270.933333
 30
0.0
 11
200.0
 21
270.6
 31
0.0
  0
LINE
  5
1E6
100
AcDbEntity
  8
LAY-6
  6
CONTINUOUS
 62
     1
100
AcDbLine
 10
200.0
 20
270.6
 30
0.0
 11
202.0
 21
270.266667
 31
0.0
  0
LINE
  5
1E7
100
AcDbEntity
  8
LAY-6
  6
CONTINUOUS
 62
     1
100
AcDbLine
 10
372.499992
 20
260.7
 30
0.0
 11
372.499992
 21
264.7
 31
0.0
  0
LINE
  5
1E8
100
AcDbEntity
  8
LAY-6
  6
CONTINUOUS
 62
     1
100
AcDbLine
 10
387.499992
 20
260.7
 30
0.0
 11
387.499992
 21
264.7
 31
0.0
  0
TEXT
  5
1E9
100
AcDbEntity
  8
LAY-6
  6
CONTINUOUS
 62
     2
100
AcDbText
 10
373.499992
 20
263.7
 30
0.0
 40
5.0
  1
φ
 41
0.672
  7
EXCADSTD
 72
     5
 11
376.699992
 21
263.7
 31
0.0
100
AcDbText
  0
TEXT
  5
1EA
100
AcDbEntity
  8
LAY-6
  6
CONTINUOUS
 62
     2
100
AcDbText
 10
377.499992
 20
263.7
 30
0.0
 40
5.0
  1
１５
 41
0.672
  7
EXCADSTD
 72
     5
 11
384.832792
 21
263.7
 31
0.0
100
AcDbText
  0
LINE
  5
1EB
100
AcDbEntity
  8
LAY-6
  6
CONTINUOUS
 62
     1
100
AcDbLine
 10
372.499992
 20
263.2
 30
0.0
 11
387.499992
 21
263.2
 31
0.0
  0
LINE
  5
1EC
100
AcDbEntity
  8
LAY-6
  6
CONTINUOUS
 62
     1
100
AcDbLine
 10
374.499992
 20
263.533333
 30
0.0
 11
372.499992
 21
263.2
 31
0.0
  0
LINE
  5
1ED
100
AcDbEntity
  8
LAY-6
  6
CONTINUOUS
 62
     1
100
AcDbLine
 10
372.499992
 20
263.2
 30
0.0
 11
374.499992
 21
262.866667
 31
0.0
  0
LINE
  5
1EE
100
AcDbEntity
  8
LAY-6
  6
CONTINUOUS
 62
     1
100
AcDbLine
 10
385.499992
 20
262.866667
 30
0.0
 11
387.499992
 21
263.2
 31
0.0
  0
LINE
  5
1EF
100
AcDbEntity
  8
LAY-6
  6
CONTINUOUS
 62
     1
100
AcDbLine
 10
387.499992
 20
263.2
 30
0.0
 11
385.499992
 21
263.533333
 31
0.0
  0
LINE
  5
1F0
100
AcDbEntity
  8
LAY-6
  6
DASHED2
 62
     3
100
AcDbLine
 10
221.5
 20
238.0
 30
0.0
 11
215.652401
 21
236.1
 31
0.0
  0
LINE
  5
1F1
100
AcDbEntity
  8
LAY-6
  6
DASHED2
 62
     3
100
AcDbLine
 10
221.5
 20
238.0
 30
0.0
 11
215.652401
 21
239.9
 31
0.0
  0
LINE
  5
1F2
100
AcDbEntity
  8
LAY-6
  6
DASHED2
 62
     3
100
AcDbLine
 10
203.922034
 20
240.779008
 30
0.0
 11
205.398526
 21
235.268665
 31
0.0
  0
LINE
  5
1F3
100
AcDbEntity
  8
LAY-6
  6
DASHED2
 62
     3
100
AcDbLine
 10
205.435124
 20
240.730154
 30
0.0
 11
206.88566
 21
235.316681
 31
0.0
  0
LINE
  5
1F4
100
AcDbEntity
  8
LAY-6
  6
DASHED2
 62
     3
100
AcDbLine
 10
206.948215
 20
240.681299
 30
0.0
 11
208.372794
 21
235.364697
 31
0.0
  0
LINE
  5
1F5
100
AcDbEntity
  8
LAY-6
  6
DASHED2
 62
     3
100
AcDbLine
 10
208.461305
 20
240.632445
 30
0.0
 11
209.859928
 21
235.412713
 31
0.0
  0
LINE
  5
1F6
100
AcDbEntity
  8
LAY-6
  6
DASHED2
 62
     3
100
AcDbLine
 10
209.974396
 20
240.583591
 30
0.0
 11
211.347062
 21
235.46073
 31
0.0
  0
LINE
  5
1F7
100
AcDbEntity
  8
LAY-6
  6
DASHED2
 62
     3
100
AcDbLine
 10
211.487486
 20
240.534736
 30
0.0
 11
212.834196
 21
235.508746
 31
0.0
  0
LINE
  5
1F8
100
AcDbEntity
  8
LAY-6
  6
DASHED2
 62
     3
100
AcDbLine
 10
213.000577
 20
240.485882
 30
0.0
 11
214.32133
 21
235.556762
 31
0.0
  0
LINE
  5
1F9
100
AcDbEntity
  8
LAY-6
  6
DASHED2
 62
     3
100
AcDbLine
 10
214.513667
 20
240.437028
 30
0.0
 11
215.803486
 21
235.623359
 31
0.0
  0
LINE
  5
1FA
100
AcDbEntity
  8
LAY-6
  6
DASHED2
 62
     3
100
AcDbLine
 10
216.051435
 20
240.296077
 30
0.0
 11
217.183352
 21
236.071705
 31
0.0
  0
LINE
  5
1FB
100
AcDbEntity
  8
LAY-6
  6
DASHED2
 62
     3
100
AcDbLine
 10
217.694482
 20
239.762219
 30
0.0
 11
218.563218
 21
236.520051
 31
0.0
  0
LINE
  5
1FC
100
AcDbEntity
  8
LAY-6
  6
DASHED2
 62
     3
100
AcDbLine
 10
219.337528
 20
239.228361
 30
0.0
 11
219.943084
 21
236.968396
 31
0.0
  0
LINE
  5
1FD
100
AcDbEntity
  8
LAY-6
  6
DASHED2
 62
     3
100
AcDbLine
 10
220.980575
 20
238.694502
 30
0.0
 11
221.32295
 21
237.416742
 31
0.0
  0
LINE
  5
1FE
100
AcDbEntity
  8
LAY-6
  6
DASHED2
 62
     3
100
AcDbLine
 10
202.458885
 20
240.443997
 30
0.0
 11
215.652401
 21
239.9
 31
0.0
  0
LINE
  5
1FF
100
AcDbEntity
  8
LAY-6
  6
DASHED2
 62
     3
100
AcDbLine
 10
203.757503
 20
235.597489
 30
0.0
 11
215.652401
 21
236.1
 31
0.0
  0
LINE
  5
200
100
AcDbEntity
  8
LAY-6
  6
DASHED2
 62
     3
100
AcDbLine
 10
199.9
 20
235.45
 30
0.0
 11
199.9
 21
240.55
 31
0.0
  0
LINE
  5
201
100
AcDbEntity
  8
LAY-6
  6
DASHED2
 62
     3
100
AcDbLine
 10
221.5
 20
251.0
 30
0.0
 11
215.652401
 21
249.1
 31
0.0
  0
LINE
  5
202
100
AcDbEntity
  8
LAY-6
  6
DASHED2
 62
     3
100
AcDbLine
 10
221.5
 20
251.0
 30
0.0
 11
215.652401
 21
252.9
 31
0.0
  0
LINE
  5
203
100
AcDbEntity
  8
LAY-6
  6
DASHED2
 62
     3
100
AcDbLine
 10
203.757503
 20
248.597489
 30
0.0
 11
215.652401
 21
249.1
 31
0.0
  0
LINE
  5
204
100
AcDbEntity
  8
LAY-6
  6
DASHED2
 62
     3
100
AcDbLine
 10
202.458885
 20
253.443997
 30
0.0
 11
215.652401
 21
252.9
 31
0.0
  0
LINE
  5
205
100
AcDbEntity
  8
LAY-6
  6
DASHED2
 62
     3
100
AcDbLine
 10
203.922034
 20
253.779008
 30
0.0
 11
205.398526
 21
248.268665
 31
0.0
  0
LINE
  5
206
100
AcDbEntity
  8
LAY-6
  6
DASHED2
 62
     3
100
AcDbLine
 10
205.435124
 20
253.730154
 30
0.0
 11
206.88566
 21
248.316681
 31
0.0
  0
LINE
  5
207
100
AcDbEntity
  8
LAY-6
  6
DASHED2
 62
     3
100
AcDbLine
 10
206.948215
 20
253.681299
 30
0.0
 11
208.372794
 21
248.364697
 31
0.0
  0
LINE
  5
208
100
AcDbEntity
  8
LAY-6
  6
DASHED2
 62
     3
100
AcDbLine
 10
208.461305
 20
253.632445
 30
0.0
 11
209.859928
 21
248.412713
 31
0.0
  0
LINE
  5
209
100
AcDbEntity
  8
LAY-6
  6
DASHED2
 62
     3
100
AcDbLine
 10
209.974396
 20
253.583591
 30
0.0
 11
211.347062
 21
248.46073
 31
0.0
  0
LINE
  5
20A
100
AcDbEntity
  8
LAY-6
  6
DASHED2
 62
     3
100
AcDbLine
 10
211.487486
 20
253.534736
 30
0.0
 11
212.834196
 21
248.508746
 31
0.0
  0
LINE
  5
20B
100
AcDbEntity
  8
LAY-6
  6
DASHED2
 62
     3
100
AcDbLine
 10
213.000577
 20
253.485882
 30
0.0
 11
214.32133
 21
248.556762
 31
0.0
  0
LINE
  5
20C
100
AcDbEntity
  8
LAY-6
  6
DASHED2
 62
     3
100
AcDbLine
 10
214.513667
 20
253.437028
 30
0.0
 11
215.803486
 21
248.623359
 31
0.0
  0
LINE
  5
20D
100
AcDbEntity
  8
LAY-6
  6
DASHED2
 62
     3
100
AcDbLine
 10
216.051435
 20
253.296077
 30
0.0
 11
217.183352
 21
249.071705
 31
0.0
  0
LINE
  5
20E
100
AcDbEntity
  8
LAY-6
  6
DASHED2
 62
     3
100
AcDbLine
 10
217.694482
 20
252.762219
 30
0.0
 11
218.563218
 21
249.520051
 31
0.0
  0
LINE
  5
20F
100
AcDbEntity
  8
LAY-6
  6
DASHED2
 62
     3
100
AcDbLine
 10
219.337528
 20
252.228361
 30
0.0
 11
219.943084
 21
249.968396
 31
0.0
  0
LINE
  5
210
100
AcDbEntity
  8
LAY-6
  6
DASHED2
 62
     3
100
AcDbLine
 10
220.980575
 20
251.694502
 30
0.0
 11
221.32295
 21
250.416742
 31
0.0
  0
LINE
  5
211
100
AcDbEntity
  8
LAY-6
  6
DASHED2
 62
     3
100
AcDbLine
 10
199.9
 20
248.45
 30
0.0
 11
199.9
 21
253.55
 31
0.0
  0
LINE
  5
212
100
AcDbEntity
  8
LAY-6
  6
DASHDOT
 62
     1
100
AcDbLine
 10
225.4
 20
251.0
 30
0.0
 11
194.436218
 21
251.0
 31
0.0
  0
LINE
  5
213
100
AcDbEntity
  8
LAY-6
  6
DASHED2
 62
     3
100
AcDbLine
 10
169.5
 20
237.0
 30
0.0
 11
175.347599
 21
235.1
 31
0.0
  0
LINE
  5
214
100
AcDbEntity
  8
LAY-6
  6
DASHED2
 62
     3
100
AcDbLine
 10
169.5
 20
237.0
 30
0.0
 11
175.347599
 21
238.9
 31
0.0
  0
LINE
  5
215
100
AcDbEntity
  8
LAY-6
  6
DASHED2
 62
     3
100
AcDbLine
 10
187.077966
 20
239.779008
 30
0.0
 11
185.601474
 21
234.268665
 31
0.0
  0
LINE
  5
216
100
AcDbEntity
  8
LAY-6
  6
DASHED2
 62
     3
100
AcDbLine
 10
185.564876
 20
239.730154
 30
0.0
 11
184.11434
 21
234.316681
 31
0.0
  0
LINE
  5
217
100
AcDbEntity
  8
LAY-6
  6
DASHED2
 62
     3
100
AcDbLine
 10
184.051785
 20
239.681299
 30
0.0
 11
182.627206
 21
234.364697
 31
0.0
  0
LINE
  5
218
100
AcDbEntity
  8
LAY-6
  6
DASHED2
 62
     3
100
AcDbLine
 10
182.538695
 20
239.632445
 30
0.0
 11
181.140072
 21
234.412713
 31
0.0
  0
LINE
  5
219
100
AcDbEntity
  8
LAY-6
  6
DASHED2
 62
     3
100
AcDbLine
 10
181.025604
 20
239.583591
 30
0.0
 11
179.652938
 21
234.46073
 31
0.0
  0
LINE
  5
21A
100
AcDbEntity
  8
LAY-6
  6
DASHED2
 62
     3
100
AcDbLine
 10
179.512514
 20
239.534736
 30
0.0
 11
178.165804
 21
234.508746
 31
0.0
  0
LINE
  5
21B
100
AcDbEntity
  8
LAY-6
  6
DASHED2
 62
     3
100
AcDbLine
 10
177.999423
 20
239.485882
 30
0.0
 11
176.67867
 21
234.556762
 31
0.0
  0
LINE
  5
21C
100
AcDbEntity
  8
LAY-6
  6
DASHED2
 62
     3
100
AcDbLine
 10
176.486333
 20
239.437028
 30
0.0
 11
175.196514
 21
234.623359
 31
0.0
  0
LINE
  5
21D
100
AcDbEntity
  8
LAY-6
  6
DASHED2
 62
     3
100
AcDbLine
 10
174.948565
 20
239.296077
 30
0.0
 11
173.816648
 21
235.071705
 31
0.0
  0
LINE
  5
21E
100
AcDbEntity
  8
LAY-6
  6
DASHED2
 62
     3
100
AcDbLine
 10
173.305518
 20
238.762219
 30
0.0
 11
172.436782
 21
235.520051
 31
0.0
  0
LINE
  5
21F
100
AcDbEntity
  8
LAY-6
  6
DASHED2
 62
     3
100
AcDbLine
 10
171.662472
 20
238.228361
 30
0.0
 11
171.056916
 21
235.968396
 31
0.0
  0
LINE
  5
220
100
AcDbEntity
  8
LAY-6
  6
DASHED2
 62
     3
100
AcDbLine
 10
170.019425
 20
237.694502
 30
0.0
 11
169.67705
 21
236.416742
 31
0.0
  0
LINE
  5
221
100
AcDbEntity
  8
LAY-6
  6
DASHED2
 62
     3
100
AcDbLine
 10
188.541115
 20
239.443997
 30
0.0
 11
175.347599
 21
238.9
 31
0.0
  0
LINE
  5
222
100
AcDbEntity
  8
LAY-6
  6
DASHED2
 62
     3
100
AcDbLine
 10
187.242497
 20
234.597489
 30
0.0
 11
175.347599
 21
235.1
 31
0.0
  0
LINE
  5
223
100
AcDbEntity
  8
LAY-6
  6
DASHED2
 62
     3
100
AcDbLine
 10
191.1
 20
234.45
 30
0.0
 11
191.1
 21
239.55
 31
0.0
  0
LINE
  5
224
100
AcDbEntity
  8
LAY-6
  6
DASHED2
 62
     3
100
AcDbLine
 10
169.5
 20
250.0
 30
0.0
 11
175.347599
 21
248.1
 31
0.0
  0
LINE
  5
225
100
AcDbEntity
  8
LAY-6
  6
DASHED2
 62
     3
100
AcDbLine
 10
169.5
 20
250.0
 30
0.0
 11
175.347599
 21
251.9
 31
0.0
  0
LINE
  5
226
100
AcDbEntity
  8
LAY-6
  6
DASHED2
 62
     3
100
AcDbLine
 10
187.077966
 20
252.779008
 30
0.0
 11
185.601474
 21
247.268665
 31
0.0
  0
LINE
  5
227
100
AcDbEntity
  8
LAY-6
  6
DASHED2
 62
     3
100
AcDbLine
 10
185.564876
 20
252.730154
 30
0.0
 11
184.11434
 21
247.316681
 31
0.0
  0
LINE
  5
228
100
AcDbEntity
  8
LAY-6
  6
DASHED2
 62
     3
100
AcDbLine
 10
184.051785
 20
252.681299
 30
0.0
 11
182.627206
 21
247.364697
 31
0.0
  0
LINE
  5
229
100
AcDbEntity
  8
LAY-6
  6
DASHED2
 62
     3
100
AcDbLine
 10
182.538695
 20
252.632445
 30
0.0
 11
181.140072
 21
247.412713
 31
0.0
  0
LINE
  5
22A
100
AcDbEntity
  8
LAY-6
  6
DASHED2
 62
     3
100
AcDbLine
 10
181.025604
 20
252.583591
 30
0.0
 11
179.652938
 21
247.46073
 31
0.0
  0
LINE
  5
22B
100
AcDbEntity
  8
LAY-6
  6
DASHED2
 62
     3
100
AcDbLine
 10
179.512514
 20
252.534736
 30
0.0
 11
178.165804
 21
247.508746
 31
0.0
  0
LINE
  5
22C
100
AcDbEntity
  8
LAY-6
  6
DASHED2
 62
     3
100
AcDbLine
 10
177.999423
 20
252.485882
 30
0.0
 11
176.67867
 21
247.556762
 31
0.0
  0
LINE
  5
22D
100
AcDbEntity
  8
LAY-6
  6
DASHED2
 62
     3
100
AcDbLine
 10
176.486333
 20
252.437028
 30
0.0
 11
175.196514
 21
247.623359
 31
0.0
  0
LINE
  5
22E
100
AcDbEntity
  8
LAY-6
  6
DASHED2
 62
     3
100
AcDbLine
 10
174.948565
 20
252.296077
 30
0.0
 11
173.816648
 21
248.071705
 31
0.0
  0
LINE
  5
22F
100
AcDbEntity
  8
LAY-6
  6
DASHED2
 62
     3
100
AcDbLine
 10
173.305518
 20
251.762219
 30
0.0
 11
172.436782
 21
248.520051
 31
0.0
  0
LINE
  5
230
100
AcDbEntity
  8
LAY-6
  6
DASHED2
 62
     3
100
AcDbLine
 10
171.662472
 20
251.228361
 30
0.0
 11
171.056916
 21
248.968396
 31
0.0
  0
LINE
  5
231
100
AcDbEntity
  8
LAY-6
  6
DASHED2
 62
     3
100
AcDbLine
 10
170.019425
 20
250.694502
 30
0.0
 11
169.67705
 21
249.416742
 31
0.0
  0
LINE
  5
232
100
AcDbEntity
  8
LAY-6
  6
DASHED2
 62
     3
100
AcDbLine
 10
188.541115
 20
252.443997
 30
0.0
 11
175.347599
 21
251.9
 31
0.0
  0
LINE
  5
233
100
AcDbEntity
  8
LAY-6
  6
DASHED2
 62
     3
100
AcDbLine
 10
187.242497
 20
247.597489
 30
0.0
 11
175.347599
 21
248.1
 31
0.0
  0
LINE
  5
234
100
AcDbEntity
  8
LAY-6
  6
DASHED2
 62
     3
100
AcDbLine
 10
191.1
 20
247.45
 30
0.0
 11
191.1
 21
252.55
 31
0.0
  0
TEXT
  5
235
100
AcDbEntity
  8
LAY-6
  6
CONTINUOUS
 62
     2
100
AcDbText
 10
117.4
 20
270.0
 30
0.0
 40
5.0
  1
３－５.１×２５皿木ネジ
 41
0.654222
  7
EXCADSTD
 72
     5
 11
163.4
 21
270.0
 31
0.0
100
AcDbText
  0
TEXT
  5
236
100
AcDbEntity
  8
LAY-6
  6
CONTINUOUS
 62
     2
100
AcDbText
 10
223.1
 20
275.5
 30
0.0
 40
5.0
  1
３－５.１×２５皿木ネジ
 41
0.654222
  7
EXCADSTD
 72
     5
 11
269.1
 21
275.5
 31
0.0
100
AcDbText
  0
POLYLINE
  5
237
100
AcDbEntity
  8
LAY-6
  6
CONTINUOUS
 62
     1
100
AcDb2dPolyline
 66
     1
 10
0.0
 20
0.0
 30
0.0
 70
   128
  0
VERTEX
  5
238
100
AcDbEntity
  8
LAY-6
  6
CONTINUOUS
 62
     1
100
AcDbVertex
100
AcDb2dVertex
 10
177.870308
 20
252.004017
 30
0.0
  0
VERTEX
  5
239
100
AcDbEntity
  8
LAY-6
  6
CONTINUOUS
 62
     1
100
AcDbVertex
100
AcDb2dVertex
 10
171.2
 20
269.4
 30
0.0
  0
VERTEX
  5
23A
100
AcDbEntity
  8
LAY-6
  6
CONTINUOUS
 62
     1
100
AcDbVertex
100
AcDb2dVertex
 10
116.3
 20
269.4
 30
0.0
  0
SEQEND
  5
23B
100
AcDbEntity
  8
LAY-6
  6
CONTINUOUS
 62
     1
  0
LINE
  5
23C
100
AcDbEntity
  8
LAY-6
  6
CONTINUOUS
 62
     1
100
AcDbLine
 10
176.843025
 20
253.752102
 30
0.0
 11
177.870308
 21
252.004017
 31
0.0
  0
LINE
  5
23D
100
AcDbEntity
  8
LAY-6
  6
CONTINUOUS
 62
     1
100
AcDbLine
 10
177.870308
 20
252.004017
 30
0.0
 11
177.465501
 21
253.990784
 31
0.0
  0
POLYLINE
  5
23E
100
AcDbEntity
  8
LAY-6
  6
CONTINUOUS
 62
     1
100
AcDb2dPolyline
 66
     1
 10
0.0
 20
0.0
 30
0.0
 70
   128
  0
VERTEX
  5
23F
100
AcDbEntity
  8
LAY-6
  6
CONTINUOUS
 62
     1
100
AcDbVertex
100
AcDb2dVertex
 10
214.646449
 20
252.941478
 30
0.0
  0
VERTEX
  5
240
100
AcDbEntity
  8
LAY-6
  6
CONTINUOUS
 62
     1
100
AcDbVertex
100
AcDb2dVertex
 10
222.8
 20
275.3
 30
0.0
  0
VERTEX
  5
241
100
AcDbEntity
  8
LAY-6
  6
CONTINUOUS
 62
     1
100
AcDbVertex
100
AcDb2dVertex
 10
270.935351
 20
275.3
 30
0.0
  0
SEQEND
  5
242
100
AcDbEntity
  8
LAY-6
  6
CONTINUOUS
 62
     1
  0
LINE
  5
243
100
AcDbEntity
  8
LAY-6
  6
CONTINUOUS
 62
     1
100
AcDbLine
 10
215.018495
 20
254.934639
 30
0.0
 11
214.646449
 21
252.941478
 31
0.0
  0
LINE
  5
244
100
AcDbEntity
  8
LAY-6
  6
CONTINUOUS
 62
     1
100
AcDbLine
 10
214.646449
 20
252.941478
 30
0.0
 11
215.644816
 21
254.706237
 31
0.0
  0
LINE
  5
245
100
AcDbEntity
  8
LAY-6
  6
CONTINUOUS
 62
     1
100
AcDbLine
 10
234.1
 20
222.0
 30
0.0
 11
230.5
 21
222.0
 31
0.0
  0
LINE
  5
246
100
AcDbEntity
  8
LAY-6
  6
CONTINUOUS
 62
     1
100
AcDbLine
 10
232.0
 20
200.0
 30
0.0
 11
232.0
 21
222.0
 31
0.0
  0
LINE
  5
247
100
AcDbEntity
  8
LAY-6
  6
CONTINUOUS
 62
     1
100
AcDbLine
 10
232.0
 20
200.0
 30
0.0
 11
231.223543
 21
202.897777
 31
0.0
  0
LINE
  5
248
100
AcDbEntity
  8
LAY-6
  6
CONTINUOUS
 62
     1
100
AcDbLine
 10
232.0
 20
200.0
 30
0.0
 11
232.776457
 21
202.897777
 31
0.0
  0
LINE
  5
249
100
AcDbEntity
  8
LAY-6
  6
CONTINUOUS
 62
     1
100
AcDbLine
 10
232.0
 20
222.0
 30
0.0
 11
232.776457
 21
219.102223
 31
0.0
  0
LINE
  5
24A
100
AcDbEntity
  8
LAY-6
  6
CONTINUOUS
 62
     1
100
AcDbLine
 10
232.0
 20
222.0
 30
0.0
 11
231.223543
 21
219.102223
 31
0.0
  0
LINE
  5
24B
100
AcDbEntity
  8
LAY-6
  6
CONTINUOUS
 62
     1
100
AcDbLine
 10
200.0
 20
257.0
 30
0.0
 11
233.5
 21
257.0
 31
0.0
  0
LINE
  5
24C
100
AcDbEntity
  8
LAY-6
  6
CONTINUOUS
 62
     1
100
AcDbLine
 10
232.0
 20
222.0
 30
0.0
 11
232.0
 21
257.0
 31
0.0
  0
LINE
  5
24D
100
AcDbEntity
  8
LAY-6
  6
CONTINUOUS
 62
     1
100
AcDbLine
 10
232.0
 20
222.0
 30
0.0
 11
231.223543
 21
224.897777
 31
0.0
  0
LINE
  5
24E
100
AcDbEntity
  8
LAY-6
  6
CONTINUOUS
 62
     1
100
AcDbLine
 10
232.0
 20
222.0
 30
0.0
 11
232.776457
 21
224.897777
 31
0.0
  0
LINE
  5
24F
100
AcDbEntity
  8
LAY-6
  6
CONTINUOUS
 62
     1
100
AcDbLine
 10
232.0
 20
257.0
 30
0.0
 11
232.776457
 21
254.102223
 31
0.0
  0
LINE
  5
250
100
AcDbEntity
  8
LAY-6
  6
CONTINUOUS
 62
     1
100
AcDbLine
 10
232.0
 20
257.0
 30
0.0
 11
231.223543
 21
254.102223
 31
0.0
  0
LINE
  5
251
100
AcDbEntity
  8
LAY-6
  6
CONTINUOUS
 62
     1
100
AcDbLine
 10
211.1
 20
200.0
 30
0.0
 11
233.5
 21
200.0
 31
0.0
  0
TEXT
  5
252
100
AcDbEntity
  8
LAY-6
  6
CONTINUOUS
 62
     2
100
AcDbText
 10
231.5
 20
207.0
 30
0.0
 40
5.0
  1
２２
 50
90.0
 41
0.672
  7
EXCADSTD
 72
     5
 11
231.5
 21
214.3328
 31
0.0
100
AcDbText
  0
TEXT
  5
253
100
AcDbEntity
  8
LAY-6
  6
CONTINUOUS
 62
     2
100
AcDbText
 10
231.5
 20
235.5
 30
0.0
 40
5.0
  1
３５
 50
90.0
 41
0.672
  7
EXCADSTD
 72
     5
 11
231.5
 21
242.8328
 31
0.0
100
AcDbText
  0
POLYLINE
  5
254
100
AcDbEntity
  8
LAY-6
  6
CONTINUOUS
 62
     1
100
AcDb2dPolyline
 66
     1
 10
0.0
 20
0.0
 30
0.0
 70
   128
  0
VERTEX
  5
255
100
AcDbEntity
  8
LAY-6
  6
CONTINUOUS
 62
     1
100
AcDbVertex
100
AcDb2dVertex
 10
379.999992
 20
229.7
 30
0.0
  0
VERTEX
  5
256
100
AcDbEntity
  8
LAY-6
  6
CONTINUOUS
 62
     1
100
AcDbVertex
100
AcDb2dVertex
 10
367.336528
 20
219.700045
 30
0.0
  0
VERTEX
  5
257
100
AcDbEntity
  8
LAY-6
  6
CONTINUOUS
 62
     1
100
AcDbVertex
100
AcDb2dVertex
 10
334.480258
 20
219.700045
 30
0.0
  0
SEQEND
  5
258
100
AcDbEntity
  8
LAY-6
  6
CONTINUOUS
 62
     1
  0
CIRCLE
  5
259
100
AcDbEntity
  8
LAY-6
  6
CONTINUOUS
 62
     1
100
AcDbCircle
 10
379.999992
 20
229.7
 30
0.0
 40
1.0
  0
CIRCLE
  5
25A
100
AcDbEntity
  8
LAY-6
  6
CONTINUOUS
 62
     1
100
AcDbCircle
 10
379.999992
 20
229.7
 30
0.0
 40
0.5
  0
LINE
  5
25B
100
AcDbEntity
  8
LAY-6
  6
CONTINUOUS
 62
     1
100
AcDbLine
 10
401.999992
 20
289.6
 30
0.0
 11
401.999992
 21
291.2
 31
0.0
  0
LINE
  5
25C
100
AcDbEntity
  8
LAY-6
  6
CONTINUOUS
 62
     1
100
AcDbLine
 10
401.999992
 20
289.7
 30
0.0
 11
411.999992
 21
289.7
 31
0.0
  0
LINE
  5
25D
100
AcDbEntity
  8
LAY-6
  6
CONTINUOUS
 62
     1
100
AcDbLine
 10
401.999992
 20
289.7
 30
0.0
 11
404.89777
 21
290.476457
 31
0.0
  0
LINE
  5
25E
100
AcDbEntity
  8
LAY-6
  6
CONTINUOUS
 62
     1
100
AcDbLine
 10
401.999992
 20
289.7
 30
0.0
 11
404.89777
 21
288.923543
 31
0.0
  0
LINE
  5
25F
100
AcDbEntity
  8
LAY-6
  6
CONTINUOUS
 62
     1
100
AcDbLine
 10
411.999992
 20
289.7
 30
0.0
 11
409.102215
 21
288.923543
 31
0.0
  0
LINE
  5
260
100
AcDbEntity
  8
LAY-6
  6
CONTINUOUS
 62
     1
100
AcDbLine
 10
411.999992
 20
289.7
 30
0.0
 11
409.102215
 21
290.476457
 31
0.0
  0
LINE
  5
261
100
AcDbEntity
  8
LAY-6
  6
CONTINUOUS
 62
     1
100
AcDbLine
 10
411.999992
 20
289.7
 30
0.0
 11
436.999992
 21
289.7
 31
0.0
  0
LINE
  5
262
100
AcDbEntity
  8
LAY-6
  6
CONTINUOUS
 62
     1
100
AcDbLine
 10
411.999992
 20
289.7
 30
0.0
 11
414.89777
 21
290.476457
 31
0.0
  0
LINE
  5
263
100
AcDbEntity
  8
LAY-6
  6
CONTINUOUS
 62
     1
100
AcDbLine
 10
411.999992
 20
289.7
 30
0.0
 11
414.89777
 21
288.923543
 31
0.0
  0
LINE
  5
264
100
AcDbEntity
  8
LAY-6
  6
CONTINUOUS
 62
     1
100
AcDbLine
 10
436.999992
 20
289.7
 30
0.0
 11
434.102215
 21
288.923543
 31
0.0
  0
LINE
  5
265
100
AcDbEntity
  8
LAY-6
  6
CONTINUOUS
 62
     1
100
AcDbLine
 10
436.999992
 20
289.7
 30
0.0
 11
434.102215
 21
290.476457
 31
0.0
  0
LINE
  5
266
100
AcDbEntity
  8
LAY-6
  6
CONTINUOUS
 62
     1
100
AcDbLine
 10
436.999992
 20
269.7
 30
0.0
 11
436.999992
 21
291.2
 31
0.0
  0
LINE
  5
267
100
AcDbEntity
  8
LAY-6
  6
CONTINUOUS
 62
     1
100
AcDbLine
 10
411.999992
 20
269.7
 30
0.0
 11
411.999992
 21
291.2
 31
0.0
  0
TEXT
  5
268
100
AcDbEntity
  8
LAY-6
  6
CONTINUOUS
 62
     2
100
AcDbText
 10
402.999992
 20
290.2
 30
0.0
 40
5.0
  1
１０
 41
0.672
  7
EXCADSTD
 72
     5
 11
410.332792
 21
290.2
 31
0.0
100
AcDbText
  0
TEXT
  5
269
100
AcDbEntity
  8
LAY-6
  6
CONTINUOUS
 62
     2
100
AcDbText
 10
420.499992
 20
290.2
 30
0.0
 40
5.0
  1
２５
 41
0.672
  7
EXCADSTD
 72
     5
 11
427.832792
 21
290.2
 31
0.0
100
AcDbText
  0
TEXT
  5
26A
100
AcDbEntity
  8
LAY-6
  6
CONTINUOUS
 62
     2
100
AcDbText
 10
498.300018
 20
245.1
 30
0.0
 40
5.0
  1
ドア側
 41
0.672
  7
EXCADSTD
 72
     5
 11
510.300018
 21
245.1
 31
0.0
100
AcDbText
  0
LINE
  5
26B
100
AcDbEntity
  8
LAY-6
  6
CONTINUOUS
 62
     1
100
AcDbLine
 10
497.000018
 20
244.7
 30
0.0
 11
497.000018
 21
247.586751
 31
0.0
  0
LINE
  5
26C
100
AcDbEntity
  8
LAY-6
  6
CONTINUOUS
 62
     1
100
AcDbLine
 10
497.000018
 20
247.586751
 30
0.0
 11
492.000018
 21
244.7
 31
0.0
  0
LINE
  5
26D
100
AcDbEntity
  8
LAY-6
  6
CONTINUOUS
 62
     1
100
AcDbLine
 10
512.000018
 20
244.7
 30
0.0
 11
492.000018
 21
244.7
 31
0.0
  0
LINE
  5
26E
100
AcDbEntity
  8
LAY-6
  6
CONTINUOUS
 62
     1
100
AcDbLine
 10
497.000018
 20
214.7
 30
0.0
 11
497.000018
 21
217.586751
 31
0.0
  0
LINE
  5
26F
100
AcDbEntity
  8
LAY-6
  6
CONTINUOUS
 62
     1
100
AcDbLine
 10
497.000018
 20
217.586751
 30
0.0
 11
492.000018
 21
214.7
 31
0.0
  0
LINE
  5
270
100
AcDbEntity
  8
LAY-6
  6
CONTINUOUS
 62
     1
100
AcDbLine
 10
512.000018
 20
214.7
 30
0.0
 11
492.000018
 21
214.7
 31
0.0
  0
TEXT
  5
271
100
AcDbEntity
  8
LAY-6
  6
CONTINUOUS
 62
     2
100
AcDbText
 10
498.300018
 20
215.1
 30
0.0
 40
5.0
  1
枠　側
 41
0.672
  7
EXCADSTD
 72
     5
 11
510.300018
 21
215.1
 31
0.0
100
AcDbText
  0
ARC
  5
272
100
AcDbEntity
  8
LAY-9
  6
CONTINUOUS
 62
     1
100
AcDbCircle
 10
198.6
 20
260.4
 30
0.0
 40
1.6
100
AcDbArc
 50
90.0
 51
180.0
  0
LINE
  5
273
100
AcDbEntity
  8
LAY-9
  6
CONTINUOUS
 62
     1
100
AcDbLine
 10
194.0
 20
264.0
 30
0.0
 11
207.4
 21
264.0
 31
0.0
  0
LINE
  5
274
100
AcDbEntity
  8
LAY-9
  6
CONTINUOUS
 62
     1
100
AcDbLine
 10
209.0
 20
265.6
 30
0.0
 11
209.0
 21
276.7
 31
0.0
  0
ARC
  5
275
100
AcDbEntity
  8
LAY-9
  6
CONTINUOUS
 62
     1
100
AcDbCircle
 10
207.4
 20
265.6
 30
0.0
 40
1.6
100
AcDbArc
 50
270.0
 51
0.0
  0
LINE
  5
276
100
AcDbEntity
  8
LAY-9
  6
CONTINUOUS
 62
     1
100
AcDbLine
 10
194.0
 20
256.0
 30
0.0
 11
194.0
 21
264.0
 31
0.0
  0
LINE
  5
277
100
AcDbEntity
  8
LAY-9
  6
CONTINUOUS
 62
     1
100
AcDbLine
 10
154.0
 20
219.0
 30
0.0
 11
191.0
 21
219.0
 31
0.0
  0
LINE
  5
278
100
AcDbEntity
  8
LAY-9
  6
CONTINUOUS
 62
     1
100
AcDbLine
 10
154.0
 20
229.0
 30
0.0
 11
143.6
 21
229.0
 31
0.0
  0
LINE
  5
279
100
AcDbEntity
  8
LAY-9
  6
CONTINUOUS
 62
     1
100
AcDbLine
 10
154.0
 20
229.0
 30
0.0
 11
154.0
 21
219.0
 31
0.0
  0
LINE
  5
27A
100
AcDbEntity
  8
LAY-9
  6
CONTINUOUS
 62
     1
100
AcDbLine
 10
197.0
 20
257.0
 30
0.0
 11
197.0
 21
260.4
 31
0.0
  0
LINE
  5
27B
100
AcDbEntity
  8
LAY-9
  6
CONTINUOUS
 62
     1
100
AcDbLine
 10
398.999992
 20
232.2
 30
0.0
 11
398.999992
 21
227.2
 31
0.0
  0
LINE
  5
27C
100
AcDbEntity
  8
LAY-9
  6
CONTINUOUS
 62
     1
100
AcDbLine
 10
401.999992
 20
313.8
 30
0.0
 11
401.999992
 21
257.2
 31
0.0
  0
LINE
  5
27D
100
AcDbEntity
  8
LAY-9
  6
CONTINUOUS
 62
     1
100
AcDbLine
 10
398.999992
 20
313.8
 30
0.0
 11
398.999992
 21
257.2
 31
0.0
  0
LINE
  5
27E
100
AcDbEntity
  8
LAY-9
  6
CONTINUOUS
 62
     1
100
AcDbLine
 10
401.999992
 20
232.2
 30
0.0
 11
401.999992
 21
140.9
 31
0.0
  0
LINE
  5
27F
100
AcDbEntity
  8
LAY-9
  6
CONTINUOUS
 62
     1
100
AcDbLine
 10
398.999992
 20
202.2
 30
0.0
 11
398.999992
 21
140.9
 31
0.0
  0
LINE
  5
280
100
AcDbEntity
  8
LAY-9
  6
CONTINUOUS
 62
     1
100
AcDbLine
 10
441.999992
 20
313.8
 30
0.0
 11
441.999992
 21
140.9
 31
0.0
  0
LINE
  5
281
100
AcDbEntity
  8
LAY-9
  6
CONTINUOUS
 62
     1
100
AcDbLine
 10
443.999992
 20
313.8
 30
0.0
 11
443.999992
 21
140.9
 31
0.0
  0
LINE
  5
282
100
AcDbEntity
  8
LAY-9
  6
CONTINUOUS
 62
     1
100
AcDbLine
 10
198.6
 20
262.0
 30
0.0
 11
247.0
 21
262.0
 31
0.0
  0
LINE
  5
283
100
AcDbEntity
  8
LAY-9
  6
CONTINUOUS
 62
     1
100
AcDbLine
 10
200.0
 20
222.0
 30
0.0
 11
247.0
 21
222.0
 31
0.0
  0
LINE
  5
284
100
AcDbEntity
  8
LAY-10
  6
CONTINUOUS
 62
     5
100
AcDbLine
 10
583.156
 20
10.59
 30
0.0
 11
583.156
 21
408.774
 31
0.0
  0
LINE
  5
285
100
AcDbEntity
  8
LAY-10
  6
CONTINUOUS
 62
     5
100
AcDbLine
 10
10.59
 20
10.59
 30
0.0
 11
10.59
 21
408.774
 31
0.0
  0
LINE
  5
286
100
AcDbEntity
  8
LAY-10
  6
CONTINUOUS
 62
     5
100
AcDbLine
 10
10.59
 20
408.774
 30
0.0
 11
583.156
 21
408.774
 31
0.0
  0
TEXT
  5
287
100
AcDbEntity
  8
LAY-10
  6
CONTINUOUS
 62
   134
100
AcDbText
 10
14.57
 20
16.5
 30
0.0
 40
13.0
  1
日本ドアーチエック製造株式会社
 41
0.653908
  7
EXCADSTD
 72
     5
 11
166.369994
 21
16.5
 31
0.0
100
AcDbText
  0
LINE
  5
288
100
AcDbEntity
  8
LAY-10
  6
CONTINUOUS
 62
     1
100
AcDbLine
 10
170.0
 20
35.59
 30
0.0
 11
170.0
 21
10.59
 31
0.0
  0
LINE
  5
289
100
AcDbEntity
  8
LAY-10
  6
CONTINUOUS
 62
     1
100
AcDbLine
 10
195.5
 20
35.59
 30
0.0
 11
195.5
 21
10.59
 31
0.0
  0
LINE
  5
28A
100
AcDbEntity
  8
LAY-10
  6
CONTINUOUS
 62
     1
100
AcDbLine
 10
221.0
 20
35.59
 30
0.0
 11
221.0
 21
10.59
 31
0.0
  0
LINE
  5
28B
100
AcDbEntity
  8
LAY-10
  6
CONTINUOUS
 62
     1
100
AcDbLine
 10
246.5
 20
35.59
 30
0.0
 11
246.5
 21
10.59
 31
0.0
  0
LINE
  5
28C
100
AcDbEntity
  8
LAY-10
  6
CONTINUOUS
 62
     1
100
AcDbLine
 10
272.0
 20
35.59
 30
0.0
 11
272.0
 21
10.59
 31
0.0
  0
LINE
  5
28D
100
AcDbEntity
  8
LAY-10
  6
CONTINUOUS
 62
     1
100
AcDbLine
 10
323.0
 20
35.59
 30
0.0
 11
323.0
 21
10.59
 31
0.0
  0
LINE
  5
28E
100
AcDbEntity
  8
LAY-10
  6
CONTINUOUS
 62
     1
100
AcDbLine
 10
170.0
 20
27.59
 30
0.0
 11
323.0
 21
27.59
 31
0.0
  0
TEXT
  5
28F
100
AcDbEntity
  8
LAY-10
  6
CONTINUOUS
 62
     4
100
AcDbText
 10
173.5
 20
28.59
 30
0.0
 40
6.0
  1
検　  図
 41
0.57856
  7
EXCADSTD
 72
     5
 11
192.700001
 21
28.59
 31
0.0
100
AcDbText
  0
TEXT
  5
290
100
AcDbEntity
  8
LAY-10
  6
CONTINUOUS
 62
     4
100
AcDbText
 10
199.2
 20
28.59
 30
0.0
 40
6.0
  1
担　　当
 41
0.672
  7
EXCADSTD
 72
     5
 11
218.400001
 21
28.59
 31
0.0
100
AcDbText
  0
TEXT
  5
291
100
AcDbEntity
  8
LAY-10
  6
CONTINUOUS
 62
     4
100
AcDbText
 10
224.4
 20
28.59
 30
0.0
 40
6.0
  1
製　　図
 41
0.672
  7
EXCADSTD
 72
     5
 11
243.600001
 21
28.59
 31
0.0
100
AcDbText
  0
TEXT
  5
292
100
AcDbEntity
  8
LAY-10
  6
CONTINUOUS
 62
     4
100
AcDbText
 10
249.9
 20
28.59
 30
0.0
 40
6.0
  1
尺　　度
 41
0.672
  7
EXCADSTD
 72
     5
 11
269.100001
 21
28.59
 31
0.0
100
AcDbText
  0
TEXT
  5
293
100
AcDbEntity
  8
LAY-10
  6
CONTINUOUS
 62
     4
100
AcDbText
 10
285.5
 20
28.59
 30
0.0
 40
6.0
  1
作成年月日
 41
0.672
  7
EXCADSTD
 72
     5
 11
309.500001
 21
28.59
 31
0.0
100
AcDbText
  0
TEXT
  5
294
100
AcDbEntity
  8
LAY-10
  6
CONTINUOUS
 62
     4
100
AcDbText
 10
329.0
 20
28.59
 30
0.0
 40
6.0
  1
図 面 名
 41
0.57856
  7
EXCADSTD
 72
     5
 11
348.200001
 21
28.59
 31
0.0
100
AcDbText
  0
TEXT
  5
295
100
AcDbEntity
  8
LAY-10
  6
CONTINUOUS
 62
     2
100
AcDbText
 10
252.5
 20
15.79
 30
0.0
 40
6.0
  1
１／１
 41
0.672
  7
EXCADSTD
 72
     5
 11
266.900001
 21
15.79
 31
0.0
100
AcDbText
  0
LINE
  5
296
100
AcDbEntity
  8
LAY-10
  6
CONTINUOUS
 62
     1
100
AcDbLine
 10
495.156
 20
35.59
 30
0.0
 11
495.156
 21
10.59
 31
0.0
  0
TEXT
  5
297
100
AcDbEntity
  8
LAY-10
  6
CONTINUOUS
 62
     4
100
AcDbText
 10
501.156
 20
28.59
 30
0.0
 40
6.0
  1
図面番号
 41
0.672
  7
EXCADSTD
 72
     5
 11
520.356001
 21
28.59
 31
0.0
100
AcDbText
  0
LINE
  5
298
100
AcDbEntity
  8
LAY-10
  6
CONTINUOUS
 62
     5
100
AcDbLine
 10
10.59
 20
10.59
 30
0.0
 11
583.156
 21
10.59
 31
0.0
  0
LINE
  5
299
100
AcDbEntity
  8
LAY-10
  6
CONTINUOUS
 62
     5
100
AcDbLine
 10
10.59
 20
35.59
 30
0.0
 11
583.156
 21
35.59
 31
0.0
  0
LINE
  5
29A
100
AcDbEntity
  8
LAY-10
  6
CONTINUOUS
 62
     1
100
AcDbLine
 10
0.0
 20
420.0
 30
0.0
 11
19.7
 21
420.0
 31
0.0
  0
LINE
  5
29B
100
AcDbEntity
  8
LAY-10
  6
CONTINUOUS
 62
     1
100
AcDbLine
 10
0.0
 20
420.0
 30
0.0
 11
0.0
 21
399.7
 31
0.0
  0
LINE
  5
29C
100
AcDbEntity
  8
LAY-10
  6
CONTINUOUS
 62
     1
100
AcDbLine
 10
0.0
 20
0.0
 30
0.0
 11
0.0
 21
19.7
 31
0.0
  0
LINE
  5
29D
100
AcDbEntity
  8
LAY-10
  6
CONTINUOUS
 62
     1
100
AcDbLine
 10
0.0
 20
0.0
 30
0.0
 11
20.3
 21
0.0
 31
0.0
  0
LINE
  5
29E
100
AcDbEntity
  8
LAY-10
  6
CONTINUOUS
 62
     1
100
AcDbLine
 10
594.0
 20
420.0
 30
0.0
 11
594.0
 21
400.3
 31
0.0
  0
LINE
  5
29F
100
AcDbEntity
  8
LAY-10
  6
CONTINUOUS
 62
     1
100
AcDbLine
 10
594.0
 20
420.0
 30
0.0
 11
573.7
 21
420.0
 31
0.0
  0
LINE
  5
2A0
100
AcDbEntity
  8
LAY-10
  6
CONTINUOUS
 62
     1
100
AcDbLine
 10
594.0
 20
0.0
 30
0.0
 11
574.3
 21
0.0
 31
0.0
  0
LINE
  5
2A1
100
AcDbEntity
  8
LAY-10
  6
CONTINUOUS
 62
     1
100
AcDbLine
 10
594.0
 20
0.0
 30
0.0
 11
594.0
 21
20.3
 31
0.0
  0
TEXT
  5
2A2
100
AcDbEntity
  8
LAY-10
  6
CONTINUOUS
 62
     2
100
AcDbText
 10
278.6
 20
15.79
 30
0.0
 40
6.0
  1
Ｈ１４.　６.　１
 41
0.622617
  7
EXCADSTD
 72
     5
 11
317.000002
 21
15.79
 31
0.0
100
AcDbText
  0
TEXT
  5
2A3
100
AcDbEntity
  8
LAY-10
  6
CONTINUOUS
 62
     2
100
AcDbText
 10
330.828367
 20
15.864519
 30
0.0
 40
10.0
  1
ピボットヒンジ　中間吊り金具　6C用
 41
0.567086
  7
EXCADSTD
 72
     5
 11
449.828367
 21
15.864519
 31
0.0
100
AcDbText
  0
ENDSEC
  0
SECTION
  2
OBJECTS
  0
DICTIONARY
  5
19
100
AcDbDictionary
  3
ACAD_GROUP
350
1A
  3
ACAD_MLINESTYLE
350
1B
  0
DICTIONARY
  5
1A
102
{ACAD_REACTORS
330
19
102
}
100
AcDbDictionary
  0
DICTIONARY
  5
1B
102
{ACAD_REACTORS
330
19
102
}
100
AcDbDictionary
  3
STANDARD
350
1C
  0
MLINESTYLE
  5
1C
102
{ACAD_REACTORS
330
1B
102
}
100
AcDbMlineStyle
  2
Standard
 70
     0
  3

 62
     0
 51
90.0
 52
90.0
 71
     2
 49
0.5
 62
   256
  6
ByLayer
 49
-0.5
 62
   256
  6
ByLayer
  0
ENDSEC
  0
EOF
