  0
SECTION
  2
HEADER
  9
$ACADVER
  1
AC1014
  9
$ACADMAINTVER
 70
     0
  9
$DWGCODEPAGE
  3
ANSI_932
  9
$INSBASE
 10
0.0
 20
0.0
 30
0.0
  9
$EXTMIN
 10
0.0
 20
0.0
 30
0.0
  9
$EXTMAX
 10
594.0
 20
420.0
 30
0.0
  9
$LIMMIN
 10
0.0
 20
0.0
  9
$LIMMAX
 10
594.0
 20
420.0
  9
$ORTHOMODE
 70
     0
  9
$REGENMODE
 70
     1
  9
$FILLMODE
 70
     1
  9
$QTEXTMODE
 70
     0
  9
$MIRRTEXT
 70
     1
  9
$DRAGMODE
 70
     2
  9
$LTSCALE
 40
1.0
  9
$OSMODE
 70
     0
  9
$ATTMODE
 70
     1
  9
$TEXTSIZE
 40
0.2
  9
$TRACEWID
 40
0.05
  9
$TEXTSTYLE
  7
STANDARD
  9
$CLAYER
  8
LAY-6
  9
$CELTYPE
  6
CONTINUOUS
  9
$CECOLOR
 62
   256
  9
$CELTSCALE
 40
1.0
  9
$DELOBJ
 70
     1
  9
$DISPSILH
 70
     0
  9
$DIMSCALE
 40
1.0
  9
$DIMASZ
 40
0.18
  9
$DIMEXO
 40
0.0625
  9
$DIMDLI
 40
0.38
  9
$DIMRND
 40
0.0
  9
$DIMDLE
 40
0.0
  9
$DIMEXE
 40
0.18
  9
$DIMTP
 40
0.0
  9
$DIMTM
 40
0.0
  9
$DIMTXT
 40
0.18
  9
$DIMCEN
 40
0.09
  9
$DIMTSZ
 40
0.0
  9
$DIMTOL
 70
     0
  9
$DIMLIM
 70
     0
  9
$DIMTIH
 70
     1
  9
$DIMTOH
 70
     1
  9
$DIMSE1
 70
     0
  9
$DIMSE2
 70
     0
  9
$DIMTAD
 70
     0
  9
$DIMZIN
 70
     0
  9
$DIMBLK
  1

  9
$DIMASO
 70
     1
  9
$DIMSHO
 70
     1
  9
$DIMPOST
  1

  9
$DIMAPOST
  1

  9
$DIMALT
 70
     0
  9
$DIMALTD
 70
     2
  9
$DIMALTF
 40
25.4
  9
$DIMLFAC
 40
1.0
  9
$DIMTOFL
 70
     0
  9
$DIMTVP
 40
0.0
  9
$DIMTIX
 70
     0
  9
$DIMSOXD
 70
     0
  9
$DIMSAH
 70
     0
  9
$DIMBLK1
  1

  9
$DIMBLK2
  1

  9
$DIMSTYLE
  2
STANDARD
  9
$DIMCLRD
 70
     0
  9
$DIMCLRE
 70
     0
  9
$DIMCLRT
 70
     0
  9
$DIMTFAC
 40
1.0
  9
$DIMGAP
 40
0.09
  9
$DIMJUST
 70
     0
  9
$DIMSD1
 70
     0
  9
$DIMSD2
 70
     0
  9
$DIMTOLJ
 70
     1
  9
$DIMTZIN
 70
     0
  9
$DIMALTZ
 70
     0
  9
$DIMALTTZ
 70
     0
  9
$DIMFIT
 70
     3
  9
$DIMUPT
 70
     0
  9
$DIMUNIT
 70
     2
  9
$DIMDEC
 70
     4
  9
$DIMTDEC
 70
     4
  9
$DIMALTU
 70
     2
  9
$DIMALTTD
 70
     2
  9
$DIMTXSTY
  7
STANDARD
  9
$DIMAUNIT
 70
     0
  9
$LUNITS
 70
     2
  9
$LUPREC
 70
     4
  9
$SKETCHINC
 40
0.1
  9
$FILLETRAD
 40
0.0
  9
$AUNITS
 70
     0
  9
$AUPREC
 70
     0
  9
$MENU
  1
acad
  9
$ELEVATION
 40
0.0
  9
$PELEVATION
 40
0.0
  9
$THICKNESS
 40
0.0
  9
$LIMCHECK
 70
     0
  9
$BLIPMODE
 70
     1
  9
$CHAMFERA
 40
0.0
  9
$CHAMFERB
 40
0.0
  9
$CHAMFERC
 40
0.0
  9
$CHAMFERD
 40
0.0
  9
$SKPOLY
 70
     0
  9
$TDCREATE
 40
2454542.074481099
  9
$TDUPDATE
 40
2454542.074481099
  9
$TDINDWG
 40
0.0000000000
  9
$TDUSRTIMER
 40
0.0000000000
  9
$USRTIMER
 70
     1
  9
$ANGBASE
 50
0.0
  9
$ANGDIR
 70
     0
  9
$PDMODE
 70
     0
  9
$PDSIZE
 40
0.0
  9
$PLINEWID
 40
0.0
  9
$COORDS
 70
     1
  9
$SPLFRAME
 70
     0
  9
$SPLINETYPE
 70
     6
  9
$SPLINESEGS
 70
     8
  9
$ATTDIA
 70
     0
  9
$ATTREQ
 70
     1
  9
$HANDLING
 70
     1
  9
$HANDSEED
  5
29F
  9
$SURFTAB1
 70
     6
  9
$SURFTAB2
 70
     6
  9
$SURFTYPE
 70
     6
  9
$SURFU
 70
     6
  9
$SURFV
 70
     6
  9
$UCSNAME
  2

  9
$UCSORG
 10
0.0
 20
0.0
 30
0.0
  9
$UCSXDIR
 10
1.0
 20
0.0
 30
0.0
  9
$UCSYDIR
 10
0.0
 20
1.0
 30
0.0
  9
$PUCSNAME
  2

  9
$PUCSORG
 10
0.0
 20
0.0
 30
0.0
  9
$PUCSXDIR
 10
1.0
 20
0.0
 30
0.0
  9
$PUCSYDIR
 10
0.0
 20
1.0
 30
0.0
  9
$USERI1
 70
     0
  9
$USERI2
 70
     0
  9
$USERI3
 70
     0
  9
$USERI4
 70
     0
  9
$USERI5
 70
     0
  9
$USERR1
 40
0.0
  9
$USERR2
 40
0.0
  9
$USERR3
 40
0.0
  9
$USERR4
 40
0.0
  9
$USERR5
 40
0.0
  9
$WORLDVIEW
 70
     1
  9
$SHADEDGE
 70
     3
  9
$SHADEDIF
 70
    70
  9
$TILEMODE
 70
     1
  9
$MAXACTVP
 70
    16
  9
$PINSBASE
 10
0.0
 20
0.0
 30
0.0
  9
$PLIMCHECK
 70
     0
  9
$PEXTMIN
 10
1.000000E+20
 20
1.000000E+20
 30
1.000000E+20
  9
$PEXTMAX
 10
-1.000000E+20
 20
-1.000000E+20
 30
-1.000000E+20
  9
$PLIMMIN
 10
0.0
 20
0.0
  9
$PLIMMAX
 10
12.0
 20
9.0
  9
$UNITMODE
 70
     0
  9
$VISRETAIN
 70
     0
  9
$PLINEGEN
 70
     1
  9
$PSLTSCALE
 70
     0
  9
$TREEDEPTH
 70
  3020
  9
$PICKSTYLE
 70
     1
  9
$CMLSTYLE
  2
Standard
  9
$CMLJUST
 70
     0
  9
$CMLSCALE
 40
1.0
  9
$PROXYGRAPHICS
 70
     0
  9
$MEASUREMENT
 70
     0
  0
ENDSEC
  0
SECTION
  2
CLASSES
  0
CLASS
  1
LWPOLYLINE
  2
AcDbPolyline
  3
"AutoCAD"
 90
        0
280
     0
281
     1
  0
CLASS
  1
IMAGE
  2
AcDbRasterImage
  3
ISM
 90
      127
280
     0
281
     1
  0
CLASS
  1
OLE2FRAME
  2
AcDbOle2Frame
  3
""
 90
        0
280
     0
281
     1
  0
CLASS
  1
HATCH
  2
AcDbHatch
  3
"ACAD_SEDONA"
 90
        0
280
     0
281
     1
  0
CLASS
  1
DICTIONARYVAR
  2
AcDbDictionaryVar
  3
"AutoCAD"
 90
        0
280
     0
281
     0
  0
CLASS
  1
RASTERVARIABLES
  2
AcDbRasterVariables
  3
ISM
 90
        0
280
     0
281
     0
  0
CLASS
  1
IMAGEDEF
  2
AcDbRasterImageDef
  3
ISM
 90
        0
280
     0
281
     0
  0
CLASS
  1
IMAGEDEF_REACTOR
  2
AcDbRasterImageDefReactor
  3
ISM
 90
        1
280
     0
281
     0
  0
CLASS
  1
IDBUFFER
  2
AcDbIdBuffer
  3
"Acad"
 90
        0
280
     0
281
     0
  0
CLASS
  1
SPATIAL_FILTER
  2
AcDbSpatialFilter
  3
"Acad"
 90
        0
280
     0
281
     0
  0
CLASS
  1
XRECORD
  2
AcDbXrecord
  3
"<Built In>"
 90
        0
280
     0
281
     0
  0
CLASS
  1
SORTENTSTABLE
  2
AcDbSortentsTable
  3
"AutoCAD"
 90
        0
280
     0
281
     0
  0
CLASS
  1
LAYER_INDEX
  2
AcDbLayerIndex
  3
"Acad"
 90
        0
280
     0
281
     0
  0
CLASS
  1
SPATIAL_INDEX
  2
AcDbSpatialIndex
  3
"Acad"
 90
        0
280
     0
281
     0
  0
CLASS
  1
OBJECT_PTR
  2
CAseDLPNTableRecord
  3
"ASE-LPNTableRecord"
 90
        1
280
     0
281
     0
  0
CLASS
  1
LAYOUT
  2
AcDbLayout
  3
"AutoCAD 2000"
 90
        0
280
     0
281
     0
  0
CLASS
  1
PLOTSETTINGS
  2
AcDbPlotSettings
  3
"AutoCAD 2000"
 90
        0
280
     0
281
     0
  0
CLASS
  1
ACDBDICTIONARYWDFLT
  2
AcDbDictionaryWithDefault
  3
"AutoCAD 2000"
 90
        0
280
     0
281
     0
  0
CLASS
  1
ACDBPLACEHOLDER
  2
AcDbPlaceHolder
  3
"AutoCAD 2000"
 90
        0
280
     0
281
     0
  0
CLASS
  1
VBA_PROJECT
  2
AcDbVbaProject
  3
"acadvba"
 90
        0
280
     0
281
     0
  0
CLASS
  1
WIPEOUT
  2
AcDbWipeout
  3
WipeOut|AutoCAD Express Tool|expresstools@autodesk.com
 90
      127
280
     0
281
     1
  0
CLASS
  1
WIPEOUTVARIABLES
  2
AcDbWipeoutVariables
  3
WipeOut|AutoCAD Express Tool|expresstools@autodesk.com
 90
        0
280
     0
281
     0
  0
CLASS
  1
RTEXT
  2
RText
  3
RText|AutoCAD Express Tool|expresstools@autodesk.com
 90
        0
280
     0
281
     1
  0
CLASS
  1
ARCALIGNEDTEXT
  2
AcDbArcAlignedText
  3
ATEXT|AutoCAD Express Tool|expresstools@autodesk.com
 90
        0
280
     0
281
     1
  0
ENDSEC
  0
SECTION
  2
TABLES
  0
TABLE
  2
VPORT
  5
7
100
AcDbSymbolTable
 70
     1
  0
VPORT
  5
15
100
AcDbSymbolTableRecord
100
AcDbViewportTableRecord
  2
*ACTIVE
 70
     0
 10
0.0
 20
0.0
 11
1.0
 21
1.0
 12
297.0
 22
210.0
 13
0.0
 23
0.0
 14
1.0
 24
1.0
 15
0.0
 25
0.0
 16
0.0
 26
0.0
 36
1.0
 17
0.0
 27
0.0
 37
0.0
 40
420.0
 41
1.722533
 42
50.0
 43
0.0
 44
0.0
 50
0.0
 51
0.0
 71
     0
 72
   100
 73
     1
 74
     1
 75
     0
 76
     0
 77
     0
 78
     0
  0
ENDTAB
  0
TABLE
  2
LTYPE
  5
4
100
AcDbSymbolTable
 70
     9
  0
LTYPE
  5
11
100
AcDbSymbolTableRecord
100
AcDbLinetypeTableRecord
  2
BYBLOCK
 70
    64
  3

 72
    65
 73
     0
 40
0.0
  0
LTYPE
  5
12
100
AcDbSymbolTableRecord
100
AcDbLinetypeTableRecord
  2
BYLAYER
 70
    64
  3

 72
    65
 73
     0
 40
0.0
  0
LTYPE
  5
13
100
AcDbSymbolTableRecord
100
AcDbLinetypeTableRecord
  2
CONTINUOUS
 70
    64
  3
実線
 72
    65
 73
     0
 40
0.0
  0
LTYPE
  5
1D
100
AcDbSymbolTableRecord
100
AcDbLinetypeTableRecord
  2
DASHED
 70
    64
  3
Dashed __ __ __ __ __ __ __ __ __ __ __ __ __ _
 72
    65
 73
     2
 40
19.05
 49
12.7
 74
     0
 49
-6.35
 74
     0
  0
LTYPE
  5
1E
100
AcDbSymbolTableRecord
100
AcDbLinetypeTableRecord
  2
DASHED2
 70
    64
  3
Dashed (.5x) _ _ _ _ _ _ _ _ _ _ _ _ _ _ _ _ _ 
 72
    65
 73
     2
 40
9.525
 49
6.35
 74
     0
 49
-3.175
 74
     0
  0
LTYPE
  5
1F
100
AcDbSymbolTableRecord
100
AcDbLinetypeTableRecord
  2
DASHDOT
 70
    64
  3
Dash dot __ . __ . __ . __ . __ . __ . __ . __
 72
    65
 73
     4
 40
25.4
 49
12.7
 74
     0
 49
-6.35
 74
     0
 49
0.0
 74
     0
 49
-6.35
 74
     0
  0
LTYPE
  5
20
100
AcDbSymbolTableRecord
100
AcDbLinetypeTableRecord
  2
DIVIDE
 70
    64
  3
Divide ____ . . ____ . . ____ . . ____ . . ____
 72
    65
 73
     6
 40
31.75
 49
12.7
 74
     0
 49
-6.35
 74
     0
 49
0.0
 74
     0
 49
-6.35
 74
     0
 49
0.0
 74
     0
 49
-6.35
 74
     0
  0
LTYPE
  5
21
100
AcDbSymbolTableRecord
100
AcDbLinetypeTableRecord
  2
ACAD_ISO06W100
 70
    64
  3
ISO long-dash triple-dot ____ ... ____ ... ____
 72
    65
 73
     8
 40
36.0
 49
24.0
 74
     0
 49
-3.0
 74
     0
 49
0.0
 74
     0
 49
-3.0
 74
     0
 49
0.0
 74
     0
 49
-3.0
 74
     0
 49
0.0
 74
     0
 49
-3.0
 74
     0
  0
LTYPE
  5
22
100
AcDbSymbolTableRecord
100
AcDbLinetypeTableRecord
  2
ACAD_ISO15W100
 70
    64
  3
ISO double-dash triple-dot __ __ . . . __ __ . .
 72
    65
 73
    10
 40
39.0
 49
12.0
 74
     0
 49
-3.0
 74
     0
 49
12.0
 74
     0
 49
-3.0
 74
     0
 49
0.0
 74
     0
 49
-3.0
 74
     0
 49
0.0
 74
     0
 49
-3.0
 74
     0
 49
0.0
 74
     0
 49
-3.0
 74
     0
  0
ENDTAB
  0
TABLE
  2
LAYER
  5
2
100
AcDbSymbolTable
 70
     6
  0
LAYER
  5
14
100
AcDbSymbolTableRecord
100
AcDbLayerTableRecord
  2
0
 70
     0
 62
     7
  6
CONTINUOUS
  0
LAYER
  5
25
100
AcDbSymbolTableRecord
100
AcDbLayerTableRecord
  2
LAY-1
 70
    64
 62
     3
  6
CONTINUOUS
  0
LAYER
  5
26
100
AcDbSymbolTableRecord
100
AcDbLayerTableRecord
  2
LAY-5
 70
    64
 62
     1
  6
DASHDOT
  0
LAYER
  5
27
100
AcDbSymbolTableRecord
100
AcDbLayerTableRecord
  2
LAY-6
 70
    64
 62
     2
  6
CONTINUOUS
  0
LAYER
  5
28
100
AcDbSymbolTableRecord
100
AcDbLayerTableRecord
  2
LAY-9
 70
    64
 62
     1
  6
CONTINUOUS
  0
LAYER
  5
29
100
AcDbSymbolTableRecord
100
AcDbLayerTableRecord
  2
LAY-10
 70
    64
 62
     5
  6
CONTINUOUS
  0
ENDTAB
  0
TABLE
  2
STYLE
  5
3
100
AcDbSymbolTable
 70
     3
  0
STYLE
  5
17
100
AcDbSymbolTableRecord
100
AcDbTextStyleTableRecord
  2
STANDARD
 70
     0
 40
0.0
 41
1.0
 50
0.0
 71
     0
 42
0.0
  3
monotxt
  4
extfont
  0
STYLE
  5
23
100
AcDbSymbolTableRecord
100
AcDbTextStyleTableRecord
  2
EXCADSTD
 70
    64
 40
0.0
 41
1.0
 50
0.0
 71
     0
 42
0.2
  3
monotxt
  4
extfont
  0
STYLE
  5
24
100
AcDbSymbolTableRecord
100
AcDbTextStyleTableRecord
  2
EXCADVERT
 70
    68
 40
0.0
 41
1.0
 50
0.0
 71
     0
 42
0.286885
  3
monotxt
  4
extfont
  0
ENDTAB
  0
TABLE
  2
VIEW
  5
5
100
AcDbSymbolTable
 70
     0
  0
ENDTAB
  0
TABLE
  2
UCS
  5
6
100
AcDbSymbolTable
 70
     0
  0
ENDTAB
  0
TABLE
  2
APPID
  5
8
100
AcDbSymbolTable
 70
     1
  0
APPID
  5
16
100
AcDbSymbolTableRecord
100
AcDbRegAppTableRecord
  2
ACAD
 70
     0
  0
ENDTAB
  0
TABLE
  2
DIMSTYLE
  5
9
100
AcDbSymbolTable
 70
     1
  0
DIMSTYLE
105
18
100
AcDbSymbolTableRecord
100
AcDbDimStyleTableRecord
  2
STANDARD
 70
     0
  3

  4

  5

  6

  7

 40
1.0
 41
0.18
 42
0.0625
 43
0.38
 44
0.18
 45
0.0
 46
0.0
 47
0.0
 48
0.0
 71
     0
 72
     0
 73
     1
 74
     1
 75
     0
 76
     0
 77
     0
 78
     0
140
0.18
141
0.09
142
0.0
143
25.4
144
1.0
145
0.0
146
1.0
147
0.09
170
     0
171
     2
172
     1
173
     0
174
     0
175
     0
176
     0
177
     0
178
     0
270
     2
271
     4
272
     4
273
     2
274
     2
275
     0
280
     0
281
     0
282
     0
283
     1
284
     0
285
     0
286
     0
287
     3
288
     0
340
17
  0
ENDTAB
  0
TABLE
  2
BLOCK_RECORD
  5
1
100
AcDbSymbolTable
 70
    14
  0
BLOCK_RECORD
  5
A
100
AcDbSymbolTableRecord
100
AcDbBlockTableRecord
  2
*MODEL_SPACE
  0
BLOCK_RECORD
  5
B
100
AcDbSymbolTableRecord
100
AcDbBlockTableRecord
  2
*PAPER_SPACE
  0
BLOCK_RECORD
  5
2A
100
AcDbSymbolTableRecord
100
AcDbBlockTableRecord
  2
_EX_NORM
  0
BLOCK_RECORD
  5
2B
100
AcDbSymbolTableRecord
100
AcDbBlockTableRecord
  2
_EX_BNORM
  0
BLOCK_RECORD
  5
2C
100
AcDbSymbolTableRecord
100
AcDbBlockTableRecord
  2
_EX_BCIR
  0
BLOCK_RECORD
  5
2D
100
AcDbSymbolTableRecord
100
AcDbBlockTableRecord
  2
_EX_RCIVIL
  0
BLOCK_RECORD
  5
2E
100
AcDbSymbolTableRecord
100
AcDbBlockTableRecord
  2
_EX_SLANT
  0
BLOCK_RECORD
  5
2F
100
AcDbSymbolTableRecord
100
AcDbBlockTableRecord
  2
_EX_NONE
  0
BLOCK_RECORD
  5
30
100
AcDbSymbolTableRecord
100
AcDbBlockTableRecord
  2
_EX_CIVIL
  0
BLOCK_RECORD
  5
31
100
AcDbSymbolTableRecord
100
AcDbBlockTableRecord
  2
_EX_WCIR
  0
BLOCK_RECORD
  5
32
100
AcDbSymbolTableRecord
100
AcDbBlockTableRecord
  2
_EX_WCIR2
  0
BLOCK_RECORD
  5
33
100
AcDbSymbolTableRecord
100
AcDbBlockTableRecord
  2
_EX_WNORM
  0
BLOCK_RECORD
  5
34
100
AcDbSymbolTableRecord
100
AcDbBlockTableRecord
  2
_EX_NNORM
  0
BLOCK_RECORD
  5
35
100
AcDbSymbolTableRecord
100
AcDbBlockTableRecord
  2
_EX_BBOX
  0
BLOCK_RECORD
  5
36
100
AcDbSymbolTableRecord
100
AcDbBlockTableRecord
  2
_EX_WBOX
  0
BLOCK_RECORD
  5
37
100
AcDbSymbolTableRecord
100
AcDbBlockTableRecord
  2
_EX_INTEGRAL
  0
ENDTAB
  0
ENDSEC
  0
SECTION
  2
BLOCKS
  0
BLOCK
  5
D
100
AcDbEntity
  8
0
100
AcDbBlockBegin
  2
*MODEL_SPACE
 70
     0
 10
0.0
 20
0.0
 30
0.0
  3
*MODEL_SPACE
  1

  0
ENDBLK
  5
E
100
AcDbEntity
  8
0
100
AcDbBlockEnd
  0
BLOCK
  5
F
100
AcDbEntity
 67
     1
  8
0
100
AcDbBlockBegin
  2
*PAPER_SPACE
 70
     0
 10
0.0
 20
0.0
 30
0.0
  3
*PAPER_SPACE
  1

  0
ENDBLK
  5
10
100
AcDbEntity
 67
     1
  8
0
100
AcDbBlockEnd
  0
BLOCK
  5
38
100
AcDbEntity
  8
0
100
AcDbBlockBegin
  2
_EX_NORM
 70
     0
 10
0.0
 20
0.0
 30
0.0
  3
_EX_NORM
  1

  0
LINE
  5
39
100
AcDbEntity
  8
0
  6
CONTINUOUS
 62
     0
100
AcDbLine
 10
0.0
 20
0.0
 30
0.0
 11
-1.0
 21
0.0
 31
0.0
  0
LINE
  5
3A
100
AcDbEntity
  8
0
  6
CONTINUOUS
 62
     0
100
AcDbLine
 10
0.0
 20
0.0
 30
0.0
 11
-1.0
 21
0.166667
 31
0.0
  0
LINE
  5
3B
100
AcDbEntity
  8
0
  6
CONTINUOUS
 62
     0
100
AcDbLine
 10
0.0
 20
0.0
 30
0.0
 11
-1.0
 21
-0.166667
 31
0.0
  0
ENDBLK
  5
3C
100
AcDbEntity
  8
0
100
AcDbBlockEnd
  0
BLOCK
  5
3D
100
AcDbEntity
  8
0
100
AcDbBlockBegin
  2
_EX_BNORM
 70
     0
 10
0.0
 20
0.0
 30
0.0
  3
_EX_BNORM
  1

  0
LINE
  5
3E
100
AcDbEntity
  8
0
  6
CONTINUOUS
 62
     0
100
AcDbLine
 10
0.0
 20
0.0
 30
0.0
 11
-1.0
 21
0.0
 31
0.0
  0
LINE
  5
3F
100
AcDbEntity
  8
0
  6
CONTINUOUS
 62
     0
100
AcDbLine
 10
0.0
 20
0.0
 30
0.0
 11
-1.0
 21
0.166667
 31
0.0
  0
LINE
  5
40
100
AcDbEntity
  8
0
  6
CONTINUOUS
 62
     0
100
AcDbLine
 10
0.0
 20
0.0
 30
0.0
 11
-1.0
 21
-0.166667
 31
0.0
  0
LINE
  5
41
100
AcDbEntity
  8
0
  6
CONTINUOUS
 62
     0
100
AcDbLine
 10
0.0
 20
0.0
 30
0.0
 11
-1.0
 21
0.083333
 31
0.0
  0
LINE
  5
42
100
AcDbEntity
  8
0
  6
CONTINUOUS
 62
     0
100
AcDbLine
 10
0.0
 20
0.0
 30
0.0
 11
-1.0
 21
-0.083333
 31
0.0
  0
LINE
  5
43
100
AcDbEntity
  8
0
  6
CONTINUOUS
 62
     0
100
AcDbLine
 10
-1.0
 20
0.166667
 30
0.0
 11
-1.0
 21
-0.166667
 31
0.0
  0
ENDBLK
  5
44
100
AcDbEntity
  8
0
100
AcDbBlockEnd
  0
BLOCK
  5
45
100
AcDbEntity
  8
0
100
AcDbBlockBegin
  2
_EX_BCIR
 70
     0
 10
0.0
 20
0.0
 30
0.0
  3
_EX_BCIR
  1

  0
LINE
  5
46
100
AcDbEntity
  8
0
  6
CONTINUOUS
 62
     0
100
AcDbLine
 10
0.0
 20
0.0
 30
0.0
 11
-1.0
 21
0.0
 31
0.0
  0
CIRCLE
  5
47
100
AcDbEntity
  8
0
  6
CONTINUOUS
 62
     0
100
AcDbCircle
 10
0.0
 20
0.0
 30
0.0
 40
0.5
  0
CIRCLE
  5
48
100
AcDbEntity
  8
0
  6
CONTINUOUS
 62
     0
100
AcDbCircle
 10
0.0
 20
0.0
 30
0.0
 40
0.25
  0
ENDBLK
  5
49
100
AcDbEntity
  8
0
100
AcDbBlockEnd
  0
BLOCK
  5
4A
100
AcDbEntity
  8
0
100
AcDbBlockBegin
  2
_EX_RCIVIL
 70
     0
 10
0.0
 20
0.0
 30
0.0
  3
_EX_RCIVIL
  1

  0
LINE
  5
4B
100
AcDbEntity
  8
0
  6
CONTINUOUS
 62
     0
100
AcDbLine
 10
0.0
 20
0.0
 30
0.0
 11
-1.0
 21
0.0
 31
0.0
  0
LINE
  5
4C
100
AcDbEntity
  8
0
  6
CONTINUOUS
 62
     0
100
AcDbLine
 10
-1.0
 20
-0.25
 30
0.0
 11
0.0
 21
-0.25
 31
0.0
  0
LINE
  5
4D
100
AcDbEntity
  8
0
  6
CONTINUOUS
 62
     0
100
AcDbLine
 10
-1.0
 20
-0.125
 30
0.0
 11
0.0
 21
-0.125
 31
0.0
  0
ENDBLK
  5
4E
100
AcDbEntity
  8
0
100
AcDbBlockEnd
  0
BLOCK
  5
4F
100
AcDbEntity
  8
0
100
AcDbBlockBegin
  2
_EX_SLANT
 70
     0
 10
0.0
 20
0.0
 30
0.0
  3
_EX_SLANT
  1

  0
LINE
  5
50
100
AcDbEntity
  8
0
  6
CONTINUOUS
 62
     0
100
AcDbLine
 10
0.0
 20
0.0
 30
0.0
 11
-1.0
 21
0.0
 31
0.0
  0
LINE
  5
51
100
AcDbEntity
  8
0
  6
CONTINUOUS
 62
     0
100
AcDbLine
 10
0.707107
 20
0.707107
 30
0.0
 11
-0.707107
 21
-0.707107
 31
0.0
  0
ENDBLK
  5
52
100
AcDbEntity
  8
0
100
AcDbBlockEnd
  0
BLOCK
  5
53
100
AcDbEntity
  8
0
100
AcDbBlockBegin
  2
_EX_NONE
 70
     0
 10
0.0
 20
0.0
 30
0.0
  3
_EX_NONE
  1

  0
LINE
  5
54
100
AcDbEntity
  8
0
  6
CONTINUOUS
 62
     0
100
AcDbLine
 10
0.0
 20
0.0
 30
0.0
 11
-1.0
 21
0.0
 31
0.0
  0
ENDBLK
  5
55
100
AcDbEntity
  8
0
100
AcDbBlockEnd
  0
BLOCK
  5
56
100
AcDbEntity
  8
0
100
AcDbBlockBegin
  2
_EX_CIVIL
 70
     0
 10
0.0
 20
0.0
 30
0.0
  3
_EX_CIVIL
  1

  0
LINE
  5
57
100
AcDbEntity
  8
0
  6
CONTINUOUS
 62
     0
100
AcDbLine
 10
0.0
 20
0.0
 30
0.0
 11
-1.0
 21
0.0
 31
0.0
  0
LINE
  5
58
100
AcDbEntity
  8
0
  6
CONTINUOUS
 62
     0
100
AcDbLine
 10
-1.0
 20
0.25
 30
0.0
 11
0.0
 21
0.25
 31
0.0
  0
LINE
  5
59
100
AcDbEntity
  8
0
  6
CONTINUOUS
 62
     0
100
AcDbLine
 10
-1.0
 20
0.125
 30
0.0
 11
0.0
 21
0.125
 31
0.0
  0
ENDBLK
  5
5A
100
AcDbEntity
  8
0
100
AcDbBlockEnd
  0
BLOCK
  5
5B
100
AcDbEntity
  8
0
100
AcDbBlockBegin
  2
_EX_WCIR
 70
     0
 10
0.0
 20
0.0
 30
0.0
  3
_EX_WCIR
  1

  0
LINE
  5
5C
100
AcDbEntity
  8
0
  6
CONTINUOUS
 62
     0
100
AcDbLine
 10
0.0
 20
0.0
 30
0.0
 11
-1.0
 21
0.0
 31
0.0
  0
CIRCLE
  5
5D
100
AcDbEntity
  8
0
  6
CONTINUOUS
 62
     0
100
AcDbCircle
 10
0.0
 20
0.0
 30
0.0
 40
0.5
  0
ENDBLK
  5
5E
100
AcDbEntity
  8
0
100
AcDbBlockEnd
  0
BLOCK
  5
5F
100
AcDbEntity
  8
0
100
AcDbBlockBegin
  2
_EX_WCIR2
 70
     0
 10
0.0
 20
0.0
 30
0.0
  3
_EX_WCIR2
  1

  0
LINE
  5
60
100
AcDbEntity
  8
0
  6
CONTINUOUS
 62
     0
100
AcDbLine
 10
-0.5
 20
0.0
 30
0.0
 11
-1.0
 21
0.0
 31
0.0
  0
CIRCLE
  5
61
100
AcDbEntity
  8
0
  6
CONTINUOUS
 62
     0
100
AcDbCircle
 10
0.0
 20
0.0
 30
0.0
 40
0.5
  0
ENDBLK
  5
62
100
AcDbEntity
  8
0
100
AcDbBlockEnd
  0
BLOCK
  5
63
100
AcDbEntity
  8
0
100
AcDbBlockBegin
  2
_EX_WNORM
 70
     0
 10
0.0
 20
0.0
 30
0.0
  3
_EX_WNORM
  1

  0
LINE
  5
64
100
AcDbEntity
  8
0
  6
CONTINUOUS
 62
     0
100
AcDbLine
 10
-1.0
 20
0.0
 30
0.0
 11
-1.0
 21
0.0
 31
0.0
  0
LINE
  5
65
100
AcDbEntity
  8
0
  6
CONTINUOUS
 62
     0
100
AcDbLine
 10
0.0
 20
0.0
 30
0.0
 11
-1.0
 21
0.166667
 31
0.0
  0
LINE
  5
66
100
AcDbEntity
  8
0
  6
CONTINUOUS
 62
     0
100
AcDbLine
 10
0.0
 20
0.0
 30
0.0
 11
-1.0
 21
-0.166667
 31
0.0
  0
LINE
  5
67
100
AcDbEntity
  8
0
  6
CONTINUOUS
 62
     0
100
AcDbLine
 10
-1.0
 20
0.166667
 30
0.0
 11
-1.0
 21
-0.166667
 31
0.0
  0
ENDBLK
  5
68
100
AcDbEntity
  8
0
100
AcDbBlockEnd
  0
BLOCK
  5
69
100
AcDbEntity
  8
0
100
AcDbBlockBegin
  2
_EX_NNORM
 70
     0
 10
0.0
 20
0.0
 30
0.0
  3
_EX_NNORM
  1

  0
LINE
  5
6A
100
AcDbEntity
  8
0
  6
CONTINUOUS
 62
     0
100
AcDbLine
 10
0.0
 20
0.0
 30
0.0
 11
-1.0
 21
0.0
 31
0.0
  0
LINE
  5
6B
100
AcDbEntity
  8
0
  6
CONTINUOUS
 62
     0
100
AcDbLine
 10
0.0
 20
0.0
 30
0.0
 11
-1.0
 21
0.166667
 31
0.0
  0
LINE
  5
6C
100
AcDbEntity
  8
0
  6
CONTINUOUS
 62
     0
100
AcDbLine
 10
0.0
 20
0.0
 30
0.0
 11
-1.0
 21
-0.166667
 31
0.0
  0
LINE
  5
6D
100
AcDbEntity
  8
0
  6
CONTINUOUS
 62
     0
100
AcDbLine
 10
-1.0
 20
0.166667
 30
0.0
 11
-1.0
 21
-0.166667
 31
0.0
  0
ENDBLK
  5
6E
100
AcDbEntity
  8
0
100
AcDbBlockEnd
  0
BLOCK
  5
6F
100
AcDbEntity
  8
0
100
AcDbBlockBegin
  2
_EX_BBOX
 70
     0
 10
0.0
 20
0.0
 30
0.0
  3
_EX_BBOX
  1

  0
LINE
  5
70
100
AcDbEntity
  8
0
  6
CONTINUOUS
 62
     0
100
AcDbLine
 10
0.0
 20
0.0
 30
0.0
 11
-1.0
 21
0.0
 31
0.0
  0
LINE
  5
71
100
AcDbEntity
  8
0
  6
CONTINUOUS
 62
     0
100
AcDbLine
 10
-0.5
 20
0.5
 30
0.0
 11
0.5
 21
0.5
 31
0.0
  0
LINE
  5
72
100
AcDbEntity
  8
0
  6
CONTINUOUS
 62
     0
100
AcDbLine
 10
0.5
 20
0.5
 30
0.0
 11
0.5
 21
-0.5
 31
0.0
  0
LINE
  5
73
100
AcDbEntity
  8
0
  6
CONTINUOUS
 62
     0
100
AcDbLine
 10
0.5
 20
-0.5
 30
0.0
 11
-0.5
 21
-0.5
 31
0.0
  0
LINE
  5
74
100
AcDbEntity
  8
0
  6
CONTINUOUS
 62
     0
100
AcDbLine
 10
-0.5
 20
-0.5
 30
0.0
 11
-0.5
 21
0.5
 31
0.0
  0
LINE
  5
75
100
AcDbEntity
  8
0
  6
CONTINUOUS
 62
     0
100
AcDbLine
 10
-0.25
 20
0.25
 30
0.0
 11
0.25
 21
0.25
 31
0.0
  0
LINE
  5
76
100
AcDbEntity
  8
0
  6
CONTINUOUS
 62
     0
100
AcDbLine
 10
0.25
 20
0.25
 30
0.0
 11
0.25
 21
-0.25
 31
0.0
  0
LINE
  5
77
100
AcDbEntity
  8
0
  6
CONTINUOUS
 62
     0
100
AcDbLine
 10
0.25
 20
-0.25
 30
0.0
 11
-0.25
 21
-0.25
 31
0.0
  0
LINE
  5
78
100
AcDbEntity
  8
0
  6
CONTINUOUS
 62
     0
100
AcDbLine
 10
-0.25
 20
-0.25
 30
0.0
 11
-0.25
 21
0.25
 31
0.0
  0
ENDBLK
  5
79
100
AcDbEntity
  8
0
100
AcDbBlockEnd
  0
BLOCK
  5
7A
100
AcDbEntity
  8
0
100
AcDbBlockBegin
  2
_EX_WBOX
 70
     0
 10
0.0
 20
0.0
 30
0.0
  3
_EX_WBOX
  1

  0
LINE
  5
7B
100
AcDbEntity
  8
0
  6
CONTINUOUS
 62
     0
100
AcDbLine
 10
-0.5
 20
0.0
 30
0.0
 11
-1.0
 21
0.0
 31
0.0
  0
LINE
  5
7C
100
AcDbEntity
  8
0
  6
CONTINUOUS
 62
     0
100
AcDbLine
 10
-0.5
 20
0.5
 30
0.0
 11
0.5
 21
0.5
 31
0.0
  0
LINE
  5
7D
100
AcDbEntity
  8
0
  6
CONTINUOUS
 62
     0
100
AcDbLine
 10
0.5
 20
0.5
 30
0.0
 11
0.5
 21
-0.5
 31
0.0
  0
LINE
  5
7E
100
AcDbEntity
  8
0
  6
CONTINUOUS
 62
     0
100
AcDbLine
 10
0.5
 20
-0.5
 30
0.0
 11
-0.5
 21
-0.5
 31
0.0
  0
LINE
  5
7F
100
AcDbEntity
  8
0
  6
CONTINUOUS
 62
     0
100
AcDbLine
 10
-0.5
 20
-0.5
 30
0.0
 11
-0.5
 21
0.5
 31
0.0
  0
ENDBLK
  5
80
100
AcDbEntity
  8
0
100
AcDbBlockEnd
  0
BLOCK
  5
81
100
AcDbEntity
  8
0
100
AcDbBlockBegin
  2
_EX_INTEGRAL
 70
     0
 10
0.0
 20
0.0
 30
0.0
  3
_EX_INTEGRAL
  1

  0
LINE
  5
82
100
AcDbEntity
  8
0
  6
CONTINUOUS
 62
     0
100
AcDbLine
 10
0.0
 20
0.0
 30
0.0
 11
-1.0
 21
0.0
 31
0.0
  0
ARC
  5
83
100
AcDbEntity
  8
0
  6
CONTINUOUS
 62
     0
100
AcDbCircle
 10
0.542115
 20
0.164992
 30
0.0
 40
0.56667
100
AcDbArc
 50
73.07249
 51
196.927513
  0
ARC
  5
84
100
AcDbEntity
  8
0
  6
CONTINUOUS
 62
     0
100
AcDbCircle
 10
-0.542115
 20
-0.164992
 30
0.0
 40
0.56667
100
AcDbArc
 50
253.072487
 51
16.927513
  0
ENDBLK
  5
85
100
AcDbEntity
  8
0
100
AcDbBlockEnd
  0
ENDSEC
  0
SECTION
  2
ENTITIES
  0
LINE
  5
86
100
AcDbEntity
  8
LAY-1
  6
CONTINUOUS
 62
     1
100
AcDbLine
 10
379.999992
 20
265.7
 30
0.0
 11
379.999992
 21
294.2
 31
0.0
  0
LINE
  5
87
100
AcDbEntity
  8
LAY-1
  6
CONTINUOUS
 62
     1
100
AcDbLine
 10
404.999992
 20
296.2
 30
0.0
 11
404.999992
 21
289.6
 31
0.0
  0
TEXT
  5
88
100
AcDbEntity
  8
LAY-1
  6
CONTINUOUS
 62
     2
100
AcDbText
 10
388.499992
 20
293.2
 30
0.0
 40
5.0
  1
２５
 41
0.672
  7
EXCADSTD
 72
     5
 11
395.832792
 21
293.2
 31
0.0
100
AcDbText
  0
LINE
  5
89
100
AcDbEntity
  8
LAY-1
  6
CONTINUOUS
 62
     1
100
AcDbLine
 10
379.999992
 20
292.7
 30
0.0
 11
404.999992
 21
292.7
 31
0.0
  0
LINE
  5
8A
100
AcDbEntity
  8
LAY-1
  6
CONTINUOUS
 62
     1
100
AcDbLine
 10
381.999992
 20
293.033333
 30
0.0
 11
379.999992
 21
292.7
 31
0.0
  0
LINE
  5
8B
100
AcDbEntity
  8
LAY-1
  6
CONTINUOUS
 62
     1
100
AcDbLine
 10
379.999992
 20
292.7
 30
0.0
 11
381.999992
 21
292.366667
 31
0.0
  0
LINE
  5
8C
100
AcDbEntity
  8
LAY-1
  6
CONTINUOUS
 62
     1
100
AcDbLine
 10
402.999992
 20
292.366667
 30
0.0
 11
404.999992
 21
292.7
 31
0.0
  0
LINE
  5
8D
100
AcDbEntity
  8
LAY-1
  6
CONTINUOUS
 62
     1
100
AcDbLine
 10
404.999992
 20
292.7
 30
0.0
 11
402.999992
 21
293.033333
 31
0.0
  0
LINE
  5
8E
100
AcDbEntity
  8
LAY-1
  6
CONTINUOUS
 62
     1
100
AcDbLine
 10
379.999992
 20
189.6
 30
0.0
 11
379.999992
 21
171.2
 31
0.0
  0
LINE
  5
8F
100
AcDbEntity
  8
LAY-1
  6
CONTINUOUS
 62
     1
100
AcDbLine
 10
401.999992
 20
171.9
 30
0.0
 11
401.999992
 21
174.2
 31
0.0
  0
TEXT
  5
90
100
AcDbEntity
  8
LAY-1
  6
CONTINUOUS
 62
     2
100
AcDbText
 10
386.999992
 20
173.2
 30
0.0
 40
5.0
  1
２２
 41
0.672
  7
EXCADSTD
 72
     5
 11
394.332792
 21
173.2
 31
0.0
100
AcDbText
  0
LINE
  5
91
100
AcDbEntity
  8
LAY-1
  6
CONTINUOUS
 62
     1
100
AcDbLine
 10
379.999992
 20
172.7
 30
0.0
 11
401.999992
 21
172.7
 31
0.0
  0
LINE
  5
92
100
AcDbEntity
  8
LAY-1
  6
CONTINUOUS
 62
     1
100
AcDbLine
 10
381.999992
 20
173.033333
 30
0.0
 11
379.999992
 21
172.7
 31
0.0
  0
LINE
  5
93
100
AcDbEntity
  8
LAY-1
  6
CONTINUOUS
 62
     1
100
AcDbLine
 10
379.999992
 20
172.7
 30
0.0
 11
381.999992
 21
172.366667
 31
0.0
  0
LINE
  5
94
100
AcDbEntity
  8
LAY-1
  6
CONTINUOUS
 62
     1
100
AcDbLine
 10
399.999992
 20
172.366667
 30
0.0
 11
401.999992
 21
172.7
 31
0.0
  0
LINE
  5
95
100
AcDbEntity
  8
LAY-1
  6
CONTINUOUS
 62
     1
100
AcDbLine
 10
401.999992
 20
172.7
 30
0.0
 11
399.999992
 21
173.033333
 31
0.0
  0
LINE
  5
96
100
AcDbEntity
  8
LAY-1
  6
CONTINUOUS
 62
     1
100
AcDbLine
 10
439.999992
 20
196.2
 30
0.0
 11
439.999992
 21
171.2
 31
0.0
  0
TEXT
  5
97
100
AcDbEntity
  8
LAY-1
  6
CONTINUOUS
 62
     2
100
AcDbText
 10
416.999992
 20
173.2
 30
0.0
 40
5.0
  1
３８
 41
0.672
  7
EXCADSTD
 72
     5
 11
424.332792
 21
173.2
 31
0.0
100
AcDbText
  0
LINE
  5
98
100
AcDbEntity
  8
LAY-1
  6
CONTINUOUS
 62
     1
100
AcDbLine
 10
401.999992
 20
172.7
 30
0.0
 11
439.999992
 21
172.7
 31
0.0
  0
LINE
  5
99
100
AcDbEntity
  8
LAY-1
  6
CONTINUOUS
 62
     1
100
AcDbLine
 10
403.999992
 20
173.033333
 30
0.0
 11
401.999992
 21
172.7
 31
0.0
  0
LINE
  5
9A
100
AcDbEntity
  8
LAY-1
  6
CONTINUOUS
 62
     1
100
AcDbLine
 10
401.999992
 20
172.7
 30
0.0
 11
403.999992
 21
172.366667
 31
0.0
  0
LINE
  5
9B
100
AcDbEntity
  8
LAY-1
  6
CONTINUOUS
 62
     1
100
AcDbLine
 10
437.999992
 20
172.366667
 30
0.0
 11
439.999992
 21
172.7
 31
0.0
  0
LINE
  5
9C
100
AcDbEntity
  8
LAY-1
  6
CONTINUOUS
 62
     1
100
AcDbLine
 10
439.999992
 20
172.7
 30
0.0
 11
437.999992
 21
173.033333
 31
0.0
  0
LINE
  5
9D
100
AcDbEntity
  8
LAY-1
  6
CONTINUOUS
 62
     1
100
AcDbLine
 10
372.499992
 20
263.2
 30
0.0
 11
372.499992
 21
267.8
 31
0.0
  0
LINE
  5
9E
100
AcDbEntity
  8
LAY-1
  6
CONTINUOUS
 62
     1
100
AcDbLine
 10
387.499992
 20
263.2
 30
0.0
 11
387.499992
 21
267.8
 31
0.0
  0
TEXT
  5
9F
100
AcDbEntity
  8
LAY-1
  6
CONTINUOUS
 62
     2
100
AcDbText
 10
375.399992
 20
266.8
 30
0.0
 40
5.0
  1
φ１５
 41
0.672
  7
EXCADSTD
 72
     5
 11
387.399992
 21
266.8
 31
0.0
100
AcDbText
  0
LINE
  5
A0
100
AcDbEntity
  8
LAY-1
  6
CONTINUOUS
 62
     1
100
AcDbLine
 10
372.499992
 20
266.3
 30
0.0
 11
387.499992
 21
266.3
 31
0.0
  0
LINE
  5
A1
100
AcDbEntity
  8
LAY-1
  6
CONTINUOUS
 62
     1
100
AcDbLine
 10
374.499992
 20
266.633333
 30
0.0
 11
372.499992
 21
266.3
 31
0.0
  0
LINE
  5
A2
100
AcDbEntity
  8
LAY-1
  6
CONTINUOUS
 62
     1
100
AcDbLine
 10
372.499992
 20
266.3
 30
0.0
 11
374.499992
 21
265.966667
 31
0.0
  0
LINE
  5
A3
100
AcDbEntity
  8
LAY-1
  6
CONTINUOUS
 62
     1
100
AcDbLine
 10
385.499992
 20
265.966667
 30
0.0
 11
387.499992
 21
266.3
 31
0.0
  0
LINE
  5
A4
100
AcDbEntity
  8
LAY-1
  6
CONTINUOUS
 62
     1
100
AcDbLine
 10
387.499992
 20
266.3
 30
0.0
 11
385.499992
 21
266.633333
 31
0.0
  0
LINE
  5
A5
100
AcDbEntity
  8
LAY-1
  6
CONTINUOUS
 62
     1
100
AcDbLine
 10
404.999992
 20
292.7
 30
0.0
 11
404.999992
 21
294.3
 31
0.0
  0
LINE
  5
A6
100
AcDbEntity
  8
LAY-1
  6
CONTINUOUS
 62
     1
100
AcDbLine
 10
409.999992
 20
272.7
 30
0.0
 11
409.999992
 21
294.3
 31
0.0
  0
LINE
  5
A7
100
AcDbEntity
  8
LAY-1
  6
CONTINUOUS
 62
     1
100
AcDbLine
 10
434.999992
 20
272.7
 30
0.0
 11
434.999992
 21
294.3
 31
0.0
  0
TEXT
  5
A8
100
AcDbEntity
  8
LAY-1
  6
CONTINUOUS
 62
     2
100
AcDbText
 10
418.499992
 20
293.2
 30
0.0
 40
5.0
  1
２５
 41
0.672
  7
EXCADSTD
 72
     5
 11
425.832792
 21
293.2
 31
0.0
100
AcDbText
  0
LINE
  5
A9
100
AcDbEntity
  8
LAY-1
  6
CONTINUOUS
 62
     1
100
AcDbLine
 10
409.999992
 20
292.7
 30
0.0
 11
434.999992
 21
292.7
 31
0.0
  0
LINE
  5
AA
100
AcDbEntity
  8
LAY-1
  6
CONTINUOUS
 62
     1
100
AcDbLine
 10
411.999992
 20
293.033333
 30
0.0
 11
409.999992
 21
292.7
 31
0.0
  0
LINE
  5
AB
100
AcDbEntity
  8
LAY-1
  6
CONTINUOUS
 62
     1
100
AcDbLine
 10
409.999992
 20
292.7
 30
0.0
 11
411.999992
 21
292.366667
 31
0.0
  0
LINE
  5
AC
100
AcDbEntity
  8
LAY-1
  6
CONTINUOUS
 62
     1
100
AcDbLine
 10
432.999992
 20
292.366667
 30
0.0
 11
434.999992
 21
292.7
 31
0.0
  0
LINE
  5
AD
100
AcDbEntity
  8
LAY-1
  6
CONTINUOUS
 62
     1
100
AcDbLine
 10
434.999992
 20
292.7
 30
0.0
 11
432.999992
 21
293.033333
 31
0.0
  0
LINE
  5
AE
100
AcDbEntity
  8
LAY-1
  6
CONTINUOUS
 62
     1
100
AcDbLine
 10
409.999992
 20
284.3
 30
0.0
 11
409.999992
 21
280.9
 31
0.0
  0
LINE
  5
AF
100
AcDbEntity
  8
LAY-1
  6
CONTINUOUS
 62
     1
100
AcDbLine
 10
434.999992
 20
283.9
 30
0.0
 11
434.999992
 21
280.9
 31
0.0
  0
LINE
  5
B0
100
AcDbEntity
  8
LAY-1
  6
CONTINUOUS
 62
     1
100
AcDbLine
 10
409.999992
 20
282.2
 30
0.0
 11
409.999992
 21
283.9
 31
0.0
  0
LINE
  5
B1
100
AcDbEntity
  8
LAY-1
  6
CONTINUOUS
 62
     1
100
AcDbLine
 10
433.999992
 20
222.7
 30
0.0
 11
468.5
 21
222.7
 31
0.0
  0
LINE
  5
B2
100
AcDbEntity
  8
LAY-1
  6
CONTINUOUS
 62
     1
100
AcDbLine
 10
434.999992
 20
272.7
 30
0.0
 11
468.5
 21
272.7
 31
0.0
  0
TEXT
  5
B3
100
AcDbEntity
  8
LAY-1
  6
CONTINUOUS
 62
     2
100
AcDbText
 10
466.5
 20
243.7
 30
0.0
 40
5.0
  1
５０
 50
90.0
 41
0.672
  7
EXCADSTD
 72
     5
 11
466.5
 21
251.0328
 31
0.0
100
AcDbText
  0
LINE
  5
B4
100
AcDbEntity
  8
LAY-1
  6
CONTINUOUS
 62
     1
100
AcDbLine
 10
467.0
 20
222.7
 30
0.0
 11
467.0
 21
272.7
 31
0.0
  0
LINE
  5
B5
100
AcDbEntity
  8
LAY-1
  6
CONTINUOUS
 62
     1
100
AcDbLine
 10
466.666667
 20
224.7
 30
0.0
 11
467.0
 21
222.7
 31
0.0
  0
LINE
  5
B6
100
AcDbEntity
  8
LAY-1
  6
CONTINUOUS
 62
     1
100
AcDbLine
 10
467.0
 20
222.7
 30
0.0
 11
467.333333
 21
224.7
 31
0.0
  0
LINE
  5
B7
100
AcDbEntity
  8
LAY-1
  6
CONTINUOUS
 62
     1
100
AcDbLine
 10
467.333333
 20
270.7
 30
0.0
 11
467.0
 21
272.7
 31
0.0
  0
LINE
  5
B8
100
AcDbEntity
  8
LAY-1
  6
CONTINUOUS
 62
     1
100
AcDbLine
 10
467.0
 20
272.7
 30
0.0
 11
466.666667
 21
270.7
 31
0.0
  0
CIRCLE
  5
B9
100
AcDbEntity
  8
LAY-1
  6
CONTINUOUS
 62
     3
100
AcDbCircle
 10
200.0
 20
200.0
 30
0.0
 40
7.5
  0
LINE
  5
BA
100
AcDbEntity
  8
LAY-1
  6
CONTINUOUS
 62
     3
100
AcDbLine
 10
191.5
 20
203.0
 30
0.0
 11
191.5
 21
197.0
 31
0.0
  0
LINE
  5
BB
100
AcDbEntity
  8
LAY-1
  6
DASHED2
 62
     1
100
AcDbLine
 10
196.5
 20
202.5
 30
0.0
 11
196.5
 21
197.5
 31
0.0
  0
LINE
  5
BC
100
AcDbEntity
  8
LAY-1
  6
DASHED2
 62
     3
100
AcDbLine
 10
196.0
 20
203.0
 30
0.0
 11
196.0
 21
197.0
 31
0.0
  0
LINE
  5
BD
100
AcDbEntity
  8
LAY-1
  6
DASHED2
 62
     1
100
AcDbLine
 10
196.0
 20
203.0
 30
0.0
 11
196.5
 21
202.5
 31
0.0
  0
LINE
  5
BE
100
AcDbEntity
  8
LAY-1
  6
DASHED2
 62
     1
100
AcDbLine
 10
196.5
 20
197.5
 30
0.0
 11
196.0
 21
197.0
 31
0.0
  0
LINE
  5
BF
100
AcDbEntity
  8
LAY-1
  6
CONTINUOUS
 62
     1
100
AcDbLine
 10
191.5
 20
203.0
 30
0.0
 11
192.047013
 21
203.0
 31
0.0
  0
LINE
  5
C0
100
AcDbEntity
  8
LAY-1
  6
DASHED2
 62
     1
100
AcDbLine
 10
192.047013
 20
203.0
 30
0.0
 11
196.0
 21
203.0
 31
0.0
  0
LINE
  5
C1
100
AcDbEntity
  8
LAY-1
  6
CONTINUOUS
 62
     3
100
AcDbLine
 10
191.5
 20
202.5
 30
0.0
 11
191.875962
 21
202.5
 31
0.0
  0
LINE
  5
C2
100
AcDbEntity
  8
LAY-1
  6
DASHED2
 62
     3
100
AcDbLine
 10
191.875962
 20
202.5
 30
0.0
 11
196.5
 21
202.5
 31
0.0
  0
LINE
  5
C3
100
AcDbEntity
  8
LAY-1
  6
CONTINUOUS
 62
     3
100
AcDbLine
 10
191.5
 20
197.5
 30
0.0
 11
191.875962
 21
197.5
 31
0.0
  0
LINE
  5
C4
100
AcDbEntity
  8
LAY-1
  6
DASHED2
 62
     3
100
AcDbLine
 10
191.875962
 20
197.5
 30
0.0
 11
196.5
 21
197.5
 31
0.0
  0
LINE
  5
C5
100
AcDbEntity
  8
LAY-1
  6
CONTINUOUS
 62
     1
100
AcDbLine
 10
191.5
 20
197.0
 30
0.0
 11
192.047013
 21
197.0
 31
0.0
  0
LINE
  5
C6
100
AcDbEntity
  8
LAY-1
  6
DASHED2
 62
     1
100
AcDbLine
 10
192.047013
 20
197.0
 30
0.0
 11
196.0
 21
197.0
 31
0.0
  0
CIRCLE
  5
C7
100
AcDbEntity
  8
LAY-1
  6
DASHED2
 62
     3
100
AcDbCircle
 10
200.0
 20
200.0
 30
0.0
 40
5.0
  0
CIRCLE
  5
C8
100
AcDbEntity
  8
LAY-1
  6
DASHED2
 62
     3
100
AcDbCircle
 10
200.0
 20
200.0
 30
0.0
 40
3.5
  0
LINE
  5
C9
100
AcDbEntity
  8
LAY-1
  6
CONTINUOUS
 62
     3
100
AcDbLine
 10
189.0
 20
255.0
 30
0.0
 11
192.0
 21
255.0
 31
0.0
  0
LINE
  5
CA
100
AcDbEntity
  8
LAY-1
  6
CONTINUOUS
 62
     3
100
AcDbLine
 10
189.0
 20
230.0
 30
0.0
 11
192.0
 21
230.0
 31
0.0
  0
LINE
  5
CB
100
AcDbEntity
  8
LAY-1
  6
CONTINUOUS
 62
     3
100
AcDbLine
 10
179.0
 20
260.0
 30
0.0
 11
182.0
 21
260.0
 31
0.0
  0
LINE
  5
CC
100
AcDbEntity
  8
LAY-1
  6
CONTINUOUS
 62
     3
100
AcDbLine
 10
182.0
 20
260.0
 30
0.0
 11
182.0
 21
218.0
 31
0.0
  0
LINE
  5
CD
100
AcDbEntity
  8
LAY-1
  6
CONTINUOUS
 62
     3
100
AcDbLine
 10
179.0
 20
260.0
 30
0.0
 11
179.0
 21
218.0
 31
0.0
  0
ARC
  5
CE
100
AcDbEntity
  8
LAY-1
  6
CONTINUOUS
 62
     3
100
AcDbCircle
 10
182.0
 20
218.0
 30
0.0
 40
3.0
100
AcDbArc
 50
180.0
 51
225.0
  0
ARC
  5
CF
100
AcDbEntity
  8
LAY-1
  6
CONTINUOUS
 62
     3
100
AcDbCircle
 10
194.125524
 20
208.702903
 30
0.0
 40
5.0
100
AcDbArc
 50
225.0
 51
250.889322
  0
LINE
  5
D0
100
AcDbEntity
  8
LAY-1
  6
CONTINUOUS
 62
     3
100
AcDbLine
 10
179.87868
 20
215.87868
 30
0.0
 11
190.58999
 21
205.16737
 31
0.0
  0
LINE
  5
D1
100
AcDbEntity
  8
LAY-1
  6
CONTINUOUS
 62
     3
100
AcDbLine
 10
197.004156
 20
206.875676
 30
0.0
 11
197.006298
 21
206.87076
 31
0.0
  0
LINE
  5
D2
100
AcDbEntity
  8
LAY-1
  6
CONTINUOUS
 62
     3
100
AcDbLine
 10
192.0
 20
255.0
 30
0.0
 11
192.0
 21
221.979819
 31
0.0
  0
ARC
  5
D3
100
AcDbEntity
  8
LAY-1
  6
CONTINUOUS
 62
     3
100
AcDbCircle
 10
199.022038
 20
211.458342
 30
0.0
 40
3.0
100
AcDbArc
 50
200.0
 51
274.878335
  0
LINE
  5
D4
100
AcDbEntity
  8
LAY-1
  6
CONTINUOUS
 62
     3
100
AcDbLine
 10
192.0
 20
221.979819
 30
0.0
 11
196.20296
 21
210.432281
 31
0.0
  0
ARC
  5
D5
100
AcDbEntity
  8
LAY-1
  6
CONTINUOUS
 62
     3
100
AcDbCircle
 10
199.022038
 20
211.458342
 30
0.0
 40
6.0
100
AcDbArc
 50
200.0
 51
239.130318
  0
LINE
  5
D6
100
AcDbEntity
  8
LAY-1
  6
CONTINUOUS
 62
     3
100
AcDbLine
 10
194.884572
 20
206.788402
 30
0.0
 11
195.486387
 21
205.989766
 31
0.0
  0
LINE
  5
D7
100
AcDbEntity
  8
LAY-1
  6
CONTINUOUS
 62
     3
100
AcDbLine
 10
189.0
 20
255.0
 30
0.0
 11
189.0
 21
221.979819
 31
0.0
  0
LINE
  5
D8
100
AcDbEntity
  8
LAY-1
  6
CONTINUOUS
 62
     3
100
AcDbLine
 10
189.180922
 20
220.953759
 30
0.0
 11
193.383882
 21
209.406221
 31
0.0
  0
ARC
  5
D9
100
AcDbEntity
  8
LAY-1
  6
CONTINUOUS
 62
     3
100
AcDbCircle
 10
192.0
 20
221.979819
 30
0.0
 40
3.0
100
AcDbArc
 50
180.0
 51
200.0
  0
ARC
  5
DA
100
AcDbEntity
  8
LAY-1
  6
CONTINUOUS
 62
     3
100
AcDbCircle
 10
194.026912
 20
207.387301
 30
0.0
 40
1.0
100
AcDbArc
 50
225.0
 51
308.957672
  0
LINE
  5
DB
100
AcDbEntity
  8
LAY-1
  6
CONTINUOUS
 62
     3
100
AcDbLine
 10
182.0
 20
218.0
 30
0.0
 11
193.319805
 21
206.680195
 31
0.0
  0
ARC
  5
DC
100
AcDbEntity
  8
LAY-1
  6
CONTINUOUS
 62
     3
100
AcDbCircle
 10
200.0
 20
200.0
 30
0.0
 40
8.5
100
AcDbArc
 50
125.348584
 51
94.878335
  0
LINE
  5
DD
100
AcDbEntity
  8
LAY-1
  6
CONTINUOUS
 62
     3
100
AcDbLine
 10
372.499992
 20
263.2
 30
0.0
 11
387.499992
 21
263.2
 31
0.0
  0
LINE
  5
DE
100
AcDbEntity
  8
LAY-1
  6
CONTINUOUS
 62
     3
100
AcDbLine
 10
371.499992
 20
230.2
 30
0.0
 11
371.499992
 21
195.2
 31
0.0
  0
LINE
  5
DF
100
AcDbEntity
  8
LAY-1
  6
CONTINUOUS
 62
     3
100
AcDbLine
 10
388.499992
 20
230.2
 30
0.0
 11
388.499992
 21
195.2
 31
0.0
  0
LINE
  5
E0
100
AcDbEntity
  8
LAY-1
  6
CONTINUOUS
 62
     3
100
AcDbLine
 10
372.499992
 20
263.2
 30
0.0
 11
372.499992
 21
260.2
 31
0.0
  0
LINE
  5
E1
100
AcDbEntity
  8
LAY-1
  6
CONTINUOUS
 62
     3
100
AcDbLine
 10
387.499992
 20
263.2
 30
0.0
 11
387.499992
 21
260.2
 31
0.0
  0
CIRCLE
  5
E2
100
AcDbEntity
  8
LAY-1
  6
DASHED2
 62
     1
100
AcDbCircle
 10
379.999992
 20
247.7
 30
0.0
 40
3.0
  0
CIRCLE
  5
E3
100
AcDbEntity
  8
LAY-1
  6
DASHED2
 62
     3
100
AcDbCircle
 10
379.999992
 20
247.7
 30
0.0
 40
2.5
  0
LINE
  5
E4
100
AcDbEntity
  8
LAY-1
  6
CONTINUOUS
 62
     3
100
AcDbLine
 10
371.499992
 20
195.2
 30
0.0
 11
401.999992
 21
195.2
 31
0.0
  0
LINE
  5
E5
100
AcDbEntity
  8
LAY-1
  6
CONTINUOUS
 62
     3
100
AcDbLine
 10
409.999992
 20
271.7
 30
0.0
 11
409.999992
 21
261.2
 31
0.0
  0
LINE
  5
E6
100
AcDbEntity
  8
LAY-1
  6
CONTINUOUS
 62
     3
100
AcDbLine
 10
410.999992
 20
272.7
 30
0.0
 11
433.999992
 21
272.7
 31
0.0
  0
ARC
  5
E7
100
AcDbEntity
  8
LAY-1
  6
CONTINUOUS
 62
     3
100
AcDbCircle
 10
410.999992
 20
271.7
 30
0.0
 40
1.0
100
AcDbArc
 50
90.0
 51
180.0
  0
ARC
  5
E8
100
AcDbEntity
  8
LAY-1
  6
CONTINUOUS
 62
     3
100
AcDbCircle
 10
408.999992
 20
261.2
 30
0.0
 40
1.0
100
AcDbArc
 50
270.0
 51
0.0
  0
LINE
  5
E9
100
AcDbEntity
  8
LAY-1
  6
CONTINUOUS
 62
     3
100
AcDbLine
 10
388.499992
 20
260.2
 30
0.0
 11
388.499992
 21
235.2
 31
0.0
  0
LINE
  5
EA
100
AcDbEntity
  8
LAY-1
  6
CONTINUOUS
 62
     3
100
AcDbLine
 10
371.499992
 20
260.2
 30
0.0
 11
371.499992
 21
235.2
 31
0.0
  0
LINE
  5
EB
100
AcDbEntity
  8
LAY-1
  6
CONTINUOUS
 62
     3
100
AcDbLine
 10
371.499992
 20
195.2
 30
0.0
 11
398.999992
 21
195.2
 31
0.0
  0
LINE
  5
EC
100
AcDbEntity
  8
LAY-1
  6
CONTINUOUS
 62
     3
100
AcDbLine
 10
434.999992
 20
271.7
 30
0.0
 11
434.999992
 21
223.7
 31
0.0
  0
ARC
  5
ED
100
AcDbEntity
  8
LAY-1
  6
CONTINUOUS
 62
     3
100
AcDbCircle
 10
433.999992
 20
271.7
 30
0.0
 40
1.0
100
AcDbArc
 50
0.0
 51
90.0
  0
LINE
  5
EE
100
AcDbEntity
  8
LAY-1
  6
DASHED2
 62
     3
100
AcDbLine
 10
439.999992
 20
229.2
 30
0.0
 11
439.999992
 21
196.2
 31
0.0
  0
LINE
  5
EF
100
AcDbEntity
  8
LAY-1
  6
DASHED2
 62
     3
100
AcDbLine
 10
401.999992
 20
230.2
 30
0.0
 11
438.999992
 21
230.2
 31
0.0
  0
ARC
  5
F0
100
AcDbEntity
  8
LAY-1
  6
DASHED2
 62
     3
100
AcDbCircle
 10
438.999992
 20
229.2
 30
0.0
 40
1.0
100
AcDbArc
 50
0.0
 51
90.0
  0
ARC
  5
F1
100
AcDbEntity
  8
LAY-1
  6
DASHED2
 62
     3
100
AcDbCircle
 10
438.999992
 20
196.2
 30
0.0
 40
1.0
100
AcDbArc
 50
270.0
 51
0.0
  0
CIRCLE
  5
F2
100
AcDbEntity
  8
LAY-1
  6
DASHED2
 62
     3
100
AcDbCircle
 10
415.999992
 20
266.7
 30
0.0
 40
5.0
  0
CIRCLE
  5
F3
100
AcDbEntity
  8
LAY-1
  6
CONTINUOUS
 62
     3
100
AcDbCircle
 10
415.999992
 20
266.7
 30
0.0
 40
2.55
  0
CIRCLE
  5
F4
100
AcDbEntity
  8
LAY-1
  6
DASHED2
 62
     3
100
AcDbCircle
 10
428.999992
 20
247.7
 30
0.0
 40
5.0
  0
CIRCLE
  5
F5
100
AcDbEntity
  8
LAY-1
  6
CONTINUOUS
 62
     3
100
AcDbCircle
 10
428.999992
 20
247.7
 30
0.0
 40
2.55
  0
CIRCLE
  5
F6
100
AcDbEntity
  8
LAY-1
  6
DASHED2
 62
     3
100
AcDbCircle
 10
415.999992
 20
228.7
 30
0.0
 40
5.0
  0
CIRCLE
  5
F7
100
AcDbEntity
  8
LAY-1
  6
CONTINUOUS
 62
     3
100
AcDbCircle
 10
415.999992
 20
228.7
 30
0.0
 40
2.55
  0
LINE
  5
F8
100
AcDbEntity
  8
LAY-1
  6
DASHDOT
 62
     1
100
AcDbLine
 10
379.999992
 20
265.7
 30
0.0
 11
379.999992
 21
189.6
 31
0.0
  0
LINE
  5
F9
100
AcDbEntity
  8
LAY-1
  6
DASHDOT
 62
     1
100
AcDbLine
 10
374.589
 20
247.7
 30
0.0
 11
385.289
 21
247.7
 31
0.0
  0
LINE
  5
FA
100
AcDbEntity
  8
LAY-1
  6
DASHDOT
 62
     1
100
AcDbLine
 10
415.999992
 20
273.5
 30
0.0
 11
415.999992
 21
259.9
 31
0.0
  0
LINE
  5
FB
100
AcDbEntity
  8
LAY-1
  6
DASHDOT
 62
     1
100
AcDbLine
 10
409.089
 20
266.7
 30
0.0
 11
422.889
 21
266.7
 31
0.0
  0
LINE
  5
FC
100
AcDbEntity
  8
LAY-1
  6
DASHDOT
 62
     1
100
AcDbLine
 10
428.999992
 20
254.5
 30
0.0
 11
428.999992
 21
240.9
 31
0.0
  0
LINE
  5
FD
100
AcDbEntity
  8
LAY-1
  6
DASHDOT
 62
     1
100
AcDbLine
 10
422.089
 20
247.7
 30
0.0
 11
435.889
 21
247.7
 31
0.0
  0
LINE
  5
FE
100
AcDbEntity
  8
LAY-1
  6
DASHDOT
 62
     1
100
AcDbLine
 10
415.999992
 20
235.5
 30
0.0
 11
415.999992
 21
221.9
 31
0.0
  0
LINE
  5
FF
100
AcDbEntity
  8
LAY-1
  6
DASHDOT
 62
     1
100
AcDbLine
 10
409.089
 20
228.7
 30
0.0
 11
422.889
 21
228.7
 31
0.0
  0
ARC
  5
100
100
AcDbEntity
  8
LAY-1
  6
CONTINUOUS
 62
     3
100
AcDbCircle
 10
433.999992
 20
223.7
 30
0.0
 40
1.0
100
AcDbArc
 50
270.0
 51
0.0
  0
LINE
  5
101
100
AcDbEntity
  8
LAY-1
  6
CONTINUOUS
 62
     3
100
AcDbLine
 10
371.499992
 20
260.2
 30
0.0
 11
408.999992
 21
260.2
 31
0.0
  0
LINE
  5
102
100
AcDbEntity
  8
LAY-1
  6
CONTINUOUS
 62
     3
100
AcDbLine
 10
409.999992
 20
223.7
 30
0.0
 11
409.999992
 21
234.2
 31
0.0
  0
ARC
  5
103
100
AcDbEntity
  8
LAY-1
  6
CONTINUOUS
 62
     3
100
AcDbCircle
 10
408.999992
 20
234.2
 30
0.0
 40
1.0
100
AcDbArc
 50
0.0
 51
90.0
  0
LINE
  5
104
100
AcDbEntity
  8
LAY-1
  6
CONTINUOUS
 62
     3
100
AcDbLine
 10
410.889
 20
222.7
 30
0.0
 11
433.999992
 21
222.7
 31
0.0
  0
LINE
  5
105
100
AcDbEntity
  8
LAY-1
  6
CONTINUOUS
 62
     3
100
AcDbLine
 10
385.249992
 20
235.2
 30
0.0
 11
385.249992
 21
230.2
 31
0.0
  0
LINE
  5
106
100
AcDbEntity
  8
LAY-1
  6
CONTINUOUS
 62
     3
100
AcDbLine
 10
374.749992
 20
235.2
 30
0.0
 11
374.749992
 21
230.2
 31
0.0
  0
ARC
  5
107
100
AcDbEntity
  8
LAY-1
  6
CONTINUOUS
 62
     3
100
AcDbCircle
 10
410.999992
 20
223.7
 30
0.0
 40
1.0
100
AcDbArc
 50
180.0
 51
270.0
  0
LINE
  5
108
100
AcDbEntity
  8
LAY-1
  6
CONTINUOUS
 62
     3
100
AcDbLine
 10
371.499992
 20
230.2
 30
0.0
 11
401.999992
 21
230.2
 31
0.0
  0
LINE
  5
109
100
AcDbEntity
  8
LAY-1
  6
CONTINUOUS
 62
     3
100
AcDbLine
 10
371.499992
 20
235.2
 30
0.0
 11
408.999992
 21
235.2
 31
0.0
  0
LINE
  5
10A
100
AcDbEntity
  8
LAY-1
  6
DASHED2
 62
     3
100
AcDbLine
 10
183.2
 20
232.5
 30
0.0
 11
186.0
 21
229.4
 31
0.0
  0
LINE
  5
10B
100
AcDbEntity
  8
LAY-1
  6
DASHED2
 62
     3
100
AcDbLine
 10
183.2
 20
237.5
 30
0.0
 11
186.0
 21
240.6
 31
0.0
  0
LINE
  5
10C
100
AcDbEntity
  8
LAY-1
  6
DASHED2
 62
     3
100
AcDbLine
 10
183.2
 20
237.5
 30
0.0
 11
183.2
 21
232.5
 31
0.0
  0
LINE
  5
10D
100
AcDbEntity
  8
LAY-1
  6
CONTINUOUS
 62
     3
100
AcDbLine
 10
176.0
 20
237.5
 30
0.0
 11
176.0
 21
232.5
 31
0.0
  0
LINE
  5
10E
100
AcDbEntity
  8
LAY-1
  6
DASHED2
 62
     3
100
AcDbLine
 10
183.2
 20
237.5
 30
0.0
 11
179.0
 21
237.5
 31
0.0
  0
LINE
  5
10F
100
AcDbEntity
  8
LAY-1
  6
DASHED2
 62
     1
100
AcDbLine
 10
183.2
 20
237.0
 30
0.0
 11
179.0
 21
237.0
 31
0.0
  0
LINE
  5
110
100
AcDbEntity
  8
LAY-1
  6
DASHED2
 62
     1
100
AcDbLine
 10
183.2
 20
233.0
 30
0.0
 11
179.0
 21
233.0
 31
0.0
  0
LINE
  5
111
100
AcDbEntity
  8
LAY-1
  6
DASHED2
 62
     3
100
AcDbLine
 10
183.2
 20
232.5
 30
0.0
 11
179.0
 21
232.5
 31
0.0
  0
LINE
  5
112
100
AcDbEntity
  8
LAY-1
  6
CONTINUOUS
 62
     3
100
AcDbLine
 10
179.0
 20
237.5
 30
0.0
 11
176.0
 21
237.5
 31
0.0
  0
LINE
  5
113
100
AcDbEntity
  8
LAY-1
  6
CONTINUOUS
 62
     1
100
AcDbLine
 10
179.0
 20
237.0
 30
0.0
 11
176.0
 21
237.0
 31
0.0
  0
LINE
  5
114
100
AcDbEntity
  8
LAY-1
  6
CONTINUOUS
 62
     1
100
AcDbLine
 10
179.0
 20
233.0
 30
0.0
 11
176.0
 21
233.0
 31
0.0
  0
LINE
  5
115
100
AcDbEntity
  8
LAY-1
  6
CONTINUOUS
 62
     3
100
AcDbLine
 10
179.0
 20
232.5
 30
0.0
 11
176.0
 21
232.5
 31
0.0
  0
LINE
  5
116
100
AcDbEntity
  8
LAY-1
  6
DASHED2
 62
     3
100
AcDbLine
 10
186.0
 20
254.3
 30
0.0
 11
183.2
 21
251.5
 31
0.0
  0
LINE
  5
117
100
AcDbEntity
  8
LAY-1
  6
DASHED2
 62
     3
100
AcDbLine
 10
186.0
 20
243.7
 30
0.0
 11
183.2
 21
246.5
 31
0.0
  0
LINE
  5
118
100
AcDbEntity
  8
LAY-1
  6
DASHED2
 62
     3
100
AcDbLine
 10
183.2
 20
251.5
 30
0.0
 11
183.2
 21
246.5
 31
0.0
  0
LINE
  5
119
100
AcDbEntity
  8
LAY-1
  6
CONTINUOUS
 62
     3
100
AcDbLine
 10
176.0
 20
251.5
 30
0.0
 11
176.0
 21
246.5
 31
0.0
  0
LINE
  5
11A
100
AcDbEntity
  8
LAY-1
  6
DASHED2
 62
     3
100
AcDbLine
 10
183.2
 20
251.5
 30
0.0
 11
179.0
 21
251.5
 31
0.0
  0
LINE
  5
11B
100
AcDbEntity
  8
LAY-1
  6
DASHED2
 62
     1
100
AcDbLine
 10
183.2
 20
251.0
 30
0.0
 11
179.0
 21
251.0
 31
0.0
  0
LINE
  5
11C
100
AcDbEntity
  8
LAY-1
  6
DASHED2
 62
     1
100
AcDbLine
 10
183.2
 20
247.0
 30
0.0
 11
179.0
 21
247.0
 31
0.0
  0
LINE
  5
11D
100
AcDbEntity
  8
LAY-1
  6
DASHED2
 62
     3
100
AcDbLine
 10
183.2
 20
246.5
 30
0.0
 11
179.0
 21
246.5
 31
0.0
  0
LINE
  5
11E
100
AcDbEntity
  8
LAY-1
  6
CONTINUOUS
 62
     3
100
AcDbLine
 10
179.0
 20
251.5
 30
0.0
 11
176.0
 21
251.5
 31
0.0
  0
LINE
  5
11F
100
AcDbEntity
  8
LAY-1
  6
CONTINUOUS
 62
     1
100
AcDbLine
 10
179.0
 20
251.0
 30
0.0
 11
176.0
 21
251.0
 31
0.0
  0
LINE
  5
120
100
AcDbEntity
  8
LAY-1
  6
CONTINUOUS
 62
     1
100
AcDbLine
 10
179.0
 20
247.0
 30
0.0
 11
176.0
 21
247.0
 31
0.0
  0
LINE
  5
121
100
AcDbEntity
  8
LAY-1
  6
CONTINUOUS
 62
     3
100
AcDbLine
 10
179.0
 20
246.5
 30
0.0
 11
176.0
 21
246.5
 31
0.0
  0
CIRCLE
  5
122
100
AcDbEntity
  8
LAY-1
  6
DASHED2
 62
     3
100
AcDbCircle
 10
428.999992
 20
201.2
 30
0.0
 40
2.0
  0
CIRCLE
  5
123
100
AcDbEntity
  8
LAY-1
  6
DASHED2
 62
     1
100
AcDbCircle
 10
428.999992
 20
201.2
 30
0.0
 40
2.5
  0
LINE
  5
124
100
AcDbEntity
  8
LAY-1
  6
DASHDOT
 62
     1
100
AcDbLine
 10
428.999992
 20
197.4
 30
0.0
 11
428.999992
 21
205.1
 31
0.0
  0
LINE
  5
125
100
AcDbEntity
  8
LAY-1
  6
DASHDOT
 62
     1
100
AcDbLine
 10
424.889
 20
201.2
 30
0.0
 11
432.789
 21
201.2
 31
0.0
  0
CIRCLE
  5
126
100
AcDbEntity
  8
LAY-1
  6
DASHED2
 62
     3
100
AcDbCircle
 10
414.999992
 20
201.2
 30
0.0
 40
2.0
  0
CIRCLE
  5
127
100
AcDbEntity
  8
LAY-1
  6
DASHED2
 62
     1
100
AcDbCircle
 10
414.999992
 20
201.2
 30
0.0
 40
2.5
  0
LINE
  5
128
100
AcDbEntity
  8
LAY-1
  6
DASHDOT
 62
     1
100
AcDbLine
 10
414.999992
 20
197.4
 30
0.0
 11
414.999992
 21
205.1
 31
0.0
  0
LINE
  5
129
100
AcDbEntity
  8
LAY-1
  6
DASHDOT
 62
     1
100
AcDbLine
 10
410.889
 20
201.2
 30
0.0
 11
418.789
 21
201.2
 31
0.0
  0
LINE
  5
12A
100
AcDbEntity
  8
LAY-1
  6
DASHED2
 62
     3
100
AcDbLine
 10
401.999992
 20
195.2
 30
0.0
 11
438.999992
 21
195.2
 31
0.0
  0
CIRCLE
  5
12B
100
AcDbEntity
  8
LAY-1
  6
DASHED2
 62
     3
100
AcDbCircle
 10
428.999992
 20
224.2
 30
0.0
 40
2.0
  0
CIRCLE
  5
12C
100
AcDbEntity
  8
LAY-1
  6
DASHED2
 62
     1
100
AcDbCircle
 10
428.999992
 20
224.2
 30
0.0
 40
2.5
  0
LINE
  5
12D
100
AcDbEntity
  8
LAY-1
  6
DASHDOT
 62
     1
100
AcDbLine
 10
428.999992
 20
220.4
 30
0.0
 11
428.999992
 21
228.1
 31
0.0
  0
LINE
  5
12E
100
AcDbEntity
  8
LAY-1
  6
DASHDOT
 62
     1
100
AcDbLine
 10
424.889
 20
224.2
 30
0.0
 11
432.789
 21
224.2
 31
0.0
  0
CIRCLE
  5
12F
100
AcDbEntity
  8
LAY-1
  6
DASHED2
 62
     1
100
AcDbCircle
 10
414.999992
 20
224.2
 30
0.0
 40
2.5
  0
CIRCLE
  5
130
100
AcDbEntity
  8
LAY-1
  6
DASHED2
 62
     3
100
AcDbCircle
 10
414.999992
 20
224.2
 30
0.0
 40
2.0
  0
LINE
  5
131
100
AcDbEntity
  8
LAY-1
  6
DASHDOT
 62
     1
100
AcDbLine
 10
410.889
 20
224.2
 30
0.0
 11
418.789
 21
224.2
 31
0.0
  0
LINE
  5
132
100
AcDbEntity
  8
LAY-1
  6
DASHDOT
 62
     1
100
AcDbLine
 10
414.999992
 20
220.4
 30
0.0
 11
414.999992
 21
228.1
 31
0.0
  0
LINE
  5
133
100
AcDbEntity
  8
LAY-1
  6
DASHED2
 62
     3
100
AcDbLine
 10
194.430482
 20
251.55
 30
0.0
 11
195.797023
 21
246.45
 31
0.0
  0
LINE
  5
134
100
AcDbEntity
  8
LAY-1
  6
DASHED2
 62
     3
100
AcDbLine
 10
194.430482
 20
251.55
 30
0.0
 11
191.9
 21
251.55
 31
0.0
  0
LINE
  5
135
100
AcDbEntity
  8
LAY-1
  6
DASHED2
 62
     3
100
AcDbLine
 10
195.797023
 20
246.45
 30
0.0
 11
191.9
 21
246.45
 31
0.0
  0
LINE
  5
136
100
AcDbEntity
  8
LAY-1
  6
DASHED2
 62
     3
100
AcDbLine
 10
189.0
 20
243.55
 30
0.0
 11
191.9
 21
246.45
 31
0.0
  0
LINE
  5
137
100
AcDbEntity
  8
LAY-1
  6
DASHED2
 62
     3
100
AcDbLine
 10
189.0
 20
254.45
 30
0.0
 11
191.9
 21
251.55
 31
0.0
  0
LINE
  5
138
100
AcDbEntity
  8
LAY-1
  6
DASHED2
 62
     3
100
AcDbLine
 10
213.5
 20
249.0
 30
0.0
 11
207.652401
 21
247.1
 31
0.0
  0
LINE
  5
139
100
AcDbEntity
  8
LAY-1
  6
DASHED2
 62
     3
100
AcDbLine
 10
213.5
 20
249.0
 30
0.0
 11
207.652401
 21
250.9
 31
0.0
  0
LINE
  5
13A
100
AcDbEntity
  8
LAY-1
  6
DASHED2
 62
     3
100
AcDbLine
 10
195.922034
 20
251.779008
 30
0.0
 11
197.398526
 21
246.268665
 31
0.0
  0
LINE
  5
13B
100
AcDbEntity
  8
LAY-1
  6
DASHED2
 62
     3
100
AcDbLine
 10
197.435124
 20
251.730154
 30
0.0
 11
198.88566
 21
246.316681
 31
0.0
  0
LINE
  5
13C
100
AcDbEntity
  8
LAY-1
  6
DASHED2
 62
     3
100
AcDbLine
 10
198.948215
 20
251.681299
 30
0.0
 11
200.372794
 21
246.364697
 31
0.0
  0
LINE
  5
13D
100
AcDbEntity
  8
LAY-1
  6
DASHED2
 62
     3
100
AcDbLine
 10
200.461305
 20
251.632445
 30
0.0
 11
201.859928
 21
246.412713
 31
0.0
  0
LINE
  5
13E
100
AcDbEntity
  8
LAY-1
  6
DASHED2
 62
     3
100
AcDbLine
 10
201.974396
 20
251.583591
 30
0.0
 11
203.347062
 21
246.46073
 31
0.0
  0
LINE
  5
13F
100
AcDbEntity
  8
LAY-1
  6
DASHED2
 62
     3
100
AcDbLine
 10
203.487486
 20
251.534736
 30
0.0
 11
204.834196
 21
246.508746
 31
0.0
  0
LINE
  5
140
100
AcDbEntity
  8
LAY-1
  6
DASHED2
 62
     3
100
AcDbLine
 10
205.000577
 20
251.485882
 30
0.0
 11
206.32133
 21
246.556762
 31
0.0
  0
LINE
  5
141
100
AcDbEntity
  8
LAY-1
  6
DASHED2
 62
     3
100
AcDbLine
 10
206.513667
 20
251.437028
 30
0.0
 11
207.803486
 21
246.623359
 31
0.0
  0
LINE
  5
142
100
AcDbEntity
  8
LAY-1
  6
DASHED2
 62
     3
100
AcDbLine
 10
208.051435
 20
251.296077
 30
0.0
 11
209.183352
 21
247.071705
 31
0.0
  0
LINE
  5
143
100
AcDbEntity
  8
LAY-1
  6
DASHED2
 62
     3
100
AcDbLine
 10
209.694482
 20
250.762219
 30
0.0
 11
210.563218
 21
247.520051
 31
0.0
  0
LINE
  5
144
100
AcDbEntity
  8
LAY-1
  6
DASHED2
 62
     3
100
AcDbLine
 10
211.337528
 20
250.228361
 30
0.0
 11
211.943084
 21
247.968396
 31
0.0
  0
LINE
  5
145
100
AcDbEntity
  8
LAY-1
  6
DASHED2
 62
     3
100
AcDbLine
 10
212.980575
 20
249.694502
 30
0.0
 11
213.32295
 21
248.416742
 31
0.0
  0
LINE
  5
146
100
AcDbEntity
  8
LAY-1
  6
DASHED2
 62
     3
100
AcDbLine
 10
194.458885
 20
251.443997
 30
0.0
 11
207.652401
 21
250.9
 31
0.0
  0
LINE
  5
147
100
AcDbEntity
  8
LAY-1
  6
DASHED2
 62
     3
100
AcDbLine
 10
195.757503
 20
246.597489
 30
0.0
 11
207.652401
 21
247.1
 31
0.0
  0
LINE
  5
148
100
AcDbEntity
  8
LAY-1
  6
DASHED2
 62
     3
100
AcDbLine
 10
191.9
 20
246.45
 30
0.0
 11
191.9
 21
251.55
 31
0.0
  0
LINE
  5
149
100
AcDbEntity
  8
LAY-1
  6
DASHDOT
 62
     1
100
AcDbLine
 10
217.8
 20
249.0
 30
0.0
 11
187.6
 21
249.0
 31
0.0
  0
LINE
  5
14A
100
AcDbEntity
  8
LAY-1
  6
DASHDOT
 62
     1
100
AcDbLine
 10
217.8
 20
236.0
 30
0.0
 11
187.6
 21
236.0
 31
0.0
  0
LINE
  5
14B
100
AcDbEntity
  8
LAY-1
  6
DASHED2
 62
     3
100
AcDbLine
 10
194.430482
 20
238.55
 30
0.0
 11
195.797023
 21
233.45
 31
0.0
  0
LINE
  5
14C
100
AcDbEntity
  8
LAY-1
  6
DASHED2
 62
     3
100
AcDbLine
 10
194.430482
 20
238.55
 30
0.0
 11
191.9
 21
238.55
 31
0.0
  0
LINE
  5
14D
100
AcDbEntity
  8
LAY-1
  6
DASHED2
 62
     3
100
AcDbLine
 10
195.797023
 20
233.45
 30
0.0
 11
191.9
 21
233.45
 31
0.0
  0
LINE
  5
14E
100
AcDbEntity
  8
LAY-1
  6
DASHED2
 62
     3
100
AcDbLine
 10
189.0
 20
230.55
 30
0.0
 11
191.9
 21
233.45
 31
0.0
  0
LINE
  5
14F
100
AcDbEntity
  8
LAY-1
  6
DASHED2
 62
     3
100
AcDbLine
 10
189.0
 20
241.45
 30
0.0
 11
191.9
 21
238.55
 31
0.0
  0
LINE
  5
150
100
AcDbEntity
  8
LAY-1
  6
DASHED2
 62
     3
100
AcDbLine
 10
213.5
 20
236.0
 30
0.0
 11
207.652401
 21
234.1
 31
0.0
  0
LINE
  5
151
100
AcDbEntity
  8
LAY-1
  6
DASHED2
 62
     3
100
AcDbLine
 10
213.5
 20
236.0
 30
0.0
 11
207.652401
 21
237.9
 31
0.0
  0
LINE
  5
152
100
AcDbEntity
  8
LAY-1
  6
DASHED2
 62
     3
100
AcDbLine
 10
195.922034
 20
238.779008
 30
0.0
 11
197.398526
 21
233.268665
 31
0.0
  0
LINE
  5
153
100
AcDbEntity
  8
LAY-1
  6
DASHED2
 62
     3
100
AcDbLine
 10
197.435124
 20
238.730154
 30
0.0
 11
198.88566
 21
233.316681
 31
0.0
  0
LINE
  5
154
100
AcDbEntity
  8
LAY-1
  6
DASHED2
 62
     3
100
AcDbLine
 10
198.948215
 20
238.681299
 30
0.0
 11
200.372794
 21
233.364697
 31
0.0
  0
LINE
  5
155
100
AcDbEntity
  8
LAY-1
  6
DASHED2
 62
     3
100
AcDbLine
 10
200.461305
 20
238.632445
 30
0.0
 11
201.859928
 21
233.412713
 31
0.0
  0
LINE
  5
156
100
AcDbEntity
  8
LAY-1
  6
DASHED2
 62
     3
100
AcDbLine
 10
201.974396
 20
238.583591
 30
0.0
 11
203.347062
 21
233.46073
 31
0.0
  0
LINE
  5
157
100
AcDbEntity
  8
LAY-1
  6
DASHED2
 62
     3
100
AcDbLine
 10
203.487486
 20
238.534736
 30
0.0
 11
204.834196
 21
233.508746
 31
0.0
  0
LINE
  5
158
100
AcDbEntity
  8
LAY-1
  6
DASHED2
 62
     3
100
AcDbLine
 10
205.000577
 20
238.485882
 30
0.0
 11
206.32133
 21
233.556762
 31
0.0
  0
LINE
  5
159
100
AcDbEntity
  8
LAY-1
  6
DASHED2
 62
     3
100
AcDbLine
 10
206.513667
 20
238.437028
 30
0.0
 11
207.803486
 21
233.623359
 31
0.0
  0
LINE
  5
15A
100
AcDbEntity
  8
LAY-1
  6
DASHED2
 62
     3
100
AcDbLine
 10
208.051435
 20
238.296077
 30
0.0
 11
209.183352
 21
234.071705
 31
0.0
  0
LINE
  5
15B
100
AcDbEntity
  8
LAY-1
  6
DASHED2
 62
     3
100
AcDbLine
 10
209.694482
 20
237.762219
 30
0.0
 11
210.563218
 21
234.520051
 31
0.0
  0
LINE
  5
15C
100
AcDbEntity
  8
LAY-1
  6
DASHED2
 62
     3
100
AcDbLine
 10
211.337528
 20
237.228361
 30
0.0
 11
211.943084
 21
234.968396
 31
0.0
  0
LINE
  5
15D
100
AcDbEntity
  8
LAY-1
  6
DASHED2
 62
     3
100
AcDbLine
 10
212.980575
 20
236.694502
 30
0.0
 11
213.32295
 21
235.416742
 31
0.0
  0
LINE
  5
15E
100
AcDbEntity
  8
LAY-1
  6
DASHED2
 62
     3
100
AcDbLine
 10
194.458885
 20
238.443997
 30
0.0
 11
207.652401
 21
237.9
 31
0.0
  0
LINE
  5
15F
100
AcDbEntity
  8
LAY-1
  6
DASHED2
 62
     3
100
AcDbLine
 10
195.757503
 20
233.597489
 30
0.0
 11
207.652401
 21
234.1
 31
0.0
  0
LINE
  5
160
100
AcDbEntity
  8
LAY-1
  6
DASHED2
 62
     3
100
AcDbLine
 10
191.9
 20
233.45
 30
0.0
 11
191.9
 21
238.55
 31
0.0
  0
LINE
  5
161
100
AcDbEntity
  8
LAY-5
  6
CONTINUOUS
 62
     1
100
AcDbLine
 10
404.999992
 20
286.6
 30
0.0
 11
404.999992
 21
281.6
 31
0.0
  0
LINE
  5
162
100
AcDbEntity
  8
LAY-5
  6
CONTINUOUS
 62
     1
100
AcDbLine
 10
401.999992
 20
163.0
 30
0.0
 11
401.999992
 21
162.2
 31
0.0
  0
LINE
  5
163
100
AcDbEntity
  8
LAY-5
  6
DASHDOT
 62
     1
100
AcDbLine
 10
200.0
 20
219.5
 30
0.0
 11
200.0
 21
187.6
 31
0.0
  0
LINE
  5
164
100
AcDbEntity
  8
LAY-5
  6
DASHDOT
 62
     1
100
AcDbLine
 10
187.6
 20
200.0
 30
0.0
 11
212.2
 21
200.0
 31
0.0
  0
LINE
  5
165
100
AcDbEntity
  8
LAY-5
  6
DASHDOT
 62
     1
100
AcDbLine
 10
392.089
 20
311.8
 30
0.0
 11
458.289
 21
311.8
 31
0.0
  0
LINE
  5
166
100
AcDbEntity
  8
LAY-5
  6
DASHDOT
 62
     1
100
AcDbLine
 10
392.089
 20
146.9
 30
0.0
 11
458.289
 21
146.9
 31
0.0
  0
LINE
  5
167
100
AcDbEntity
  8
LAY-5
  6
DASHDOT
 62
     1
100
AcDbLine
 10
187.1
 20
235.0
 30
0.0
 11
173.1
 21
235.0
 31
0.0
  0
LINE
  5
168
100
AcDbEntity
  8
LAY-5
  6
DASHDOT
 62
     1
100
AcDbLine
 10
187.0
 20
249.0
 30
0.0
 11
173.1
 21
249.0
 31
0.0
  0
LINE
  5
169
100
AcDbEntity
  8
LAY-5
  6
DASHDOT
 62
     1
100
AcDbLine
 10
239.0
 20
270.0
 30
0.0
 11
239.0
 21
218.3
 31
0.0
  0
LINE
  5
16A
100
AcDbEntity
  8
LAY-6
  6
CONTINUOUS
 62
     1
100
AcDbLine
 10
187.799999
 20
200.0
 30
0.0
 11
168.0
 21
200.0
 31
0.0
  0
LINE
  5
16B
100
AcDbEntity
  8
LAY-6
  6
CONTINUOUS
 62
     1
100
AcDbLine
 10
169.2
 20
222.0
 30
0.0
 11
171.0
 21
222.0
 31
0.0
  0
TEXT
  5
16C
100
AcDbEntity
  8
LAY-6
  6
CONTINUOUS
 62
     2
100
AcDbText
 10
169.0
 20
207.0
 30
0.0
 40
5.0
  1
２２
 50
90.0
 41
0.672
  7
EXCADSTD
 72
     5
 11
169.0
 21
214.3328
 31
0.0
100
AcDbText
  0
LINE
  5
16D
100
AcDbEntity
  8
LAY-6
  6
CONTINUOUS
 62
     1
100
AcDbLine
 10
169.5
 20
200.0
 30
0.0
 11
169.5
 21
222.0
 31
0.0
  0
LINE
  5
16E
100
AcDbEntity
  8
LAY-6
  6
CONTINUOUS
 62
     1
100
AcDbLine
 10
169.166667
 20
202.0
 30
0.0
 11
169.5
 21
200.0
 31
0.0
  0
LINE
  5
16F
100
AcDbEntity
  8
LAY-6
  6
CONTINUOUS
 62
     1
100
AcDbLine
 10
169.5
 20
200.0
 30
0.0
 11
169.833333
 21
202.0
 31
0.0
  0
LINE
  5
170
100
AcDbEntity
  8
LAY-6
  6
CONTINUOUS
 62
     1
100
AcDbLine
 10
169.833333
 20
220.0
 30
0.0
 11
169.5
 21
222.0
 31
0.0
  0
LINE
  5
171
100
AcDbEntity
  8
LAY-6
  6
CONTINUOUS
 62
     1
100
AcDbLine
 10
169.5
 20
222.0
 30
0.0
 11
169.166667
 21
220.0
 31
0.0
  0
LINE
  5
172
100
AcDbEntity
  8
LAY-6
  6
CONTINUOUS
 62
     1
100
AcDbLine
 10
177.8
 20
260.0
 30
0.0
 11
168.0
 21
260.0
 31
0.0
  0
TEXT
  5
173
100
AcDbEntity
  8
LAY-6
  6
CONTINUOUS
 62
     2
100
AcDbText
 10
169.0
 20
237.0
 30
0.0
 40
5.0
  1
３８
 50
90.0
 41
0.672
  7
EXCADSTD
 72
     5
 11
169.0
 21
244.3328
 31
0.0
100
AcDbText
  0
LINE
  5
174
100
AcDbEntity
  8
LAY-6
  6
CONTINUOUS
 62
     1
100
AcDbLine
 10
169.5
 20
222.0
 30
0.0
 11
169.5
 21
260.0
 31
0.0
  0
LINE
  5
175
100
AcDbEntity
  8
LAY-6
  6
CONTINUOUS
 62
     1
100
AcDbLine
 10
169.166667
 20
224.0
 30
0.0
 11
169.5
 21
222.0
 31
0.0
  0
LINE
  5
176
100
AcDbEntity
  8
LAY-6
  6
CONTINUOUS
 62
     1
100
AcDbLine
 10
169.5
 20
222.0
 30
0.0
 11
169.833333
 21
224.0
 31
0.0
  0
LINE
  5
177
100
AcDbEntity
  8
LAY-6
  6
CONTINUOUS
 62
     1
100
AcDbLine
 10
169.833333
 20
258.0
 30
0.0
 11
169.5
 21
260.0
 31
0.0
  0
LINE
  5
178
100
AcDbEntity
  8
LAY-6
  6
CONTINUOUS
 62
     1
100
AcDbLine
 10
169.5
 20
260.0
 30
0.0
 11
169.166667
 21
258.0
 31
0.0
  0
LINE
  5
179
100
AcDbEntity
  8
LAY-6
  6
CONTINUOUS
 62
     1
100
AcDbLine
 10
212.2
 20
200.0
 30
0.0
 11
225.5
 21
200.0
 31
0.0
  0
LINE
  5
17A
100
AcDbEntity
  8
LAY-6
  6
CONTINUOUS
 62
     1
100
AcDbLine
 10
226.1
 20
225.0
 30
0.0
 11
222.5
 21
225.0
 31
0.0
  0
TEXT
  5
17B
100
AcDbEntity
  8
LAY-6
  6
CONTINUOUS
 62
     2
100
AcDbText
 10
223.5
 20
208.5
 30
0.0
 40
5.0
  1
２５
 50
90.0
 41
0.672
  7
EXCADSTD
 72
     5
 11
223.5
 21
215.8328
 31
0.0
100
AcDbText
  0
LINE
  5
17C
100
AcDbEntity
  8
LAY-6
  6
CONTINUOUS
 62
     1
100
AcDbLine
 10
224.0
 20
200.0
 30
0.0
 11
224.0
 21
225.0
 31
0.0
  0
LINE
  5
17D
100
AcDbEntity
  8
LAY-6
  6
CONTINUOUS
 62
     1
100
AcDbLine
 10
223.666667
 20
202.0
 30
0.0
 11
224.0
 21
200.0
 31
0.0
  0
LINE
  5
17E
100
AcDbEntity
  8
LAY-6
  6
CONTINUOUS
 62
     1
100
AcDbLine
 10
224.0
 20
200.0
 30
0.0
 11
224.333333
 21
202.0
 31
0.0
  0
LINE
  5
17F
100
AcDbEntity
  8
LAY-6
  6
CONTINUOUS
 62
     1
100
AcDbLine
 10
224.333333
 20
223.0
 30
0.0
 11
224.0
 21
225.0
 31
0.0
  0
LINE
  5
180
100
AcDbEntity
  8
LAY-6
  6
CONTINUOUS
 62
     1
100
AcDbLine
 10
224.0
 20
225.0
 30
0.0
 11
223.666667
 21
223.0
 31
0.0
  0
LINE
  5
181
100
AcDbEntity
  8
LAY-6
  6
CONTINUOUS
 62
     1
100
AcDbLine
 10
192.799999
 20
255.0
 30
0.0
 11
225.5
 21
255.0
 31
0.0
  0
TEXT
  5
182
100
AcDbEntity
  8
LAY-6
  6
CONTINUOUS
 62
     2
100
AcDbText
 10
223.5
 20
236.0
 30
0.0
 40
5.0
  1
３０
 50
90.0
 41
0.672
  7
EXCADSTD
 72
     5
 11
223.5
 21
243.3328
 31
0.0
100
AcDbText
  0
LINE
  5
183
100
AcDbEntity
  8
LAY-6
  6
CONTINUOUS
 62
     1
100
AcDbLine
 10
224.0
 20
225.0
 30
0.0
 11
224.0
 21
255.0
 31
0.0
  0
LINE
  5
184
100
AcDbEntity
  8
LAY-6
  6
CONTINUOUS
 62
     1
100
AcDbLine
 10
223.666667
 20
227.0
 30
0.0
 11
224.0
 21
225.0
 31
0.0
  0
LINE
  5
185
100
AcDbEntity
  8
LAY-6
  6
CONTINUOUS
 62
     1
100
AcDbLine
 10
224.0
 20
225.0
 30
0.0
 11
224.333333
 21
227.0
 31
0.0
  0
LINE
  5
186
100
AcDbEntity
  8
LAY-6
  6
CONTINUOUS
 62
     1
100
AcDbLine
 10
224.333333
 20
253.0
 30
0.0
 11
224.0
 21
255.0
 31
0.0
  0
LINE
  5
187
100
AcDbEntity
  8
LAY-6
  6
CONTINUOUS
 62
     1
100
AcDbLine
 10
224.0
 20
255.0
 30
0.0
 11
223.666667
 21
253.0
 31
0.0
  0
LINE
  5
188
100
AcDbEntity
  8
LAY-6
  6
CONTINUOUS
 62
     1
100
AcDbLine
 10
409.999992
 20
292.8
 30
0.0
 11
409.999992
 21
291.2
 31
0.0
  0
TEXT
  5
189
100
AcDbEntity
  8
LAY-6
  6
CONTINUOUS
 62
     2
100
AcDbText
 10
405.499992
 20
293.2
 30
0.0
 40
5.0
  1
５
 41
0.672
  7
EXCADSTD
 72
     5
 11
408.699992
 21
293.2
 31
0.0
100
AcDbText
  0
LINE
  5
18A
100
AcDbEntity
  8
LAY-6
  6
CONTINUOUS
 62
     1
100
AcDbLine
 10
414.999992
 20
292.7
 30
0.0
 11
399.999992
 21
292.7
 31
0.0
  0
LINE
  5
18B
100
AcDbEntity
  8
LAY-6
  6
CONTINUOUS
 62
     1
100
AcDbLine
 10
411.999992
 20
293.033333
 30
0.0
 11
409.999992
 21
292.7
 31
0.0
  0
LINE
  5
18C
100
AcDbEntity
  8
LAY-6
  6
CONTINUOUS
 62
     1
100
AcDbLine
 10
409.999992
 20
292.7
 30
0.0
 11
411.999992
 21
292.366667
 31
0.0
  0
LINE
  5
18D
100
AcDbEntity
  8
LAY-6
  6
CONTINUOUS
 62
     1
100
AcDbLine
 10
402.999992
 20
292.366667
 30
0.0
 11
404.999992
 21
292.7
 31
0.0
  0
LINE
  5
18E
100
AcDbEntity
  8
LAY-6
  6
CONTINUOUS
 62
     1
100
AcDbLine
 10
404.999992
 20
292.7
 30
0.0
 11
402.999992
 21
293.033333
 31
0.0
  0
LINE
  5
18F
100
AcDbEntity
  8
LAY-6
  6
CONTINUOUS
 62
     1
100
AcDbLine
 10
409.999992
 20
282.6
 30
0.0
 11
409.999992
 21
280.9
 31
0.0
  0
POLYLINE
  5
190
100
AcDbEntity
  8
LAY-6
  6
CONTINUOUS
 62
     1
100
AcDb2dPolyline
 66
     1
 10
0.0
 20
0.0
 30
0.0
 70
   128
  0
VERTEX
  5
191
100
AcDbEntity
  8
LAY-6
  6
CONTINUOUS
 62
     1
100
AcDbVertex
100
AcDb2dVertex
 10
206.632315
 20
250.894228
 30
0.0
  0
VERTEX
  5
192
100
AcDbEntity
  8
LAY-6
  6
CONTINUOUS
 62
     1
100
AcDbVertex
100
AcDb2dVertex
 10
216.883434
 20
285.161827
 30
0.0
  0
VERTEX
  5
193
100
AcDbEntity
  8
LAY-6
  6
CONTINUOUS
 62
     1
100
AcDbVertex
100
AcDb2dVertex
 10
264.272441
 20
285.161827
 30
0.0
  0
SEQEND
  5
194
100
AcDbEntity
  8
LAY-6
  6
CONTINUOUS
 62
     1
  0
LINE
  5
195
100
AcDbEntity
  8
LAY-6
  6
CONTINUOUS
 62
     1
100
AcDbLine
 10
206.886164
 20
252.905862
 30
0.0
 11
206.632315
 21
250.894228
 31
0.0
  0
LINE
  5
196
100
AcDbEntity
  8
LAY-6
  6
CONTINUOUS
 62
     1
100
AcDbLine
 10
206.632315
 20
250.894228
 30
0.0
 11
207.524865
 21
252.714796
 31
0.0
  0
TEXT
  5
197
100
AcDbEntity
  8
LAY-6
  6
CONTINUOUS
 62
     2
100
AcDbText
 10
216.883434
 20
285.161827
 30
0.0
 40
5.0
  1
３－５.１×２５皿木ネジ
 41
0.654222
  7
EXCADSTD
 72
     5
 11
262.883434
 21
285.161827
 31
0.0
100
AcDbText
  0
LINE
  5
198
100
AcDbEntity
  8
LAY-6
  6
CONTINUOUS
 62
     1
100
AcDbLine
 10
409.999992
 20
273.2
 30
0.0
 11
409.999992
 21
284.2
 31
0.0
  0
LINE
  5
199
100
AcDbEntity
  8
LAY-6
  6
CONTINUOUS
 62
     1
100
AcDbLine
 10
415.999992
 20
274.2
 30
0.0
 11
415.999992
 21
284.2
 31
0.0
  0
TEXT
  5
19A
100
AcDbEntity
  8
LAY-6
  6
CONTINUOUS
 62
     2
100
AcDbText
 10
410.999992
 20
283.2
 30
0.0
 40
5.0
  1
６
 41
0.672
  7
EXCADSTD
 72
     5
 11
414.199992
 21
283.2
 31
0.0
100
AcDbText
  0
LINE
  5
19B
100
AcDbEntity
  8
LAY-6
  6
CONTINUOUS
 62
     1
100
AcDbLine
 10
409.999992
 20
282.7
 30
0.0
 11
415.999992
 21
282.7
 31
0.0
  0
LINE
  5
19C
100
AcDbEntity
  8
LAY-6
  6
CONTINUOUS
 62
     1
100
AcDbLine
 10
411.999992
 20
283.033333
 30
0.0
 11
409.999992
 21
282.7
 31
0.0
  0
LINE
  5
19D
100
AcDbEntity
  8
LAY-6
  6
CONTINUOUS
 62
     1
100
AcDbLine
 10
409.999992
 20
282.7
 30
0.0
 11
411.999992
 21
282.366667
 31
0.0
  0
LINE
  5
19E
100
AcDbEntity
  8
LAY-6
  6
CONTINUOUS
 62
     1
100
AcDbLine
 10
413.999992
 20
282.366667
 30
0.0
 11
415.999992
 21
282.7
 31
0.0
  0
LINE
  5
19F
100
AcDbEntity
  8
LAY-6
  6
CONTINUOUS
 62
     1
100
AcDbLine
 10
415.999992
 20
282.7
 30
0.0
 11
413.999992
 21
283.033333
 31
0.0
  0
LINE
  5
1A0
100
AcDbEntity
  8
LAY-6
  6
CONTINUOUS
 62
     1
100
AcDbLine
 10
428.999992
 20
256.0
 30
0.0
 11
428.999992
 21
284.2
 31
0.0
  0
TEXT
  5
1A1
100
AcDbEntity
  8
LAY-6
  6
CONTINUOUS
 62
     2
100
AcDbText
 10
418.499992
 20
283.2
 30
0.0
 40
5.0
  1
１３
 41
0.672
  7
EXCADSTD
 72
     5
 11
425.832792
 21
283.2
 31
0.0
100
AcDbText
  0
LINE
  5
1A2
100
AcDbEntity
  8
LAY-6
  6
CONTINUOUS
 62
     1
100
AcDbLine
 10
415.999992
 20
282.7
 30
0.0
 11
428.999992
 21
282.7
 31
0.0
  0
LINE
  5
1A3
100
AcDbEntity
  8
LAY-6
  6
CONTINUOUS
 62
     1
100
AcDbLine
 10
417.999992
 20
283.033333
 30
0.0
 11
415.999992
 21
282.7
 31
0.0
  0
LINE
  5
1A4
100
AcDbEntity
  8
LAY-6
  6
CONTINUOUS
 62
     1
100
AcDbLine
 10
415.999992
 20
282.7
 30
0.0
 11
417.999992
 21
282.366667
 31
0.0
  0
LINE
  5
1A5
100
AcDbEntity
  8
LAY-6
  6
CONTINUOUS
 62
     1
100
AcDbLine
 10
426.999992
 20
282.366667
 30
0.0
 11
428.999992
 21
282.7
 31
0.0
  0
LINE
  5
1A6
100
AcDbEntity
  8
LAY-6
  6
CONTINUOUS
 62
     1
100
AcDbLine
 10
428.999992
 20
282.7
 30
0.0
 11
426.999992
 21
283.033333
 31
0.0
  0
LINE
  5
1A7
100
AcDbEntity
  8
LAY-6
  6
CONTINUOUS
 62
     1
100
AcDbLine
 10
436.589
 20
222.7
 30
0.0
 11
458.5
 21
222.7
 31
0.0
  0
LINE
  5
1A8
100
AcDbEntity
  8
LAY-6
  6
CONTINUOUS
 62
     1
100
AcDbLine
 10
420.999991
 20
228.7
 30
0.0
 11
458.5
 21
228.7
 31
0.0
  0
TEXT
  5
1A9
100
AcDbEntity
  8
LAY-6
  6
CONTINUOUS
 62
     2
100
AcDbText
 10
456.5
 20
223.7
 30
0.0
 40
5.0
  1
６
 50
90.0
 41
0.672
  7
EXCADSTD
 72
     5
 11
456.5
 21
226.9
 31
0.0
100
AcDbText
  0
LINE
  5
1AA
100
AcDbEntity
  8
LAY-6
  6
CONTINUOUS
 62
     1
100
AcDbLine
 10
457.0
 20
222.7
 30
0.0
 11
457.0
 21
228.7
 31
0.0
  0
LINE
  5
1AB
100
AcDbEntity
  8
LAY-6
  6
CONTINUOUS
 62
     1
100
AcDbLine
 10
456.666667
 20
224.7
 30
0.0
 11
457.0
 21
222.7
 31
0.0
  0
LINE
  5
1AC
100
AcDbEntity
  8
LAY-6
  6
CONTINUOUS
 62
     1
100
AcDbLine
 10
457.0
 20
222.7
 30
0.0
 11
457.333333
 21
224.7
 31
0.0
  0
LINE
  5
1AD
100
AcDbEntity
  8
LAY-6
  6
CONTINUOUS
 62
     1
100
AcDbLine
 10
457.333333
 20
226.7
 30
0.0
 11
457.0
 21
228.7
 31
0.0
  0
LINE
  5
1AE
100
AcDbEntity
  8
LAY-6
  6
CONTINUOUS
 62
     1
100
AcDbLine
 10
457.0
 20
228.7
 30
0.0
 11
456.666667
 21
226.7
 31
0.0
  0
LINE
  5
1AF
100
AcDbEntity
  8
LAY-6
  6
CONTINUOUS
 62
     1
100
AcDbLine
 10
436.499992
 20
247.7
 30
0.0
 11
458.5
 21
247.7
 31
0.0
  0
TEXT
  5
1B0
100
AcDbEntity
  8
LAY-6
  6
CONTINUOUS
 62
     2
100
AcDbText
 10
456.5
 20
234.2
 30
0.0
 40
5.0
  1
１９
 50
90.0
 41
0.672
  7
EXCADSTD
 72
     5
 11
456.5
 21
241.5328
 31
0.0
100
AcDbText
  0
LINE
  5
1B1
100
AcDbEntity
  8
LAY-6
  6
CONTINUOUS
 62
     1
100
AcDbLine
 10
457.0
 20
228.7
 30
0.0
 11
457.0
 21
247.7
 31
0.0
  0
LINE
  5
1B2
100
AcDbEntity
  8
LAY-6
  6
CONTINUOUS
 62
     1
100
AcDbLine
 10
456.666667
 20
230.7
 30
0.0
 11
457.0
 21
228.7
 31
0.0
  0
LINE
  5
1B3
100
AcDbEntity
  8
LAY-6
  6
CONTINUOUS
 62
     1
100
AcDbLine
 10
457.0
 20
228.7
 30
0.0
 11
457.333333
 21
230.7
 31
0.0
  0
LINE
  5
1B4
100
AcDbEntity
  8
LAY-6
  6
CONTINUOUS
 62
     1
100
AcDbLine
 10
457.333333
 20
245.7
 30
0.0
 11
457.0
 21
247.7
 31
0.0
  0
LINE
  5
1B5
100
AcDbEntity
  8
LAY-6
  6
CONTINUOUS
 62
     1
100
AcDbLine
 10
457.0
 20
247.7
 30
0.0
 11
456.666667
 21
245.7
 31
0.0
  0
LINE
  5
1B6
100
AcDbEntity
  8
LAY-6
  6
CONTINUOUS
 62
     1
100
AcDbLine
 10
422.499992
 20
266.7
 30
0.0
 11
458.5
 21
266.7
 31
0.0
  0
TEXT
  5
1B7
100
AcDbEntity
  8
LAY-6
  6
CONTINUOUS
 62
     2
100
AcDbText
 10
456.5
 20
253.2
 30
0.0
 40
5.0
  1
１９
 50
90.0
 41
0.672
  7
EXCADSTD
 72
     5
 11
456.5
 21
260.5328
 31
0.0
100
AcDbText
  0
LINE
  5
1B8
100
AcDbEntity
  8
LAY-6
  6
CONTINUOUS
 62
     1
100
AcDbLine
 10
457.0
 20
247.7
 30
0.0
 11
457.0
 21
266.7
 31
0.0
  0
LINE
  5
1B9
100
AcDbEntity
  8
LAY-6
  6
CONTINUOUS
 62
     1
100
AcDbLine
 10
456.666667
 20
249.7
 30
0.0
 11
457.0
 21
247.7
 31
0.0
  0
LINE
  5
1BA
100
AcDbEntity
  8
LAY-6
  6
CONTINUOUS
 62
     1
100
AcDbLine
 10
457.0
 20
247.7
 30
0.0
 11
457.333333
 21
249.7
 31
0.0
  0
LINE
  5
1BB
100
AcDbEntity
  8
LAY-6
  6
CONTINUOUS
 62
     1
100
AcDbLine
 10
457.333333
 20
264.7
 30
0.0
 11
457.0
 21
266.7
 31
0.0
  0
LINE
  5
1BC
100
AcDbEntity
  8
LAY-6
  6
CONTINUOUS
 62
     1
100
AcDbLine
 10
457.0
 20
266.7
 30
0.0
 11
456.666667
 21
264.7
 31
0.0
  0
LINE
  5
1BD
100
AcDbEntity
  8
LAY-6
  6
CONTINUOUS
 62
     1
100
AcDbLine
 10
435.499992
 20
272.7
 30
0.0
 11
458.5
 21
272.7
 31
0.0
  0
TEXT
  5
1BE
100
AcDbEntity
  8
LAY-6
  6
CONTINUOUS
 62
     2
100
AcDbText
 10
456.5
 20
267.7
 30
0.0
 40
5.0
  1
６
 50
90.0
 41
0.672
  7
EXCADSTD
 72
     5
 11
456.5
 21
270.9
 31
0.0
100
AcDbText
  0
LINE
  5
1BF
100
AcDbEntity
  8
LAY-6
  6
CONTINUOUS
 62
     1
100
AcDbLine
 10
457.0
 20
266.7
 30
0.0
 11
457.0
 21
272.7
 31
0.0
  0
LINE
  5
1C0
100
AcDbEntity
  8
LAY-6
  6
CONTINUOUS
 62
     1
100
AcDbLine
 10
456.666667
 20
268.7
 30
0.0
 11
457.0
 21
266.7
 31
0.0
  0
LINE
  5
1C1
100
AcDbEntity
  8
LAY-6
  6
CONTINUOUS
 62
     1
100
AcDbLine
 10
457.0
 20
266.7
 30
0.0
 11
457.333333
 21
268.7
 31
0.0
  0
LINE
  5
1C2
100
AcDbEntity
  8
LAY-6
  6
CONTINUOUS
 62
     1
100
AcDbLine
 10
457.333333
 20
270.7
 30
0.0
 11
457.0
 21
272.7
 31
0.0
  0
LINE
  5
1C3
100
AcDbEntity
  8
LAY-6
  6
CONTINUOUS
 62
     1
100
AcDbLine
 10
457.0
 20
272.7
 30
0.0
 11
456.666667
 21
270.7
 31
0.0
  0
LINE
  5
1C4
100
AcDbEntity
  8
LAY-6
  6
CONTINUOUS
 62
     1
100
AcDbLine
 10
370.999992
 20
195.2
 30
0.0
 11
360.000008
 21
195.2
 31
0.0
  0
LINE
  5
1C5
100
AcDbEntity
  8
LAY-6
  6
CONTINUOUS
 62
     1
100
AcDbLine
 10
370.999992
 20
230.2
 30
0.0
 11
360.000008
 21
230.2
 31
0.0
  0
TEXT
  5
1C6
100
AcDbEntity
  8
LAY-6
  6
CONTINUOUS
 62
     2
100
AcDbText
 10
361.000008
 20
208.7
 30
0.0
 40
5.0
  1
３５
 50
90.0
 41
0.672
  7
EXCADSTD
 72
     5
 11
361.000008
 21
216.0328
 31
0.0
100
AcDbText
  0
LINE
  5
1C7
100
AcDbEntity
  8
LAY-6
  6
CONTINUOUS
 62
     1
100
AcDbLine
 10
361.500008
 20
195.2
 30
0.0
 11
361.500008
 21
230.2
 31
0.0
  0
LINE
  5
1C8
100
AcDbEntity
  8
LAY-6
  6
CONTINUOUS
 62
     1
100
AcDbLine
 10
361.166674
 20
197.2
 30
0.0
 11
361.500008
 21
195.2
 31
0.0
  0
LINE
  5
1C9
100
AcDbEntity
  8
LAY-6
  6
CONTINUOUS
 62
     1
100
AcDbLine
 10
361.500008
 20
195.2
 30
0.0
 11
361.833341
 21
197.2
 31
0.0
  0
LINE
  5
1CA
100
AcDbEntity
  8
LAY-6
  6
CONTINUOUS
 62
     1
100
AcDbLine
 10
361.833341
 20
228.2
 30
0.0
 11
361.500008
 21
230.2
 31
0.0
  0
LINE
  5
1CB
100
AcDbEntity
  8
LAY-6
  6
CONTINUOUS
 62
     1
100
AcDbLine
 10
361.500008
 20
230.2
 30
0.0
 11
361.166674
 21
228.2
 31
0.0
  0
LINE
  5
1CC
100
AcDbEntity
  8
LAY-6
  6
CONTINUOUS
 62
     1
100
AcDbLine
 10
370.999992
 20
235.2
 30
0.0
 11
360.000008
 21
235.2
 31
0.0
  0
TEXT
  5
1CD
100
AcDbEntity
  8
LAY-6
  6
CONTINUOUS
 62
     2
100
AcDbText
 10
361.000008
 20
230.7
 30
0.0
 40
5.0
  1
５
 50
90.0
 41
0.672
  7
EXCADSTD
 72
     5
 11
361.000008
 21
233.9
 31
0.0
100
AcDbText
  0
LINE
  5
1CE
100
AcDbEntity
  8
LAY-6
  6
CONTINUOUS
 62
     1
100
AcDbLine
 10
361.500008
 20
230.2
 30
0.0
 11
361.500008
 21
235.2
 31
0.0
  0
LINE
  5
1CF
100
AcDbEntity
  8
LAY-6
  6
CONTINUOUS
 62
     1
100
AcDbLine
 10
370.999992
 20
260.2
 30
0.0
 11
360.000008
 21
260.2
 31
0.0
  0
TEXT
  5
1D0
100
AcDbEntity
  8
LAY-6
  6
CONTINUOUS
 62
     2
100
AcDbText
 10
361.000008
 20
243.7
 30
0.0
 40
5.0
  1
２５
 50
90.0
 41
0.672
  7
EXCADSTD
 72
     5
 11
361.000008
 21
251.0328
 31
0.0
100
AcDbText
  0
LINE
  5
1D1
100
AcDbEntity
  8
LAY-6
  6
CONTINUOUS
 62
     1
100
AcDbLine
 10
361.500008
 20
235.2
 30
0.0
 11
361.500008
 21
260.2
 31
0.0
  0
LINE
  5
1D2
100
AcDbEntity
  8
LAY-6
  6
CONTINUOUS
 62
     1
100
AcDbLine
 10
361.166674
 20
237.2
 30
0.0
 11
361.500008
 21
235.2
 31
0.0
  0
LINE
  5
1D3
100
AcDbEntity
  8
LAY-6
  6
CONTINUOUS
 62
     1
100
AcDbLine
 10
361.500008
 20
235.2
 30
0.0
 11
361.833341
 21
237.2
 31
0.0
  0
LINE
  5
1D4
100
AcDbEntity
  8
LAY-6
  6
CONTINUOUS
 62
     1
100
AcDbLine
 10
361.833341
 20
258.2
 30
0.0
 11
361.500008
 21
260.2
 31
0.0
  0
LINE
  5
1D5
100
AcDbEntity
  8
LAY-6
  6
CONTINUOUS
 62
     1
100
AcDbLine
 10
361.500008
 20
260.2
 30
0.0
 11
361.166674
 21
258.2
 31
0.0
  0
LINE
  5
1D6
100
AcDbEntity
  8
LAY-6
  6
CONTINUOUS
 62
     1
100
AcDbLine
 10
410.499992
 20
272.7
 30
0.0
 11
360.000008
 21
272.7
 31
0.0
  0
TEXT
  5
1D7
100
AcDbEntity
  8
LAY-6
  6
CONTINUOUS
 62
     2
100
AcDbText
 10
361.000008
 20
259.45
 30
0.0
 40
5.0
  1
１２.５
 50
90.0
 41
0.616
  7
EXCADSTD
 72
     5
 11
361.000008
 21
273.45
 31
0.0
100
AcDbText
  0
LINE
  5
1D8
100
AcDbEntity
  8
LAY-6
  6
CONTINUOUS
 62
     1
100
AcDbLine
 10
361.500008
 20
260.2
 30
0.0
 11
361.500008
 21
272.7
 31
0.0
  0
LINE
  5
1D9
100
AcDbEntity
  8
LAY-6
  6
CONTINUOUS
 62
     1
100
AcDbLine
 10
361.166674
 20
262.2
 30
0.0
 11
361.500008
 21
260.2
 31
0.0
  0
LINE
  5
1DA
100
AcDbEntity
  8
LAY-6
  6
CONTINUOUS
 62
     1
100
AcDbLine
 10
361.500008
 20
260.2
 30
0.0
 11
361.833341
 21
262.2
 31
0.0
  0
LINE
  5
1DB
100
AcDbEntity
  8
LAY-6
  6
CONTINUOUS
 62
     1
100
AcDbLine
 10
361.833341
 20
270.7
 30
0.0
 11
361.500008
 21
272.7
 31
0.0
  0
LINE
  5
1DC
100
AcDbEntity
  8
LAY-6
  6
CONTINUOUS
 62
     1
100
AcDbLine
 10
361.500008
 20
272.7
 30
0.0
 11
361.166674
 21
270.7
 31
0.0
  0
LINE
  5
1DD
100
AcDbEntity
  8
LAY-6
  6
CONTINUOUS
 62
     1
100
AcDbLine
 10
387.999992
 20
263.2
 30
0.0
 11
398.499992
 21
263.2
 31
0.0
  0
TEXT
  5
1DE
100
AcDbEntity
  8
LAY-6
  6
CONTINUOUS
 62
     2
100
AcDbText
 10
396.499992
 20
265.2
 30
0.0
 40
5.0
  1
３
 50
90.0
 41
0.672
  7
EXCADSTD
 72
     5
 11
396.499992
 21
268.4
 31
0.0
100
AcDbText
  0
LINE
  5
1DF
100
AcDbEntity
  8
LAY-6
  6
CONTINUOUS
 62
     1
100
AcDbLine
 10
396.999992
 20
269.7
 30
0.0
 11
396.999992
 21
257.2
 31
0.0
  0
LINE
  5
1E0
100
AcDbEntity
  8
LAY-6
  6
CONTINUOUS
 62
     1
100
AcDbLine
 10
396.666659
 20
265.2
 30
0.0
 11
396.999992
 21
263.2
 31
0.0
  0
LINE
  5
1E1
100
AcDbEntity
  8
LAY-6
  6
CONTINUOUS
 62
     1
100
AcDbLine
 10
396.999992
 20
263.2
 30
0.0
 11
397.333326
 21
265.2
 31
0.0
  0
LINE
  5
1E2
100
AcDbEntity
  8
LAY-6
  6
CONTINUOUS
 62
     1
100
AcDbLine
 10
397.333326
 20
258.2
 30
0.0
 11
396.999992
 21
260.2
 31
0.0
  0
LINE
  5
1E3
100
AcDbEntity
  8
LAY-6
  6
CONTINUOUS
 62
     1
100
AcDbLine
 10
396.999992
 20
260.2
 30
0.0
 11
396.666659
 21
258.2
 31
0.0
  0
POLYLINE
  5
1E4
100
AcDbEntity
  8
LAY-6
  6
CONTINUOUS
 62
     1
100
AcDb2dPolyline
 66
     1
 10
0.0
 20
0.0
 30
0.0
 70
   128
  0
VERTEX
  5
1E5
100
AcDbEntity
  8
LAY-6
  6
CONTINUOUS
 62
     1
100
AcDbVertex
100
AcDb2dVertex
 10
191.5
 20
200.0
 30
0.0
  0
VERTEX
  5
1E6
100
AcDbEntity
  8
LAY-6
  6
CONTINUOUS
 62
     1
100
AcDbVertex
100
AcDb2dVertex
 10
177.9014
 20
186.4014
 30
0.0
  0
VERTEX
  5
1E7
100
AcDbEntity
  8
LAY-6
  6
CONTINUOUS
 62
     1
100
AcDbVertex
100
AcDb2dVertex
 10
135.789008
 20
186.4014
 30
0.0
  0
SEQEND
  5
1E8
100
AcDbEntity
  8
LAY-6
  6
CONTINUOUS
 62
     1
  0
LINE
  5
1E9
100
AcDbEntity
  8
LAY-6
  6
CONTINUOUS
 62
     1
100
AcDbLine
 10
190.321489
 20
198.350084
 30
0.0
 11
191.5
 21
200.0
 31
0.0
  0
LINE
  5
1EA
100
AcDbEntity
  8
LAY-6
  6
CONTINUOUS
 62
     1
100
AcDbLine
 10
191.5
 20
200.0
 30
0.0
 11
189.850084
 21
198.821489
 31
0.0
  0
TEXT
  5
1EB
100
AcDbEntity
  8
LAY-6
  6
CONTINUOUS
 62
     2
100
AcDbText
 10
136.845204
 20
186.9014
 30
0.0
 40
5.0
  1
セットネジ(Ｍ６×５)
 41
0.632066
  7
EXCADSTD
 72
     5
 11
176.845204
 21
186.9014
 31
0.0
100
AcDbText
  0
LINE
  5
1EC
100
AcDbEntity
  8
LAY-6
  6
CONTINUOUS
 62
     1
100
AcDbLine
 10
414.999992
 20
198.2
 30
0.0
 11
414.999992
 21
181.2
 31
0.0
  0
LINE
  5
1ED
100
AcDbEntity
  8
LAY-6
  6
CONTINUOUS
 62
     1
100
AcDbLine
 10
401.999992
 20
194.7
 30
0.0
 11
401.999992
 21
181.2
 31
0.0
  0
TEXT
  5
1EE
100
AcDbEntity
  8
LAY-6
  6
CONTINUOUS
 62
     2
100
AcDbText
 10
401.249992
 20
183.2
 30
0.0
 40
5.0
  1
（
 41
0.672
  7
EXCADSTD
 72
     5
 11
404.449992
 21
183.2
 31
0.0
100
AcDbText
  0
TEXT
  5
1EF
100
AcDbEntity
  8
LAY-6
  6
CONTINUOUS
 62
     2
100
AcDbText
 10
404.999992
 20
183.2
 30
0.0
 40
5.0
  1
１３
 41
0.63
  7
EXCADSTD
 72
     5
 11
411.874492
 21
183.2
 31
0.0
100
AcDbText
  0
TEXT
  5
1F0
100
AcDbEntity
  8
LAY-6
  6
CONTINUOUS
 62
     2
100
AcDbText
 10
412.249992
 20
183.2
 30
0.0
 40
5.0
  1
）
 41
0.672
  7
EXCADSTD
 72
     5
 11
415.449992
 21
183.2
 31
0.0
100
AcDbText
  0
LINE
  5
1F1
100
AcDbEntity
  8
LAY-6
  6
CONTINUOUS
 62
     1
100
AcDbLine
 10
401.999992
 20
182.7
 30
0.0
 11
414.999992
 21
182.7
 31
0.0
  0
LINE
  5
1F2
100
AcDbEntity
  8
LAY-6
  6
CONTINUOUS
 62
     1
100
AcDbLine
 10
403.999992
 20
183.033333
 30
0.0
 11
401.999992
 21
182.7
 31
0.0
  0
LINE
  5
1F3
100
AcDbEntity
  8
LAY-6
  6
CONTINUOUS
 62
     1
100
AcDbLine
 10
401.999992
 20
182.7
 30
0.0
 11
403.999992
 21
182.366667
 31
0.0
  0
LINE
  5
1F4
100
AcDbEntity
  8
LAY-6
  6
CONTINUOUS
 62
     1
100
AcDbLine
 10
412.999992
 20
182.366667
 30
0.0
 11
414.999992
 21
182.7
 31
0.0
  0
LINE
  5
1F5
100
AcDbEntity
  8
LAY-6
  6
CONTINUOUS
 62
     1
100
AcDbLine
 10
414.999992
 20
182.7
 30
0.0
 11
412.999992
 21
183.033333
 31
0.0
  0
LINE
  5
1F6
100
AcDbEntity
  8
LAY-6
  6
CONTINUOUS
 62
     1
100
AcDbLine
 10
428.999992
 20
198.2
 30
0.0
 11
428.999992
 21
181.2
 31
0.0
  0
TEXT
  5
1F7
100
AcDbEntity
  8
LAY-6
  6
CONTINUOUS
 62
     2
100
AcDbText
 10
414.749992
 20
183.2
 30
0.0
 40
5.0
  1
（
 50
360.0
 41
0.672
  7
EXCADSTD
 72
     5
 11
417.949992
 21
183.2
 31
0.0
100
AcDbText
  0
TEXT
  5
1F8
100
AcDbEntity
  8
LAY-6
  6
CONTINUOUS
 62
     2
100
AcDbText
 10
418.499992
 20
183.2
 30
0.0
 40
5.0
  1
１４
 50
360.0
 41
0.63
  7
EXCADSTD
 72
     5
 11
425.374492
 21
183.2
 31
0.0
100
AcDbText
  0
TEXT
  5
1F9
100
AcDbEntity
  8
LAY-6
  6
CONTINUOUS
 62
     2
100
AcDbText
 10
425.749992
 20
183.2
 30
0.0
 40
5.0
  1
）
 50
360.0
 41
0.672
  7
EXCADSTD
 72
     5
 11
428.949992
 21
183.2
 31
0.0
100
AcDbText
  0
LINE
  5
1FA
100
AcDbEntity
  8
LAY-6
  6
CONTINUOUS
 62
     1
100
AcDbLine
 10
414.999992
 20
182.7
 30
0.0
 11
428.999992
 21
182.7
 31
0.0
  0
LINE
  5
1FB
100
AcDbEntity
  8
LAY-6
  6
CONTINUOUS
 62
     1
100
AcDbLine
 10
416.999992
 20
183.033333
 30
0.0
 11
414.999992
 21
182.7
 31
0.0
  0
LINE
  5
1FC
100
AcDbEntity
  8
LAY-6
  6
CONTINUOUS
 62
     1
100
AcDbLine
 10
414.999992
 20
182.7
 30
0.0
 11
416.999992
 21
182.366667
 31
0.0
  0
LINE
  5
1FD
100
AcDbEntity
  8
LAY-6
  6
CONTINUOUS
 62
     1
100
AcDbLine
 10
426.999992
 20
182.366667
 30
0.0
 11
428.999992
 21
182.7
 31
0.0
  0
LINE
  5
1FE
100
AcDbEntity
  8
LAY-6
  6
CONTINUOUS
 62
     1
100
AcDbLine
 10
428.999992
 20
182.7
 30
0.0
 11
426.999992
 21
183.033333
 31
0.0
  0
TEXT
  5
1FF
100
AcDbEntity
  8
LAY-6
  6
CONTINUOUS
 62
     2
100
AcDbText
 10
458.797022
 20
171.90297
 30
0.0
 40
5.0
  1
　４－Ｍ５（Ｐ＝０.８）
 41
0.654222
  7
EXCADSTD
 72
     5
 11
504.797022
 21
171.90297
 31
0.0
100
AcDbText
  0
POLYLINE
  5
200
100
AcDbEntity
  8
LAY-6
  6
CONTINUOUS
 62
     1
100
AcDb2dPolyline
 66
     1
 10
0.0
 20
0.0
 30
0.0
 70
   128
  0
VERTEX
  5
201
100
AcDbEntity
  8
LAY-6
  6
CONTINUOUS
 62
     1
100
AcDbVertex
100
AcDb2dVertex
 10
430.767759
 20
199.432233
 30
0.0
  0
VERTEX
  5
202
100
AcDbEntity
  8
LAY-6
  6
CONTINUOUS
 62
     1
100
AcDbVertex
100
AcDb2dVertex
 10
458.797022
 20
171.40297
 30
0.0
  0
VERTEX
  5
203
100
AcDbEntity
  8
LAY-6
  6
CONTINUOUS
 62
     1
100
AcDbVertex
100
AcDb2dVertex
 10
517.680258
 20
171.40297
 30
0.0
  0
SEQEND
  5
204
100
AcDbEntity
  8
LAY-6
  6
CONTINUOUS
 62
     1
  0
LINE
  5
205
100
AcDbEntity
  8
LAY-6
  6
CONTINUOUS
 62
     1
100
AcDbLine
 10
432.417675
 20
198.253722
 30
0.0
 11
430.767759
 21
199.432233
 31
0.0
  0
LINE
  5
206
100
AcDbEntity
  8
LAY-6
  6
CONTINUOUS
 62
     1
100
AcDbLine
 10
430.767759
 20
199.432233
 30
0.0
 11
431.946271
 21
197.782317
 31
0.0
  0
TEXT
  5
207
100
AcDbEntity
  8
LAY-6
  6
CONTINUOUS
 62
     2
100
AcDbText
 10
76.289008
 20
273.763348
 30
0.0
 40
5.0
  1
４－Ｍ５×１０皿小ネジ（Ｐ＝０.８）（別途）
 41
0.662413
  7
EXCADSTD
 72
     5
 11
162.289008
 21
273.763348
 31
0.0
100
AcDbText
  0
POLYLINE
  5
208
100
AcDbEntity
  8
LAY-6
  6
CONTINUOUS
 62
     1
100
AcDb2dPolyline
 66
     1
 10
0.0
 20
0.0
 30
0.0
 70
   128
  0
VERTEX
  5
209
100
AcDbEntity
  8
LAY-6
  6
CONTINUOUS
 62
     1
100
AcDbVertex
100
AcDb2dVertex
 10
176.0
 20
249.0
 30
0.0
  0
VERTEX
  5
20A
100
AcDbEntity
  8
LAY-6
  6
CONTINUOUS
 62
     1
100
AcDbVertex
100
AcDb2dVertex
 10
161.99155
 20
273.263348
 30
0.0
  0
VERTEX
  5
20B
100
AcDbEntity
  8
LAY-6
  6
CONTINUOUS
 62
     1
100
AcDbVertex
100
AcDb2dVertex
 10
76.289008
 20
273.263348
 30
0.0
  0
SEQEND
  5
20C
100
AcDbEntity
  8
LAY-6
  6
CONTINUOUS
 62
     1
  0
LINE
  5
20D
100
AcDbEntity
  8
LAY-6
  6
CONTINUOUS
 62
     1
100
AcDbLine
 10
174.711325
 20
250.565384
 30
0.0
 11
176.0
 21
249.0
 31
0.0
  0
LINE
  5
20E
100
AcDbEntity
  8
LAY-6
  6
CONTINUOUS
 62
     1
100
AcDbLine
 10
176.0
 20
249.0
 30
0.0
 11
175.288675
 21
250.898717
 31
0.0
  0
TEXT
  5
20F
100
AcDbEntity
  8
LAY-6
  6
CONTINUOUS
 62
     2
100
AcDbText
 10
142.5
 20
287.140768
 30
0.0
 40
5.0
  1
裏板（別途）
 41
0.672
  7
EXCADSTD
 72
     5
 11
166.5
 21
287.140768
 31
0.0
100
AcDbText
  0
POLYLINE
  5
210
100
AcDbEntity
  8
LAY-6
  6
CONTINUOUS
 62
     1
100
AcDb2dPolyline
 66
     1
 10
0.0
 20
0.0
 30
0.0
 70
   128
  0
VERTEX
  5
211
100
AcDbEntity
  8
LAY-6
  6
CONTINUOUS
 62
     1
100
AcDbVertex
100
AcDb2dVertex
 10
182.0
 20
263.6
 30
0.0
  0
VERTEX
  5
212
100
AcDbEntity
  8
LAY-6
  6
CONTINUOUS
 62
     1
100
AcDbVertex
100
AcDb2dVertex
 10
168.697407
 20
286.640768
 30
0.0
  0
VERTEX
  5
213
100
AcDbEntity
  8
LAY-6
  6
CONTINUOUS
 62
     1
100
AcDbVertex
100
AcDb2dVertex
 10
142.5
 20
286.640768
 30
0.0
  0
SEQEND
  5
214
100
AcDbEntity
  8
LAY-6
  6
CONTINUOUS
 62
     1
  0
LINE
  5
215
100
AcDbEntity
  8
LAY-6
  6
CONTINUOUS
 62
     1
100
AcDbLine
 10
180.711325
 20
265.165384
 30
0.0
 11
182.0
 21
263.6
 31
0.0
  0
LINE
  5
216
100
AcDbEntity
  8
LAY-6
  6
CONTINUOUS
 62
     1
100
AcDbLine
 10
182.0
 20
263.6
 30
0.0
 11
181.288675
 21
265.498717
 31
0.0
  0
TEXT
  5
217
100
AcDbEntity
  8
LAY-6
  6
CONTINUOUS
 62
     2
100
AcDbText
 10
507.041832
 20
50.108022
 30
0.0
 40
8.0
  1
本図は右開きを示す。
 41
0.672
  7
EXCADSTD
 72
     5
 11
571.041833
 21
50.108022
 31
0.0
100
AcDbText
  0
TEXT
  5
218
100
AcDbEntity
  8
LAY-6
  6
CONTINUOUS
 62
     2
100
AcDbText
 10
396.499992
 20
205.45
 30
0.0
 40
5.0
  1
（
 50
90.0
 41
0.672
  7
EXCADSTD
 72
     5
 11
396.499992
 21
208.65
 31
0.0
100
AcDbText
  0
TEXT
  5
219
100
AcDbEntity
  8
LAY-6
  6
CONTINUOUS
 62
     2
100
AcDbText
 10
396.499992
 20
209.2
 30
0.0
 40
5.0
  1
２３
 50
90.0
 41
0.63
  7
EXCADSTD
 72
     5
 11
396.499992
 21
216.0745
 31
0.0
100
AcDbText
  0
TEXT
  5
21A
100
AcDbEntity
  8
LAY-6
  6
CONTINUOUS
 62
     2
100
AcDbText
 10
396.499992
 20
216.45
 30
0.0
 40
5.0
  1
）
 50
90.0
 41
0.672
  7
EXCADSTD
 72
     5
 11
396.499992
 21
219.65
 31
0.0
100
AcDbText
  0
LINE
  5
21B
100
AcDbEntity
  8
LAY-6
  6
CONTINUOUS
 62
     1
100
AcDbLine
 10
396.999992
 20
201.2
 30
0.0
 11
396.999992
 21
224.2
 31
0.0
  0
LINE
  5
21C
100
AcDbEntity
  8
LAY-6
  6
CONTINUOUS
 62
     1
100
AcDbLine
 10
396.666659
 20
203.2
 30
0.0
 11
396.999992
 21
201.2
 31
0.0
  0
LINE
  5
21D
100
AcDbEntity
  8
LAY-6
  6
CONTINUOUS
 62
     1
100
AcDbLine
 10
396.999992
 20
201.2
 30
0.0
 11
397.333326
 21
203.2
 31
0.0
  0
LINE
  5
21E
100
AcDbEntity
  8
LAY-6
  6
CONTINUOUS
 62
     1
100
AcDbLine
 10
397.333326
 20
222.2
 30
0.0
 11
396.999992
 21
224.2
 31
0.0
  0
LINE
  5
21F
100
AcDbEntity
  8
LAY-6
  6
CONTINUOUS
 62
     1
100
AcDbLine
 10
396.999992
 20
224.2
 30
0.0
 11
396.666659
 21
222.2
 31
0.0
  0
LINE
  5
220
100
AcDbEntity
  8
LAY-6
  6
CONTINUOUS
 62
     1
100
AcDbLine
 10
410.7
 20
201.2
 30
0.0
 11
395.499992
 21
201.2
 31
0.0
  0
LINE
  5
221
100
AcDbEntity
  8
LAY-6
  6
CONTINUOUS
 62
     1
100
AcDbLine
 10
411.09
 20
224.2
 30
0.0
 11
395.499992
 21
224.2
 31
0.0
  0
LINE
  5
222
100
AcDbEntity
  8
LAY-6
  6
CONTINUOUS
 62
     1
100
AcDbLine
 10
398.499992
 20
230.2
 30
0.0
 11
395.499992
 21
230.2
 31
0.0
  0
TEXT
  5
223
100
AcDbEntity
  8
LAY-6
  6
CONTINUOUS
 62
     2
100
AcDbText
 10
396.499992
 20
220.7
 30
0.0
 40
5.0
  1
（
 50
90.0
 41
0.672
  7
EXCADSTD
 72
     5
 11
396.499992
 21
223.9
 31
0.0
100
AcDbText
  0
TEXT
  5
224
100
AcDbEntity
  8
LAY-6
  6
CONTINUOUS
 62
     2
100
AcDbText
 10
396.499992
 20
224.45
 30
0.0
 40
5.0
  1
６
 50
90.0
 41
0.672
  7
EXCADSTD
 72
     5
 11
396.499992
 21
227.65
 31
0.0
100
AcDbText
  0
TEXT
  5
225
100
AcDbEntity
  8
LAY-6
  6
CONTINUOUS
 62
     2
100
AcDbText
 10
396.499992
 20
228.2
 30
0.0
 40
5.0
  1
）
 50
90.0
 41
0.672
  7
EXCADSTD
 72
     5
 11
396.499992
 21
231.4
 31
0.0
100
AcDbText
  0
LINE
  5
226
100
AcDbEntity
  8
LAY-6
  6
CONTINUOUS
 62
     1
100
AcDbLine
 10
396.999992
 20
224.2
 30
0.0
 11
396.999992
 21
233.2
 31
0.0
  0
LINE
  5
227
100
AcDbEntity
  8
LAY-6
  6
CONTINUOUS
 62
     1
100
AcDbLine
 10
396.666659
 20
232.2
 30
0.0
 11
396.999992
 21
230.2
 31
0.0
  0
LINE
  5
228
100
AcDbEntity
  8
LAY-6
  6
CONTINUOUS
 62
     1
100
AcDbLine
 10
396.999992
 20
230.2
 30
0.0
 11
397.333326
 21
232.2
 31
0.0
  0
LINE
  5
229
100
AcDbEntity
  8
LAY-6
  6
CONTINUOUS
 62
     1
100
AcDbLine
 10
179.0
 20
260.5
 30
0.0
 11
179.0
 21
275.1
 31
0.0
  0
LINE
  5
22A
100
AcDbEntity
  8
LAY-6
  6
CONTINUOUS
 62
     1
100
AcDbLine
 10
182.0
 20
264.1
 30
0.0
 11
182.0
 21
275.1
 31
0.0
  0
TEXT
  5
22B
100
AcDbEntity
  8
LAY-6
  6
CONTINUOUS
 62
     2
100
AcDbText
 10
178.5
 20
274.1
 30
0.0
 40
5.0
  1
３
 41
0.672
  7
EXCADSTD
 72
     5
 11
181.7
 21
274.1
 31
0.0
100
AcDbText
  0
LINE
  5
22C
100
AcDbEntity
  8
LAY-6
  6
CONTINUOUS
 62
     1
100
AcDbLine
 10
176.0
 20
273.6
 30
0.0
 11
182.0
 21
273.6
 31
0.0
  0
LINE
  5
22D
100
AcDbEntity
  8
LAY-6
  6
CONTINUOUS
 62
     1
100
AcDbLine
 10
177.0
 20
273.266667
 30
0.0
 11
179.0
 21
273.6
 31
0.0
  0
LINE
  5
22E
100
AcDbEntity
  8
LAY-6
  6
CONTINUOUS
 62
     1
100
AcDbLine
 10
179.0
 20
273.6
 30
0.0
 11
177.0
 21
273.933333
 31
0.0
  0
LINE
  5
22F
100
AcDbEntity
  8
LAY-6
  6
CONTINUOUS
 62
     1
100
AcDbLine
 10
186.0
 20
267.5
 30
0.0
 11
186.0
 21
275.1
 31
0.0
  0
TEXT
  5
230
100
AcDbEntity
  8
LAY-6
  6
CONTINUOUS
 62
     2
100
AcDbText
 10
184.887917
 20
280.957532
 30
0.0
 40
5.0
  1
４
 41
0.672
  7
EXCADSTD
 72
     5
 11
188.087917
 21
280.957532
 31
0.0
100
AcDbText
  0
LINE
  5
231
100
AcDbEntity
  8
LAY-6
  6
CONTINUOUS
 62
     1
100
AcDbLine
 10
182.0
 20
273.6
 30
0.0
 11
186.0
 21
273.6
 31
0.0
  0
CIRCLE
  5
232
100
AcDbEntity
  8
LAY-6
  6
CONTINUOUS
 62
     1
100
AcDbCircle
 10
182.0
 20
273.6
 30
0.0
 40
0.5
  0
CIRCLE
  5
233
100
AcDbEntity
  8
LAY-6
  6
CONTINUOUS
 62
     1
100
AcDbCircle
 10
182.0
 20
273.6
 30
0.0
 40
0.25
  0
LINE
  5
234
100
AcDbEntity
  8
LAY-6
  6
CONTINUOUS
 62
     1
100
AcDbLine
 10
189.0
 20
265.0
 30
0.0
 11
189.0
 21
275.1
 31
0.0
  0
TEXT
  5
235
100
AcDbEntity
  8
LAY-6
  6
CONTINUOUS
 62
     2
100
AcDbText
 10
185.5
 20
274.1
 30
0.0
 40
5.0
  1
３
 41
0.672
  7
EXCADSTD
 72
     5
 11
188.7
 21
274.1
 31
0.0
100
AcDbText
  0
LINE
  5
236
100
AcDbEntity
  8
LAY-6
  6
CONTINUOUS
 62
     1
100
AcDbLine
 10
186.0
 20
273.6
 30
0.0
 11
189.0
 21
273.6
 31
0.0
  0
CIRCLE
  5
237
100
AcDbEntity
  8
LAY-6
  6
CONTINUOUS
 62
     1
100
AcDbCircle
 10
186.0
 20
273.6
 30
0.0
 40
0.5
  0
CIRCLE
  5
238
100
AcDbEntity
  8
LAY-6
  6
CONTINUOUS
 62
     1
100
AcDbCircle
 10
186.0
 20
273.6
 30
0.0
 40
0.25
  0
LINE
  5
239
100
AcDbEntity
  8
LAY-6
  6
CONTINUOUS
 62
     1
100
AcDbLine
 10
200.0
 20
227.1
 30
0.0
 11
200.0
 21
275.1
 31
0.0
  0
TEXT
  5
23A
100
AcDbEntity
  8
LAY-6
  6
CONTINUOUS
 62
     2
100
AcDbText
 10
190.5
 20
274.1
 30
0.0
 40
5.0
  1
１１
 41
0.672
  7
EXCADSTD
 72
     5
 11
197.8328
 21
274.1
 31
0.0
100
AcDbText
  0
LINE
  5
23B
100
AcDbEntity
  8
LAY-6
  6
CONTINUOUS
 62
     1
100
AcDbLine
 10
189.0
 20
273.6
 30
0.0
 11
200.0
 21
273.6
 31
0.0
  0
LINE
  5
23C
100
AcDbEntity
  8
LAY-6
  6
CONTINUOUS
 62
     1
100
AcDbLine
 10
191.0
 20
273.933333
 30
0.0
 11
189.0
 21
273.6
 31
0.0
  0
LINE
  5
23D
100
AcDbEntity
  8
LAY-6
  6
CONTINUOUS
 62
     1
100
AcDbLine
 10
189.0
 20
273.6
 30
0.0
 11
191.0
 21
273.266667
 31
0.0
  0
LINE
  5
23E
100
AcDbEntity
  8
LAY-6
  6
CONTINUOUS
 62
     1
100
AcDbLine
 10
198.0
 20
273.266667
 30
0.0
 11
200.0
 21
273.6
 31
0.0
  0
LINE
  5
23F
100
AcDbEntity
  8
LAY-6
  6
CONTINUOUS
 62
     1
100
AcDbLine
 10
200.0
 20
273.6
 30
0.0
 11
198.0
 21
273.933333
 31
0.0
  0
LINE
  5
240
100
AcDbEntity
  8
LAY-6
  6
CONTINUOUS
 62
     1
100
AcDbLine
 10
184.0
 20
273.6
 30
0.0
 11
185.913878
 21
280.742691
 31
0.0
  0
LINE
  5
241
100
AcDbEntity
  8
LAY-6
  6
CONTINUOUS
 62
     1
100
AcDbLine
 10
189.0
 20
228.0
 30
0.0
 11
189.0
 21
226.0
 31
0.0
  0
LINE
  5
242
100
AcDbEntity
  8
LAY-6
  6
CONTINUOUS
 62
     1
100
AcDbLine
 10
192.0
 20
227.8
 30
0.0
 11
192.0
 21
226.0
 31
0.0
  0
TEXT
  5
243
100
AcDbEntity
  8
LAY-6
  6
CONTINUOUS
 62
     2
100
AcDbText
 10
194.0
 20
228.0
 30
0.0
 40
5.0
  1
３
 41
0.672
  7
EXCADSTD
 72
     5
 11
197.2
 21
228.0
 31
0.0
100
AcDbText
  0
LINE
  5
244
100
AcDbEntity
  8
LAY-6
  6
CONTINUOUS
 62
     1
100
AcDbLine
 10
186.0
 20
227.5
 30
0.0
 11
198.5
 21
227.5
 31
0.0
  0
LINE
  5
245
100
AcDbEntity
  8
LAY-6
  6
CONTINUOUS
 62
     1
100
AcDbLine
 10
187.0
 20
227.166667
 30
0.0
 11
189.0
 21
227.5
 31
0.0
  0
LINE
  5
246
100
AcDbEntity
  8
LAY-6
  6
CONTINUOUS
 62
     1
100
AcDbLine
 10
189.0
 20
227.5
 30
0.0
 11
187.0
 21
227.833333
 31
0.0
  0
LINE
  5
247
100
AcDbEntity
  8
LAY-6
  6
CONTINUOUS
 62
     1
100
AcDbLine
 10
194.0
 20
227.833333
 30
0.0
 11
192.0
 21
227.5
 31
0.0
  0
LINE
  5
248
100
AcDbEntity
  8
LAY-6
  6
CONTINUOUS
 62
     1
100
AcDbLine
 10
192.0
 20
227.5
 30
0.0
 11
194.0
 21
227.166667
 31
0.0
  0
TEXT
  5
249
100
AcDbEntity
  8
LAY-6
  6
CONTINUOUS
 62
     2
100
AcDbText
 10
461.47356
 20
165.711998
 30
0.0
 40
5.0
  1
（タップ穴加工付はオプション）
 41
0.672
  7
EXCADSTD
 72
     5
 11
521.47356
 21
165.711998
 31
0.0
100
AcDbText
  0
TEXT
  5
24A
100
AcDbEntity
  8
LAY-6
  6
CONTINUOUS
 62
     2
100
AcDbText
 10
334.545466
 20
223.0312
 30
0.0
 40
5.0
  1
φ
 41
0.672
  7
EXCADSTD
 72
     5
 11
337.745466
 21
223.0312
 31
0.0
100
AcDbText
  0
TEXT
  5
24B
100
AcDbEntity
  8
LAY-6
  6
CONTINUOUS
 62
     2
100
AcDbText
 10
338.545466
 20
223.0312
 30
0.0
 40
5.0
  1
１０.５
 41
0.616
  7
EXCADSTD
 72
     5
 11
352.545466
 21
223.0312
 31
0.0
100
AcDbText
  0
LINE
  5
24C
100
AcDbEntity
  8
LAY-6
  6
CONTINUOUS
 62
     1
100
AcDbLine
 10
374.749992
 20
232.7
 30
0.0
 11
385.249992
 21
232.7
 31
0.0
  0
LINE
  5
24D
100
AcDbEntity
  8
LAY-6
  6
CONTINUOUS
 62
     1
100
AcDbLine
 10
376.749992
 20
233.033333
 30
0.0
 11
374.749992
 21
232.7
 31
0.0
  0
LINE
  5
24E
100
AcDbEntity
  8
LAY-6
  6
CONTINUOUS
 62
     1
100
AcDbLine
 10
374.749992
 20
232.7
 30
0.0
 11
376.749992
 21
232.366667
 31
0.0
  0
LINE
  5
24F
100
AcDbEntity
  8
LAY-6
  6
CONTINUOUS
 62
     1
100
AcDbLine
 10
383.249992
 20
232.366667
 30
0.0
 11
385.249992
 21
232.7
 31
0.0
  0
LINE
  5
250
100
AcDbEntity
  8
LAY-6
  6
CONTINUOUS
 62
     1
100
AcDbLine
 10
385.249992
 20
232.7
 30
0.0
 11
383.249992
 21
233.033333
 31
0.0
  0
POLYLINE
  5
251
100
AcDbEntity
  8
LAY-6
  6
CONTINUOUS
 62
     1
100
AcDb2dPolyline
 66
     1
 10
0.0
 20
0.0
 30
0.0
 70
   128
  0
VERTEX
  5
252
100
AcDbEntity
  8
LAY-6
  6
CONTINUOUS
 62
     1
100
AcDbVertex
100
AcDb2dVertex
 10
379.999992
 20
232.7
 30
0.0
  0
VERTEX
  5
253
100
AcDbEntity
  8
LAY-6
  6
CONTINUOUS
 62
     1
100
AcDbVertex
100
AcDb2dVertex
 10
367.336528
 20
222.700045
 30
0.0
  0
VERTEX
  5
254
100
AcDbEntity
  8
LAY-6
  6
CONTINUOUS
 62
     1
100
AcDbVertex
100
AcDb2dVertex
 10
334.480258
 20
222.700045
 30
0.0
  0
SEQEND
  5
255
100
AcDbEntity
  8
LAY-6
  6
CONTINUOUS
 62
     1
  0
CIRCLE
  5
256
100
AcDbEntity
  8
LAY-6
  6
CONTINUOUS
 62
     1
100
AcDbCircle
 10
379.999992
 20
232.7
 30
0.0
 40
1.0
  0
CIRCLE
  5
257
100
AcDbEntity
  8
LAY-6
  6
CONTINUOUS
 62
     1
100
AcDbCircle
 10
379.999992
 20
232.7
 30
0.0
 40
0.5
  0
LINE
  5
258
100
AcDbEntity
  8
LAY-6
  6
CONTINUOUS
 62
     1
100
AcDbLine
 10
497.000018
 20
247.7
 30
0.0
 11
477.000018
 21
247.7
 31
0.0
  0
LINE
  5
259
100
AcDbEntity
  8
LAY-6
  6
CONTINUOUS
 62
     1
100
AcDbLine
 10
482.000018
 20
250.586751
 30
0.0
 11
477.000018
 21
247.7
 31
0.0
  0
LINE
  5
25A
100
AcDbEntity
  8
LAY-6
  6
CONTINUOUS
 62
     1
100
AcDbLine
 10
482.000018
 20
247.7
 30
0.0
 11
482.000018
 21
250.586751
 31
0.0
  0
TEXT
  5
25B
100
AcDbEntity
  8
LAY-6
  6
CONTINUOUS
 62
     2
100
AcDbText
 10
483.300018
 20
248.1
 30
0.0
 40
5.0
  1
ドア側
 41
0.672
  7
EXCADSTD
 72
     5
 11
495.300018
 21
248.1
 31
0.0
100
AcDbText
  0
LINE
  5
25C
100
AcDbEntity
  8
LAY-6
  6
CONTINUOUS
 62
     1
100
AcDbLine
 10
497.000018
 20
207.7
 30
0.0
 11
477.000018
 21
207.7
 31
0.0
  0
LINE
  5
25D
100
AcDbEntity
  8
LAY-6
  6
CONTINUOUS
 62
     1
100
AcDbLine
 10
482.000018
 20
210.586751
 30
0.0
 11
477.000018
 21
207.7
 31
0.0
  0
LINE
  5
25E
100
AcDbEntity
  8
LAY-6
  6
CONTINUOUS
 62
     1
100
AcDbLine
 10
482.000018
 20
207.7
 30
0.0
 11
482.000018
 21
210.586751
 31
0.0
  0
TEXT
  5
25F
100
AcDbEntity
  8
LAY-6
  6
CONTINUOUS
 62
     2
100
AcDbText
 10
483.300018
 20
208.1
 30
0.0
 40
5.0
  1
枠　側
 41
0.672
  7
EXCADSTD
 72
     5
 11
495.300018
 21
208.1
 31
0.0
100
AcDbText
  0
ARC
  5
260
100
AcDbEntity
  8
LAY-9
  6
CONTINUOUS
 62
     1
100
AcDbCircle
 10
190.6
 20
263.4
 30
0.0
 40
1.6
100
AcDbArc
 50
90.0
 51
180.0
  0
LINE
  5
261
100
AcDbEntity
  8
LAY-9
  6
CONTINUOUS
 62
     1
100
AcDbLine
 10
186.0
 20
223.6
 30
0.0
 11
186.0
 21
267.0
 31
0.0
  0
LINE
  5
262
100
AcDbEntity
  8
LAY-9
  6
CONTINUOUS
 62
     1
100
AcDbLine
 10
184.4
 20
223.6
 30
0.0
 11
184.4
 21
267.0
 31
0.0
  0
LINE
  5
263
100
AcDbEntity
  8
LAY-9
  6
CONTINUOUS
 62
     1
100
AcDbLine
 10
186.0
 20
267.0
 30
0.0
 11
199.4
 21
267.0
 31
0.0
  0
LINE
  5
264
100
AcDbEntity
  8
LAY-9
  6
CONTINUOUS
 62
     1
100
AcDbLine
 10
186.0
 20
268.6
 30
0.0
 11
199.4
 21
268.6
 31
0.0
  0
ARC
  5
265
100
AcDbEntity
  8
LAY-9
  6
CONTINUOUS
 62
     1
100
AcDbCircle
 10
186.0
 20
267.0
 30
0.0
 40
1.6
100
AcDbArc
 50
90.0
 51
180.0
  0
LINE
  5
266
100
AcDbEntity
  8
LAY-9
  6
CONTINUOUS
 62
     1
100
AcDbLine
 10
199.4
 20
268.6
 30
0.0
 11
199.4
 21
279.7
 31
0.0
  0
LINE
  5
267
100
AcDbEntity
  8
LAY-9
  6
CONTINUOUS
 62
     1
100
AcDbLine
 10
201.0
 20
268.6
 30
0.0
 11
201.0
 21
279.7
 31
0.0
  0
ARC
  5
268
100
AcDbEntity
  8
LAY-9
  6
CONTINUOUS
 62
     1
100
AcDbCircle
 10
199.4
 20
268.6
 30
0.0
 40
1.6
100
AcDbArc
 50
270.0
 51
0.0
  0
ARC
  5
269
100
AcDbEntity
  8
LAY-9
  6
CONTINUOUS
 62
     1
100
AcDbCircle
 10
184.4
 20
223.6
 30
0.0
 40
1.6
100
AcDbArc
 50
270.0
 51
0.0
  0
LINE
  5
26A
100
AcDbEntity
  8
LAY-9
  6
CONTINUOUS
 62
     1
100
AcDbLine
 10
161.0
 20
242.0
 30
0.0
 11
162.6
 21
242.0
 31
0.0
  0
LINE
  5
26B
100
AcDbEntity
  8
LAY-9
  6
CONTINUOUS
 62
     1
100
AcDbLine
 10
161.0
 20
223.6
 30
0.0
 11
161.0
 21
242.0
 31
0.0
  0
LINE
  5
26C
100
AcDbEntity
  8
LAY-9
  6
CONTINUOUS
 62
     1
100
AcDbLine
 10
162.6
 20
223.6
 30
0.0
 11
162.6
 21
242.0
 31
0.0
  0
ARC
  5
26D
100
AcDbEntity
  8
LAY-9
  6
CONTINUOUS
 62
     1
100
AcDbCircle
 10
162.6
 20
223.6
 30
0.0
 40
1.6
100
AcDbArc
 50
180.0
 51
270.0
  0
LINE
  5
26E
100
AcDbEntity
  8
LAY-9
  6
CONTINUOUS
 62
     1
100
AcDbLine
 10
189.0
 20
255.0
 30
0.0
 11
189.0
 21
263.4
 31
0.0
  0
LINE
  5
26F
100
AcDbEntity
  8
LAY-9
  6
CONTINUOUS
 62
     1
100
AcDbLine
 10
162.6
 20
223.6
 30
0.0
 11
179.0
 21
223.6
 31
0.0
  0
LINE
  5
270
100
AcDbEntity
  8
LAY-9
  6
CONTINUOUS
 62
     1
100
AcDbLine
 10
182.0
 20
223.6
 30
0.0
 11
184.4
 21
223.6
 31
0.0
  0
LINE
  5
271
100
AcDbEntity
  8
LAY-9
  6
CONTINUOUS
 62
     1
100
AcDbLine
 10
162.6
 20
222.0
 30
0.0
 11
179.0
 21
222.0
 31
0.0
  0
LINE
  5
272
100
AcDbEntity
  8
LAY-9
  6
CONTINUOUS
 62
     1
100
AcDbLine
 10
182.0
 20
222.0
 30
0.0
 11
184.4
 21
222.0
 31
0.0
  0
LINE
  5
273
100
AcDbEntity
  8
LAY-9
  6
CONTINUOUS
 62
     1
100
AcDbLine
 10
182.0
 20
263.6
 30
0.0
 11
184.4
 21
263.6
 31
0.0
  0
LINE
  5
274
100
AcDbEntity
  8
LAY-9
  6
CONTINUOUS
 62
     1
100
AcDbLine
 10
182.0
 20
263.6
 30
0.0
 11
184.4
 21
223.6
 31
0.0
  0
LINE
  5
275
100
AcDbEntity
  8
LAY-9
  6
CONTINUOUS
 62
     1
100
AcDbLine
 10
182.0
 20
223.6
 30
0.0
 11
184.4
 21
263.6
 31
0.0
  0
LINE
  5
276
100
AcDbEntity
  8
LAY-9
  6
CONTINUOUS
 62
     1
100
AcDbLine
 10
401.999992
 20
235.2
 30
0.0
 11
401.999992
 21
146.9
 31
0.0
  0
LINE
  5
277
100
AcDbEntity
  8
LAY-9
  6
CONTINUOUS
 62
     1
100
AcDbLine
 10
404.999992
 20
311.8
 30
0.0
 11
404.999992
 21
260.2
 31
0.0
  0
LINE
  5
278
100
AcDbEntity
  8
LAY-9
  6
CONTINUOUS
 62
     1
100
AcDbLine
 10
401.999992
 20
311.8
 30
0.0
 11
401.999992
 21
260.2
 31
0.0
  0
LINE
  5
279
100
AcDbEntity
  8
LAY-9
  6
CONTINUOUS
 62
     1
100
AcDbLine
 10
444.999992
 20
311.8
 30
0.0
 11
444.999992
 21
146.9
 31
0.0
  0
LINE
  5
27A
100
AcDbEntity
  8
LAY-9
  6
CONTINUOUS
 62
     1
100
AcDbLine
 10
446.999992
 20
311.8
 30
0.0
 11
446.999992
 21
146.9
 31
0.0
  0
LINE
  5
27B
100
AcDbEntity
  8
LAY-9
  6
CONTINUOUS
 62
     1
100
AcDbLine
 10
404.999992
 20
181.2
 30
0.0
 11
404.999992
 21
146.9
 31
0.0
  0
LINE
  5
27C
100
AcDbEntity
  8
LAY-9
  6
CONTINUOUS
 62
     1
100
AcDbLine
 10
404.999992
 20
235.2
 30
0.0
 11
404.999992
 21
189.7
 31
0.0
  0
LINE
  5
27D
100
AcDbEntity
  8
LAY-9
  6
CONTINUOUS
 62
     1
100
AcDbLine
 10
192.0
 20
225.0
 30
0.0
 11
239.0
 21
225.0
 31
0.0
  0
LINE
  5
27E
100
AcDbEntity
  8
LAY-9
  6
CONTINUOUS
 62
     1
100
AcDbLine
 10
190.6
 20
265.0
 30
0.0
 11
239.0
 21
265.0
 31
0.0
  0
LINE
  5
27F
100
AcDbEntity
  8
LAY-10
  6
CONTINUOUS
 62
     5
100
AcDbLine
 10
583.156
 20
10.59
 30
0.0
 11
583.156
 21
408.774
 31
0.0
  0
LINE
  5
280
100
AcDbEntity
  8
LAY-10
  6
CONTINUOUS
 62
     5
100
AcDbLine
 10
10.59
 20
10.59
 30
0.0
 11
10.59
 21
408.774
 31
0.0
  0
LINE
  5
281
100
AcDbEntity
  8
LAY-10
  6
CONTINUOUS
 62
     5
100
AcDbLine
 10
10.59
 20
408.774
 30
0.0
 11
583.156
 21
408.774
 31
0.0
  0
TEXT
  5
282
100
AcDbEntity
  8
LAY-10
  6
CONTINUOUS
 62
   134
100
AcDbText
 10
14.57
 20
16.5
 30
0.0
 40
13.0
  1
日本ドアーチエック製造株式会社
 41
0.653908
  7
EXCADSTD
 72
     5
 11
166.369994
 21
16.5
 31
0.0
100
AcDbText
  0
LINE
  5
283
100
AcDbEntity
  8
LAY-10
  6
CONTINUOUS
 62
     1
100
AcDbLine
 10
170.0
 20
35.59
 30
0.0
 11
170.0
 21
10.59
 31
0.0
  0
LINE
  5
284
100
AcDbEntity
  8
LAY-10
  6
CONTINUOUS
 62
     1
100
AcDbLine
 10
195.5
 20
35.59
 30
0.0
 11
195.5
 21
10.59
 31
0.0
  0
LINE
  5
285
100
AcDbEntity
  8
LAY-10
  6
CONTINUOUS
 62
     1
100
AcDbLine
 10
221.0
 20
35.59
 30
0.0
 11
221.0
 21
10.59
 31
0.0
  0
LINE
  5
286
100
AcDbEntity
  8
LAY-10
  6
CONTINUOUS
 62
     1
100
AcDbLine
 10
246.5
 20
35.59
 30
0.0
 11
246.5
 21
10.59
 31
0.0
  0
LINE
  5
287
100
AcDbEntity
  8
LAY-10
  6
CONTINUOUS
 62
     1
100
AcDbLine
 10
272.0
 20
35.59
 30
0.0
 11
272.0
 21
10.59
 31
0.0
  0
LINE
  5
288
100
AcDbEntity
  8
LAY-10
  6
CONTINUOUS
 62
     1
100
AcDbLine
 10
323.0
 20
35.59
 30
0.0
 11
323.0
 21
10.59
 31
0.0
  0
LINE
  5
289
100
AcDbEntity
  8
LAY-10
  6
CONTINUOUS
 62
     1
100
AcDbLine
 10
170.0
 20
27.59
 30
0.0
 11
323.0
 21
27.59
 31
0.0
  0
TEXT
  5
28A
100
AcDbEntity
  8
LAY-10
  6
CONTINUOUS
 62
     4
100
AcDbText
 10
173.5
 20
28.59
 30
0.0
 40
6.0
  1
検　  図
 41
0.57856
  7
EXCADSTD
 72
     5
 11
192.700001
 21
28.59
 31
0.0
100
AcDbText
  0
TEXT
  5
28B
100
AcDbEntity
  8
LAY-10
  6
CONTINUOUS
 62
     4
100
AcDbText
 10
199.2
 20
28.59
 30
0.0
 40
6.0
  1
担　　当
 41
0.672
  7
EXCADSTD
 72
     5
 11
218.400001
 21
28.59
 31
0.0
100
AcDbText
  0
TEXT
  5
28C
100
AcDbEntity
  8
LAY-10
  6
CONTINUOUS
 62
     4
100
AcDbText
 10
224.4
 20
28.59
 30
0.0
 40
6.0
  1
製　　図
 41
0.672
  7
EXCADSTD
 72
     5
 11
243.600001
 21
28.59
 31
0.0
100
AcDbText
  0
TEXT
  5
28D
100
AcDbEntity
  8
LAY-10
  6
CONTINUOUS
 62
     4
100
AcDbText
 10
249.9
 20
28.59
 30
0.0
 40
6.0
  1
尺　　度
 41
0.672
  7
EXCADSTD
 72
     5
 11
269.100001
 21
28.59
 31
0.0
100
AcDbText
  0
TEXT
  5
28E
100
AcDbEntity
  8
LAY-10
  6
CONTINUOUS
 62
     4
100
AcDbText
 10
285.5
 20
28.59
 30
0.0
 40
6.0
  1
作成年月日
 41
0.672
  7
EXCADSTD
 72
     5
 11
309.500001
 21
28.59
 31
0.0
100
AcDbText
  0
TEXT
  5
28F
100
AcDbEntity
  8
LAY-10
  6
CONTINUOUS
 62
     4
100
AcDbText
 10
329.0
 20
28.59
 30
0.0
 40
6.0
  1
図 面 名
 41
0.57856
  7
EXCADSTD
 72
     5
 11
348.200001
 21
28.59
 31
0.0
100
AcDbText
  0
TEXT
  5
290
100
AcDbEntity
  8
LAY-10
  6
CONTINUOUS
 62
     2
100
AcDbText
 10
252.5
 20
15.79
 30
0.0
 40
6.0
  1
１／１
 41
0.672
  7
EXCADSTD
 72
     5
 11
266.900001
 21
15.79
 31
0.0
100
AcDbText
  0
LINE
  5
291
100
AcDbEntity
  8
LAY-10
  6
CONTINUOUS
 62
     1
100
AcDbLine
 10
495.156
 20
35.59
 30
0.0
 11
495.156
 21
10.59
 31
0.0
  0
TEXT
  5
292
100
AcDbEntity
  8
LAY-10
  6
CONTINUOUS
 62
     4
100
AcDbText
 10
501.156
 20
28.59
 30
0.0
 40
6.0
  1
図面番号
 41
0.672
  7
EXCADSTD
 72
     5
 11
520.356001
 21
28.59
 31
0.0
100
AcDbText
  0
LINE
  5
293
100
AcDbEntity
  8
LAY-10
  6
CONTINUOUS
 62
     5
100
AcDbLine
 10
10.59
 20
10.59
 30
0.0
 11
583.156
 21
10.59
 31
0.0
  0
LINE
  5
294
100
AcDbEntity
  8
LAY-10
  6
CONTINUOUS
 62
     5
100
AcDbLine
 10
10.59
 20
35.59
 30
0.0
 11
583.156
 21
35.59
 31
0.0
  0
LINE
  5
295
100
AcDbEntity
  8
LAY-10
  6
CONTINUOUS
 62
     1
100
AcDbLine
 10
0.0
 20
420.0
 30
0.0
 11
19.7
 21
420.0
 31
0.0
  0
LINE
  5
296
100
AcDbEntity
  8
LAY-10
  6
CONTINUOUS
 62
     1
100
AcDbLine
 10
0.0
 20
420.0
 30
0.0
 11
0.0
 21
399.7
 31
0.0
  0
LINE
  5
297
100
AcDbEntity
  8
LAY-10
  6
CONTINUOUS
 62
     1
100
AcDbLine
 10
0.0
 20
0.0
 30
0.0
 11
0.0
 21
19.7
 31
0.0
  0
LINE
  5
298
100
AcDbEntity
  8
LAY-10
  6
CONTINUOUS
 62
     1
100
AcDbLine
 10
0.0
 20
0.0
 30
0.0
 11
20.3
 21
0.0
 31
0.0
  0
LINE
  5
299
100
AcDbEntity
  8
LAY-10
  6
CONTINUOUS
 62
     1
100
AcDbLine
 10
594.0
 20
420.0
 30
0.0
 11
594.0
 21
400.3
 31
0.0
  0
LINE
  5
29A
100
AcDbEntity
  8
LAY-10
  6
CONTINUOUS
 62
     1
100
AcDbLine
 10
594.0
 20
420.0
 30
0.0
 11
573.7
 21
420.0
 31
0.0
  0
LINE
  5
29B
100
AcDbEntity
  8
LAY-10
  6
CONTINUOUS
 62
     1
100
AcDbLine
 10
594.0
 20
0.0
 30
0.0
 11
574.3
 21
0.0
 31
0.0
  0
LINE
  5
29C
100
AcDbEntity
  8
LAY-10
  6
CONTINUOUS
 62
     1
100
AcDbLine
 10
594.0
 20
0.0
 30
0.0
 11
594.0
 21
20.3
 31
0.0
  0
TEXT
  5
29D
100
AcDbEntity
  8
LAY-10
  6
CONTINUOUS
 62
     2
100
AcDbText
 10
278.6
 20
15.79
 30
0.0
 40
6.0
  1
Ｈ１８.　３.１５
 41
0.622617
  7
EXCADSTD
 72
     5
 11
317.000002
 21
15.79
 31
0.0
100
AcDbText
  0
TEXT
  5
29E
100
AcDbEntity
  8
LAY-10
  6
CONTINUOUS
 62
     2
100
AcDbText
 10
330.828367
 20
15.864519
 30
0.0
 40
10.0
  1
ピボットヒンジ　中間吊り金具　SWD8C-5用
 41
0.527422
  7
EXCADSTD
 72
     5
 11
467.328367
 21
15.864519
 31
0.0
100
AcDbText
  0
ENDSEC
  0
SECTION
  2
OBJECTS
  0
DICTIONARY
  5
19
100
AcDbDictionary
  3
ACAD_GROUP
350
1A
  3
ACAD_MLINESTYLE
350
1B
  0
DICTIONARY
  5
1A
102
{ACAD_REACTORS
330
19
102
}
100
AcDbDictionary
  0
DICTIONARY
  5
1B
102
{ACAD_REACTORS
330
19
102
}
100
AcDbDictionary
  3
STANDARD
350
1C
  0
MLINESTYLE
  5
1C
102
{ACAD_REACTORS
330
1B
102
}
100
AcDbMlineStyle
  2
Standard
 70
     0
  3

 62
     0
 51
90.0
 52
90.0
 71
     2
 49
0.5
 62
   256
  6
ByLayer
 49
-0.5
 62
   256
  6
ByLayer
  0
ENDSEC
  0
EOF
