  0
SECTION
  2
HEADER
  9
$ACADVER
  1
AC1014
  9
$ACADMAINTVER
 70
     0
  9
$DWGCODEPAGE
  3
ANSI_932
  9
$INSBASE
 10
0.0
 20
0.0
 30
0.0
  9
$EXTMIN
 10
0.0
 20
0.0
 30
0.0
  9
$EXTMAX
 10
841.0
 20
594.0
 30
0.0
  9
$LIMMIN
 10
0.0
 20
0.0
  9
$LIMMAX
 10
841.0
 20
594.0
  9
$ORTHOMODE
 70
     0
  9
$REGENMODE
 70
     1
  9
$FILLMODE
 70
     1
  9
$QTEXTMODE
 70
     0
  9
$MIRRTEXT
 70
     1
  9
$DRAGMODE
 70
     2
  9
$LTSCALE
 40
1.0
  9
$OSMODE
 70
     0
  9
$ATTMODE
 70
     1
  9
$TEXTSIZE
 40
0.2
  9
$TRACEWID
 40
0.05
  9
$TEXTSTYLE
  7
STANDARD
  9
$CLAYER
  8
LAY-1
  9
$CELTYPE
  6
CONTINUOUS
  9
$CECOLOR
 62
   256
  9
$CELTSCALE
 40
1.0
  9
$DELOBJ
 70
     1
  9
$DISPSILH
 70
     0
  9
$DIMSCALE
 40
1.0
  9
$DIMASZ
 40
0.18
  9
$DIMEXO
 40
0.0625
  9
$DIMDLI
 40
0.38
  9
$DIMRND
 40
0.0
  9
$DIMDLE
 40
0.0
  9
$DIMEXE
 40
0.18
  9
$DIMTP
 40
0.0
  9
$DIMTM
 40
0.0
  9
$DIMTXT
 40
0.18
  9
$DIMCEN
 40
0.09
  9
$DIMTSZ
 40
0.0
  9
$DIMTOL
 70
     0
  9
$DIMLIM
 70
     0
  9
$DIMTIH
 70
     1
  9
$DIMTOH
 70
     1
  9
$DIMSE1
 70
     0
  9
$DIMSE2
 70
     0
  9
$DIMTAD
 70
     0
  9
$DIMZIN
 70
     0
  9
$DIMBLK
  1

  9
$DIMASO
 70
     1
  9
$DIMSHO
 70
     1
  9
$DIMPOST
  1

  9
$DIMAPOST
  1

  9
$DIMALT
 70
     0
  9
$DIMALTD
 70
     2
  9
$DIMALTF
 40
25.4
  9
$DIMLFAC
 40
1.0
  9
$DIMTOFL
 70
     0
  9
$DIMTVP
 40
0.0
  9
$DIMTIX
 70
     0
  9
$DIMSOXD
 70
     0
  9
$DIMSAH
 70
     0
  9
$DIMBLK1
  1

  9
$DIMBLK2
  1

  9
$DIMSTYLE
  2
STANDARD
  9
$DIMCLRD
 70
     0
  9
$DIMCLRE
 70
     0
  9
$DIMCLRT
 70
     0
  9
$DIMTFAC
 40
1.0
  9
$DIMGAP
 40
0.09
  9
$DIMJUST
 70
     0
  9
$DIMSD1
 70
     0
  9
$DIMSD2
 70
     0
  9
$DIMTOLJ
 70
     1
  9
$DIMTZIN
 70
     0
  9
$DIMALTZ
 70
     0
  9
$DIMALTTZ
 70
     0
  9
$DIMFIT
 70
     3
  9
$DIMUPT
 70
     0
  9
$DIMUNIT
 70
     2
  9
$DIMDEC
 70
     4
  9
$DIMTDEC
 70
     4
  9
$DIMALTU
 70
     2
  9
$DIMALTTD
 70
     2
  9
$DIMTXSTY
  7
STANDARD
  9
$DIMAUNIT
 70
     0
  9
$LUNITS
 70
     2
  9
$LUPREC
 70
     4
  9
$SKETCHINC
 40
0.1
  9
$FILLETRAD
 40
0.0
  9
$AUNITS
 70
     0
  9
$AUPREC
 70
     0
  9
$MENU
  1
acad
  9
$ELEVATION
 40
0.0
  9
$PELEVATION
 40
0.0
  9
$THICKNESS
 40
0.0
  9
$LIMCHECK
 70
     0
  9
$BLIPMODE
 70
     1
  9
$CHAMFERA
 40
0.0
  9
$CHAMFERB
 40
0.0
  9
$CHAMFERC
 40
0.0
  9
$CHAMFERD
 40
0.0
  9
$SKPOLY
 70
     0
  9
$TDCREATE
 40
2454542.027595278
  9
$TDUPDATE
 40
2454542.027595278
  9
$TDINDWG
 40
0.0000000000
  9
$TDUSRTIMER
 40
0.0000000000
  9
$USRTIMER
 70
     1
  9
$ANGBASE
 50
0.0
  9
$ANGDIR
 70
     0
  9
$PDMODE
 70
     0
  9
$PDSIZE
 40
0.0
  9
$PLINEWID
 40
0.0
  9
$COORDS
 70
     1
  9
$SPLFRAME
 70
     0
  9
$SPLINETYPE
 70
     6
  9
$SPLINESEGS
 70
     8
  9
$ATTDIA
 70
     0
  9
$ATTREQ
 70
     1
  9
$HANDLING
 70
     1
  9
$HANDSEED
  5
7BF
  9
$SURFTAB1
 70
     6
  9
$SURFTAB2
 70
     6
  9
$SURFTYPE
 70
     6
  9
$SURFU
 70
     6
  9
$SURFV
 70
     6
  9
$UCSNAME
  2

  9
$UCSORG
 10
0.0
 20
0.0
 30
0.0
  9
$UCSXDIR
 10
1.0
 20
0.0
 30
0.0
  9
$UCSYDIR
 10
0.0
 20
1.0
 30
0.0
  9
$PUCSNAME
  2

  9
$PUCSORG
 10
0.0
 20
0.0
 30
0.0
  9
$PUCSXDIR
 10
1.0
 20
0.0
 30
0.0
  9
$PUCSYDIR
 10
0.0
 20
1.0
 30
0.0
  9
$USERI1
 70
     0
  9
$USERI2
 70
     0
  9
$USERI3
 70
     0
  9
$USERI4
 70
     0
  9
$USERI5
 70
     0
  9
$USERR1
 40
0.0
  9
$USERR2
 40
0.0
  9
$USERR3
 40
0.0
  9
$USERR4
 40
0.0
  9
$USERR5
 40
0.0
  9
$WORLDVIEW
 70
     1
  9
$SHADEDGE
 70
     3
  9
$SHADEDIF
 70
    70
  9
$TILEMODE
 70
     1
  9
$MAXACTVP
 70
    16
  9
$PINSBASE
 10
0.0
 20
0.0
 30
0.0
  9
$PLIMCHECK
 70
     0
  9
$PEXTMIN
 10
1.000000E+20
 20
1.000000E+20
 30
1.000000E+20
  9
$PEXTMAX
 10
-1.000000E+20
 20
-1.000000E+20
 30
-1.000000E+20
  9
$PLIMMIN
 10
0.0
 20
0.0
  9
$PLIMMAX
 10
12.0
 20
9.0
  9
$UNITMODE
 70
     0
  9
$VISRETAIN
 70
     0
  9
$PLINEGEN
 70
     1
  9
$PSLTSCALE
 70
     0
  9
$TREEDEPTH
 70
  3020
  9
$PICKSTYLE
 70
     1
  9
$CMLSTYLE
  2
Standard
  9
$CMLJUST
 70
     0
  9
$CMLSCALE
 40
1.0
  9
$PROXYGRAPHICS
 70
     0
  9
$MEASUREMENT
 70
     0
  0
ENDSEC
  0
SECTION
  2
CLASSES
  0
CLASS
  1
LWPOLYLINE
  2
AcDbPolyline
  3
"AutoCAD"
 90
        0
280
     0
281
     1
  0
CLASS
  1
IMAGE
  2
AcDbRasterImage
  3
ISM
 90
      127
280
     0
281
     1
  0
CLASS
  1
OLE2FRAME
  2
AcDbOle2Frame
  3
""
 90
        0
280
     0
281
     1
  0
CLASS
  1
HATCH
  2
AcDbHatch
  3
"ACAD_SEDONA"
 90
        0
280
     0
281
     1
  0
CLASS
  1
DICTIONARYVAR
  2
AcDbDictionaryVar
  3
"AutoCAD"
 90
        0
280
     0
281
     0
  0
CLASS
  1
RASTERVARIABLES
  2
AcDbRasterVariables
  3
ISM
 90
        0
280
     0
281
     0
  0
CLASS
  1
IMAGEDEF
  2
AcDbRasterImageDef
  3
ISM
 90
        0
280
     0
281
     0
  0
CLASS
  1
IMAGEDEF_REACTOR
  2
AcDbRasterImageDefReactor
  3
ISM
 90
        1
280
     0
281
     0
  0
CLASS
  1
IDBUFFER
  2
AcDbIdBuffer
  3
"Acad"
 90
        0
280
     0
281
     0
  0
CLASS
  1
SPATIAL_FILTER
  2
AcDbSpatialFilter
  3
"Acad"
 90
        0
280
     0
281
     0
  0
CLASS
  1
XRECORD
  2
AcDbXrecord
  3
"<Built In>"
 90
        0
280
     0
281
     0
  0
CLASS
  1
SORTENTSTABLE
  2
AcDbSortentsTable
  3
"AutoCAD"
 90
        0
280
     0
281
     0
  0
CLASS
  1
LAYER_INDEX
  2
AcDbLayerIndex
  3
"Acad"
 90
        0
280
     0
281
     0
  0
CLASS
  1
SPATIAL_INDEX
  2
AcDbSpatialIndex
  3
"Acad"
 90
        0
280
     0
281
     0
  0
CLASS
  1
OBJECT_PTR
  2
CAseDLPNTableRecord
  3
"ASE-LPNTableRecord"
 90
        1
280
     0
281
     0
  0
CLASS
  1
LAYOUT
  2
AcDbLayout
  3
"AutoCAD 2000"
 90
        0
280
     0
281
     0
  0
CLASS
  1
PLOTSETTINGS
  2
AcDbPlotSettings
  3
"AutoCAD 2000"
 90
        0
280
     0
281
     0
  0
CLASS
  1
ACDBDICTIONARYWDFLT
  2
AcDbDictionaryWithDefault
  3
"AutoCAD 2000"
 90
        0
280
     0
281
     0
  0
CLASS
  1
ACDBPLACEHOLDER
  2
AcDbPlaceHolder
  3
"AutoCAD 2000"
 90
        0
280
     0
281
     0
  0
CLASS
  1
VBA_PROJECT
  2
AcDbVbaProject
  3
"acadvba"
 90
        0
280
     0
281
     0
  0
CLASS
  1
WIPEOUT
  2
AcDbWipeout
  3
WipeOut|AutoCAD Express Tool|expresstools@autodesk.com
 90
      127
280
     0
281
     1
  0
CLASS
  1
WIPEOUTVARIABLES
  2
AcDbWipeoutVariables
  3
WipeOut|AutoCAD Express Tool|expresstools@autodesk.com
 90
        0
280
     0
281
     0
  0
CLASS
  1
RTEXT
  2
RText
  3
RText|AutoCAD Express Tool|expresstools@autodesk.com
 90
        0
280
     0
281
     1
  0
CLASS
  1
ARCALIGNEDTEXT
  2
AcDbArcAlignedText
  3
ATEXT|AutoCAD Express Tool|expresstools@autodesk.com
 90
        0
280
     0
281
     1
  0
ENDSEC
  0
SECTION
  2
TABLES
  0
TABLE
  2
VPORT
  5
7
100
AcDbSymbolTable
 70
     1
  0
VPORT
  5
15
100
AcDbSymbolTableRecord
100
AcDbViewportTableRecord
  2
*ACTIVE
 70
     0
 10
0.0
 20
0.0
 11
1.0
 21
1.0
 12
420.5
 22
297.0
 13
0.0
 23
0.0
 14
1.0
 24
1.0
 15
0.0
 25
0.0
 16
0.0
 26
0.0
 36
1.0
 17
0.0
 27
0.0
 37
0.0
 40
594.0
 41
1.722533
 42
50.0
 43
0.0
 44
0.0
 50
0.0
 51
0.0
 71
     0
 72
   100
 73
     1
 74
     1
 75
     0
 76
     0
 77
     0
 78
     0
  0
ENDTAB
  0
TABLE
  2
LTYPE
  5
4
100
AcDbSymbolTable
 70
     9
  0
LTYPE
  5
11
100
AcDbSymbolTableRecord
100
AcDbLinetypeTableRecord
  2
BYBLOCK
 70
    64
  3

 72
    65
 73
     0
 40
0.0
  0
LTYPE
  5
12
100
AcDbSymbolTableRecord
100
AcDbLinetypeTableRecord
  2
BYLAYER
 70
    64
  3

 72
    65
 73
     0
 40
0.0
  0
LTYPE
  5
13
100
AcDbSymbolTableRecord
100
AcDbLinetypeTableRecord
  2
CONTINUOUS
 70
    64
  3
実線
 72
    65
 73
     0
 40
0.0
  0
LTYPE
  5
1D
100
AcDbSymbolTableRecord
100
AcDbLinetypeTableRecord
  2
DASHED
 70
    64
  3
Dashed __ __ __ __ __ __ __ __ __ __ __ __ __ _
 72
    65
 73
     2
 40
19.05
 49
12.7
 74
     0
 49
-6.35
 74
     0
  0
LTYPE
  5
1E
100
AcDbSymbolTableRecord
100
AcDbLinetypeTableRecord
  2
DASHED2
 70
    64
  3
Dashed (.5x) _ _ _ _ _ _ _ _ _ _ _ _ _ _ _ _ _ 
 72
    65
 73
     2
 40
9.525
 49
6.35
 74
     0
 49
-3.175
 74
     0
  0
LTYPE
  5
1F
100
AcDbSymbolTableRecord
100
AcDbLinetypeTableRecord
  2
DASHDOT
 70
    64
  3
Dash dot __ . __ . __ . __ . __ . __ . __ . __
 72
    65
 73
     4
 40
25.4
 49
12.7
 74
     0
 49
-6.35
 74
     0
 49
0.0
 74
     0
 49
-6.35
 74
     0
  0
LTYPE
  5
20
100
AcDbSymbolTableRecord
100
AcDbLinetypeTableRecord
  2
DIVIDE
 70
    64
  3
Divide ____ . . ____ . . ____ . . ____ . . ____
 72
    65
 73
     6
 40
31.75
 49
12.7
 74
     0
 49
-6.35
 74
     0
 49
0.0
 74
     0
 49
-6.35
 74
     0
 49
0.0
 74
     0
 49
-6.35
 74
     0
  0
LTYPE
  5
21
100
AcDbSymbolTableRecord
100
AcDbLinetypeTableRecord
  2
ACAD_ISO06W100
 70
    64
  3
ISO long-dash triple-dot ____ ... ____ ... ____
 72
    65
 73
     8
 40
36.0
 49
24.0
 74
     0
 49
-3.0
 74
     0
 49
0.0
 74
     0
 49
-3.0
 74
     0
 49
0.0
 74
     0
 49
-3.0
 74
     0
 49
0.0
 74
     0
 49
-3.0
 74
     0
  0
LTYPE
  5
22
100
AcDbSymbolTableRecord
100
AcDbLinetypeTableRecord
  2
ACAD_ISO15W100
 70
    64
  3
ISO double-dash triple-dot __ __ . . . __ __ . .
 72
    65
 73
    10
 40
39.0
 49
12.0
 74
     0
 49
-3.0
 74
     0
 49
12.0
 74
     0
 49
-3.0
 74
     0
 49
0.0
 74
     0
 49
-3.0
 74
     0
 49
0.0
 74
     0
 49
-3.0
 74
     0
 49
0.0
 74
     0
 49
-3.0
 74
     0
  0
ENDTAB
  0
TABLE
  2
LAYER
  5
2
100
AcDbSymbolTable
 70
     9
  0
LAYER
  5
14
100
AcDbSymbolTableRecord
100
AcDbLayerTableRecord
  2
0
 70
     0
 62
     7
  6
CONTINUOUS
  0
LAYER
  5
25
100
AcDbSymbolTableRecord
100
AcDbLayerTableRecord
  2
LAY-1
 70
    64
 62
     3
  6
CONTINUOUS
  0
LAYER
  5
26
100
AcDbSymbolTableRecord
100
AcDbLayerTableRecord
  2
LAY-2
 70
    64
 62
     3
  6
CONTINUOUS
  0
LAYER
  5
27
100
AcDbSymbolTableRecord
100
AcDbLayerTableRecord
  2
LAY-3
 70
    64
 62
     3
  6
CONTINUOUS
  0
LAYER
  5
28
100
AcDbSymbolTableRecord
100
AcDbLayerTableRecord
  2
LAY-4
 70
    64
 62
     3
  6
CONTINUOUS
  0
LAYER
  5
29
100
AcDbSymbolTableRecord
100
AcDbLayerTableRecord
  2
LAY-5
 70
    64
 62
     1
  6
DASHDOT
  0
LAYER
  5
2A
100
AcDbSymbolTableRecord
100
AcDbLayerTableRecord
  2
LAY-6
 70
    64
 62
     2
  6
CONTINUOUS
  0
LAYER
  5
2B
100
AcDbSymbolTableRecord
100
AcDbLayerTableRecord
  2
LAY-9
 70
    64
 62
     1
  6
CONTINUOUS
  0
LAYER
  5
2C
100
AcDbSymbolTableRecord
100
AcDbLayerTableRecord
  2
LAY-10
 70
    64
 62
     5
  6
CONTINUOUS
  0
ENDTAB
  0
TABLE
  2
STYLE
  5
3
100
AcDbSymbolTable
 70
     3
  0
STYLE
  5
17
100
AcDbSymbolTableRecord
100
AcDbTextStyleTableRecord
  2
STANDARD
 70
     0
 40
0.0
 41
1.0
 50
0.0
 71
     0
 42
0.0
  3
monotxt
  4
extfont
  0
STYLE
  5
23
100
AcDbSymbolTableRecord
100
AcDbTextStyleTableRecord
  2
EXCADSTD
 70
    64
 40
0.0
 41
1.0
 50
0.0
 71
     0
 42
0.2
  3
monotxt
  4
extfont
  0
STYLE
  5
24
100
AcDbSymbolTableRecord
100
AcDbTextStyleTableRecord
  2
EXCADVERT
 70
    68
 40
0.0
 41
1.0
 50
0.0
 71
     0
 42
0.286885
  3
monotxt
  4
extfont
  0
ENDTAB
  0
TABLE
  2
VIEW
  5
5
100
AcDbSymbolTable
 70
     0
  0
ENDTAB
  0
TABLE
  2
UCS
  5
6
100
AcDbSymbolTable
 70
     0
  0
ENDTAB
  0
TABLE
  2
APPID
  5
8
100
AcDbSymbolTable
 70
     1
  0
APPID
  5
16
100
AcDbSymbolTableRecord
100
AcDbRegAppTableRecord
  2
ACAD
 70
     0
  0
ENDTAB
  0
TABLE
  2
DIMSTYLE
  5
9
100
AcDbSymbolTable
 70
     1
  0
DIMSTYLE
105
18
100
AcDbSymbolTableRecord
100
AcDbDimStyleTableRecord
  2
STANDARD
 70
     0
  3

  4

  5

  6

  7

 40
1.0
 41
0.18
 42
0.0625
 43
0.38
 44
0.18
 45
0.0
 46
0.0
 47
0.0
 48
0.0
 71
     0
 72
     0
 73
     1
 74
     1
 75
     0
 76
     0
 77
     0
 78
     0
140
0.18
141
0.09
142
0.0
143
25.4
144
1.0
145
0.0
146
1.0
147
0.09
170
     0
171
     2
172
     1
173
     0
174
     0
175
     0
176
     0
177
     0
178
     0
270
     2
271
     4
272
     4
273
     2
274
     2
275
     0
280
     0
281
     0
282
     0
283
     1
284
     0
285
     0
286
     0
287
     3
288
     0
340
17
  0
ENDTAB
  0
TABLE
  2
BLOCK_RECORD
  5
1
100
AcDbSymbolTable
 70
    19
  0
BLOCK_RECORD
  5
A
100
AcDbSymbolTableRecord
100
AcDbBlockTableRecord
  2
*MODEL_SPACE
  0
BLOCK_RECORD
  5
B
100
AcDbSymbolTableRecord
100
AcDbBlockTableRecord
  2
*PAPER_SPACE
  0
BLOCK_RECORD
  5
2D
100
AcDbSymbolTableRecord
100
AcDbBlockTableRecord
  2
_EX_NORM
  0
BLOCK_RECORD
  5
2E
100
AcDbSymbolTableRecord
100
AcDbBlockTableRecord
  2
_EX_BNORM
  0
BLOCK_RECORD
  5
2F
100
AcDbSymbolTableRecord
100
AcDbBlockTableRecord
  2
_EX_BCIR
  0
BLOCK_RECORD
  5
30
100
AcDbSymbolTableRecord
100
AcDbBlockTableRecord
  2
_EX_RCIVIL
  0
BLOCK_RECORD
  5
31
100
AcDbSymbolTableRecord
100
AcDbBlockTableRecord
  2
_EX_SLANT
  0
BLOCK_RECORD
  5
32
100
AcDbSymbolTableRecord
100
AcDbBlockTableRecord
  2
_EX_NONE
  0
BLOCK_RECORD
  5
33
100
AcDbSymbolTableRecord
100
AcDbBlockTableRecord
  2
_EX_CIVIL
  0
BLOCK_RECORD
  5
34
100
AcDbSymbolTableRecord
100
AcDbBlockTableRecord
  2
_EX_WCIR
  0
BLOCK_RECORD
  5
35
100
AcDbSymbolTableRecord
100
AcDbBlockTableRecord
  2
_EX_WCIR2
  0
BLOCK_RECORD
  5
36
100
AcDbSymbolTableRecord
100
AcDbBlockTableRecord
  2
_EX_WNORM
  0
BLOCK_RECORD
  5
37
100
AcDbSymbolTableRecord
100
AcDbBlockTableRecord
  2
_EX_NNORM
  0
BLOCK_RECORD
  5
38
100
AcDbSymbolTableRecord
100
AcDbBlockTableRecord
  2
_EX_BBOX
  0
BLOCK_RECORD
  5
39
100
AcDbSymbolTableRecord
100
AcDbBlockTableRecord
  2
_EX_WBOX
  0
BLOCK_RECORD
  5
3A
100
AcDbSymbolTableRecord
100
AcDbBlockTableRecord
  2
_EX_INTEGRAL
  0
BLOCK_RECORD
  5
3B
100
AcDbSymbolTableRecord
100
AcDbBlockTableRecord
  2
SYM-1
  0
BLOCK_RECORD
  5
3C
100
AcDbSymbolTableRecord
100
AcDbBlockTableRecord
  2
SYM-2
  0
BLOCK_RECORD
  5
3D
100
AcDbSymbolTableRecord
100
AcDbBlockTableRecord
  2
SYM-3
  0
BLOCK_RECORD
  5
3E
100
AcDbSymbolTableRecord
100
AcDbBlockTableRecord
  2
SYM-4
  0
BLOCK_RECORD
  5
3F
100
AcDbSymbolTableRecord
100
AcDbBlockTableRecord
  2
SYM-5
  0
ENDTAB
  0
ENDSEC
  0
SECTION
  2
BLOCKS
  0
BLOCK
  5
D
100
AcDbEntity
  8
0
100
AcDbBlockBegin
  2
*MODEL_SPACE
 70
     0
 10
0.0
 20
0.0
 30
0.0
  3
*MODEL_SPACE
  1

  0
ENDBLK
  5
E
100
AcDbEntity
  8
0
100
AcDbBlockEnd
  0
BLOCK
  5
F
100
AcDbEntity
 67
     1
  8
0
100
AcDbBlockBegin
  2
*PAPER_SPACE
 70
     0
 10
0.0
 20
0.0
 30
0.0
  3
*PAPER_SPACE
  1

  0
ENDBLK
  5
10
100
AcDbEntity
 67
     1
  8
0
100
AcDbBlockEnd
  0
BLOCK
  5
40
100
AcDbEntity
  8
0
100
AcDbBlockBegin
  2
_EX_NORM
 70
     0
 10
0.0
 20
0.0
 30
0.0
  3
_EX_NORM
  1

  0
LINE
  5
41
100
AcDbEntity
  8
0
  6
CONTINUOUS
 62
     0
100
AcDbLine
 10
0.0
 20
0.0
 30
0.0
 11
-1.0
 21
0.0
 31
0.0
  0
LINE
  5
42
100
AcDbEntity
  8
0
  6
CONTINUOUS
 62
     0
100
AcDbLine
 10
0.0
 20
0.0
 30
0.0
 11
-1.0
 21
0.166667
 31
0.0
  0
LINE
  5
43
100
AcDbEntity
  8
0
  6
CONTINUOUS
 62
     0
100
AcDbLine
 10
0.0
 20
0.0
 30
0.0
 11
-1.0
 21
-0.166667
 31
0.0
  0
ENDBLK
  5
44
100
AcDbEntity
  8
0
100
AcDbBlockEnd
  0
BLOCK
  5
45
100
AcDbEntity
  8
0
100
AcDbBlockBegin
  2
_EX_BNORM
 70
     0
 10
0.0
 20
0.0
 30
0.0
  3
_EX_BNORM
  1

  0
LINE
  5
46
100
AcDbEntity
  8
0
  6
CONTINUOUS
 62
     0
100
AcDbLine
 10
0.0
 20
0.0
 30
0.0
 11
-1.0
 21
0.0
 31
0.0
  0
LINE
  5
47
100
AcDbEntity
  8
0
  6
CONTINUOUS
 62
     0
100
AcDbLine
 10
0.0
 20
0.0
 30
0.0
 11
-1.0
 21
0.166667
 31
0.0
  0
LINE
  5
48
100
AcDbEntity
  8
0
  6
CONTINUOUS
 62
     0
100
AcDbLine
 10
0.0
 20
0.0
 30
0.0
 11
-1.0
 21
-0.166667
 31
0.0
  0
LINE
  5
49
100
AcDbEntity
  8
0
  6
CONTINUOUS
 62
     0
100
AcDbLine
 10
0.0
 20
0.0
 30
0.0
 11
-1.0
 21
0.083333
 31
0.0
  0
LINE
  5
4A
100
AcDbEntity
  8
0
  6
CONTINUOUS
 62
     0
100
AcDbLine
 10
0.0
 20
0.0
 30
0.0
 11
-1.0
 21
-0.083333
 31
0.0
  0
LINE
  5
4B
100
AcDbEntity
  8
0
  6
CONTINUOUS
 62
     0
100
AcDbLine
 10
-1.0
 20
0.166667
 30
0.0
 11
-1.0
 21
-0.166667
 31
0.0
  0
ENDBLK
  5
4C
100
AcDbEntity
  8
0
100
AcDbBlockEnd
  0
BLOCK
  5
4D
100
AcDbEntity
  8
0
100
AcDbBlockBegin
  2
_EX_BCIR
 70
     0
 10
0.0
 20
0.0
 30
0.0
  3
_EX_BCIR
  1

  0
LINE
  5
4E
100
AcDbEntity
  8
0
  6
CONTINUOUS
 62
     0
100
AcDbLine
 10
0.0
 20
0.0
 30
0.0
 11
-1.0
 21
0.0
 31
0.0
  0
CIRCLE
  5
4F
100
AcDbEntity
  8
0
  6
CONTINUOUS
 62
     0
100
AcDbCircle
 10
0.0
 20
0.0
 30
0.0
 40
0.5
  0
CIRCLE
  5
50
100
AcDbEntity
  8
0
  6
CONTINUOUS
 62
     0
100
AcDbCircle
 10
0.0
 20
0.0
 30
0.0
 40
0.25
  0
ENDBLK
  5
51
100
AcDbEntity
  8
0
100
AcDbBlockEnd
  0
BLOCK
  5
52
100
AcDbEntity
  8
0
100
AcDbBlockBegin
  2
_EX_RCIVIL
 70
     0
 10
0.0
 20
0.0
 30
0.0
  3
_EX_RCIVIL
  1

  0
LINE
  5
53
100
AcDbEntity
  8
0
  6
CONTINUOUS
 62
     0
100
AcDbLine
 10
0.0
 20
0.0
 30
0.0
 11
-1.0
 21
0.0
 31
0.0
  0
LINE
  5
54
100
AcDbEntity
  8
0
  6
CONTINUOUS
 62
     0
100
AcDbLine
 10
-1.0
 20
-0.25
 30
0.0
 11
0.0
 21
-0.25
 31
0.0
  0
LINE
  5
55
100
AcDbEntity
  8
0
  6
CONTINUOUS
 62
     0
100
AcDbLine
 10
-1.0
 20
-0.125
 30
0.0
 11
0.0
 21
-0.125
 31
0.0
  0
ENDBLK
  5
56
100
AcDbEntity
  8
0
100
AcDbBlockEnd
  0
BLOCK
  5
57
100
AcDbEntity
  8
0
100
AcDbBlockBegin
  2
_EX_SLANT
 70
     0
 10
0.0
 20
0.0
 30
0.0
  3
_EX_SLANT
  1

  0
LINE
  5
58
100
AcDbEntity
  8
0
  6
CONTINUOUS
 62
     0
100
AcDbLine
 10
0.0
 20
0.0
 30
0.0
 11
-1.0
 21
0.0
 31
0.0
  0
LINE
  5
59
100
AcDbEntity
  8
0
  6
CONTINUOUS
 62
     0
100
AcDbLine
 10
0.707107
 20
0.707107
 30
0.0
 11
-0.707107
 21
-0.707107
 31
0.0
  0
ENDBLK
  5
5A
100
AcDbEntity
  8
0
100
AcDbBlockEnd
  0
BLOCK
  5
5B
100
AcDbEntity
  8
0
100
AcDbBlockBegin
  2
_EX_NONE
 70
     0
 10
0.0
 20
0.0
 30
0.0
  3
_EX_NONE
  1

  0
LINE
  5
5C
100
AcDbEntity
  8
0
  6
CONTINUOUS
 62
     0
100
AcDbLine
 10
0.0
 20
0.0
 30
0.0
 11
-1.0
 21
0.0
 31
0.0
  0
ENDBLK
  5
5D
100
AcDbEntity
  8
0
100
AcDbBlockEnd
  0
BLOCK
  5
5E
100
AcDbEntity
  8
0
100
AcDbBlockBegin
  2
_EX_CIVIL
 70
     0
 10
0.0
 20
0.0
 30
0.0
  3
_EX_CIVIL
  1

  0
LINE
  5
5F
100
AcDbEntity
  8
0
  6
CONTINUOUS
 62
     0
100
AcDbLine
 10
0.0
 20
0.0
 30
0.0
 11
-1.0
 21
0.0
 31
0.0
  0
LINE
  5
60
100
AcDbEntity
  8
0
  6
CONTINUOUS
 62
     0
100
AcDbLine
 10
-1.0
 20
0.25
 30
0.0
 11
0.0
 21
0.25
 31
0.0
  0
LINE
  5
61
100
AcDbEntity
  8
0
  6
CONTINUOUS
 62
     0
100
AcDbLine
 10
-1.0
 20
0.125
 30
0.0
 11
0.0
 21
0.125
 31
0.0
  0
ENDBLK
  5
62
100
AcDbEntity
  8
0
100
AcDbBlockEnd
  0
BLOCK
  5
63
100
AcDbEntity
  8
0
100
AcDbBlockBegin
  2
_EX_WCIR
 70
     0
 10
0.0
 20
0.0
 30
0.0
  3
_EX_WCIR
  1

  0
LINE
  5
64
100
AcDbEntity
  8
0
  6
CONTINUOUS
 62
     0
100
AcDbLine
 10
0.0
 20
0.0
 30
0.0
 11
-1.0
 21
0.0
 31
0.0
  0
CIRCLE
  5
65
100
AcDbEntity
  8
0
  6
CONTINUOUS
 62
     0
100
AcDbCircle
 10
0.0
 20
0.0
 30
0.0
 40
0.5
  0
ENDBLK
  5
66
100
AcDbEntity
  8
0
100
AcDbBlockEnd
  0
BLOCK
  5
67
100
AcDbEntity
  8
0
100
AcDbBlockBegin
  2
_EX_WCIR2
 70
     0
 10
0.0
 20
0.0
 30
0.0
  3
_EX_WCIR2
  1

  0
LINE
  5
68
100
AcDbEntity
  8
0
  6
CONTINUOUS
 62
     0
100
AcDbLine
 10
-0.5
 20
0.0
 30
0.0
 11
-1.0
 21
0.0
 31
0.0
  0
CIRCLE
  5
69
100
AcDbEntity
  8
0
  6
CONTINUOUS
 62
     0
100
AcDbCircle
 10
0.0
 20
0.0
 30
0.0
 40
0.5
  0
ENDBLK
  5
6A
100
AcDbEntity
  8
0
100
AcDbBlockEnd
  0
BLOCK
  5
6B
100
AcDbEntity
  8
0
100
AcDbBlockBegin
  2
_EX_WNORM
 70
     0
 10
0.0
 20
0.0
 30
0.0
  3
_EX_WNORM
  1

  0
LINE
  5
6C
100
AcDbEntity
  8
0
  6
CONTINUOUS
 62
     0
100
AcDbLine
 10
-1.0
 20
0.0
 30
0.0
 11
-1.0
 21
0.0
 31
0.0
  0
LINE
  5
6D
100
AcDbEntity
  8
0
  6
CONTINUOUS
 62
     0
100
AcDbLine
 10
0.0
 20
0.0
 30
0.0
 11
-1.0
 21
0.166667
 31
0.0
  0
LINE
  5
6E
100
AcDbEntity
  8
0
  6
CONTINUOUS
 62
     0
100
AcDbLine
 10
0.0
 20
0.0
 30
0.0
 11
-1.0
 21
-0.166667
 31
0.0
  0
LINE
  5
6F
100
AcDbEntity
  8
0
  6
CONTINUOUS
 62
     0
100
AcDbLine
 10
-1.0
 20
0.166667
 30
0.0
 11
-1.0
 21
-0.166667
 31
0.0
  0
ENDBLK
  5
70
100
AcDbEntity
  8
0
100
AcDbBlockEnd
  0
BLOCK
  5
71
100
AcDbEntity
  8
0
100
AcDbBlockBegin
  2
_EX_NNORM
 70
     0
 10
0.0
 20
0.0
 30
0.0
  3
_EX_NNORM
  1

  0
LINE
  5
72
100
AcDbEntity
  8
0
  6
CONTINUOUS
 62
     0
100
AcDbLine
 10
0.0
 20
0.0
 30
0.0
 11
-1.0
 21
0.0
 31
0.0
  0
LINE
  5
73
100
AcDbEntity
  8
0
  6
CONTINUOUS
 62
     0
100
AcDbLine
 10
0.0
 20
0.0
 30
0.0
 11
-1.0
 21
0.166667
 31
0.0
  0
LINE
  5
74
100
AcDbEntity
  8
0
  6
CONTINUOUS
 62
     0
100
AcDbLine
 10
0.0
 20
0.0
 30
0.0
 11
-1.0
 21
-0.166667
 31
0.0
  0
LINE
  5
75
100
AcDbEntity
  8
0
  6
CONTINUOUS
 62
     0
100
AcDbLine
 10
-1.0
 20
0.166667
 30
0.0
 11
-1.0
 21
-0.166667
 31
0.0
  0
ENDBLK
  5
76
100
AcDbEntity
  8
0
100
AcDbBlockEnd
  0
BLOCK
  5
77
100
AcDbEntity
  8
0
100
AcDbBlockBegin
  2
_EX_BBOX
 70
     0
 10
0.0
 20
0.0
 30
0.0
  3
_EX_BBOX
  1

  0
LINE
  5
78
100
AcDbEntity
  8
0
  6
CONTINUOUS
 62
     0
100
AcDbLine
 10
0.0
 20
0.0
 30
0.0
 11
-1.0
 21
0.0
 31
0.0
  0
LINE
  5
79
100
AcDbEntity
  8
0
  6
CONTINUOUS
 62
     0
100
AcDbLine
 10
-0.5
 20
0.5
 30
0.0
 11
0.5
 21
0.5
 31
0.0
  0
LINE
  5
7A
100
AcDbEntity
  8
0
  6
CONTINUOUS
 62
     0
100
AcDbLine
 10
0.5
 20
0.5
 30
0.0
 11
0.5
 21
-0.5
 31
0.0
  0
LINE
  5
7B
100
AcDbEntity
  8
0
  6
CONTINUOUS
 62
     0
100
AcDbLine
 10
0.5
 20
-0.5
 30
0.0
 11
-0.5
 21
-0.5
 31
0.0
  0
LINE
  5
7C
100
AcDbEntity
  8
0
  6
CONTINUOUS
 62
     0
100
AcDbLine
 10
-0.5
 20
-0.5
 30
0.0
 11
-0.5
 21
0.5
 31
0.0
  0
LINE
  5
7D
100
AcDbEntity
  8
0
  6
CONTINUOUS
 62
     0
100
AcDbLine
 10
-0.25
 20
0.25
 30
0.0
 11
0.25
 21
0.25
 31
0.0
  0
LINE
  5
7E
100
AcDbEntity
  8
0
  6
CONTINUOUS
 62
     0
100
AcDbLine
 10
0.25
 20
0.25
 30
0.0
 11
0.25
 21
-0.25
 31
0.0
  0
LINE
  5
7F
100
AcDbEntity
  8
0
  6
CONTINUOUS
 62
     0
100
AcDbLine
 10
0.25
 20
-0.25
 30
0.0
 11
-0.25
 21
-0.25
 31
0.0
  0
LINE
  5
80
100
AcDbEntity
  8
0
  6
CONTINUOUS
 62
     0
100
AcDbLine
 10
-0.25
 20
-0.25
 30
0.0
 11
-0.25
 21
0.25
 31
0.0
  0
ENDBLK
  5
81
100
AcDbEntity
  8
0
100
AcDbBlockEnd
  0
BLOCK
  5
82
100
AcDbEntity
  8
0
100
AcDbBlockBegin
  2
_EX_WBOX
 70
     0
 10
0.0
 20
0.0
 30
0.0
  3
_EX_WBOX
  1

  0
LINE
  5
83
100
AcDbEntity
  8
0
  6
CONTINUOUS
 62
     0
100
AcDbLine
 10
-0.5
 20
0.0
 30
0.0
 11
-1.0
 21
0.0
 31
0.0
  0
LINE
  5
84
100
AcDbEntity
  8
0
  6
CONTINUOUS
 62
     0
100
AcDbLine
 10
-0.5
 20
0.5
 30
0.0
 11
0.5
 21
0.5
 31
0.0
  0
LINE
  5
85
100
AcDbEntity
  8
0
  6
CONTINUOUS
 62
     0
100
AcDbLine
 10
0.5
 20
0.5
 30
0.0
 11
0.5
 21
-0.5
 31
0.0
  0
LINE
  5
86
100
AcDbEntity
  8
0
  6
CONTINUOUS
 62
     0
100
AcDbLine
 10
0.5
 20
-0.5
 30
0.0
 11
-0.5
 21
-0.5
 31
0.0
  0
LINE
  5
87
100
AcDbEntity
  8
0
  6
CONTINUOUS
 62
     0
100
AcDbLine
 10
-0.5
 20
-0.5
 30
0.0
 11
-0.5
 21
0.5
 31
0.0
  0
ENDBLK
  5
88
100
AcDbEntity
  8
0
100
AcDbBlockEnd
  0
BLOCK
  5
89
100
AcDbEntity
  8
0
100
AcDbBlockBegin
  2
_EX_INTEGRAL
 70
     0
 10
0.0
 20
0.0
 30
0.0
  3
_EX_INTEGRAL
  1

  0
LINE
  5
8A
100
AcDbEntity
  8
0
  6
CONTINUOUS
 62
     0
100
AcDbLine
 10
0.0
 20
0.0
 30
0.0
 11
-1.0
 21
0.0
 31
0.0
  0
ARC
  5
8B
100
AcDbEntity
  8
0
  6
CONTINUOUS
 62
     0
100
AcDbCircle
 10
0.542115
 20
0.164992
 30
0.0
 40
0.56667
100
AcDbArc
 50
73.07249
 51
196.927513
  0
ARC
  5
8C
100
AcDbEntity
  8
0
  6
CONTINUOUS
 62
     0
100
AcDbCircle
 10
-0.542115
 20
-0.164992
 30
0.0
 40
0.56667
100
AcDbArc
 50
253.072487
 51
16.927513
  0
ENDBLK
  5
8D
100
AcDbEntity
  8
0
100
AcDbBlockEnd
  0
BLOCK
  5
8E
100
AcDbEntity
  8
0
100
AcDbBlockBegin
  2
SYM-1
 70
     0
 10
0.0
 20
0.0
 30
0.0
  3
SYM-1
  1

  0
TEXT
  5
8F
100
AcDbEntity
  8
0
  6
CONTINUOUS
 62
     2
100
AcDbText
 10
-2.7
 20
-1.0
 30
0.0
 40
5.0
  1
Ｐ
 41
0.672
  7
EXCADSTD
 72
     5
 11
0.5
 21
-1.0
 31
0.0
100
AcDbText
  0
TEXT
  5
90
100
AcDbEntity
  8
0
  6
CONTINUOUS
 62
     2
100
AcDbText
 10
-1.8
 20
-0.9
 30
0.0
 40
5.0
  1
Ｌ
 41
0.672
  7
EXCADSTD
 72
     5
 11
1.4
 21
-0.9
 31
0.0
100
AcDbText
  0
ENDBLK
  5
91
100
AcDbEntity
  8
0
100
AcDbBlockEnd
  0
BLOCK
  5
92
100
AcDbEntity
  8
0
100
AcDbBlockBegin
  2
SYM-2
 70
     0
 10
0.0
 20
0.0
 30
0.0
  3
SYM-2
  1

  0
TEXT
  5
93
100
AcDbEntity
  8
0
  6
CONTINUOUS
 62
     2
100
AcDbText
 10
-2.828427
 20
-2.828427
 30
0.0
 40
5.656854
  1
２
 41
0.84
  7
EXCADSTD
 72
     5
 11
1.697056
 21
-2.828427
 31
0.0
100
AcDbText
  0
CIRCLE
  5
94
100
AcDbEntity
  8
0
  6
CONTINUOUS
 62
     1
100
AcDbCircle
 10
0.0
 20
0.0
 30
0.0
 40
4.0
  0
TEXT
  5
95
100
AcDbEntity
  8
0
  6
CONTINUOUS
 62
     2
100
AcDbText
 10
6.6
 20
-3.2
 30
0.0
 40
7.0
  1
トップピボット（ドア側）
 41
0.672
  7
EXCADSTD
 72
     5
 11
73.799999
 21
-3.2
 31
0.0
100
AcDbText
  0
LINE
  5
96
100
AcDbEntity
  8
0
  6
CONTINUOUS
 62
     1
100
AcDbLine
 10
4.0
 20
-3.7
 30
0.0
 11
71.0
 21
-3.7
 31
0.0
  0
ENDBLK
  5
97
100
AcDbEntity
  8
0
100
AcDbBlockEnd
  0
BLOCK
  5
98
100
AcDbEntity
  8
0
100
AcDbBlockBegin
  2
SYM-3
 70
     0
 10
0.0
 20
0.0
 30
0.0
  3
SYM-3
  1

  0
TEXT
  5
99
100
AcDbEntity
  8
0
  6
CONTINUOUS
 62
     2
100
AcDbText
 10
-2.828427
 20
-2.828427
 30
0.0
 40
5.656854
  1
３
 41
0.84
  7
EXCADSTD
 72
     5
 11
1.697056
 21
-2.828427
 31
0.0
100
AcDbText
  0
CIRCLE
  5
9A
100
AcDbEntity
  8
0
  6
CONTINUOUS
 62
     1
100
AcDbCircle
 10
0.0
 20
0.0
 30
0.0
 40
4.0
  0
TEXT
  5
9B
100
AcDbEntity
  8
0
  6
CONTINUOUS
 62
     2
100
AcDbText
 10
6.6
 20
-3.2
 30
0.0
 40
7.0
  1
ア　ー　ム
 41
0.672
  7
EXCADSTD
 72
     5
 11
34.6
 21
-3.2
 31
0.0
100
AcDbText
  0
LINE
  5
9C
100
AcDbEntity
  8
0
  6
CONTINUOUS
 62
     1
100
AcDbLine
 10
4.0
 20
-3.7
 30
0.0
 11
34.9
 21
-3.7
 31
0.0
  0
ENDBLK
  5
9D
100
AcDbEntity
  8
0
100
AcDbBlockEnd
  0
BLOCK
  5
9E
100
AcDbEntity
  8
0
100
AcDbBlockBegin
  2
SYM-4
 70
     0
 10
0.0
 20
0.0
 30
0.0
  3
SYM-4
  1

  0
TEXT
  5
9F
100
AcDbEntity
  8
0
  6
CONTINUOUS
 62
     2
100
AcDbText
 10
-2.828427
 20
-2.828427
 30
0.0
 40
5.656854
  1
４
 41
0.84
  7
EXCADSTD
 72
     5
 11
1.697056
 21
-2.828427
 31
0.0
100
AcDbText
  0
CIRCLE
  5
A0
100
AcDbEntity
  8
0
  6
CONTINUOUS
 62
     1
100
AcDbCircle
 10
0.0
 20
0.0
 30
0.0
 40
4.0
  0
TEXT
  5
A1
100
AcDbEntity
  8
0
  6
CONTINUOUS
 62
     2
100
AcDbText
 10
6.6
 20
-3.2
 30
0.0
 40
7.0
  1
床面軸座
 41
0.672
  7
EXCADSTD
 72
     5
 11
29.0
 21
-3.2
 31
0.0
100
AcDbText
  0
LINE
  5
A2
100
AcDbEntity
  8
0
  6
CONTINUOUS
 62
     1
100
AcDbLine
 10
4.0
 20
-3.7
 30
0.0
 11
29.3
 21
-3.7
 31
0.0
  0
ENDBLK
  5
A3
100
AcDbEntity
  8
0
100
AcDbBlockEnd
  0
BLOCK
  5
A4
100
AcDbEntity
  8
0
100
AcDbBlockBegin
  2
SYM-5
 70
     0
 10
0.0
 20
0.0
 30
0.0
  3
SYM-5
  1

  0
TEXT
  5
A5
100
AcDbEntity
  8
0
  6
CONTINUOUS
 62
     2
100
AcDbText
 10
-2.828427
 20
-2.828427
 30
0.0
 40
5.656854
  1
１
 41
0.84
  7
EXCADSTD
 72
     5
 11
1.697056
 21
-2.828427
 31
0.0
100
AcDbText
  0
CIRCLE
  5
A6
100
AcDbEntity
  8
0
  6
CONTINUOUS
 62
     1
100
AcDbCircle
 10
0.0
 20
0.0
 30
0.0
 40
4.0
  0
TEXT
  5
A7
100
AcDbEntity
  8
0
  6
CONTINUOUS
 62
     2
100
AcDbText
 10
6.6
 20
-3.2
 30
0.0
 40
7.0
  1
トップピボット（上枠側）
 41
0.672
  7
EXCADSTD
 72
     5
 11
73.799999
 21
-3.2
 31
0.0
100
AcDbText
  0
LINE
  5
A8
100
AcDbEntity
  8
0
  6
CONTINUOUS
 62
     1
100
AcDbLine
 10
4.0
 20
-3.7
 30
0.0
 11
70.1
 21
-3.7
 31
0.0
  0
ENDBLK
  5
A9
100
AcDbEntity
  8
0
100
AcDbBlockEnd
  0
ENDSEC
  0
SECTION
  2
ENTITIES
  0
LINE
  5
AA
100
AcDbEntity
  8
LAY-1
  6
CONTINUOUS
 62
     3
100
AcDbLine
 10
200.971329
 20
419.009826
 30
0.0
 11
200.971329
 21
416.809814
 31
0.0
  0
LINE
  5
AB
100
AcDbEntity
  8
LAY-1
  6
CONTINUOUS
 62
     3
100
AcDbLine
 10
188.471329
 20
419.009826
 30
0.0
 11
188.471329
 21
416.809814
 31
0.0
  0
LINE
  5
AC
100
AcDbEntity
  8
LAY-1
  6
CONTINUOUS
 62
     3
100
AcDbLine
 10
335.721344
 20
419.809814
 30
0.0
 11
153.721344
 21
419.809814
 31
0.0
  0
LINE
  5
AD
100
AcDbEntity
  8
LAY-1
  6
CONTINUOUS
 62
     3
100
AcDbLine
 10
335.721344
 20
419.009826
 30
0.0
 11
153.721344
 21
419.009826
 31
0.0
  0
LINE
  5
AE
100
AcDbEntity
  8
LAY-1
  6
CONTINUOUS
 62
     3
100
AcDbLine
 10
335.721344
 20
419.809814
 30
0.0
 11
335.721344
 21
419.009826
 31
0.0
  0
LINE
  5
AF
100
AcDbEntity
  8
LAY-1
  6
CONTINUOUS
 62
     3
100
AcDbLine
 10
153.721344
 20
419.809814
 30
0.0
 11
153.721344
 21
419.009826
 31
0.0
  0
LINE
  5
B0
100
AcDbEntity
  8
LAY-1
  6
CONTINUOUS
 62
     3
100
AcDbLine
 10
160.721344
 20
419.809814
 30
0.0
 11
160.721344
 21
425.809814
 31
0.0
  0
LINE
  5
B1
100
AcDbEntity
  8
LAY-1
  6
CONTINUOUS
 62
     3
100
AcDbLine
 10
329.721344
 20
419.809814
 30
0.0
 11
329.721344
 21
425.809814
 31
0.0
  0
LINE
  5
B2
100
AcDbEntity
  8
LAY-1
  6
CONTINUOUS
 62
     3
100
AcDbLine
 10
160.721344
 20
425.809814
 30
0.0
 11
329.721344
 21
425.809814
 31
0.0
  0
LINE
  5
B3
100
AcDbEntity
  8
LAY-1
  6
DASHED2
 62
     3
100
AcDbLine
 10
175.721329
 20
420.209838
 30
0.0
 11
163.721344
 21
420.209838
 31
0.0
  0
LINE
  5
B4
100
AcDbEntity
  8
LAY-1
  6
DASHED2
 62
     3
100
AcDbLine
 10
173.071335
 20
423.209838
 30
0.0
 11
166.371308
 21
423.209838
 31
0.0
  0
LINE
  5
B5
100
AcDbEntity
  8
LAY-1
  6
DASHED2
 62
     3
100
AcDbLine
 10
166.371308
 20
423.209838
 30
0.0
 11
163.721344
 21
420.209838
 31
0.0
  0
LINE
  5
B6
100
AcDbEntity
  8
LAY-1
  6
DASHED2
 62
     3
100
AcDbLine
 10
173.071335
 20
423.209838
 30
0.0
 11
175.721329
 21
420.209838
 31
0.0
  0
LINE
  5
B7
100
AcDbEntity
  8
LAY-1
  6
DASHED2
 62
     3
100
AcDbLine
 10
163.721344
 20
420.209838
 30
0.0
 11
163.721344
 21
419.809814
 31
0.0
  0
LINE
  5
B8
100
AcDbEntity
  8
LAY-1
  6
DASHED2
 62
     3
100
AcDbLine
 10
175.721329
 20
420.209838
 30
0.0
 11
175.721329
 21
419.809814
 31
0.0
  0
LINE
  5
B9
100
AcDbEntity
  8
LAY-1
  6
CONTINUOUS
 62
     3
100
AcDbLine
 10
166.371308
 20
435.809814
 30
0.0
 11
173.071335
 21
435.809814
 31
0.0
  0
LINE
  5
BA
100
AcDbEntity
  8
LAY-1
  6
DASHED2
 62
     3
100
AcDbLine
 10
166.371308
 20
423.209838
 30
0.0
 11
166.371308
 21
425.809814
 31
0.0
  0
LINE
  5
BB
100
AcDbEntity
  8
LAY-1
  6
DASHED2
 62
     3
100
AcDbLine
 10
173.07132
 20
425.809814
 30
0.0
 11
173.071335
 21
423.209838
 31
0.0
  0
LINE
  5
BC
100
AcDbEntity
  8
LAY-1
  6
DASHED2
 62
     1
100
AcDbLine
 10
167.121308
 20
423.209838
 30
0.0
 11
167.121308
 21
425.809814
 31
0.0
  0
LINE
  5
BD
100
AcDbEntity
  8
LAY-1
  6
DASHED2
 62
     1
100
AcDbLine
 10
172.321305
 20
423.209838
 30
0.0
 11
172.321305
 21
425.809814
 31
0.0
  0
CIRCLE
  5
BE
100
AcDbEntity
  8
LAY-1
  6
CONTINUOUS
 62
     3
100
AcDbCircle
 10
274.721314
 20
437.309814
 30
0.0
 40
3.5
  0
ARC
  5
BF
100
AcDbEntity
  8
LAY-1
  6
CONTINUOUS
 62
     3
100
AcDbCircle
 10
274.721314
 20
437.309814
 30
0.0
 40
6.0
100
AcDbArc
 50
0.0
 51
180.00002
  0
ARC
  5
C0
100
AcDbEntity
  8
LAY-1
  6
CONTINUOUS
 62
     3
100
AcDbCircle
 10
295.721314
 20
441.309814
 30
0.0
 40
6.0
100
AcDbArc
 50
305.685646
 51
234.314969
  0
LINE
  5
C1
100
AcDbEntity
  8
LAY-1
  6
CONTINUOUS
 62
     3
100
AcDbLine
 10
290.621338
 20
425.809875
 30
0.0
 11
290.621338
 21
431.809875
 31
0.0
  0
LINE
  5
C2
100
AcDbEntity
  8
LAY-1
  6
CONTINUOUS
 62
     3
100
AcDbLine
 10
300.821351
 20
425.809875
 30
0.0
 11
300.821351
 21
431.809875
 31
0.0
  0
LINE
  5
C3
100
AcDbEntity
  8
LAY-1
  6
CONTINUOUS
 62
     3
100
AcDbLine
 10
290.621338
 20
431.809875
 30
0.0
 11
300.821351
 21
431.809875
 31
0.0
  0
LINE
  5
C4
100
AcDbEntity
  8
LAY-1
  6
CONTINUOUS
 62
     1
100
AcDbLine
 10
291.221344
 20
425.809875
 30
0.0
 11
291.221344
 21
431.809875
 31
0.0
  0
LINE
  5
C5
100
AcDbEntity
  8
LAY-1
  6
CONTINUOUS
 62
     1
100
AcDbLine
 10
300.221344
 20
425.809875
 30
0.0
 11
300.221344
 21
431.809875
 31
0.0
  0
LINE
  5
C6
100
AcDbEntity
  8
LAY-1
  6
CONTINUOUS
 62
     3
100
AcDbLine
 10
292.221344
 20
436.436401
 30
0.0
 11
292.221344
 21
431.809875
 31
0.0
  0
LINE
  5
C7
100
AcDbEntity
  8
LAY-1
  6
CONTINUOUS
 62
     3
100
AcDbLine
 10
299.221344
 20
436.436401
 30
0.0
 11
299.221344
 21
431.809875
 31
0.0
  0
LINE
  5
C8
100
AcDbEntity
  8
LAY-1
  6
CONTINUOUS
 62
     3
100
AcDbLine
 10
292.221344
 20
436.436401
 30
0.0
 11
299.221375
 21
436.436401
 31
0.0
  0
LINE
  5
C9
100
AcDbEntity
  8
LAY-1
  6
CONTINUOUS
 62
     3
100
AcDbLine
 10
280.721314
 20
437.309814
 30
0.0
 11
280.721314
 21
425.809875
 31
0.0
  0
LINE
  5
CA
100
AcDbEntity
  8
LAY-1
  6
CONTINUOUS
 62
     3
100
AcDbLine
 10
268.721314
 20
437.309814
 30
0.0
 11
268.721314
 21
425.809875
 31
0.0
  0
LINE
  5
CB
100
AcDbEntity
  8
LAY-1
  6
DASHED2
 62
     3
100
AcDbLine
 10
310.721314
 20
420.209789
 30
0.0
 11
322.721314
 21
420.209789
 31
0.0
  0
LINE
  5
CC
100
AcDbEntity
  8
LAY-1
  6
DASHED2
 62
     3
100
AcDbLine
 10
313.371308
 20
423.209789
 30
0.0
 11
320.071351
 21
423.209789
 31
0.0
  0
LINE
  5
CD
100
AcDbEntity
  8
LAY-1
  6
DASHED2
 62
     3
100
AcDbLine
 10
320.071351
 20
423.209789
 30
0.0
 11
322.721314
 21
420.209789
 31
0.0
  0
LINE
  5
CE
100
AcDbEntity
  8
LAY-1
  6
DASHED2
 62
     3
100
AcDbLine
 10
313.371308
 20
423.209789
 30
0.0
 11
310.721314
 21
420.209789
 31
0.0
  0
LINE
  5
CF
100
AcDbEntity
  8
LAY-1
  6
DASHED2
 62
     3
100
AcDbLine
 10
322.721314
 20
420.209789
 30
0.0
 11
322.721314
 21
419.809826
 31
0.0
  0
LINE
  5
D0
100
AcDbEntity
  8
LAY-1
  6
DASHED2
 62
     3
100
AcDbLine
 10
310.721314
 20
420.209789
 30
0.0
 11
310.721314
 21
419.809826
 31
0.0
  0
LINE
  5
D1
100
AcDbEntity
  8
LAY-1
  6
CONTINUOUS
 62
     3
100
AcDbLine
 10
320.07132
 20
435.809826
 30
0.0
 11
313.371308
 21
435.809826
 31
0.0
  0
LINE
  5
D2
100
AcDbEntity
  8
LAY-1
  6
DASHED2
 62
     3
100
AcDbLine
 10
320.07132
 20
423.209789
 30
0.0
 11
320.07132
 21
425.009765
 31
0.0
  0
LINE
  5
D3
100
AcDbEntity
  8
LAY-1
  6
DASHED2
 62
     3
100
AcDbLine
 10
313.371308
 20
425.009765
 30
0.0
 11
313.371308
 21
423.209789
 31
0.0
  0
LINE
  5
D4
100
AcDbEntity
  8
LAY-1
  6
DASHED2
 62
     1
100
AcDbLine
 10
319.321351
 20
423.209789
 30
0.0
 11
319.321351
 21
425.009765
 31
0.0
  0
LINE
  5
D5
100
AcDbEntity
  8
LAY-1
  6
DASHED2
 62
     1
100
AcDbLine
 10
314.121338
 20
423.209789
 30
0.0
 11
314.121338
 21
425.009765
 31
0.0
  0
ARC
  5
D6
100
AcDbEntity
  8
LAY-1
  6
CONTINUOUS
 62
     3
100
AcDbCircle
 10
295.721314
 20
441.309814
 30
0.0
 40
11.0
100
AcDbArc
 50
333.214091
 51
359.999982
  0
ARC
  5
D7
100
AcDbEntity
  8
LAY-1
  6
CONTINUOUS
 62
     3
100
AcDbCircle
 10
294.721314
 20
443.809814
 30
0.0
 40
12.0
100
AcDbArc
 50
0.0
 51
94.76361
  0
LINE
  5
D8
100
AcDbEntity
  8
LAY-1
  6
CONTINUOUS
 62
     3
100
AcDbLine
 10
306.721314
 20
443.809814
 30
0.0
 11
306.721314
 21
441.309814
 31
0.0
  0
ARC
  5
D9
100
AcDbEntity
  8
LAY-1
  6
CONTINUOUS
 62
     3
100
AcDbCircle
 10
303.327973
 20
437.706359
 30
0.0
 40
2.5
100
AcDbArc
 50
180.00002
 51
328.367269
  0
LINE
  5
DA
100
AcDbEntity
  8
LAY-1
  6
CONTINUOUS
 62
     3
100
AcDbLine
 10
293.721314
 20
455.809814
 30
0.0
 11
206.721314
 21
433.309814
 31
0.0
  0
LINE
  5
DB
100
AcDbEntity
  8
LAY-1
  6
CONTINUOUS
 62
     3
100
AcDbLine
 10
291.721314
 20
436.837646
 30
0.0
 11
291.721314
 21
434.101867
 31
0.0
  0
LINE
  5
DC
100
AcDbEntity
  8
LAY-1
  6
CONTINUOUS
 62
     3
100
AcDbLine
 10
280.721314
 20
430.721618
 30
0.0
 11
290.950348
 21
433.128417
 31
0.0
  0
ARC
  5
DD
100
AcDbEntity
  8
LAY-1
  6
CONTINUOUS
 62
     3
100
AcDbCircle
 10
290.721314
 20
434.101867
 30
0.0
 40
1.0
100
AcDbArc
 50
283.240597
 51
359.999982
  0
LINE
  5
DE
100
AcDbEntity
  8
LAY-1
  6
CONTINUOUS
 62
     3
100
AcDbLine
 10
268.721314
 20
429.133361
 30
0.0
 11
258.991913
 21
428.847106
 31
0.0
  0
LINE
  5
DF
100
AcDbEntity
  8
LAY-1
  6
CONTINUOUS
 62
     3
100
AcDbLine
 10
206.721314
 20
427.309814
 30
0.0
 11
249.448853
 21
428.566467
 31
0.0
  0
ARC
  5
E0
100
AcDbEntity
  8
LAY-1
  6
CONTINUOUS
 62
     3
100
AcDbCircle
 10
249.478257
 20
427.566894
 30
0.0
 40
1.0
100
AcDbArc
 50
32.083058
 51
91.684649
  0
ARC
  5
E1
100
AcDbEntity
  8
LAY-1
  6
CONTINUOUS
 62
     3
100
AcDbCircle
 10
259.021317
 20
427.847594
 30
0.0
 40
1.0
100
AcDbArc
 50
91.684764
 51
180.00002
  0
ARC
  5
E2
100
AcDbEntity
  8
LAY-1
  6
DASHED2
 62
     3
100
AcDbCircle
 10
256.074692
 20
420.809814
 30
0.0
 40
1.0
100
AcDbArc
 50
212.083135
 51
270.000001
  0
ARC
  5
E3
100
AcDbEntity
  8
LAY-1
  6
DASHED2
 62
     3
100
AcDbCircle
 10
257.021317
 20
420.809814
 30
0.0
 40
1.0
100
AcDbArc
 50
270.000001
 51
359.999982
  0
LINE
  5
E4
100
AcDbEntity
  8
LAY-1
  6
CONTINUOUS
 62
     3
100
AcDbLine
 10
258.021317
 20
427.847594
 30
0.0
 11
258.021317
 21
425.809814
 31
0.0
  0
LINE
  5
E5
100
AcDbEntity
  8
LAY-1
  6
DASHED2
 62
     3
100
AcDbLine
 10
258.021332
 20
425.809814
 30
0.0
 11
258.021317
 21
420.809814
 31
0.0
  0
LINE
  5
E6
100
AcDbEntity
  8
LAY-1
  6
CONTINUOUS
 62
     3
100
AcDbLine
 10
250.325531
 20
428.098022
 30
0.0
 11
251.759995
 21
425.809814
 31
0.0
  0
LINE
  5
E7
100
AcDbEntity
  8
LAY-1
  6
DASHED2
 62
     3
100
AcDbLine
 10
251.759964
 20
425.809814
 30
0.0
 11
255.227417
 21
420.278625
 31
0.0
  0
LINE
  5
E8
100
AcDbEntity
  8
LAY-1
  6
CONTINUOUS
 62
     3
100
AcDbLine
 10
206.721314
 20
433.309814
 30
0.0
 11
204.22136
 21
433.309814
 31
0.0
  0
LINE
  5
E9
100
AcDbEntity
  8
LAY-1
  6
CONTINUOUS
 62
     3
100
AcDbLine
 10
206.721314
 20
427.309814
 30
0.0
 11
204.22136
 21
427.309814
 31
0.0
  0
LINE
  5
EA
100
AcDbEntity
  8
LAY-1
  6
CONTINUOUS
 62
     3
100
AcDbLine
 10
185.271363
 20
425.809875
 30
0.0
 11
185.271363
 21
457.809875
 31
0.0
  0
LINE
  5
EB
100
AcDbEntity
  8
LAY-1
  6
CONTINUOUS
 62
     3
100
AcDbLine
 10
204.171357
 20
425.809875
 30
0.0
 11
204.171357
 21
457.809875
 31
0.0
  0
LINE
  5
EC
100
AcDbEntity
  8
LAY-1
  6
CONTINUOUS
 62
     3
100
AcDbLine
 10
185.271363
 20
457.809875
 30
0.0
 11
204.171357
 21
457.809875
 31
0.0
  0
LINE
  5
ED
100
AcDbEntity
  8
LAY-1
  6
DASHED2
 62
     3
100
AcDbLine
 10
166.371308
 20
425.809814
 30
0.0
 11
166.371308
 21
430.309814
 31
0.0
  0
LINE
  5
EE
100
AcDbEntity
  8
LAY-1
  6
CONTINUOUS
 62
     3
100
AcDbLine
 10
166.371308
 20
430.309814
 30
0.0
 11
166.371308
 21
435.809814
 31
0.0
  0
LINE
  5
EF
100
AcDbEntity
  8
LAY-1
  6
DASHED2
 62
     1
100
AcDbLine
 10
167.121308
 20
425.809814
 30
0.0
 11
167.121308
 21
430.309814
 31
0.0
  0
LINE
  5
F0
100
AcDbEntity
  8
LAY-1
  6
CONTINUOUS
 62
     1
100
AcDbLine
 10
167.121308
 20
430.309814
 30
0.0
 11
167.121308
 21
435.809814
 31
0.0
  0
LINE
  5
F1
100
AcDbEntity
  8
LAY-1
  6
DASHED2
 62
     1
100
AcDbLine
 10
172.321305
 20
425.809814
 30
0.0
 11
172.321318
 21
430.309814
 31
0.0
  0
LINE
  5
F2
100
AcDbEntity
  8
LAY-1
  6
CONTINUOUS
 62
     1
100
AcDbLine
 10
172.321318
 20
430.309814
 30
0.0
 11
172.321335
 21
435.809814
 31
0.0
  0
LINE
  5
F3
100
AcDbEntity
  8
LAY-1
  6
CONTINUOUS
 62
     3
100
AcDbLine
 10
173.071335
 20
435.809814
 30
0.0
 11
173.071327
 21
430.309814
 31
0.0
  0
LINE
  5
F4
100
AcDbEntity
  8
LAY-1
  6
DASHED2
 62
     3
100
AcDbLine
 10
173.071327
 20
430.309814
 30
0.0
 11
173.07132
 21
425.809814
 31
0.0
  0
LINE
  5
F5
100
AcDbEntity
  8
LAY-1
  6
DASHED2
 62
     1
100
AcDbLine
 10
314.121338
 20
425.009765
 30
0.0
 11
314.121322
 21
430.309814
 31
0.0
  0
LINE
  5
F6
100
AcDbEntity
  8
LAY-1
  6
CONTINUOUS
 62
     1
100
AcDbLine
 10
314.121324
 20
430.309814
 30
0.0
 11
314.121308
 21
435.809826
 31
0.0
  0
LINE
  5
F7
100
AcDbEntity
  8
LAY-1
  6
CONTINUOUS
 62
     3
100
AcDbLine
 10
313.371308
 20
435.809826
 30
0.0
 11
313.371308
 21
430.309814
 31
0.0
  0
LINE
  5
F8
100
AcDbEntity
  8
LAY-1
  6
DASHED2
 62
     3
100
AcDbLine
 10
313.371308
 20
430.309814
 30
0.0
 11
313.371308
 21
425.009765
 31
0.0
  0
LINE
  5
F9
100
AcDbEntity
  8
LAY-1
  6
DASHED2
 62
     1
100
AcDbLine
 10
319.321351
 20
425.009765
 30
0.0
 11
319.321335
 21
430.309814
 31
0.0
  0
LINE
  5
FA
100
AcDbEntity
  8
LAY-1
  6
CONTINUOUS
 62
     1
100
AcDbLine
 10
319.321337
 20
430.309814
 30
0.0
 11
319.32132
 21
435.809826
 31
0.0
  0
LINE
  5
FB
100
AcDbEntity
  8
LAY-1
  6
DASHED2
 62
     3
100
AcDbLine
 10
320.07132
 20
425.009765
 30
0.0
 11
320.07132
 21
430.309814
 31
0.0
  0
LINE
  5
FC
100
AcDbEntity
  8
LAY-1
  6
CONTINUOUS
 62
     3
100
AcDbLine
 10
320.07132
 20
430.309814
 30
0.0
 11
320.07132
 21
435.809826
 31
0.0
  0
LINE
  5
FD
100
AcDbEntity
  8
LAY-1
  6
DIVIDE
 62
     3
100
AcDbLine
 10
335.721344
 20
509.727386
 30
0.0
 11
153.721344
 21
509.727386
 31
0.0
  0
LINE
  5
FE
100
AcDbEntity
  8
LAY-1
  6
DIVIDE
 62
     3
100
AcDbLine
 10
335.721344
 20
546.727417
 30
0.0
 11
153.721344
 21
546.727417
 31
0.0
  0
LINE
  5
FF
100
AcDbEntity
  8
LAY-1
  6
DIVIDE
 62
     3
100
AcDbLine
 10
335.721344
 20
546.727417
 30
0.0
 11
335.721344
 21
509.727448
 31
0.0
  0
LINE
  5
100
100
AcDbEntity
  8
LAY-1
  6
DIVIDE
 62
     3
100
AcDbLine
 10
153.721344
 20
546.727417
 30
0.0
 11
153.721344
 21
509.727448
 31
0.0
  0
LINE
  5
101
100
AcDbEntity
  8
LAY-1
  6
CONTINUOUS
 62
     3
100
AcDbLine
 10
160.721344
 20
512.227448
 30
0.0
 11
160.721344
 21
544.227417
 31
0.0
  0
LINE
  5
102
100
AcDbEntity
  8
LAY-1
  6
CONTINUOUS
 62
     3
100
AcDbLine
 10
160.721344
 20
544.227417
 30
0.0
 11
329.721344
 21
544.227417
 31
0.0
  0
LINE
  5
103
100
AcDbEntity
  8
LAY-1
  6
CONTINUOUS
 62
     3
100
AcDbLine
 10
160.721344
 20
512.227448
 30
0.0
 11
329.721344
 21
512.227448
 31
0.0
  0
LINE
  5
104
100
AcDbEntity
  8
LAY-1
  6
CONTINUOUS
 62
     3
100
AcDbLine
 10
329.721344
 20
544.227417
 30
0.0
 11
329.721344
 21
512.227448
 31
0.0
  0
CIRCLE
  5
105
100
AcDbEntity
  8
LAY-1
  6
DASHED2
 62
     3
100
AcDbCircle
 10
169.721344
 20
519.227448
 30
0.0
 40
6.0
  0
CIRCLE
  5
106
100
AcDbEntity
  8
LAY-1
  6
CONTINUOUS
 62
     3
100
AcDbCircle
 10
169.721344
 20
519.227448
 30
0.0
 40
3.35
  0
CIRCLE
  5
107
100
AcDbEntity
  8
LAY-1
  6
DASHED2
 62
     3
100
AcDbCircle
 10
316.721344
 20
519.227448
 30
0.0
 40
6.0
  0
CIRCLE
  5
108
100
AcDbEntity
  8
LAY-1
  6
CONTINUOUS
 62
     3
100
AcDbCircle
 10
316.721344
 20
519.227448
 30
0.0
 40
3.35
  0
CIRCLE
  5
109
100
AcDbEntity
  8
LAY-1
  6
DASHED2
 62
     3
100
AcDbCircle
 10
169.721344
 20
537.227417
 30
0.0
 40
6.0
  0
CIRCLE
  5
10A
100
AcDbEntity
  8
LAY-1
  6
CONTINUOUS
 62
     3
100
AcDbCircle
 10
169.721344
 20
537.227417
 30
0.0
 40
3.35
  0
CIRCLE
  5
10B
100
AcDbEntity
  8
LAY-1
  6
DASHED2
 62
     3
100
AcDbCircle
 10
316.721344
 20
537.227417
 30
0.0
 40
6.0
  0
CIRCLE
  5
10C
100
AcDbEntity
  8
LAY-1
  6
CONTINUOUS
 62
     3
100
AcDbCircle
 10
316.721344
 20
537.227417
 30
0.0
 40
3.35
  0
CIRCLE
  5
10D
100
AcDbEntity
  8
LAY-1
  6
CONTINUOUS
 62
     3
100
AcDbCircle
 10
194.721314
 20
528.227417
 30
0.0
 40
6.25
  0
LINE
  5
10E
100
AcDbEntity
  8
LAY-1
  6
CONTINUOUS
 62
     3
100
AcDbLine
 10
306.721283
 20
525.977417
 30
0.0
 11
306.721344
 21
530.477417
 31
0.0
  0
LINE
  5
10F
100
AcDbEntity
  8
LAY-1
  6
CONTINUOUS
 62
     3
100
AcDbLine
 10
203.95102
 20
530.477417
 30
0.0
 11
306.721344
 21
530.477417
 31
0.0
  0
LINE
  5
110
100
AcDbEntity
  8
LAY-1
  6
CONTINUOUS
 62
     3
100
AcDbLine
 10
203.95102
 20
525.977417
 30
0.0
 11
306.721344
 21
525.977417
 31
0.0
  0
ARC
  5
111
100
AcDbEntity
  8
LAY-1
  6
CONTINUOUS
 62
     3
100
AcDbCircle
 10
254.721344
 20
528.227417
 30
0.0
 40
5.0
100
AcDbArc
 50
26.743665
 51
153.256355
  0
ARC
  5
112
100
AcDbEntity
  8
LAY-1
  6
CONTINUOUS
 62
     3
100
AcDbCircle
 10
254.721344
 20
528.227417
 30
0.0
 40
5.0
100
AcDbArc
 50
205.468338
 51
331.882709
  0
ARC
  5
113
100
AcDbEntity
  8
LAY-1
  6
CONTINUOUS
 62
     3
100
AcDbCircle
 10
295.721344
 20
528.227417
 30
0.0
 40
6.0
100
AcDbArc
 50
22.024383
 51
156.514709
  0
ARC
  5
114
100
AcDbEntity
  8
LAY-1
  6
CONTINUOUS
 62
     3
100
AcDbCircle
 10
295.721344
 20
528.227417
 30
0.0
 40
6.0
100
AcDbArc
 50
203.485273
 51
337.366545
  0
LINE
  5
115
100
AcDbEntity
  8
LAY-1
  6
CONTINUOUS
 62
     3
100
AcDbLine
 10
280.721344
 20
525.67749
 30
0.0
 11
268.721344
 21
525.67749
 31
0.0
  0
LINE
  5
116
100
AcDbEntity
  8
LAY-1
  6
CONTINUOUS
 62
     3
100
AcDbLine
 10
280.721344
 20
530.777466
 30
0.0
 11
268.721344
 21
530.777466
 31
0.0
  0
LINE
  5
117
100
AcDbEntity
  8
LAY-1
  6
CONTINUOUS
 62
     3
100
AcDbLine
 10
280.721344
 20
533.977417
 30
0.0
 11
268.721344
 21
533.977417
 31
0.0
  0
LINE
  5
118
100
AcDbEntity
  8
LAY-1
  6
CONTINUOUS
 62
     3
100
AcDbLine
 10
268.721344
 20
522.477417
 30
0.0
 11
280.721344
 21
522.477417
 31
0.0
  0
LINE
  5
119
100
AcDbEntity
  8
LAY-1
  6
CONTINUOUS
 62
     3
100
AcDbLine
 10
280.721344
 20
533.977417
 30
0.0
 11
280.721344
 21
530.777466
 31
0.0
  0
LINE
  5
11A
100
AcDbEntity
  8
LAY-1
  6
CONTINUOUS
 62
     3
100
AcDbLine
 10
268.721344
 20
533.977417
 30
0.0
 11
268.721344
 21
530.777466
 31
0.0
  0
LINE
  5
11B
100
AcDbEntity
  8
LAY-1
  6
CONTINUOUS
 62
     3
100
AcDbLine
 10
280.721344
 20
522.477417
 30
0.0
 11
280.721344
 21
525.67749
 31
0.0
  0
LINE
  5
11C
100
AcDbEntity
  8
LAY-1
  6
CONTINUOUS
 62
     3
100
AcDbLine
 10
268.721344
 20
522.477417
 30
0.0
 11
268.721344
 21
525.677368
 31
0.0
  0
LINE
  5
11D
100
AcDbEntity
  8
LAY-1
  6
CONTINUOUS
 62
     3
100
AcDbLine
 10
278.221344
 20
530.777466
 30
0.0
 11
278.221344
 21
530.477417
 31
0.0
  0
LINE
  5
11E
100
AcDbEntity
  8
LAY-1
  6
CONTINUOUS
 62
     3
100
AcDbLine
 10
271.221344
 20
530.777466
 30
0.0
 11
271.221344
 21
530.477417
 31
0.0
  0
LINE
  5
11F
100
AcDbEntity
  8
LAY-1
  6
CONTINUOUS
 62
     3
100
AcDbLine
 10
278.221344
 20
525.977417
 30
0.0
 11
278.221344
 21
525.67749
 31
0.0
  0
LINE
  5
120
100
AcDbEntity
  8
LAY-1
  6
CONTINUOUS
 62
     3
100
AcDbLine
 10
271.221344
 20
525.977417
 30
0.0
 11
271.221344
 21
525.67749
 31
0.0
  0
CIRCLE
  5
121
100
AcDbEntity
  8
LAY-1
  6
CONTINUOUS
 62
     3
100
AcDbCircle
 10
194.721344
 20
528.227295
 30
0.0
 40
9.45
  0
LINE
  5
122
100
AcDbEntity
  8
LAY-1
  6
CONTINUOUS
 62
     3
100
AcDbLine
 10
667.728339
 20
488.209827
 30
0.0
 11
667.728339
 21
486.009811
 31
0.0
  0
LINE
  5
123
100
AcDbEntity
  8
LAY-1
  6
CONTINUOUS
 62
     3
100
AcDbLine
 10
655.228339
 20
488.209827
 30
0.0
 11
655.228339
 21
486.009811
 31
0.0
  0
LINE
  5
124
100
AcDbEntity
  8
LAY-1
  6
CONTINUOUS
 62
     3
100
AcDbLine
 10
679.978339
 20
488.209796
 30
0.0
 11
642.978339
 21
488.209796
 31
0.0
  0
LINE
  5
125
100
AcDbEntity
  8
LAY-1
  6
CONTINUOUS
 62
     3
100
AcDbLine
 10
679.978339
 20
488.209796
 30
0.0
 11
679.978339
 21
489.009784
 31
0.0
  0
LINE
  5
126
100
AcDbEntity
  8
LAY-1
  6
CONTINUOUS
 62
     3
100
AcDbLine
 10
642.978339
 20
488.209796
 30
0.0
 11
642.978339
 21
489.009784
 31
0.0
  0
LINE
  5
127
100
AcDbEntity
  8
LAY-1
  6
CONTINUOUS
 62
     3
100
AcDbLine
 10
679.978339
 20
489.009814
 30
0.0
 11
642.978339
 21
489.009784
 31
0.0
  0
LINE
  5
128
100
AcDbEntity
  8
LAY-1
  6
CONTINUOUS
 62
     3
100
AcDbLine
 10
645.478339
 20
489.009753
 30
0.0
 11
645.478339
 21
495.009753
 31
0.0
  0
LINE
  5
129
100
AcDbEntity
  8
LAY-1
  6
CONTINUOUS
 62
     3
100
AcDbLine
 10
677.478339
 20
489.009753
 30
0.0
 11
677.478339
 21
495.009753
 31
0.0
  0
LINE
  5
12A
100
AcDbEntity
  8
LAY-1
  6
CONTINUOUS
 62
     3
100
AcDbLine
 10
670.978351
 20
495.009753
 30
0.0
 11
670.978351
 21
527.009888
 31
0.0
  0
LINE
  5
12B
100
AcDbEntity
  8
LAY-1
  6
CONTINUOUS
 62
     3
100
AcDbLine
 10
651.978387
 20
495.009784
 30
0.0
 11
651.978387
 21
527.009888
 31
0.0
  0
LINE
  5
12C
100
AcDbEntity
  8
LAY-1
  6
CONTINUOUS
 62
     3
100
AcDbLine
 10
651.978387
 20
527.009888
 30
0.0
 11
670.978351
 21
527.009888
 31
0.0
  0
LINE
  5
12D
100
AcDbEntity
  8
LAY-1
  6
CONTINUOUS
 62
     3
100
AcDbLine
 10
645.478339
 20
495.009753
 30
0.0
 11
677.478339
 21
495.009753
 31
0.0
  0
LINE
  5
12E
100
AcDbEntity
  8
LAY-2
  6
CONTINUOUS
 62
     3
100
AcDbLine
 10
329.721344
 20
416.809814
 30
0.0
 11
178.721329
 21
416.809814
 31
0.0
  0
LINE
  5
12F
100
AcDbEntity
  8
LAY-2
  6
CONTINUOUS
 62
     3
100
AcDbLine
 10
329.721344
 20
410.809814
 30
0.0
 11
178.721329
 21
410.809814
 31
0.0
  0
LINE
  5
130
100
AcDbEntity
  8
LAY-2
  6
CONTINUOUS
 62
     3
100
AcDbLine
 10
329.721344
 20
416.809814
 30
0.0
 11
329.721344
 21
410.809814
 31
0.0
  0
LINE
  5
131
100
AcDbEntity
  8
LAY-2
  6
CONTINUOUS
 62
     3
100
AcDbLine
 10
178.721329
 20
416.809814
 30
0.0
 11
178.721329
 21
410.809814
 31
0.0
  0
LINE
  5
132
100
AcDbEntity
  8
LAY-2
  6
DASHED2
 62
     3
100
AcDbLine
 10
218.721329
 20
416.409789
 30
0.0
 11
230.721329
 21
416.409789
 31
0.0
  0
LINE
  5
133
100
AcDbEntity
  8
LAY-2
  6
DASHED2
 62
     3
100
AcDbLine
 10
221.371323
 20
413.409789
 30
0.0
 11
228.071366
 21
413.409789
 31
0.0
  0
LINE
  5
134
100
AcDbEntity
  8
LAY-2
  6
DASHED2
 62
     3
100
AcDbLine
 10
228.071366
 20
413.409789
 30
0.0
 11
230.721329
 21
416.409789
 31
0.0
  0
LINE
  5
135
100
AcDbEntity
  8
LAY-2
  6
DASHED2
 62
     3
100
AcDbLine
 10
221.371323
 20
413.409789
 30
0.0
 11
218.721329
 21
416.409789
 31
0.0
  0
LINE
  5
136
100
AcDbEntity
  8
LAY-2
  6
DASHED2
 62
     3
100
AcDbLine
 10
230.721329
 20
416.409789
 30
0.0
 11
230.721329
 21
416.809814
 31
0.0
  0
LINE
  5
137
100
AcDbEntity
  8
LAY-2
  6
DASHED2
 62
     3
100
AcDbLine
 10
218.721329
 20
416.409789
 30
0.0
 11
218.721329
 21
416.809814
 31
0.0
  0
LINE
  5
138
100
AcDbEntity
  8
LAY-2
  6
CONTINUOUS
 62
     3
100
AcDbLine
 10
228.071335
 20
400.809814
 30
0.0
 11
221.371323
 21
400.809814
 31
0.0
  0
LINE
  5
139
100
AcDbEntity
  8
LAY-2
  6
DASHED2
 62
     3
100
AcDbLine
 10
228.071335
 20
413.409789
 30
0.0
 11
228.071351
 21
410.809814
 31
0.0
  0
LINE
  5
13A
100
AcDbEntity
  8
LAY-2
  6
DASHED2
 62
     3
100
AcDbLine
 10
221.371338
 20
410.809814
 30
0.0
 11
221.371323
 21
413.409789
 31
0.0
  0
LINE
  5
13B
100
AcDbEntity
  8
LAY-2
  6
DASHED2
 62
     1
100
AcDbLine
 10
227.321366
 20
413.409789
 30
0.0
 11
227.321366
 21
410.809814
 31
0.0
  0
LINE
  5
13C
100
AcDbEntity
  8
LAY-2
  6
DASHED2
 62
     1
100
AcDbLine
 10
222.121354
 20
413.409789
 30
0.0
 11
222.121354
 21
410.809814
 31
0.0
  0
LINE
  5
13D
100
AcDbEntity
  8
LAY-2
  6
DASHED2
 62
     3
100
AcDbLine
 10
276.721314
 20
416.809814
 30
0.0
 11
264.721314
 21
416.809814
 31
0.0
  0
LINE
  5
13E
100
AcDbEntity
  8
LAY-2
  6
DASHED2
 62
     3
100
AcDbLine
 10
264.721314
 20
416.409789
 30
0.0
 11
276.721314
 21
416.409789
 31
0.0
  0
LINE
  5
13F
100
AcDbEntity
  8
LAY-2
  6
DASHED2
 62
     3
100
AcDbLine
 10
267.371308
 20
413.409789
 30
0.0
 11
274.071351
 21
413.409789
 31
0.0
  0
LINE
  5
140
100
AcDbEntity
  8
LAY-2
  6
DASHED2
 62
     3
100
AcDbLine
 10
274.071351
 20
413.409789
 30
0.0
 11
276.721314
 21
416.409789
 31
0.0
  0
LINE
  5
141
100
AcDbEntity
  8
LAY-2
  6
DASHED2
 62
     3
100
AcDbLine
 10
267.371308
 20
413.409789
 30
0.0
 11
264.721314
 21
416.409789
 31
0.0
  0
LINE
  5
142
100
AcDbEntity
  8
LAY-2
  6
DASHED2
 62
     3
100
AcDbLine
 10
276.721314
 20
416.409789
 30
0.0
 11
276.721314
 21
416.809814
 31
0.0
  0
LINE
  5
143
100
AcDbEntity
  8
LAY-2
  6
DASHED2
 62
     3
100
AcDbLine
 10
264.721314
 20
416.409789
 30
0.0
 11
264.721314
 21
416.809814
 31
0.0
  0
LINE
  5
144
100
AcDbEntity
  8
LAY-2
  6
CONTINUOUS
 62
     3
100
AcDbLine
 10
274.07132
 20
400.809814
 30
0.0
 11
267.371308
 21
400.809814
 31
0.0
  0
LINE
  5
145
100
AcDbEntity
  8
LAY-2
  6
DASHED2
 62
     3
100
AcDbLine
 10
274.07132
 20
413.409789
 30
0.0
 11
274.07132
 21
410.809814
 31
0.0
  0
LINE
  5
146
100
AcDbEntity
  8
LAY-2
  6
DASHED2
 62
     3
100
AcDbLine
 10
267.371308
 20
410.809814
 30
0.0
 11
267.371308
 21
413.409789
 31
0.0
  0
LINE
  5
147
100
AcDbEntity
  8
LAY-2
  6
DASHED2
 62
     1
100
AcDbLine
 10
273.321351
 20
413.409789
 30
0.0
 11
273.321351
 21
410.809814
 31
0.0
  0
LINE
  5
148
100
AcDbEntity
  8
LAY-2
  6
DASHED2
 62
     1
100
AcDbLine
 10
268.121338
 20
413.409789
 30
0.0
 11
268.121338
 21
410.809814
 31
0.0
  0
LINE
  5
149
100
AcDbEntity
  8
LAY-2
  6
DASHED2
 62
     3
100
AcDbLine
 10
322.721314
 20
416.809814
 30
0.0
 11
310.721314
 21
416.809814
 31
0.0
  0
LINE
  5
14A
100
AcDbEntity
  8
LAY-2
  6
DASHED2
 62
     3
100
AcDbLine
 10
310.721314
 20
416.409789
 30
0.0
 11
322.721314
 21
416.409789
 31
0.0
  0
LINE
  5
14B
100
AcDbEntity
  8
LAY-2
  6
DASHED2
 62
     3
100
AcDbLine
 10
313.371308
 20
413.409789
 30
0.0
 11
320.071351
 21
413.409789
 31
0.0
  0
LINE
  5
14C
100
AcDbEntity
  8
LAY-2
  6
DASHED2
 62
     3
100
AcDbLine
 10
320.071351
 20
413.409789
 30
0.0
 11
322.721314
 21
416.409789
 31
0.0
  0
LINE
  5
14D
100
AcDbEntity
  8
LAY-2
  6
DASHED2
 62
     3
100
AcDbLine
 10
313.371308
 20
413.409789
 30
0.0
 11
310.721314
 21
416.409789
 31
0.0
  0
LINE
  5
14E
100
AcDbEntity
  8
LAY-2
  6
DASHED2
 62
     3
100
AcDbLine
 10
322.721314
 20
416.409789
 30
0.0
 11
322.721314
 21
416.809814
 31
0.0
  0
LINE
  5
14F
100
AcDbEntity
  8
LAY-2
  6
DASHED2
 62
     3
100
AcDbLine
 10
310.721314
 20
416.409789
 30
0.0
 11
310.721314
 21
416.809814
 31
0.0
  0
LINE
  5
150
100
AcDbEntity
  8
LAY-2
  6
CONTINUOUS
 62
     3
100
AcDbLine
 10
320.07132
 20
400.809814
 30
0.0
 11
313.371308
 21
400.809814
 31
0.0
  0
LINE
  5
151
100
AcDbEntity
  8
LAY-2
  6
DASHED2
 62
     3
100
AcDbLine
 10
320.07132
 20
413.409789
 30
0.0
 11
320.07132
 21
410.809814
 31
0.0
  0
LINE
  5
152
100
AcDbEntity
  8
LAY-2
  6
DASHED2
 62
     3
100
AcDbLine
 10
313.371308
 20
410.809814
 30
0.0
 11
313.371308
 21
413.409789
 31
0.0
  0
LINE
  5
153
100
AcDbEntity
  8
LAY-2
  6
DASHED2
 62
     1
100
AcDbLine
 10
319.321351
 20
413.409789
 30
0.0
 11
319.321351
 21
410.809814
 31
0.0
  0
LINE
  5
154
100
AcDbEntity
  8
LAY-2
  6
DASHED2
 62
     1
100
AcDbLine
 10
314.121338
 20
413.409789
 30
0.0
 11
314.121338
 21
410.809814
 31
0.0
  0
LINE
  5
155
100
AcDbEntity
  8
LAY-2
  6
CONTINUOUS
 62
     3
100
AcDbLine
 10
221.371323
 20
400.809814
 30
0.0
 11
221.371331
 21
406.309814
 31
0.0
  0
LINE
  5
156
100
AcDbEntity
  8
LAY-2
  6
DASHED2
 62
     3
100
AcDbLine
 10
221.371331
 20
406.309814
 30
0.0
 11
221.371338
 21
410.809814
 31
0.0
  0
LINE
  5
157
100
AcDbEntity
  8
LAY-2
  6
DASHED2
 62
     1
100
AcDbLine
 10
222.121354
 20
410.809814
 30
0.0
 11
222.12134
 21
406.309814
 31
0.0
  0
LINE
  5
158
100
AcDbEntity
  8
LAY-2
  6
CONTINUOUS
 62
     1
100
AcDbLine
 10
222.12134
 20
406.309814
 30
0.0
 11
222.121323
 21
400.809814
 31
0.0
  0
LINE
  5
159
100
AcDbEntity
  8
LAY-2
  6
CONTINUOUS
 62
     3
100
AcDbLine
 10
267.371308
 20
400.809814
 30
0.0
 11
267.371308
 21
406.309814
 31
0.0
  0
LINE
  5
15A
100
AcDbEntity
  8
LAY-2
  6
DASHED2
 62
     3
100
AcDbLine
 10
267.371308
 20
406.309814
 30
0.0
 11
267.371308
 21
410.809814
 31
0.0
  0
LINE
  5
15B
100
AcDbEntity
  8
LAY-2
  6
DASHED2
 62
     1
100
AcDbLine
 10
268.121338
 20
410.809814
 30
0.0
 11
268.121325
 21
406.309814
 31
0.0
  0
LINE
  5
15C
100
AcDbEntity
  8
LAY-2
  6
CONTINUOUS
 62
     1
100
AcDbLine
 10
268.121325
 20
406.309814
 30
0.0
 11
268.121308
 21
400.809814
 31
0.0
  0
LINE
  5
15D
100
AcDbEntity
  8
LAY-2
  6
DASHED2
 62
     1
100
AcDbLine
 10
273.321351
 20
410.809814
 30
0.0
 11
273.321337
 21
406.309814
 31
0.0
  0
LINE
  5
15E
100
AcDbEntity
  8
LAY-2
  6
CONTINUOUS
 62
     1
100
AcDbLine
 10
273.321337
 20
406.309814
 30
0.0
 11
273.32132
 21
400.809814
 31
0.0
  0
LINE
  5
15F
100
AcDbEntity
  8
LAY-2
  6
DASHED2
 62
     3
100
AcDbLine
 10
274.07132
 20
410.809814
 30
0.0
 11
274.07132
 21
406.309814
 31
0.0
  0
LINE
  5
160
100
AcDbEntity
  8
LAY-2
  6
CONTINUOUS
 62
     3
100
AcDbLine
 10
274.07132
 20
406.309814
 30
0.0
 11
274.07132
 21
400.809814
 31
0.0
  0
LINE
  5
161
100
AcDbEntity
  8
LAY-2
  6
CONTINUOUS
 62
     3
100
AcDbLine
 10
313.371308
 20
400.809814
 30
0.0
 11
313.371308
 21
406.309814
 31
0.0
  0
LINE
  5
162
100
AcDbEntity
  8
LAY-2
  6
DASHED2
 62
     3
100
AcDbLine
 10
313.371308
 20
406.309814
 30
0.0
 11
313.371308
 21
410.809814
 31
0.0
  0
LINE
  5
163
100
AcDbEntity
  8
LAY-2
  6
DASHED2
 62
     1
100
AcDbLine
 10
314.121338
 20
410.809814
 30
0.0
 11
314.121325
 21
406.309814
 31
0.0
  0
LINE
  5
164
100
AcDbEntity
  8
LAY-2
  6
CONTINUOUS
 62
     1
100
AcDbLine
 10
314.121325
 20
406.309814
 30
0.0
 11
314.121308
 21
400.809814
 31
0.0
  0
LINE
  5
165
100
AcDbEntity
  8
LAY-2
  6
DASHED2
 62
     1
100
AcDbLine
 10
319.321351
 20
410.809814
 30
0.0
 11
319.321337
 21
406.309814
 31
0.0
  0
LINE
  5
166
100
AcDbEntity
  8
LAY-2
  6
CONTINUOUS
 62
     1
100
AcDbLine
 10
319.321337
 20
406.309814
 30
0.0
 11
319.32132
 21
400.809814
 31
0.0
  0
LINE
  5
167
100
AcDbEntity
  8
LAY-2
  6
DASHED2
 62
     3
100
AcDbLine
 10
320.07132
 20
410.809814
 30
0.0
 11
320.07132
 21
406.309814
 31
0.0
  0
LINE
  5
168
100
AcDbEntity
  8
LAY-2
  6
CONTINUOUS
 62
     3
100
AcDbLine
 10
320.07132
 20
406.309814
 30
0.0
 11
320.07132
 21
400.809814
 31
0.0
  0
LINE
  5
169
100
AcDbEntity
  8
LAY-2
  6
DASHED2
 62
     1
100
AcDbLine
 10
227.321366
 20
410.809814
 30
0.0
 11
227.321352
 21
406.309814
 31
0.0
  0
LINE
  5
16A
100
AcDbEntity
  8
LAY-2
  6
CONTINUOUS
 62
     1
100
AcDbLine
 10
227.321352
 20
406.309814
 30
0.0
 11
227.321335
 21
400.809814
 31
0.0
  0
LINE
  5
16B
100
AcDbEntity
  8
LAY-2
  6
DASHED2
 62
     3
100
AcDbLine
 10
228.071351
 20
410.809814
 30
0.0
 11
228.071344
 21
406.309814
 31
0.0
  0
LINE
  5
16C
100
AcDbEntity
  8
LAY-2
  6
CONTINUOUS
 62
     3
100
AcDbLine
 10
228.071344
 20
406.309814
 30
0.0
 11
228.071335
 21
400.809814
 31
0.0
  0
LINE
  5
16D
100
AcDbEntity
  8
LAY-2
  6
CONTINUOUS
 62
     3
100
AcDbLine
 10
329.721344
 20
311.15741
 30
0.0
 11
178.721314
 21
311.15741
 31
0.0
  0
LINE
  5
16E
100
AcDbEntity
  8
LAY-2
  6
CONTINUOUS
 62
     3
100
AcDbLine
 10
329.721344
 20
343.15741
 30
0.0
 11
178.721314
 21
343.15741
 31
0.0
  0
LINE
  5
16F
100
AcDbEntity
  8
LAY-2
  6
CONTINUOUS
 62
     3
100
AcDbLine
 10
329.721344
 20
343.15741
 30
0.0
 11
329.721344
 21
311.15741
 31
0.0
  0
LINE
  5
170
100
AcDbEntity
  8
LAY-2
  6
CONTINUOUS
 62
     3
100
AcDbLine
 10
178.721314
 20
343.15741
 30
0.0
 11
178.721314
 21
311.15741
 31
0.0
  0
CIRCLE
  5
171
100
AcDbEntity
  8
LAY-2
  6
CONTINUOUS
 62
     3
100
AcDbCircle
 10
194.721344
 20
327.157349
 30
0.0
 40
6.25
  0
CIRCLE
  5
172
100
AcDbEntity
  8
LAY-2
  6
CONTINUOUS
 62
     3
100
AcDbCircle
 10
194.721344
 20
327.157349
 30
0.0
 40
11.9
  0
CIRCLE
  5
173
100
AcDbEntity
  8
LAY-2
  6
CONTINUOUS
 62
     3
100
AcDbCircle
 10
224.721314
 20
335.15741
 30
0.0
 40
6.0
  0
CIRCLE
  5
174
100
AcDbEntity
  8
LAY-2
  6
CONTINUOUS
 62
     3
100
AcDbCircle
 10
224.721314
 20
335.15741
 30
0.0
 40
3.35
  0
CIRCLE
  5
175
100
AcDbEntity
  8
LAY-2
  6
CONTINUOUS
 62
     3
100
AcDbCircle
 10
270.721344
 20
319.15741
 30
0.0
 40
6.0
  0
CIRCLE
  5
176
100
AcDbEntity
  8
LAY-2
  6
CONTINUOUS
 62
     3
100
AcDbCircle
 10
270.721344
 20
319.15741
 30
0.0
 40
3.35
  0
CIRCLE
  5
177
100
AcDbEntity
  8
LAY-2
  6
CONTINUOUS
 62
     3
100
AcDbCircle
 10
316.721344
 20
335.15741
 30
0.0
 40
6.0
  0
CIRCLE
  5
178
100
AcDbEntity
  8
LAY-2
  6
CONTINUOUS
 62
     3
100
AcDbCircle
 10
316.721344
 20
335.15741
 30
0.0
 40
3.35
  0
LINE
  5
179
100
AcDbEntity
  8
LAY-2
  6
CONTINUOUS
 62
     3
100
AcDbLine
 10
677.478339
 20
480.009781
 30
0.0
 11
645.478339
 21
480.009811
 31
0.0
  0
LINE
  5
17A
100
AcDbEntity
  8
LAY-2
  6
CONTINUOUS
 62
     3
100
AcDbLine
 10
677.478339
 20
486.009811
 30
0.0
 11
677.478339
 21
480.009811
 31
0.0
  0
ARC
  5
17B
100
AcDbEntity
  8
LAY-2
  6
CONTINUOUS
 62
     3
100
AcDbCircle
 10
198.021344
 20
401.009814
 30
0.0
 40
5.2
100
AcDbArc
 50
270.0
 51
0.0
  0
LINE
  5
17C
100
AcDbEntity
  8
LAY-2
  6
CONTINUOUS
 62
     3
100
AcDbLine
 10
191.421344
 20
395.809814
 30
0.0
 11
198.021344
 21
395.809814
 31
0.0
  0
ARC
  5
17D
100
AcDbEntity
  8
LAY-2
  6
CONTINUOUS
 62
     3
100
AcDbCircle
 10
191.421344
 20
401.009814
 30
0.0
 40
5.2
100
AcDbArc
 50
180.0
 51
270.0
  0
LINE
  5
17E
100
AcDbEntity
  8
LAY-2
  6
CONTINUOUS
 62
     3
100
AcDbLine
 10
208.721344
 20
410.809814
 30
0.0
 11
208.721344
 21
409.609814
 31
0.0
  0
LINE
  5
17F
100
AcDbEntity
  8
LAY-2
  6
CONTINUOUS
 62
     3
100
AcDbLine
 10
180.721344
 20
410.809814
 30
0.0
 11
180.721344
 21
409.609814
 31
0.0
  0
LINE
  5
180
100
AcDbEntity
  8
LAY-2
  6
CONTINUOUS
 62
     3
100
AcDbLine
 10
208.721344
 20
409.609814
 30
0.0
 11
180.721344
 21
409.609814
 31
0.0
  0
ARC
  5
181
100
AcDbEntity
  8
LAY-2
  6
CONTINUOUS
 62
     3
100
AcDbCircle
 10
206.571344
 20
409.609814
 30
0.0
 40
1.0
100
AcDbArc
 50
270.0
 51
0.0
  0
LINE
  5
182
100
AcDbEntity
  8
LAY-2
  6
CONTINUOUS
 62
     3
100
AcDbLine
 10
206.571344
 20
408.609814
 30
0.0
 11
182.871344
 21
408.609814
 31
0.0
  0
ARC
  5
183
100
AcDbEntity
  8
LAY-2
  6
CONTINUOUS
 62
     3
100
AcDbCircle
 10
182.871344
 20
409.609814
 30
0.0
 40
1.0
100
AcDbArc
 50
180.0
 51
270.0
  0
ARC
  5
184
100
AcDbEntity
  8
LAY-2
  6
CONTINUOUS
 62
     3
100
AcDbCircle
 10
203.721344
 20
408.109814
 30
0.0
 40
0.5
100
AcDbArc
 50
90.0
 51
180.0
  0
ARC
  5
185
100
AcDbEntity
  8
LAY-2
  6
CONTINUOUS
 62
     3
100
AcDbCircle
 10
185.721344
 20
408.109814
 30
0.0
 40
0.5
100
AcDbArc
 50
0.0
 51
90.0
  0
LINE
  5
186
100
AcDbEntity
  8
LAY-2
  6
CONTINUOUS
 62
     3
100
AcDbLine
 10
186.221344
 20
408.109814
 30
0.0
 11
186.221344
 21
401.009814
 31
0.0
  0
LINE
  5
187
100
AcDbEntity
  8
LAY-2
  6
CONTINUOUS
 62
     3
100
AcDbLine
 10
203.221344
 20
408.109814
 30
0.0
 11
203.221344
 21
401.009814
 31
0.0
  0
LINE
  5
188
100
AcDbEntity
  8
LAY-2
  6
CONTINUOUS
 62
     3
100
AcDbLine
 10
675.478461
 20
480.009796
 30
0.0
 11
675.478461
 21
478.809796
 31
0.0
  0
LINE
  5
189
100
AcDbEntity
  8
LAY-2
  6
CONTINUOUS
 62
     3
100
AcDbLine
 10
647.478461
 20
480.009796
 30
0.0
 11
647.478461
 21
478.809796
 31
0.0
  0
LINE
  5
18A
100
AcDbEntity
  8
LAY-2
  6
CONTINUOUS
 62
     3
100
AcDbLine
 10
675.478461
 20
478.809796
 30
0.0
 11
647.478461
 21
478.809796
 31
0.0
  0
ARC
  5
18B
100
AcDbEntity
  8
LAY-2
  6
CONTINUOUS
 62
     3
100
AcDbCircle
 10
673.328461
 20
478.809796
 30
0.0
 40
1.0
100
AcDbArc
 50
270.0
 51
0.0
  0
ARC
  5
18C
100
AcDbEntity
  8
LAY-2
  6
CONTINUOUS
 62
     3
100
AcDbCircle
 10
649.628461
 20
478.809796
 30
0.0
 40
1.0
100
AcDbArc
 50
180.0
 51
270.0
  0
LINE
  5
18D
100
AcDbEntity
  8
LAY-2
  6
CONTINUOUS
 62
     3
100
AcDbLine
 10
645.478583
 20
486.009811
 30
0.0
 11
645.478583
 21
480.009811
 31
0.0
  0
LINE
  5
18E
100
AcDbEntity
  8
LAY-2
  6
CONTINUOUS
 62
     3
100
AcDbLine
 10
645.478583
 20
486.009811
 30
0.0
 11
677.478339
 21
486.009781
 31
0.0
  0
ARC
  5
18F
100
AcDbEntity
  8
LAY-2
  6
CONTINUOUS
 62
     3
100
AcDbCircle
 10
657.928461
 20
470.209796
 30
0.0
 40
5.2
100
AcDbArc
 50
180.0
 51
270.0
  0
ARC
  5
190
100
AcDbEntity
  8
LAY-2
  6
CONTINUOUS
 62
     3
100
AcDbCircle
 10
652.228461
 20
477.309796
 30
0.0
 40
0.5
100
AcDbArc
 50
0.0
 51
90.0
  0
LINE
  5
191
100
AcDbEntity
  8
LAY-2
  6
CONTINUOUS
 62
     3
100
AcDbLine
 10
652.728461
 20
477.309796
 30
0.0
 11
652.728461
 21
470.209796
 31
0.0
  0
ARC
  5
192
100
AcDbEntity
  8
LAY-2
  6
CONTINUOUS
 62
     3
100
AcDbCircle
 10
665.028461
 20
470.209796
 30
0.0
 40
5.2
100
AcDbArc
 50
270.0
 51
0.0
  0
ARC
  5
193
100
AcDbEntity
  8
LAY-2
  6
CONTINUOUS
 62
     3
100
AcDbCircle
 10
670.728461
 20
477.309796
 30
0.0
 40
0.5
100
AcDbArc
 50
90.0
 51
180.0
  0
LINE
  5
194
100
AcDbEntity
  8
LAY-2
  6
CONTINUOUS
 62
     3
100
AcDbLine
 10
670.228461
 20
477.309796
 30
0.0
 11
670.228461
 21
470.209796
 31
0.0
  0
LINE
  5
195
100
AcDbEntity
  8
LAY-2
  6
CONTINUOUS
 62
     3
100
AcDbLine
 10
657.928461
 20
465.009796
 30
0.0
 11
665.028461
 21
465.009796
 31
0.0
  0
LINE
  5
196
100
AcDbEntity
  8
LAY-2
  6
CONTINUOUS
 62
     3
100
AcDbLine
 10
673.328461
 20
477.809796
 30
0.0
 11
649.628461
 21
477.809796
 31
0.0
  0
LINE
  5
197
100
AcDbEntity
  8
LAY-3
  6
CONTINUOUS
 62
     1
100
AcDbLine
 10
345.721344
 20
145.552063
 30
0.0
 11
324.4
 21
145.552063
 31
0.0
  0
LINE
  5
198
100
AcDbEntity
  8
LAY-3
  6
CONTINUOUS
 62
     1
100
AcDbLine
 10
214.72136
 20
137.552063
 30
0.0
 11
299.2
 21
137.552063
 31
0.0
  0
LINE
  5
199
100
AcDbEntity
  8
LAY-3
  6
CONTINUOUS
 62
     1
100
AcDbLine
 10
178.22136
 20
145.552063
 30
0.0
 11
299.2
 21
145.552063
 31
0.0
  0
LINE
  5
19A
100
AcDbEntity
  8
LAY-3
  6
CONTINUOUS
 62
     3
100
AcDbLine
 10
179.721337
 20
232.052094
 30
0.0
 11
345.721344
 21
232.052094
 31
0.0
  0
LINE
  5
19B
100
AcDbEntity
  8
LAY-3
  6
CONTINUOUS
 62
     3
100
AcDbLine
 10
347.721344
 20
234.052094
 30
0.0
 11
347.721344
 21
254.052094
 31
0.0
  0
LINE
  5
19C
100
AcDbEntity
  8
LAY-3
  6
CONTINUOUS
 62
     3
100
AcDbLine
 10
345.721344
 20
256.052094
 30
0.0
 11
179.721337
 21
256.052094
 31
0.0
  0
LINE
  5
19D
100
AcDbEntity
  8
LAY-3
  6
CONTINUOUS
 62
     3
100
AcDbLine
 10
177.721337
 20
254.052094
 30
0.0
 11
177.721337
 21
234.052094
 31
0.0
  0
ARC
  5
19E
100
AcDbEntity
  8
LAY-3
  6
CONTINUOUS
 62
     3
100
AcDbCircle
 10
179.721337
 20
254.052094
 30
0.0
 40
2.0
100
AcDbArc
 50
89.999981
 51
180.00002
  0
ARC
  5
19F
100
AcDbEntity
  8
LAY-3
  6
CONTINUOUS
 62
     3
100
AcDbCircle
 10
179.721337
 20
234.052094
 30
0.0
 40
2.0
100
AcDbArc
 50
180.00002
 51
270.000001
  0
ARC
  5
1A0
100
AcDbEntity
  8
LAY-3
  6
CONTINUOUS
 62
     3
100
AcDbCircle
 10
345.721344
 20
254.052094
 30
0.0
 40
2.0
100
AcDbArc
 50
0.0
 51
89.999981
  0
ARC
  5
1A1
100
AcDbEntity
  8
LAY-3
  6
CONTINUOUS
 62
     3
100
AcDbCircle
 10
345.721344
 20
234.052094
 30
0.0
 40
2.0
100
AcDbArc
 50
270.000001
 51
359.999982
  0
CIRCLE
  5
1A2
100
AcDbEntity
  8
LAY-3
  6
DASHED2
 62
     3
100
AcDbCircle
 10
219.721344
 20
248.052094
 30
0.0
 40
6.0
  0
CIRCLE
  5
1A3
100
AcDbEntity
  8
LAY-3
  6
CONTINUOUS
 62
     3
100
AcDbCircle
 10
219.721344
 20
248.052094
 30
0.0
 40
3.35
  0
CIRCLE
  5
1A4
100
AcDbEntity
  8
LAY-3
  6
DASHED2
 62
     3
100
AcDbCircle
 10
234.721344
 20
240.052094
 30
0.0
 40
6.0
  0
CIRCLE
  5
1A5
100
AcDbEntity
  8
LAY-3
  6
CONTINUOUS
 62
     3
100
AcDbCircle
 10
234.721344
 20
240.052094
 30
0.0
 40
3.35
  0
CIRCLE
  5
1A6
100
AcDbEntity
  8
LAY-3
  6
DASHED2
 62
     3
100
AcDbCircle
 10
322.721344
 20
248.052094
 30
0.0
 40
6.0
  0
CIRCLE
  5
1A7
100
AcDbEntity
  8
LAY-3
  6
CONTINUOUS
 62
     3
100
AcDbCircle
 10
322.721344
 20
248.052094
 30
0.0
 40
3.35
  0
CIRCLE
  5
1A8
100
AcDbEntity
  8
LAY-3
  6
DASHED2
 62
     3
100
AcDbCircle
 10
337.721344
 20
240.052094
 30
0.0
 40
6.0
  0
CIRCLE
  5
1A9
100
AcDbEntity
  8
LAY-3
  6
CONTINUOUS
 62
     3
100
AcDbCircle
 10
337.721344
 20
240.052094
 30
0.0
 40
3.35
  0
LINE
  5
1AA
100
AcDbEntity
  8
LAY-3
  6
DASHED2
 62
     3
100
AcDbLine
 10
212.721344
 20
234.052094
 30
0.0
 11
212.721344
 21
254.052094
 31
0.0
  0
ARC
  5
1AB
100
AcDbEntity
  8
LAY-3
  6
DASHED2
 62
     3
100
AcDbCircle
 10
210.721344
 20
254.052094
 30
0.0
 40
2.0
100
AcDbArc
 50
0.0
 51
89.999981
  0
ARC
  5
1AC
100
AcDbEntity
  8
LAY-3
  6
DASHED2
 62
     3
100
AcDbCircle
 10
210.721344
 20
234.052094
 30
0.0
 40
2.0
100
AcDbArc
 50
270.0
 51
359.999982
  0
CIRCLE
  5
1AD
100
AcDbEntity
  8
LAY-3
  6
CONTINUOUS
 62
     3
100
AcDbCircle
 10
337.721344
 20
240.052094
 30
0.0
 40
3.35
  0
LINE
  5
1AE
100
AcDbEntity
  8
LAY-3
  6
CONTINUOUS
 62
     3
100
AcDbLine
 10
177.72136
 20
144.552063
 30
0.0
 11
177.72136
 21
131.552063
 31
0.0
  0
LINE
  5
1AF
100
AcDbEntity
  8
LAY-3
  6
CONTINUOUS
 62
     3
100
AcDbLine
 10
347.721344
 20
139.052063
 30
0.0
 11
347.721344
 21
144.052063
 31
0.0
  0
ARC
  5
1B0
100
AcDbEntity
  8
LAY-3
  6
CONTINUOUS
 62
     3
100
AcDbCircle
 10
178.72136
 20
131.552063
 30
0.0
 40
1.0
100
AcDbArc
 50
180.00002
 51
270.000001
  0
ARC
  5
1B1
100
AcDbEntity
  8
LAY-3
  6
CONTINUOUS
 62
     3
100
AcDbCircle
 10
178.72136
 20
144.552063
 30
0.0
 40
1.0
100
AcDbArc
 50
89.999981
 51
180.00002
  0
ARC
  5
1B2
100
AcDbEntity
  8
LAY-3
  6
CONTINUOUS
 62
     3
100
AcDbCircle
 10
346.221344
 20
144.052063
 30
0.0
 40
1.5
100
AcDbArc
 50
0.0
 51
89.999981
  0
ARC
  5
1B3
100
AcDbEntity
  8
LAY-3
  6
CONTINUOUS
 62
     3
100
AcDbCircle
 10
346.221344
 20
139.052063
 30
0.0
 40
1.5
100
AcDbArc
 50
270.000001
 51
359.999982
  0
ARC
  5
1B4
100
AcDbEntity
  8
LAY-3
  6
CONTINUOUS
 62
     3
100
AcDbCircle
 10
214.72136
 20
135.552063
 30
0.0
 40
2.0
100
AcDbArc
 50
89.999981
 51
180.00002
  0
LINE
  5
1B5
100
AcDbEntity
  8
LAY-3
  6
CONTINUOUS
 62
     3
100
AcDbLine
 10
212.72136
 20
131.552063
 30
0.0
 11
212.72136
 21
135.552063
 31
0.0
  0
ARC
  5
1B6
100
AcDbEntity
  8
LAY-3
  6
CONTINUOUS
 62
     3
100
AcDbCircle
 10
211.72136
 20
131.552063
 30
0.0
 40
1.0
100
AcDbArc
 50
270.000001
 51
359.999982
  0
LINE
  5
1B7
100
AcDbEntity
  8
LAY-3
  6
CONTINUOUS
 62
     3
100
AcDbLine
 10
211.72136
 20
130.552063
 30
0.0
 11
178.72136
 21
130.552063
 31
0.0
  0
LINE
  5
1B8
100
AcDbEntity
  8
LAY-3
  6
CONTINUOUS
 62
     3
100
AcDbLine
 10
214.72136
 20
137.552063
 30
0.0
 11
346.221344
 21
137.552063
 31
0.0
  0
LINE
  5
1B9
100
AcDbEntity
  8
LAY-3
  6
CONTINUOUS
 62
     3
100
AcDbLine
 10
345.721344
 20
145.552063
 30
0.0
 11
178.22136
 21
145.552063
 31
0.0
  0
LINE
  5
1BA
100
AcDbEntity
  8
LAY-3
  6
CONTINUOUS
 62
     3
100
AcDbLine
 10
651.4784
 20
347.552063
 30
0.0
 11
671.4784
 21
347.552063
 31
0.0
  0
LINE
  5
1BB
100
AcDbEntity
  8
LAY-3
  6
CONTINUOUS
 62
     3
100
AcDbLine
 10
673.4784
 20
334.552063
 30
0.0
 11
673.4784
 21
345.552063
 31
0.0
  0
LINE
  5
1BC
100
AcDbEntity
  8
LAY-3
  6
CONTINUOUS
 62
     3
100
AcDbLine
 10
649.4784
 20
334.552063
 30
0.0
 11
649.4784
 21
345.552063
 31
0.0
  0
ARC
  5
1BD
100
AcDbEntity
  8
LAY-3
  6
CONTINUOUS
 62
     3
100
AcDbCircle
 10
651.4784
 20
345.552063
 30
0.0
 40
2.0
100
AcDbArc
 50
89.999981
 51
180.00002
  0
ARC
  5
1BE
100
AcDbEntity
  8
LAY-3
  6
CONTINUOUS
 62
     3
100
AcDbCircle
 10
671.4784
 20
345.552063
 30
0.0
 40
2.0
100
AcDbArc
 50
0.0
 51
89.999981
  0
ARC
  5
1BF
100
AcDbEntity
  8
LAY-3
  6
CONTINUOUS
 62
     3
100
AcDbCircle
 10
671.4784
 20
334.552063
 30
0.0
 40
2.0
100
AcDbArc
 50
270.000001
 51
359.999982
  0
ARC
  5
1C0
100
AcDbEntity
  8
LAY-3
  6
CONTINUOUS
 62
     3
100
AcDbCircle
 10
651.4784
 20
334.552063
 30
0.0
 40
2.0
100
AcDbArc
 50
180.00002
 51
270.000001
  0
LINE
  5
1C1
100
AcDbEntity
  8
LAY-3
  6
CONTINUOUS
 62
     3
100
AcDbLine
 10
668.347227
 20
332.552049
 30
0.0
 11
671.4784
 21
332.552063
 31
0.0
  0
LINE
  5
1C2
100
AcDbEntity
  8
LAY-3
  6
CONTINUOUS
 62
     3
100
AcDbLine
 10
654.609697
 20
332.552063
 30
0.0
 11
651.4784
 21
332.552063
 31
0.0
  0
LINE
  5
1C3
100
AcDbEntity
  8
LAY-3
  6
CONTINUOUS
 62
     3
100
AcDbLine
 10
186.06109
 20
249.052078
 30
0.0
 11
203.381598
 21
249.052078
 31
0.0
  0
LINE
  5
1C4
100
AcDbEntity
  8
LAY-3
  6
CONTINUOUS
 62
     3
100
AcDbLine
 10
186.06109
 20
239.052078
 30
0.0
 11
203.381598
 21
239.052078
 31
0.0
  0
ARC
  5
1C5
100
AcDbEntity
  8
LAY-3
  6
CONTINUOUS
 62
     3
100
AcDbCircle
 10
194.721344
 20
244.052078
 30
0.0
 40
10.0
100
AcDbArc
 50
150.0
 51
210.0
  0
ARC
  5
1C6
100
AcDbEntity
  8
LAY-3
  6
CONTINUOUS
 62
     3
100
AcDbCircle
 10
194.721344
 20
244.052078
 30
0.0
 40
10.0
100
AcDbArc
 50
330.0
 51
30.0
  0
LINE
  5
1C7
100
AcDbEntity
  8
LAY-3
  6
DASHED2
 62
     3
100
AcDbLine
 10
187.579916
 20
251.052078
 30
0.0
 11
201.880941
 21
251.052078
 31
0.0
  0
LINE
  5
1C8
100
AcDbEntity
  8
LAY-3
  6
DASHED2
 62
     3
100
AcDbLine
 10
187.579916
 20
237.052078
 30
0.0
 11
201.862772
 21
237.052078
 31
0.0
  0
ARC
  5
1C9
100
AcDbEntity
  8
LAY-3
  6
DASHED2
 62
     3
100
AcDbCircle
 10
194.721344
 20
244.052078
 30
0.0
 40
10.0
100
AcDbArc
 50
135.572996
 51
150.0
  0
ARC
  5
1CA
100
AcDbEntity
  8
LAY-3
  6
DASHED2
 62
     3
100
AcDbCircle
 10
194.721344
 20
244.052078
 30
0.0
 40
10.0
100
AcDbArc
 50
210.0
 51
225.323719
  0
ARC
  5
1CB
100
AcDbEntity
  8
LAY-3
  6
DASHED2
 62
     3
100
AcDbCircle
 10
194.721344
 20
244.052078
 30
0.0
 40
10.0
100
AcDbArc
 50
315.572996
 51
330.0
  0
ARC
  5
1CC
100
AcDbEntity
  8
LAY-3
  6
DASHED2
 62
     3
100
AcDbCircle
 10
194.721344
 20
244.052078
 30
0.0
 40
10.0
100
AcDbArc
 50
30.0
 51
44.278091
  0
LINE
  5
1CD
100
AcDbEntity
  8
LAY-3
  6
DASHED2
 62
     3
100
AcDbLine
 10
343.371344
 20
137.552063
 30
0.0
 11
332.071344
 21
137.552063
 31
0.0
  0
LINE
  5
1CE
100
AcDbEntity
  8
LAY-3
  6
DASHED2
 62
     3
100
AcDbLine
 10
340.721344
 20
140.852063
 30
0.0
 11
334.721344
 21
140.852063
 31
0.0
  0
LINE
  5
1CF
100
AcDbEntity
  8
LAY-3
  6
DASHED2
 62
     3
100
AcDbLine
 10
334.721344
 20
140.852063
 30
0.0
 11
332.071344
 21
138.202063
 31
0.0
  0
LINE
  5
1D0
100
AcDbEntity
  8
LAY-3
  6
DASHED2
 62
     3
100
AcDbLine
 10
340.721344
 20
140.852063
 30
0.0
 11
343.371344
 21
138.202063
 31
0.0
  0
LINE
  5
1D1
100
AcDbEntity
  8
LAY-3
  6
DASHED2
 62
     3
100
AcDbLine
 10
332.071344
 20
138.202063
 30
0.0
 11
343.371344
 21
138.202063
 31
0.0
  0
LINE
  5
1D2
100
AcDbEntity
  8
LAY-3
  6
DASHED2
 62
     3
100
AcDbLine
 10
332.071344
 20
138.202063
 30
0.0
 11
332.071344
 21
137.552063
 31
0.0
  0
LINE
  5
1D3
100
AcDbEntity
  8
LAY-3
  6
DASHED2
 62
     3
100
AcDbLine
 10
343.371344
 20
138.202063
 30
0.0
 11
343.371344
 21
137.552063
 31
0.0
  0
LINE
  5
1D4
100
AcDbEntity
  8
LAY-3
  6
CONTINUOUS
 62
     3
100
AcDbLine
 10
340.721344
 20
157.552063
 30
0.0
 11
334.721344
 21
157.552063
 31
0.0
  0
LINE
  5
1D5
100
AcDbEntity
  8
LAY-3
  6
CONTINUOUS
 62
     3
100
AcDbLine
 10
334.721344
 20
157.552063
 30
0.0
 11
334.721344
 21
152.352002
 31
0.0
  0
LINE
  5
1D6
100
AcDbEntity
  8
LAY-3
  6
CONTINUOUS
 62
     3
100
AcDbLine
 10
340.721344
 20
157.552063
 30
0.0
 11
340.721344
 21
152.352002
 31
0.0
  0
LINE
  5
1D7
100
AcDbEntity
  8
LAY-3
  6
CONTINUOUS
 62
     1
100
AcDbLine
 10
335.321344
 20
157.552063
 30
0.0
 11
335.321344
 21
152.352002
 31
0.0
  0
LINE
  5
1D8
100
AcDbEntity
  8
LAY-3
  6
CONTINUOUS
 62
     1
100
AcDbLine
 10
340.121344
 20
157.552063
 30
0.0
 11
340.121344
 21
152.352002
 31
0.0
  0
LINE
  5
1D9
100
AcDbEntity
  8
LAY-3
  6
DASHED2
 62
     3
100
AcDbLine
 10
340.721344
 20
152.352002
 30
0.0
 11
340.721344
 21
140.852063
 31
0.0
  0
LINE
  5
1DA
100
AcDbEntity
  8
LAY-3
  6
DASHED2
 62
     1
100
AcDbLine
 10
340.121344
 20
152.352002
 30
0.0
 11
340.121344
 21
140.852063
 31
0.0
  0
LINE
  5
1DB
100
AcDbEntity
  8
LAY-3
  6
DASHED2
 62
     1
100
AcDbLine
 10
335.321344
 20
152.352002
 30
0.0
 11
335.321344
 21
140.852063
 31
0.0
  0
LINE
  5
1DC
100
AcDbEntity
  8
LAY-3
  6
DASHED2
 62
     3
100
AcDbLine
 10
334.721344
 20
152.352002
 30
0.0
 11
334.721344
 21
140.852063
 31
0.0
  0
LINE
  5
1DD
100
AcDbEntity
  8
LAY-3
  6
DASHED2
 62
     3
100
AcDbLine
 10
328.371344
 20
137.552063
 30
0.0
 11
317.071344
 21
137.552063
 31
0.0
  0
LINE
  5
1DE
100
AcDbEntity
  8
LAY-3
  6
DASHED2
 62
     3
100
AcDbLine
 10
325.721344
 20
140.852063
 30
0.0
 11
319.721344
 21
140.852063
 31
0.0
  0
LINE
  5
1DF
100
AcDbEntity
  8
LAY-3
  6
DASHED2
 62
     3
100
AcDbLine
 10
319.721344
 20
140.852063
 30
0.0
 11
317.071344
 21
138.202063
 31
0.0
  0
LINE
  5
1E0
100
AcDbEntity
  8
LAY-3
  6
DASHED2
 62
     3
100
AcDbLine
 10
325.721344
 20
140.852063
 30
0.0
 11
328.371344
 21
138.202063
 31
0.0
  0
LINE
  5
1E1
100
AcDbEntity
  8
LAY-3
  6
DASHED2
 62
     3
100
AcDbLine
 10
317.071344
 20
138.202063
 30
0.0
 11
328.371344
 21
138.202063
 31
0.0
  0
LINE
  5
1E2
100
AcDbEntity
  8
LAY-3
  6
DASHED2
 62
     3
100
AcDbLine
 10
317.071344
 20
138.202063
 30
0.0
 11
317.071344
 21
137.552063
 31
0.0
  0
LINE
  5
1E3
100
AcDbEntity
  8
LAY-3
  6
DASHED2
 62
     3
100
AcDbLine
 10
328.371344
 20
138.202063
 30
0.0
 11
328.371344
 21
137.552063
 31
0.0
  0
LINE
  5
1E4
100
AcDbEntity
  8
LAY-3
  6
CONTINUOUS
 62
     3
100
AcDbLine
 10
325.721344
 20
157.552063
 30
0.0
 11
319.721344
 21
157.552063
 31
0.0
  0
LINE
  5
1E5
100
AcDbEntity
  8
LAY-3
  6
CONTINUOUS
 62
     3
100
AcDbLine
 10
319.721344
 20
157.552063
 30
0.0
 11
319.721344
 21
152.352002
 31
0.0
  0
LINE
  5
1E6
100
AcDbEntity
  8
LAY-3
  6
CONTINUOUS
 62
     3
100
AcDbLine
 10
325.721344
 20
157.552063
 30
0.0
 11
325.721344
 21
152.352002
 31
0.0
  0
LINE
  5
1E7
100
AcDbEntity
  8
LAY-3
  6
CONTINUOUS
 62
     1
100
AcDbLine
 10
320.321344
 20
157.552063
 30
0.0
 11
320.321344
 21
152.352002
 31
0.0
  0
LINE
  5
1E8
100
AcDbEntity
  8
LAY-3
  6
CONTINUOUS
 62
     1
100
AcDbLine
 10
325.121344
 20
157.552063
 30
0.0
 11
325.121344
 21
152.352002
 31
0.0
  0
LINE
  5
1E9
100
AcDbEntity
  8
LAY-3
  6
DASHED2
 62
     3
100
AcDbLine
 10
325.721344
 20
152.352002
 30
0.0
 11
325.721344
 21
140.852063
 31
0.0
  0
LINE
  5
1EA
100
AcDbEntity
  8
LAY-3
  6
DASHED2
 62
     1
100
AcDbLine
 10
325.121344
 20
152.352002
 30
0.0
 11
325.121344
 21
140.852063
 31
0.0
  0
LINE
  5
1EB
100
AcDbEntity
  8
LAY-3
  6
DASHED2
 62
     1
100
AcDbLine
 10
320.321344
 20
152.352002
 30
0.0
 11
320.321344
 21
140.852063
 31
0.0
  0
LINE
  5
1EC
100
AcDbEntity
  8
LAY-3
  6
DASHED2
 62
     3
100
AcDbLine
 10
319.721344
 20
152.352002
 30
0.0
 11
319.721344
 21
140.852063
 31
0.0
  0
LINE
  5
1ED
100
AcDbEntity
  8
LAY-3
  6
DASHED2
 62
     3
100
AcDbLine
 10
240.371344
 20
137.552063
 30
0.0
 11
229.071344
 21
137.552063
 31
0.0
  0
LINE
  5
1EE
100
AcDbEntity
  8
LAY-3
  6
DASHED2
 62
     3
100
AcDbLine
 10
237.721344
 20
140.852063
 30
0.0
 11
231.721344
 21
140.852063
 31
0.0
  0
LINE
  5
1EF
100
AcDbEntity
  8
LAY-3
  6
DASHED2
 62
     3
100
AcDbLine
 10
231.721344
 20
140.852063
 30
0.0
 11
229.071344
 21
138.202063
 31
0.0
  0
LINE
  5
1F0
100
AcDbEntity
  8
LAY-3
  6
DASHED2
 62
     3
100
AcDbLine
 10
237.721344
 20
140.852063
 30
0.0
 11
240.371344
 21
138.202063
 31
0.0
  0
LINE
  5
1F1
100
AcDbEntity
  8
LAY-3
  6
DASHED2
 62
     3
100
AcDbLine
 10
229.071344
 20
138.202063
 30
0.0
 11
240.371344
 21
138.202063
 31
0.0
  0
LINE
  5
1F2
100
AcDbEntity
  8
LAY-3
  6
DASHED2
 62
     3
100
AcDbLine
 10
229.071344
 20
138.202063
 30
0.0
 11
229.071344
 21
137.552063
 31
0.0
  0
LINE
  5
1F3
100
AcDbEntity
  8
LAY-3
  6
DASHED2
 62
     3
100
AcDbLine
 10
240.371344
 20
138.202063
 30
0.0
 11
240.371344
 21
137.552063
 31
0.0
  0
LINE
  5
1F4
100
AcDbEntity
  8
LAY-3
  6
CONTINUOUS
 62
     3
100
AcDbLine
 10
237.721344
 20
157.552063
 30
0.0
 11
231.721344
 21
157.552063
 31
0.0
  0
LINE
  5
1F5
100
AcDbEntity
  8
LAY-3
  6
CONTINUOUS
 62
     3
100
AcDbLine
 10
231.721344
 20
157.552063
 30
0.0
 11
231.721344
 21
152.352002
 31
0.0
  0
LINE
  5
1F6
100
AcDbEntity
  8
LAY-3
  6
CONTINUOUS
 62
     3
100
AcDbLine
 10
237.721344
 20
157.552063
 30
0.0
 11
237.721344
 21
152.352002
 31
0.0
  0
LINE
  5
1F7
100
AcDbEntity
  8
LAY-3
  6
CONTINUOUS
 62
     1
100
AcDbLine
 10
232.321344
 20
157.552063
 30
0.0
 11
232.321344
 21
152.352002
 31
0.0
  0
LINE
  5
1F8
100
AcDbEntity
  8
LAY-3
  6
CONTINUOUS
 62
     1
100
AcDbLine
 10
237.121344
 20
157.552063
 30
0.0
 11
237.121344
 21
152.352002
 31
0.0
  0
LINE
  5
1F9
100
AcDbEntity
  8
LAY-3
  6
DASHED2
 62
     3
100
AcDbLine
 10
237.721344
 20
152.352002
 30
0.0
 11
237.721344
 21
140.852063
 31
0.0
  0
LINE
  5
1FA
100
AcDbEntity
  8
LAY-3
  6
DASHED2
 62
     1
100
AcDbLine
 10
237.121344
 20
152.352002
 30
0.0
 11
237.121344
 21
140.852063
 31
0.0
  0
LINE
  5
1FB
100
AcDbEntity
  8
LAY-3
  6
DASHED2
 62
     1
100
AcDbLine
 10
232.321344
 20
152.352002
 30
0.0
 11
232.321344
 21
140.852063
 31
0.0
  0
LINE
  5
1FC
100
AcDbEntity
  8
LAY-3
  6
DASHED2
 62
     3
100
AcDbLine
 10
231.721344
 20
152.352002
 30
0.0
 11
231.721344
 21
140.852063
 31
0.0
  0
LINE
  5
1FD
100
AcDbEntity
  8
LAY-3
  6
DASHED2
 62
     3
100
AcDbLine
 10
225.371344
 20
137.552063
 30
0.0
 11
214.071344
 21
137.552063
 31
0.0
  0
LINE
  5
1FE
100
AcDbEntity
  8
LAY-3
  6
DASHED2
 62
     3
100
AcDbLine
 10
222.721344
 20
140.852063
 30
0.0
 11
216.721344
 21
140.852063
 31
0.0
  0
LINE
  5
1FF
100
AcDbEntity
  8
LAY-3
  6
DASHED2
 62
     3
100
AcDbLine
 10
216.721344
 20
140.852063
 30
0.0
 11
214.071344
 21
138.202063
 31
0.0
  0
LINE
  5
200
100
AcDbEntity
  8
LAY-3
  6
DASHED2
 62
     3
100
AcDbLine
 10
222.721344
 20
140.852063
 30
0.0
 11
225.371344
 21
138.202063
 31
0.0
  0
LINE
  5
201
100
AcDbEntity
  8
LAY-3
  6
DASHED2
 62
     3
100
AcDbLine
 10
214.071344
 20
138.202063
 30
0.0
 11
225.371344
 21
138.202063
 31
0.0
  0
LINE
  5
202
100
AcDbEntity
  8
LAY-3
  6
DASHED2
 62
     3
100
AcDbLine
 10
214.071344
 20
138.202063
 30
0.0
 11
214.071344
 21
137.552063
 31
0.0
  0
LINE
  5
203
100
AcDbEntity
  8
LAY-3
  6
DASHED2
 62
     3
100
AcDbLine
 10
225.371344
 20
138.202063
 30
0.0
 11
225.371344
 21
137.552063
 31
0.0
  0
LINE
  5
204
100
AcDbEntity
  8
LAY-3
  6
CONTINUOUS
 62
     3
100
AcDbLine
 10
222.721344
 20
157.552063
 30
0.0
 11
216.721344
 21
157.552063
 31
0.0
  0
LINE
  5
205
100
AcDbEntity
  8
LAY-3
  6
CONTINUOUS
 62
     3
100
AcDbLine
 10
216.721344
 20
157.552063
 30
0.0
 11
216.721344
 21
152.352002
 31
0.0
  0
LINE
  5
206
100
AcDbEntity
  8
LAY-3
  6
CONTINUOUS
 62
     3
100
AcDbLine
 10
222.721344
 20
157.552063
 30
0.0
 11
222.721344
 21
152.352002
 31
0.0
  0
LINE
  5
207
100
AcDbEntity
  8
LAY-3
  6
CONTINUOUS
 62
     1
100
AcDbLine
 10
217.321344
 20
157.552063
 30
0.0
 11
217.321344
 21
152.352002
 31
0.0
  0
LINE
  5
208
100
AcDbEntity
  8
LAY-3
  6
CONTINUOUS
 62
     1
100
AcDbLine
 10
222.121344
 20
157.552063
 30
0.0
 11
222.121344
 21
152.352002
 31
0.0
  0
LINE
  5
209
100
AcDbEntity
  8
LAY-3
  6
DASHED2
 62
     3
100
AcDbLine
 10
222.721344
 20
152.352002
 30
0.0
 11
222.721344
 21
140.852063
 31
0.0
  0
LINE
  5
20A
100
AcDbEntity
  8
LAY-3
  6
DASHED2
 62
     1
100
AcDbLine
 10
222.121344
 20
152.352002
 30
0.0
 11
222.121344
 21
140.852063
 31
0.0
  0
LINE
  5
20B
100
AcDbEntity
  8
LAY-3
  6
DASHED2
 62
     1
100
AcDbLine
 10
217.321344
 20
152.352002
 30
0.0
 11
217.321344
 21
140.852063
 31
0.0
  0
LINE
  5
20C
100
AcDbEntity
  8
LAY-3
  6
DASHED2
 62
     3
100
AcDbLine
 10
216.721344
 20
152.352002
 30
0.0
 11
216.721344
 21
140.852063
 31
0.0
  0
LINE
  5
20D
100
AcDbEntity
  8
LAY-3
  6
DASHED2
 62
     3
100
AcDbLine
 10
225.371344
 20
137.552063
 30
0.0
 11
214.071344
 21
137.552063
 31
0.0
  0
LINE
  5
20E
100
AcDbEntity
  8
LAY-3
  6
DASHED2
 62
     3
100
AcDbLine
 10
222.721344
 20
140.852063
 30
0.0
 11
216.721344
 21
140.852063
 31
0.0
  0
LINE
  5
20F
100
AcDbEntity
  8
LAY-3
  6
DASHED2
 62
     3
100
AcDbLine
 10
216.721344
 20
140.852063
 30
0.0
 11
214.071344
 21
138.202063
 31
0.0
  0
LINE
  5
210
100
AcDbEntity
  8
LAY-3
  6
DASHED2
 62
     3
100
AcDbLine
 10
222.721344
 20
140.852063
 30
0.0
 11
225.371344
 21
138.202063
 31
0.0
  0
LINE
  5
211
100
AcDbEntity
  8
LAY-3
  6
DASHED2
 62
     3
100
AcDbLine
 10
214.071344
 20
138.202063
 30
0.0
 11
225.371344
 21
138.202063
 31
0.0
  0
LINE
  5
212
100
AcDbEntity
  8
LAY-3
  6
DASHED2
 62
     3
100
AcDbLine
 10
214.071344
 20
138.202063
 30
0.0
 11
214.071344
 21
137.552063
 31
0.0
  0
LINE
  5
213
100
AcDbEntity
  8
LAY-3
  6
DASHED2
 62
     3
100
AcDbLine
 10
225.371344
 20
138.202063
 30
0.0
 11
225.371344
 21
137.552063
 31
0.0
  0
LINE
  5
214
100
AcDbEntity
  8
LAY-3
  6
CONTINUOUS
 62
     3
100
AcDbLine
 10
222.721344
 20
157.552063
 30
0.0
 11
216.721344
 21
157.552063
 31
0.0
  0
LINE
  5
215
100
AcDbEntity
  8
LAY-3
  6
CONTINUOUS
 62
     3
100
AcDbLine
 10
216.721344
 20
157.552063
 30
0.0
 11
216.721344
 21
152.352002
 31
0.0
  0
LINE
  5
216
100
AcDbEntity
  8
LAY-3
  6
CONTINUOUS
 62
     3
100
AcDbLine
 10
222.721344
 20
157.552063
 30
0.0
 11
222.721344
 21
152.352002
 31
0.0
  0
LINE
  5
217
100
AcDbEntity
  8
LAY-3
  6
CONTINUOUS
 62
     1
100
AcDbLine
 10
217.321344
 20
157.552063
 30
0.0
 11
217.321344
 21
152.352002
 31
0.0
  0
LINE
  5
218
100
AcDbEntity
  8
LAY-3
  6
CONTINUOUS
 62
     1
100
AcDbLine
 10
222.121344
 20
157.552063
 30
0.0
 11
222.121344
 21
152.352002
 31
0.0
  0
LINE
  5
219
100
AcDbEntity
  8
LAY-3
  6
DASHED2
 62
     3
100
AcDbLine
 10
222.721344
 20
152.352002
 30
0.0
 11
222.721344
 21
140.852063
 31
0.0
  0
LINE
  5
21A
100
AcDbEntity
  8
LAY-3
  6
DASHED2
 62
     1
100
AcDbLine
 10
222.121344
 20
152.352002
 30
0.0
 11
222.121344
 21
140.852063
 31
0.0
  0
LINE
  5
21B
100
AcDbEntity
  8
LAY-3
  6
DASHED2
 62
     1
100
AcDbLine
 10
217.321344
 20
152.352002
 30
0.0
 11
217.321344
 21
140.852063
 31
0.0
  0
LINE
  5
21C
100
AcDbEntity
  8
LAY-3
  6
DASHED2
 62
     3
100
AcDbLine
 10
216.721344
 20
152.352002
 30
0.0
 11
216.721344
 21
140.852063
 31
0.0
  0
LINE
  5
21D
100
AcDbEntity
  8
LAY-4
  6
CONTINUOUS
 62
     3
100
AcDbLine
 10
641.478461
 20
329.051695
 30
0.0
 11
681.478461
 21
329.052074
 31
0.0
  0
LINE
  5
21E
100
AcDbEntity
  8
LAY-4
  6
CONTINUOUS
 62
     3
100
AcDbLine
 10
679.478461
 20
327.551885
 30
0.0
 11
679.478461
 21
311.551885
 31
0.0
  0
LINE
  5
21F
100
AcDbEntity
  8
LAY-4
  6
CONTINUOUS
 62
     3
100
AcDbLine
 10
641.478461
 20
329.051706
 30
0.0
 11
641.478461
 21
327.551885
 31
0.0
  0
LINE
  5
220
100
AcDbEntity
  8
LAY-4
  6
CONTINUOUS
 62
     3
100
AcDbLine
 10
681.478461
 20
329.052068
 30
0.0
 11
681.478461
 21
327.551885
 31
0.0
  0
LINE
  5
221
100
AcDbEntity
  8
LAY-4
  6
CONTINUOUS
 62
     1
100
AcDbLine
 10
255.721344
 20
125.552063
 30
0.0
 11
238.6
 21
125.552063
 31
0.0
  0
LINE
  5
222
100
AcDbEntity
  8
LAY-4
  6
CONTINUOUS
 62
     1
100
AcDbLine
 10
255.721344
 20
127.052063
 30
0.0
 11
238.6
 21
127.052063
 31
0.0
  0
LINE
  5
223
100
AcDbEntity
  8
LAY-4
  6
DASHED2
 62
     3
100
AcDbLine
 10
186.221344
 20
144.052063
 30
0.0
 11
203.221344
 21
144.052063
 31
0.0
  0
LINE
  5
224
100
AcDbEntity
  8
LAY-4
  6
DASHED2
 62
     3
100
AcDbLine
 10
186.221344
 20
144.052063
 30
0.0
 11
185.221344
 21
143.052063
 31
0.0
  0
LINE
  5
225
100
AcDbEntity
  8
LAY-4
  6
DASHED2
 62
     3
100
AcDbLine
 10
203.221344
 20
144.052063
 30
0.0
 11
204.221344
 21
143.052063
 31
0.0
  0
LINE
  5
226
100
AcDbEntity
  8
LAY-4
  6
DASHED2
 62
     3
100
AcDbLine
 10
186.635529
 20
143.052032
 30
0.0
 11
187.63556
 21
144.052063
 31
0.0
  0
LINE
  5
227
100
AcDbEntity
  8
LAY-4
  6
DASHED2
 62
     3
100
AcDbLine
 10
202.807129
 20
143.052032
 30
0.0
 11
201.807129
 21
144.052063
 31
0.0
  0
LINE
  5
228
100
AcDbEntity
  8
LAY-4
  6
DASHED2
 62
     3
100
AcDbLine
 10
186.635529
 20
143.052032
 30
0.0
 11
185.221344
 21
143.052032
 31
0.0
  0
LINE
  5
229
100
AcDbEntity
  8
LAY-4
  6
DASHED2
 62
     3
100
AcDbLine
 10
202.807129
 20
143.052032
 30
0.0
 11
204.221344
 21
143.052032
 31
0.0
  0
LINE
  5
22A
100
AcDbEntity
  8
LAY-4
  6
DASHED2
 62
     3
100
AcDbLine
 10
204.22136
 20
145.052063
 30
0.0
 11
204.221315
 21
130.552063
 31
0.0
  0
LINE
  5
22B
100
AcDbEntity
  8
LAY-4
  6
DASHED2
 62
     3
100
AcDbLine
 10
185.221344
 20
145.052063
 30
0.0
 11
185.221344
 21
130.552063
 31
0.0
  0
LINE
  5
22C
100
AcDbEntity
  8
LAY-4
  6
CONTINUOUS
 62
     3
100
AcDbLine
 10
188.297822
 20
129.052032
 30
0.0
 11
188.166541
 21
130.552538
 31
0.0
  0
LINE
  5
22D
100
AcDbEntity
  8
LAY-4
  6
DASHED2
 62
     3
100
AcDbLine
 10
188.161115
 20
130.552063
 30
0.0
 11
186.635529
 21
143.052032
 31
0.0
  0
LINE
  5
22E
100
AcDbEntity
  8
LAY-4
  6
CONTINUOUS
 62
     3
100
AcDbLine
 10
201.144867
 20
129.052032
 30
0.0
 11
201.276148
 21
130.552536
 31
0.0
  0
LINE
  5
22F
100
AcDbEntity
  8
LAY-4
  6
DASHED2
 62
     3
100
AcDbLine
 10
201.281558
 20
130.552063
 30
0.0
 11
202.807129
 21
143.052032
 31
0.0
  0
LINE
  5
230
100
AcDbEntity
  8
LAY-4
  6
CONTINUOUS
 62
     3
100
AcDbLine
 10
641.478461
 20
172.552078
 30
0.0
 11
641.478461
 21
132.552078
 31
0.0
  0
LINE
  5
231
100
AcDbEntity
  8
LAY-4
  6
CONTINUOUS
 62
     3
100
AcDbLine
 10
722.478461
 20
172.552078
 30
0.0
 11
722.478461
 21
132.552078
 31
0.0
  0
LINE
  5
232
100
AcDbEntity
  8
LAY-4
  6
CONTINUOUS
 62
     3
100
AcDbLine
 10
641.478461
 20
172.552078
 30
0.0
 11
722.478461
 21
172.552078
 31
0.0
  0
LINE
  5
233
100
AcDbEntity
  8
LAY-4
  6
CONTINUOUS
 62
     3
100
AcDbLine
 10
641.478461
 20
132.552078
 30
0.0
 11
722.478461
 21
132.552078
 31
0.0
  0
LINE
  5
234
100
AcDbEntity
  8
LAY-4
  6
DASHED2
 62
     3
100
AcDbLine
 10
643.478461
 20
170.552078
 30
0.0
 11
643.478461
 21
134.552078
 31
0.0
  0
LINE
  5
235
100
AcDbEntity
  8
LAY-4
  6
DASHED2
 62
     3
100
AcDbLine
 10
721.478461
 20
170.552078
 30
0.0
 11
721.478461
 21
134.552078
 31
0.0
  0
LINE
  5
236
100
AcDbEntity
  8
LAY-4
  6
DASHED2
 62
     3
100
AcDbLine
 10
643.478461
 20
170.552078
 30
0.0
 11
721.478461
 21
170.552078
 31
0.0
  0
LINE
  5
237
100
AcDbEntity
  8
LAY-4
  6
DASHED2
 62
     3
100
AcDbLine
 10
643.478461
 20
134.552078
 30
0.0
 11
721.478461
 21
134.552078
 31
0.0
  0
CIRCLE
  5
238
100
AcDbEntity
  8
LAY-4
  6
DASHED2
 62
     3
100
AcDbCircle
 10
711.478461
 20
142.552078
 30
0.0
 40
5.75
  0
LINE
  5
239
100
AcDbEntity
  8
LAY-4
  6
DASHED2
 62
     3
100
AcDbLine
 10
714.588191
 20
145.661808
 30
0.0
 11
708.333192
 21
139.406808
 31
0.0
  0
LINE
  5
23A
100
AcDbEntity
  8
LAY-4
  6
DASHED2
 62
     3
100
AcDbLine
 10
708.41527
 20
145.61527
 30
0.0
 11
714.60527
 21
139.42527
 31
0.0
  0
CIRCLE
  5
23B
100
AcDbEntity
  8
LAY-4
  6
DASHED2
 62
     3
100
AcDbCircle
 10
686.478461
 20
142.552078
 30
0.0
 40
5.75
  0
LINE
  5
23C
100
AcDbEntity
  8
LAY-4
  6
DASHED2
 62
     3
100
AcDbLine
 10
689.588191
 20
145.661808
 30
0.0
 11
683.333191
 21
139.406808
 31
0.0
  0
LINE
  5
23D
100
AcDbEntity
  8
LAY-4
  6
DASHED2
 62
     3
100
AcDbLine
 10
683.41527
 20
145.61527
 30
0.0
 11
689.60527
 21
139.42527
 31
0.0
  0
CIRCLE
  5
23E
100
AcDbEntity
  8
LAY-4
  6
DASHED2
 62
     3
100
AcDbCircle
 10
686.478461
 20
162.552078
 30
0.0
 40
5.75
  0
LINE
  5
23F
100
AcDbEntity
  8
LAY-4
  6
DASHED2
 62
     3
100
AcDbLine
 10
689.588191
 20
165.661808
 30
0.0
 11
683.333191
 21
159.406808
 31
0.0
  0
LINE
  5
240
100
AcDbEntity
  8
LAY-4
  6
DASHED2
 62
     3
100
AcDbLine
 10
683.41527
 20
165.61527
 30
0.0
 11
689.60527
 21
159.42527
 31
0.0
  0
CIRCLE
  5
241
100
AcDbEntity
  8
LAY-4
  6
DASHED2
 62
     3
100
AcDbCircle
 10
711.478461
 20
162.552078
 30
0.0
 40
5.75
  0
LINE
  5
242
100
AcDbEntity
  8
LAY-4
  6
DASHED2
 62
     3
100
AcDbLine
 10
714.588191
 20
165.661808
 30
0.0
 11
708.333191
 21
159.406808
 31
0.0
  0
LINE
  5
243
100
AcDbEntity
  8
LAY-4
  6
DASHED2
 62
     3
100
AcDbLine
 10
708.41527
 20
165.61527
 30
0.0
 11
714.60527
 21
159.42527
 31
0.0
  0
CIRCLE
  5
244
100
AcDbEntity
  8
LAY-4
  6
CONTINUOUS
 62
     3
100
AcDbCircle
 10
711.478461
 20
152.552078
 30
0.0
 40
4.0
  0
LINE
  5
245
100
AcDbEntity
  8
LAY-4
  6
CONTINUOUS
 62
     3
100
AcDbLine
 10
713.688192
 20
154.761808
 30
0.0
 11
709.293192
 21
150.366808
 31
0.0
  0
LINE
  5
246
100
AcDbEntity
  8
LAY-4
  6
CONTINUOUS
 62
     3
100
AcDbLine
 10
709.25527
 20
154.77527
 30
0.0
 11
713.67027
 21
150.36027
 31
0.0
  0
CIRCLE
  5
247
100
AcDbEntity
  8
LAY-4
  6
CONTINUOUS
 62
     3
100
AcDbCircle
 10
686.478461
 20
152.552078
 30
0.0
 40
4.0
  0
LINE
  5
248
100
AcDbEntity
  8
LAY-4
  6
CONTINUOUS
 62
     3
100
AcDbLine
 10
688.688191
 20
154.761808
 30
0.0
 11
684.293191
 21
150.366808
 31
0.0
  0
LINE
  5
249
100
AcDbEntity
  8
LAY-4
  6
CONTINUOUS
 62
     3
100
AcDbLine
 10
684.25527
 20
154.77527
 30
0.0
 11
688.67027
 21
150.36027
 31
0.0
  0
LINE
  5
24A
100
AcDbEntity
  8
LAY-4
  6
CONTINUOUS
 62
     3
100
AcDbLine
 10
641.478461
 20
327.551885
 30
0.0
 11
681.478461
 21
327.551885
 31
0.0
  0
LINE
  5
24B
100
AcDbEntity
  8
LAY-4
  6
CONTINUOUS
 62
     3
100
AcDbLine
 10
643.478461
 20
327.551885
 30
0.0
 11
643.478461
 21
311.551885
 31
0.0
  0
LINE
  5
24C
100
AcDbEntity
  8
LAY-4
  6
CONTINUOUS
 62
     3
100
AcDbLine
 10
643.478461
 20
311.551885
 30
0.0
 11
679.478461
 21
311.551885
 31
0.0
  0
LINE
  5
24D
100
AcDbEntity
  8
LAY-4
  6
CONTINUOUS
 62
     3
100
AcDbLine
 10
176.721344
 20
109.552063
 30
0.0
 11
254.721344
 21
109.552063
 31
0.0
  0
LINE
  5
24E
100
AcDbEntity
  8
LAY-4
  6
CONTINUOUS
 62
     3
100
AcDbLine
 10
174.721344
 20
127.052063
 30
0.0
 11
255.721344
 21
127.052063
 31
0.0
  0
LINE
  5
24F
100
AcDbEntity
  8
LAY-4
  6
CONTINUOUS
 62
     3
100
AcDbLine
 10
174.721344
 20
125.552063
 30
0.0
 11
255.721344
 21
125.552063
 31
0.0
  0
LINE
  5
250
100
AcDbEntity
  8
LAY-4
  6
CONTINUOUS
 62
     3
100
AcDbLine
 10
174.721344
 20
127.052063
 30
0.0
 11
174.721344
 21
125.552063
 31
0.0
  0
LINE
  5
251
100
AcDbEntity
  8
LAY-4
  6
CONTINUOUS
 62
     3
100
AcDbLine
 10
255.721344
 20
127.052063
 30
0.0
 11
255.721344
 21
125.552063
 31
0.0
  0
LINE
  5
252
100
AcDbEntity
  8
LAY-4
  6
CONTINUOUS
 62
     3
100
AcDbLine
 10
176.721344
 20
125.552063
 30
0.0
 11
176.721344
 21
109.552063
 31
0.0
  0
LINE
  5
253
100
AcDbEntity
  8
LAY-4
  6
CONTINUOUS
 62
     3
100
AcDbLine
 10
254.721344
 20
125.552063
 30
0.0
 11
254.721344
 21
109.552063
 31
0.0
  0
LINE
  5
254
100
AcDbEntity
  8
LAY-4
  6
DASHED2
 62
     3
100
AcDbLine
 10
250.721314
 20
125.552063
 30
0.0
 11
238.721314
 21
125.552063
 31
0.0
  0
LINE
  5
255
100
AcDbEntity
  8
LAY-4
  6
DASHED2
 62
     3
100
AcDbLine
 10
238.721314
 20
125.152038
 30
0.0
 11
250.721314
 21
125.152038
 31
0.0
  0
LINE
  5
256
100
AcDbEntity
  8
LAY-4
  6
DASHED2
 62
     3
100
AcDbLine
 10
241.371308
 20
122.152038
 30
0.0
 11
248.071351
 21
122.152038
 31
0.0
  0
LINE
  5
257
100
AcDbEntity
  8
LAY-4
  6
DASHED2
 62
     3
100
AcDbLine
 10
248.071351
 20
122.152038
 30
0.0
 11
250.721314
 21
125.152038
 31
0.0
  0
LINE
  5
258
100
AcDbEntity
  8
LAY-4
  6
DASHED2
 62
     3
100
AcDbLine
 10
241.371308
 20
122.152038
 30
0.0
 11
238.721314
 21
125.152038
 31
0.0
  0
LINE
  5
259
100
AcDbEntity
  8
LAY-4
  6
DASHED2
 62
     3
100
AcDbLine
 10
250.721314
 20
125.152038
 30
0.0
 11
250.721314
 21
125.552063
 31
0.0
  0
LINE
  5
25A
100
AcDbEntity
  8
LAY-4
  6
DASHED2
 62
     3
100
AcDbLine
 10
238.721314
 20
125.152038
 30
0.0
 11
238.721314
 21
125.552063
 31
0.0
  0
LINE
  5
25B
100
AcDbEntity
  8
LAY-4
  6
DASHED2
 62
     3
100
AcDbLine
 10
248.07132
 20
122.152038
 30
0.0
 11
248.07132
 21
119.552063
 31
0.0
  0
LINE
  5
25C
100
AcDbEntity
  8
LAY-4
  6
DASHED2
 62
     3
100
AcDbLine
 10
241.371308
 20
119.552063
 30
0.0
 11
241.371308
 21
122.152038
 31
0.0
  0
LINE
  5
25D
100
AcDbEntity
  8
LAY-4
  6
DASHED2
 62
     1
100
AcDbLine
 10
247.321351
 20
122.152038
 30
0.0
 11
247.321351
 21
119.552063
 31
0.0
  0
LINE
  5
25E
100
AcDbEntity
  8
LAY-4
  6
DASHED2
 62
     1
100
AcDbLine
 10
242.121338
 20
122.152038
 30
0.0
 11
242.121338
 21
119.552063
 31
0.0
  0
LINE
  5
25F
100
AcDbEntity
  8
LAY-4
  6
CONTINUOUS
 62
     3
100
AcDbLine
 10
248.07132
 20
100.152063
 30
0.0
 11
241.371308
 21
100.152063
 31
0.0
  0
LINE
  5
260
100
AcDbEntity
  8
LAY-4
  6
DASHED2
 62
     3
100
AcDbLine
 10
225.721314
 20
125.552063
 30
0.0
 11
213.721314
 21
125.552063
 31
0.0
  0
LINE
  5
261
100
AcDbEntity
  8
LAY-4
  6
DASHED2
 62
     3
100
AcDbLine
 10
213.721314
 20
125.152038
 30
0.0
 11
225.721314
 21
125.152038
 31
0.0
  0
LINE
  5
262
100
AcDbEntity
  8
LAY-4
  6
DASHED2
 62
     3
100
AcDbLine
 10
216.371308
 20
122.152038
 30
0.0
 11
223.071351
 21
122.152038
 31
0.0
  0
LINE
  5
263
100
AcDbEntity
  8
LAY-4
  6
DASHED2
 62
     3
100
AcDbLine
 10
223.071351
 20
122.152038
 30
0.0
 11
225.721314
 21
125.152038
 31
0.0
  0
LINE
  5
264
100
AcDbEntity
  8
LAY-4
  6
DASHED2
 62
     3
100
AcDbLine
 10
216.371308
 20
122.152038
 30
0.0
 11
213.721314
 21
125.152038
 31
0.0
  0
LINE
  5
265
100
AcDbEntity
  8
LAY-4
  6
DASHED2
 62
     3
100
AcDbLine
 10
225.721314
 20
125.152038
 30
0.0
 11
225.721314
 21
125.552063
 31
0.0
  0
LINE
  5
266
100
AcDbEntity
  8
LAY-4
  6
DASHED2
 62
     3
100
AcDbLine
 10
213.721314
 20
125.152038
 30
0.0
 11
213.721314
 21
125.552063
 31
0.0
  0
LINE
  5
267
100
AcDbEntity
  8
LAY-4
  6
DASHED2
 62
     3
100
AcDbLine
 10
223.07132
 20
122.152038
 30
0.0
 11
223.07132
 21
119.552063
 31
0.0
  0
LINE
  5
268
100
AcDbEntity
  8
LAY-4
  6
DASHED2
 62
     3
100
AcDbLine
 10
216.371308
 20
119.552063
 30
0.0
 11
216.371308
 21
122.152038
 31
0.0
  0
LINE
  5
269
100
AcDbEntity
  8
LAY-4
  6
DASHED2
 62
     1
100
AcDbLine
 10
222.321351
 20
122.152038
 30
0.0
 11
222.321351
 21
119.552063
 31
0.0
  0
LINE
  5
26A
100
AcDbEntity
  8
LAY-4
  6
DASHED2
 62
     1
100
AcDbLine
 10
217.121338
 20
122.152038
 30
0.0
 11
217.121338
 21
119.552063
 31
0.0
  0
LINE
  5
26B
100
AcDbEntity
  8
LAY-4
  6
CONTINUOUS
 62
     3
100
AcDbLine
 10
223.07132
 20
100.152063
 30
0.0
 11
216.371308
 21
100.152063
 31
0.0
  0
LINE
  5
26C
100
AcDbEntity
  8
LAY-4
  6
DASHED2
 62
     3
100
AcDbLine
 10
241.371308
 20
105.052063
 30
0.0
 11
241.371308
 21
119.552063
 31
0.0
  0
LINE
  5
26D
100
AcDbEntity
  8
LAY-4
  6
DASHED2
 62
     1
100
AcDbLine
 10
242.121338
 20
119.552063
 30
0.0
 11
242.121295
 21
105.052081
 31
0.0
  0
LINE
  5
26E
100
AcDbEntity
  8
LAY-4
  6
DASHED2
 62
     1
100
AcDbLine
 10
247.321351
 20
119.552063
 30
0.0
 11
247.321306
 21
105.052065
 31
0.0
  0
LINE
  5
26F
100
AcDbEntity
  8
LAY-4
  6
DASHED2
 62
     3
100
AcDbLine
 10
248.07132
 20
119.552063
 30
0.0
 11
248.07132
 21
105.052063
 31
0.0
  0
LINE
  5
270
100
AcDbEntity
  8
LAY-4
  6
CONTINUOUS
 62
     3
100
AcDbLine
 10
248.07132
 20
105.052063
 30
0.0
 11
248.07132
 21
100.152063
 31
0.0
  0
LINE
  5
271
100
AcDbEntity
  8
LAY-4
  6
CONTINUOUS
 62
     1
100
AcDbLine
 10
247.321325
 20
105.052064
 30
0.0
 11
247.32132
 21
100.152063
 31
0.0
  0
LINE
  5
272
100
AcDbEntity
  8
LAY-4
  6
CONTINUOUS
 62
     1
100
AcDbLine
 10
242.121313
 20
105.052069
 30
0.0
 11
242.121308
 21
100.152063
 31
0.0
  0
LINE
  5
273
100
AcDbEntity
  8
LAY-4
  6
CONTINUOUS
 62
     3
100
AcDbLine
 10
241.371308
 20
100.152063
 30
0.0
 11
241.371308
 21
105.052063
 31
0.0
  0
LINE
  5
274
100
AcDbEntity
  8
LAY-4
  6
DASHED2
 62
     3
100
AcDbLine
 10
216.371308
 20
105.052063
 30
0.0
 11
216.371308
 21
119.552063
 31
0.0
  0
LINE
  5
275
100
AcDbEntity
  8
LAY-4
  6
DASHED2
 62
     1
100
AcDbLine
 10
217.121338
 20
119.552063
 30
0.0
 11
217.121295
 21
105.052156
 31
0.0
  0
LINE
  5
276
100
AcDbEntity
  8
LAY-4
  6
DASHED2
 62
     1
100
AcDbLine
 10
222.321351
 20
119.552063
 30
0.0
 11
222.321306
 21
105.052143
 31
0.0
  0
LINE
  5
277
100
AcDbEntity
  8
LAY-4
  6
DASHED2
 62
     3
100
AcDbLine
 10
223.07132
 20
119.552063
 30
0.0
 11
223.07132
 21
105.052063
 31
0.0
  0
LINE
  5
278
100
AcDbEntity
  8
LAY-4
  6
CONTINUOUS
 62
     3
100
AcDbLine
 10
223.07132
 20
105.052063
 30
0.0
 11
223.07132
 21
100.152063
 31
0.0
  0
LINE
  5
279
100
AcDbEntity
  8
LAY-4
  6
CONTINUOUS
 62
     1
100
AcDbLine
 10
222.321325
 20
105.052091
 30
0.0
 11
222.32132
 21
100.152063
 31
0.0
  0
LINE
  5
27A
100
AcDbEntity
  8
LAY-4
  6
CONTINUOUS
 62
     1
100
AcDbLine
 10
217.121313
 20
105.052096
 30
0.0
 11
217.121308
 21
100.152063
 31
0.0
  0
LINE
  5
27B
100
AcDbEntity
  8
LAY-4
  6
CONTINUOUS
 62
     3
100
AcDbLine
 10
216.371308
 20
100.152063
 30
0.0
 11
216.371308
 21
105.052063
 31
0.0
  0
LINE
  5
27C
100
AcDbEntity
  8
LAY-4
  6
DASHED2
 62
     3
100
AcDbLine
 10
657.478431
 20
327.551885
 30
0.0
 11
645.478431
 21
327.551885
 31
0.0
  0
LINE
  5
27D
100
AcDbEntity
  8
LAY-4
  6
DASHED2
 62
     3
100
AcDbLine
 10
645.478431
 20
327.15186
 30
0.0
 11
657.478431
 21
327.15186
 31
0.0
  0
LINE
  5
27E
100
AcDbEntity
  8
LAY-4
  6
DASHED2
 62
     3
100
AcDbLine
 10
648.128425
 20
324.15186
 30
0.0
 11
654.828468
 21
324.15186
 31
0.0
  0
LINE
  5
27F
100
AcDbEntity
  8
LAY-4
  6
DASHED2
 62
     3
100
AcDbLine
 10
654.828468
 20
324.15186
 30
0.0
 11
657.478431
 21
327.15186
 31
0.0
  0
LINE
  5
280
100
AcDbEntity
  8
LAY-4
  6
DASHED2
 62
     3
100
AcDbLine
 10
648.128425
 20
324.15186
 30
0.0
 11
645.478431
 21
327.15186
 31
0.0
  0
LINE
  5
281
100
AcDbEntity
  8
LAY-4
  6
DASHED2
 62
     3
100
AcDbLine
 10
657.478431
 20
327.15186
 30
0.0
 11
657.478431
 21
327.551885
 31
0.0
  0
LINE
  5
282
100
AcDbEntity
  8
LAY-4
  6
DASHED2
 62
     3
100
AcDbLine
 10
645.478431
 20
327.15186
 30
0.0
 11
645.478431
 21
327.551885
 31
0.0
  0
LINE
  5
283
100
AcDbEntity
  8
LAY-4
  6
DASHED2
 62
     3
100
AcDbLine
 10
654.828437
 20
324.15186
 30
0.0
 11
654.828437
 21
321.551885
 31
0.0
  0
LINE
  5
284
100
AcDbEntity
  8
LAY-4
  6
DASHED2
 62
     3
100
AcDbLine
 10
648.128425
 20
321.551885
 30
0.0
 11
648.128425
 21
324.15186
 31
0.0
  0
LINE
  5
285
100
AcDbEntity
  8
LAY-4
  6
DASHED2
 62
     1
100
AcDbLine
 10
654.078468
 20
324.15186
 30
0.0
 11
654.078468
 21
321.551885
 31
0.0
  0
LINE
  5
286
100
AcDbEntity
  8
LAY-4
  6
DASHED2
 62
     1
100
AcDbLine
 10
648.878455
 20
324.15186
 30
0.0
 11
648.878455
 21
321.551885
 31
0.0
  0
LINE
  5
287
100
AcDbEntity
  8
LAY-4
  6
DASHED2
 62
     3
100
AcDbLine
 10
677.478431
 20
327.551885
 30
0.0
 11
665.478431
 21
327.551885
 31
0.0
  0
LINE
  5
288
100
AcDbEntity
  8
LAY-4
  6
DASHED2
 62
     3
100
AcDbLine
 10
665.478431
 20
327.15186
 30
0.0
 11
677.478431
 21
327.15186
 31
0.0
  0
LINE
  5
289
100
AcDbEntity
  8
LAY-4
  6
DASHED2
 62
     3
100
AcDbLine
 10
668.128425
 20
324.15186
 30
0.0
 11
674.828468
 21
324.15186
 31
0.0
  0
LINE
  5
28A
100
AcDbEntity
  8
LAY-4
  6
DASHED2
 62
     3
100
AcDbLine
 10
674.828468
 20
324.15186
 30
0.0
 11
677.478431
 21
327.15186
 31
0.0
  0
LINE
  5
28B
100
AcDbEntity
  8
LAY-4
  6
DASHED2
 62
     3
100
AcDbLine
 10
668.128425
 20
324.15186
 30
0.0
 11
665.478431
 21
327.15186
 31
0.0
  0
LINE
  5
28C
100
AcDbEntity
  8
LAY-4
  6
DASHED2
 62
     3
100
AcDbLine
 10
677.478431
 20
327.15186
 30
0.0
 11
677.478431
 21
327.551885
 31
0.0
  0
LINE
  5
28D
100
AcDbEntity
  8
LAY-4
  6
DASHED2
 62
     3
100
AcDbLine
 10
665.478431
 20
327.15186
 30
0.0
 11
665.478431
 21
327.551885
 31
0.0
  0
LINE
  5
28E
100
AcDbEntity
  8
LAY-4
  6
DASHED2
 62
     3
100
AcDbLine
 10
674.828437
 20
324.15186
 30
0.0
 11
674.828437
 21
321.551885
 31
0.0
  0
LINE
  5
28F
100
AcDbEntity
  8
LAY-4
  6
DASHED2
 62
     3
100
AcDbLine
 10
668.128425
 20
321.551885
 30
0.0
 11
668.128425
 21
324.15186
 31
0.0
  0
LINE
  5
290
100
AcDbEntity
  8
LAY-4
  6
DASHED2
 62
     1
100
AcDbLine
 10
674.078468
 20
324.15186
 30
0.0
 11
674.078468
 21
321.551885
 31
0.0
  0
LINE
  5
291
100
AcDbEntity
  8
LAY-4
  6
DASHED2
 62
     1
100
AcDbLine
 10
668.878455
 20
324.15186
 30
0.0
 11
668.878455
 21
321.551885
 31
0.0
  0
LINE
  5
292
100
AcDbEntity
  8
LAY-4
  6
DASHED2
 62
     3
100
AcDbLine
 10
648.128425
 20
308.351885
 30
0.0
 11
648.128425
 21
321.551885
 31
0.0
  0
LINE
  5
293
100
AcDbEntity
  8
LAY-4
  6
DASHED2
 62
     1
100
AcDbLine
 10
648.878455
 20
321.551885
 30
0.0
 11
648.878415
 21
308.351903
 31
0.0
  0
LINE
  5
294
100
AcDbEntity
  8
LAY-4
  6
DASHED2
 62
     1
100
AcDbLine
 10
654.078468
 20
321.551885
 30
0.0
 11
654.078427
 21
308.351887
 31
0.0
  0
LINE
  5
295
100
AcDbEntity
  8
LAY-4
  6
DASHED2
 62
     3
100
AcDbLine
 10
654.828437
 20
321.551885
 30
0.0
 11
654.828437
 21
308.351885
 31
0.0
  0
LINE
  5
296
100
AcDbEntity
  8
LAY-4
  6
DASHED2
 62
     3
100
AcDbLine
 10
668.128425
 20
308.351885
 30
0.0
 11
668.128425
 21
321.551885
 31
0.0
  0
LINE
  5
297
100
AcDbEntity
  8
LAY-4
  6
DASHED2
 62
     1
100
AcDbLine
 10
668.878455
 20
321.551885
 30
0.0
 11
668.878415
 21
308.351903
 31
0.0
  0
LINE
  5
298
100
AcDbEntity
  8
LAY-4
  6
DASHED2
 62
     1
100
AcDbLine
 10
674.078468
 20
321.551885
 30
0.0
 11
674.078427
 21
308.351887
 31
0.0
  0
LINE
  5
299
100
AcDbEntity
  8
LAY-4
  6
DASHED2
 62
     3
100
AcDbLine
 10
674.828437
 20
321.551885
 30
0.0
 11
674.828437
 21
308.351885
 31
0.0
  0
LINE
  5
29A
100
AcDbEntity
  8
LAY-4
  6
CONTINUOUS
 62
     3
100
AcDbLine
 10
654.828437
 20
302.151885
 30
0.0
 11
648.128425
 21
302.151885
 31
0.0
  0
LINE
  5
29B
100
AcDbEntity
  8
LAY-4
  6
CONTINUOUS
 62
     3
100
AcDbLine
 10
674.828437
 20
302.151885
 30
0.0
 11
668.128425
 21
302.151885
 31
0.0
  0
LINE
  5
29C
100
AcDbEntity
  8
LAY-4
  6
CONTINUOUS
 62
     3
100
AcDbLine
 10
654.828437
 20
308.351885
 30
0.0
 11
654.828437
 21
302.151885
 31
0.0
  0
LINE
  5
29D
100
AcDbEntity
  8
LAY-4
  6
CONTINUOUS
 62
     1
100
AcDbLine
 10
654.078444
 20
308.351886
 30
0.0
 11
654.078437
 21
302.151885
 31
0.0
  0
LINE
  5
29E
100
AcDbEntity
  8
LAY-4
  6
CONTINUOUS
 62
     1
100
AcDbLine
 10
648.878432
 20
308.351891
 30
0.0
 11
648.878425
 21
302.151885
 31
0.0
  0
LINE
  5
29F
100
AcDbEntity
  8
LAY-4
  6
CONTINUOUS
 62
     3
100
AcDbLine
 10
648.128425
 20
302.151885
 30
0.0
 11
648.128425
 21
308.351885
 31
0.0
  0
LINE
  5
2A0
100
AcDbEntity
  8
LAY-4
  6
CONTINUOUS
 62
     3
100
AcDbLine
 10
674.828437
 20
308.351885
 30
0.0
 11
674.828437
 21
302.151885
 31
0.0
  0
LINE
  5
2A1
100
AcDbEntity
  8
LAY-4
  6
CONTINUOUS
 62
     1
100
AcDbLine
 10
674.078444
 20
308.351886
 30
0.0
 11
674.078437
 21
302.151885
 31
0.0
  0
LINE
  5
2A2
100
AcDbEntity
  8
LAY-4
  6
CONTINUOUS
 62
     1
100
AcDbLine
 10
668.878432
 20
308.351891
 30
0.0
 11
668.878425
 21
302.151885
 31
0.0
  0
LINE
  5
2A3
100
AcDbEntity
  8
LAY-4
  6
CONTINUOUS
 62
     3
100
AcDbLine
 10
668.128425
 20
302.151885
 30
0.0
 11
668.128425
 21
308.351885
 31
0.0
  0
CIRCLE
  5
2A4
100
AcDbEntity
  8
LAY-4
  6
CONTINUOUS
 62
     3
100
AcDbCircle
 10
661.478461
 20
152.552078
 30
0.0
 40
9.5
  0
LINE
  5
2A5
100
AcDbEntity
  8
LAY-4
  6
CONTINUOUS
 62
     3
100
AcDbLine
 10
653.869229
 20
158.239748
 30
0.0
 11
669.087693
 21
158.239748
 31
0.0
  0
LINE
  5
2A6
100
AcDbEntity
  8
LAY-4
  6
CONTINUOUS
 62
     3
100
AcDbLine
 10
653.869229
 20
146.864408
 30
0.0
 11
669.087693
 21
146.864408
 31
0.0
  0
ARC
  5
2A7
100
AcDbEntity
  8
LAY-4
  6
CONTINUOUS
 62
     3
100
AcDbCircle
 10
661.478461
 20
152.552078
 30
0.0
 40
9.0
100
AcDbArc
 50
144.801721
 51
215.198279
  0
ARC
  5
2A8
100
AcDbEntity
  8
LAY-4
  6
CONTINUOUS
 62
     3
100
AcDbCircle
 10
661.478461
 20
152.552078
 30
0.0
 40
9.0
100
AcDbArc
 50
324.801721
 51
35.198279
  0
LINE
  5
2A9
100
AcDbEntity
  8
LAY-4
  6
CONTINUOUS
 62
     3
100
AcDbLine
 10
655.055845
 20
159.552078
 30
0.0
 11
667.901077
 21
159.552078
 31
0.0
  0
LINE
  5
2AA
100
AcDbEntity
  8
LAY-4
  6
CONTINUOUS
 62
     3
100
AcDbLine
 10
655.055845
 20
145.552078
 30
0.0
 11
667.901077
 21
145.552078
 31
0.0
  0
LINE
  5
2AB
100
AcDbEntity
  8
LAY-4
  6
CONTINUOUS
 62
     3
100
AcDbLine
 10
654.124001
 20
157.739748
 30
0.0
 11
668.832921
 21
157.739748
 31
0.0
  0
LINE
  5
2AC
100
AcDbEntity
  8
LAY-4
  6
CONTINUOUS
 62
     3
100
AcDbLine
 10
668.832921
 20
147.364408
 30
0.0
 11
654.124001
 21
147.364408
 31
0.0
  0
LINE
  5
2AD
100
AcDbEntity
  8
LAY-4
  6
CONTINUOUS
 62
     3
100
AcDbLine
 10
668.832921
 20
157.739748
 30
0.0
 11
669.087693
 21
158.239748
 31
0.0
  0
LINE
  5
2AE
100
AcDbEntity
  8
LAY-4
  6
CONTINUOUS
 62
     3
100
AcDbLine
 10
669.087693
 20
146.864408
 30
0.0
 11
668.832921
 21
147.364408
 31
0.0
  0
LINE
  5
2AF
100
AcDbEntity
  8
LAY-4
  6
CONTINUOUS
 62
     3
100
AcDbLine
 10
653.869229
 20
146.864408
 30
0.0
 11
654.124001
 21
147.364408
 31
0.0
  0
LINE
  5
2B0
100
AcDbEntity
  8
LAY-4
  6
CONTINUOUS
 62
     3
100
AcDbLine
 10
654.124001
 20
157.739748
 30
0.0
 11
653.869229
 21
158.239748
 31
0.0
  0
CIRCLE
  5
2B1
100
AcDbEntity
  8
LAY-4
  6
CONTINUOUS
 62
     3
100
AcDbCircle
 10
661.478461
 20
152.552078
 30
0.0
 40
10.0
  0
CIRCLE
  5
2B2
100
AcDbEntity
  8
LAY-4
  6
CONTINUOUS
 62
     3
100
AcDbCircle
 10
661.478461
 20
152.552078
 30
0.0
 40
10.5
  0
LINE
  5
2B3
100
AcDbEntity
  8
LAY-4
  6
CONTINUOUS
 62
     3
100
AcDbLine
 10
651.478461
 20
331.052063
 30
0.0
 11
671.478461
 21
331.052063
 31
0.0
  0
LINE
  5
2B4
100
AcDbEntity
  8
LAY-4
  6
CONTINUOUS
 62
     3
100
AcDbLine
 10
656.321596
 20
345.052063
 30
0.0
 11
666.635326
 21
345.052063
 31
0.0
  0
LINE
  5
2B5
100
AcDbEntity
  8
LAY-4
  6
CONTINUOUS
 62
     3
100
AcDbLine
 10
656.453248
 20
346.052063
 30
0.0
 11
666.503674
 21
346.052063
 31
0.0
  0
LINE
  5
2B6
100
AcDbEntity
  8
LAY-4
  6
CONTINUOUS
 62
     3
100
AcDbLine
 10
656.650727
 20
347.552063
 30
0.0
 11
654.478461
 21
331.052063
 31
0.0
  0
LINE
  5
2B7
100
AcDbEntity
  8
LAY-4
  6
CONTINUOUS
 62
     3
100
AcDbLine
 10
666.306195
 20
347.552063
 30
0.0
 11
668.478461
 21
331.052063
 31
0.0
  0
LINE
  5
2B8
100
AcDbEntity
  8
LAY-4
  6
CONTINUOUS
 62
     3
100
AcDbLine
 10
651.478461
 20
331.052063
 30
0.0
 11
651.478461
 21
329.05179
 31
0.0
  0
LINE
  5
2B9
100
AcDbEntity
  8
LAY-4
  6
CONTINUOUS
 62
     3
100
AcDbLine
 10
671.478461
 20
331.052063
 30
0.0
 11
671.478461
 21
329.05198
 31
0.0
  0
LINE
  5
2BA
100
AcDbEntity
  8
LAY-4
  6
CONTINUOUS
 62
     3
100
AcDbLine
 10
204.721344
 20
129.052063
 30
0.0
 11
204.721344
 21
127.052063
 31
0.0
  0
LINE
  5
2BB
100
AcDbEntity
  8
LAY-4
  6
CONTINUOUS
 62
     3
100
AcDbLine
 10
184.721344
 20
129.052063
 30
0.0
 11
184.721344
 21
127.052063
 31
0.0
  0
LINE
  5
2BC
100
AcDbEntity
  8
LAY-4
  6
CONTINUOUS
 62
     3
100
AcDbLine
 10
204.221344
 20
130.552063
 30
0.0
 11
204.221344
 21
129.052063
 31
0.0
  0
LINE
  5
2BD
100
AcDbEntity
  8
LAY-4
  6
CONTINUOUS
 62
     3
100
AcDbLine
 10
185.221344
 20
130.552063
 30
0.0
 11
185.221344
 21
129.052063
 31
0.0
  0
LINE
  5
2BE
100
AcDbEntity
  8
LAY-4
  6
CONTINUOUS
 62
     3
100
AcDbLine
 10
184.721344
 20
129.052063
 30
0.0
 11
204.721344
 21
129.052063
 31
0.0
  0
LINE
  5
2BF
100
AcDbEntity
  8
LAY-5
  6
DASHDOT
 62
     1
100
AcDbLine
 10
194.721344
 20
271.75
 30
0.0
 11
194.721344
 21
219.45
 31
0.0
  0
LINE
  5
2C0
100
AcDbEntity
  8
LAY-5
  6
DASHDOT
 62
     1
100
AcDbLine
 10
160.0
 20
244.052078
 30
0.0
 11
357.9
 21
244.052078
 31
0.0
  0
LINE
  5
2C1
100
AcDbEntity
  8
LAY-5
  6
DASHDOT
 62
     1
100
AcDbLine
 10
242.721329
 20
240.052109
 30
0.0
 11
225.7
 21
240.052109
 31
0.0
  0
LINE
  5
2C2
100
AcDbEntity
  8
LAY-5
  6
DASHDOT
 62
     1
100
AcDbLine
 10
234.721329
 20
248.052109
 30
0.0
 11
234.721329
 21
230.2
 31
0.0
  0
LINE
  5
2C3
100
AcDbEntity
  8
LAY-5
  6
DASHDOT
 62
     1
100
AcDbLine
 10
227.721329
 20
248.052094
 30
0.0
 11
210.3
 21
248.052094
 31
0.0
  0
LINE
  5
2C4
100
AcDbEntity
  8
LAY-5
  6
DASHDOT
 62
     1
100
AcDbLine
 10
219.721329
 20
256.052094
 30
0.0
 11
219.721329
 21
238.6
 31
0.0
  0
LINE
  5
2C5
100
AcDbEntity
  8
LAY-5
  6
DASHDOT
 62
     1
100
AcDbLine
 10
331.8
 20
248.052109
 30
0.0
 11
311.3
 21
248.052109
 31
0.0
  0
LINE
  5
2C6
100
AcDbEntity
  8
LAY-5
  6
DASHDOT
 62
     1
100
AcDbLine
 10
322.721344
 20
256.052094
 30
0.0
 11
322.721344
 21
238.2
 31
0.0
  0
LINE
  5
2C7
100
AcDbEntity
  8
LAY-5
  6
DASHDOT
 62
     1
100
AcDbLine
 10
347.721344
 20
240.052109
 30
0.0
 11
327.9
 21
240.052109
 31
0.0
  0
LINE
  5
2C8
100
AcDbEntity
  8
LAY-5
  6
DASHDOT
 62
     1
100
AcDbLine
 10
337.721344
 20
248.4
 30
0.0
 11
337.721344
 21
230.6
 31
0.0
  0
LINE
  5
2C9
100
AcDbEntity
  8
LAY-5
  6
DASHDOT
 62
     1
100
AcDbLine
 10
224.721329
 20
418.440795
 30
0.0
 11
224.721329
 21
396.731249
 31
0.0
  0
LINE
  5
2CA
100
AcDbEntity
  8
LAY-5
  6
DASHDOT
 62
     1
100
AcDbLine
 10
270.721344
 20
418.440795
 30
0.0
 11
270.721344
 21
396.531249
 31
0.0
  0
LINE
  5
2CB
100
AcDbEntity
  8
LAY-5
  6
DASHDOT
 62
     1
100
AcDbLine
 10
283.351532
 20
437.309814
 30
0.0
 11
265.743897
 21
437.309814
 31
0.0
  0
LINE
  5
2CC
100
AcDbEntity
  8
LAY-5
  6
DASHDOT
 62
     1
100
AcDbLine
 10
287.453309
 20
441.309814
 30
0.0
 11
304.560761
 21
441.309814
 31
0.0
  0
LINE
  5
2CD
100
AcDbEntity
  8
LAY-5
  6
DASHDOT
 62
     1
100
AcDbLine
 10
274.721314
 20
448.3
 30
0.0
 11
274.721314
 21
423.543334
 31
0.0
  0
LINE
  5
2CE
100
AcDbEntity
  8
LAY-5
  6
DASHDOT
 62
     1
100
AcDbLine
 10
295.721314
 20
423.543334
 30
0.0
 11
295.721314
 21
449.755981
 31
0.0
  0
LINE
  5
2CF
100
AcDbEntity
  8
LAY-5
  6
DASHDOT
 62
     1
100
AcDbLine
 10
194.721344
 20
461.361022
 30
0.0
 11
194.721344
 21
394.743334
 31
0.0
  0
LINE
  5
2D0
100
AcDbEntity
  8
LAY-5
  6
DASHDOT
 62
     1
100
AcDbLine
 10
216.013459
 20
335.15741
 30
0.0
 11
234.256958
 21
335.15741
 31
0.0
  0
LINE
  5
2D1
100
AcDbEntity
  8
LAY-5
  6
DASHDOT
 62
     1
100
AcDbLine
 10
260.256958
 20
319.15741
 30
0.0
 11
279.913849
 21
319.15741
 31
0.0
  0
LINE
  5
2D2
100
AcDbEntity
  8
LAY-5
  6
DASHDOT
 62
     1
100
AcDbLine
 10
307.622895
 20
335.15741
 30
0.0
 11
325.944733
 21
335.15741
 31
0.0
  0
LINE
  5
2D3
100
AcDbEntity
  8
LAY-5
  6
DASHDOT
 62
     1
100
AcDbLine
 10
173.256958
 20
327.15741
 30
0.0
 11
335.053315
 21
327.15741
 31
0.0
  0
LINE
  5
2D4
100
AcDbEntity
  8
LAY-5
  6
DASHDOT
 62
     1
100
AcDbLine
 10
224.721314
 20
343.15741
 30
0.0
 11
224.721314
 21
323.0
 31
0.0
  0
LINE
  5
2D5
100
AcDbEntity
  8
LAY-5
  6
DASHDOT
 62
     1
100
AcDbLine
 10
270.721344
 20
327.15741
 30
0.0
 11
270.721344
 21
306.154175
 31
0.0
  0
LINE
  5
2D6
100
AcDbEntity
  8
LAY-5
  6
DASHDOT
 62
     1
100
AcDbLine
 10
316.721344
 20
343.15741
 30
0.0
 11
316.721344
 21
326.0
 31
0.0
  0
LINE
  5
2D7
100
AcDbEntity
  8
LAY-5
  6
DASHDOT
 62
     1
100
AcDbLine
 10
194.721344
 20
345.405212
 30
0.0
 11
194.721344
 21
308.0
 31
0.0
  0
LINE
  5
2D8
100
AcDbEntity
  8
LAY-5
  6
DASHDOT
 62
     1
100
AcDbLine
 10
316.721344
 20
544.227417
 30
0.0
 11
316.721344
 21
528.643311
 31
0.0
  0
LINE
  5
2D9
100
AcDbEntity
  8
LAY-5
  6
DASHDOT
 62
     1
100
AcDbLine
 10
316.721344
 20
512.227509
 30
0.0
 11
316.721344
 21
527.059937
 31
0.0
  0
LINE
  5
2DA
100
AcDbEntity
  8
LAY-5
  6
DASHDOT
 62
     1
100
AcDbLine
 10
307.622895
 20
537.227417
 30
0.0
 11
328.256958
 21
537.227417
 31
0.0
  0
LINE
  5
2DB
100
AcDbEntity
  8
LAY-5
  6
DASHDOT
 62
     1
100
AcDbLine
 10
307.622895
 20
519.227386
 30
0.0
 11
328.256958
 21
519.227386
 31
0.0
  0
LINE
  5
2DC
100
AcDbEntity
  8
LAY-5
  6
DASHDOT
 62
     1
100
AcDbLine
 10
169.721344
 20
544.227417
 30
0.0
 11
169.721344
 21
528.982544
 31
0.0
  0
LINE
  5
2DD
100
AcDbEntity
  8
LAY-5
  6
DASHDOT
 62
     1
100
AcDbLine
 10
169.721344
 20
512.227509
 30
0.0
 11
169.721344
 21
526.946777
 31
0.0
  0
LINE
  5
2DE
100
AcDbEntity
  8
LAY-5
  6
DASHDOT
 62
     1
100
AcDbLine
 10
161.500214
 20
537.227417
 30
0.0
 11
178.691132
 21
537.227417
 31
0.0
  0
LINE
  5
2DF
100
AcDbEntity
  8
LAY-5
  6
DASHDOT
 62
     1
100
AcDbLine
 10
178.691132
 20
519.227386
 30
0.0
 11
161.500214
 21
519.227386
 31
0.0
  0
LINE
  5
2E0
100
AcDbEntity
  8
LAY-5
  6
DASHDOT
 62
     1
100
AcDbLine
 10
147.023652
 20
528.227417
 30
0.0
 11
342.00467
 21
528.227417
 31
0.0
  0
LINE
  5
2E1
100
AcDbEntity
  8
LAY-5
  6
DASHDOT
 62
     1
100
AcDbLine
 10
194.721344
 20
502.0
 30
0.0
 11
194.721344
 21
555.830078
 31
0.0
  0
LINE
  5
2E2
100
AcDbEntity
  8
LAY-5
  6
DASHDOT
 62
     1
100
AcDbLine
 10
219.721344
 20
162.1
 30
0.0
 11
219.721344
 21
133.122375
 31
0.0
  0
LINE
  5
2E3
100
AcDbEntity
  8
LAY-5
  6
DASHDOT
 62
     1
100
AcDbLine
 10
234.721344
 20
162.1
 30
0.0
 11
234.721344
 21
133.122375
 31
0.0
  0
LINE
  5
2E4
100
AcDbEntity
  8
LAY-5
  6
DASHDOT
 62
     1
100
AcDbLine
 10
322.721344
 20
162.1
 30
0.0
 11
322.721344
 21
133.122375
 31
0.0
  0
LINE
  5
2E5
100
AcDbEntity
  8
LAY-5
  6
DASHDOT
 62
     1
100
AcDbLine
 10
337.721344
 20
162.1
 30
0.0
 11
337.721344
 21
133.122375
 31
0.0
  0
LINE
  5
2E6
100
AcDbEntity
  8
LAY-5
  6
DASHDOT
 62
     1
100
AcDbLine
 10
631.3
 20
152.552078
 30
0.0
 11
736.0
 21
152.552078
 31
0.0
  0
LINE
  5
2E7
100
AcDbEntity
  8
LAY-5
  6
DASHDOT
 62
     1
100
AcDbLine
 10
661.478461
 20
181.9
 30
0.0
 11
661.478461
 21
122.6
 31
0.0
  0
LINE
  5
2E8
100
AcDbEntity
  8
LAY-5
  6
DASHDOT
 62
     1
100
AcDbLine
 10
686.478461
 20
174.0
 30
0.0
 11
686.478461
 21
131.0
 31
0.0
  0
LINE
  5
2E9
100
AcDbEntity
  8
LAY-5
  6
DASHDOT
 62
     1
100
AcDbLine
 10
711.478461
 20
174.0
 30
0.0
 11
711.478461
 21
131.0
 31
0.0
  0
LINE
  5
2EA
100
AcDbEntity
  8
LAY-5
  6
DASHDOT
 62
     1
100
AcDbLine
 10
674.1
 20
162.552078
 30
0.0
 11
722.478461
 21
162.552078
 31
0.0
  0
LINE
  5
2EB
100
AcDbEntity
  8
LAY-5
  6
DASHDOT
 62
     1
100
AcDbLine
 10
674.1
 20
142.552078
 30
0.0
 11
722.478461
 21
142.552078
 31
0.0
  0
LINE
  5
2EC
100
AcDbEntity
  8
LAY-5
  6
DASHDOT
 62
     1
100
AcDbLine
 10
316.721344
 20
417.5
 30
0.0
 11
316.721344
 21
396.531249
 31
0.0
  0
LINE
  5
2ED
100
AcDbEntity
  8
LAY-5
  6
DASHDOT
 62
     1
100
AcDbLine
 10
316.721314
 20
418.42
 30
0.0
 11
316.721314
 21
438.750304
 31
0.0
  0
LINE
  5
2EE
100
AcDbEntity
  8
LAY-5
  6
DASHDOT
 62
     1
100
AcDbLine
 10
169.721344
 20
418.2
 30
0.0
 11
169.721344
 21
439.550292
 31
0.0
  0
LINE
  5
2EF
100
AcDbEntity
  8
LAY-5
  6
DASHDOT
 62
     1
100
AcDbLine
 10
274.721344
 20
521.3
 30
0.0
 11
274.721344
 21
535.6
 31
0.0
  0
LINE
  5
2F0
100
AcDbEntity
  8
LAY-5
  6
DASHDOT
 62
     1
100
AcDbLine
 10
295.721344
 20
520.6
 30
0.0
 11
295.721344
 21
536.3
 31
0.0
  0
LINE
  5
2F1
100
AcDbEntity
  8
LAY-5
  6
DASHDOT
 62
     1
100
AcDbLine
 10
254.721344
 20
521.5
 30
0.0
 11
254.721344
 21
535.2
 31
0.0
  0
LINE
  5
2F2
100
AcDbEntity
  8
LAY-5
  6
DASHDOT
 62
     1
100
AcDbLine
 10
194.721344
 20
104.5
 30
0.0
 11
194.721344
 21
162.1
 31
0.0
  0
LINE
  5
2F3
100
AcDbEntity
  8
LAY-5
  6
DASHDOT
 62
     1
100
AcDbLine
 10
219.721344
 20
125.552063
 30
0.0
 11
219.721344
 21
97.200178
 31
0.0
  0
LINE
  5
2F4
100
AcDbEntity
  8
LAY-5
  6
DASHDOT
 62
     1
100
AcDbLine
 10
661.478461
 20
530.561023
 30
0.0
 11
661.478461
 21
303.5
 31
0.0
  0
LINE
  5
2F5
100
AcDbEntity
  8
LAY-5
  6
CONTINUOUS
 62
     1
100
AcDbLine
 10
640.078461
 20
307.051885
 30
0.0
 11
682.878461
 21
307.051885
 31
0.0
  0
LINE
  5
2F6
100
AcDbEntity
  8
LAY-5
  6
DASHDOT
 62
     1
100
AcDbLine
 10
244.721344
 20
125.552063
 30
0.0
 11
244.721344
 21
97.200178
 31
0.0
  0
LINE
  5
2F7
100
AcDbEntity
  8
LAY-5
  6
DASHDOT
 62
     1
100
AcDbLine
 10
671.478461
 20
328.2
 30
0.0
 11
671.478461
 21
300.0
 31
0.0
  0
LINE
  5
2F8
100
AcDbEntity
  8
LAY-5
  6
DASHDOT
 62
     1
100
AcDbLine
 10
651.478461
 20
328.2
 30
0.0
 11
651.478461
 21
299.2
 31
0.0
  0
LINE
  5
2F9
100
AcDbEntity
  8
LAY-6
  6
CONTINUOUS
 62
     1
100
AcDbLine
 10
160.721344
 20
512.227448
 30
0.0
 11
160.721344
 21
497.1
 31
0.0
  0
LINE
  5
2FA
100
AcDbEntity
  8
LAY-6
  6
CONTINUOUS
 62
     1
100
AcDbLine
 10
169.721344
 20
512.227509
 30
0.0
 11
169.721344
 21
497.1
 31
0.0
  0
TEXT
  5
2FB
100
AcDbEntity
  8
LAY-6
  6
CONTINUOUS
 62
     2
100
AcDbText
 10
163.221344
 20
499.1
 30
0.0
 40
5.0
  1
９
 41
0.672
  7
EXCADSTD
 72
     5
 11
166.421344
 21
499.1
 31
0.0
100
AcDbText
  0
LINE
  5
2FC
100
AcDbEntity
  8
LAY-6
  6
CONTINUOUS
 62
     1
100
AcDbLine
 10
160.721344
 20
498.6
 30
0.0
 11
169.721344
 21
498.6
 31
0.0
  0
LINE
  5
2FD
100
AcDbEntity
  8
LAY-6
  6
CONTINUOUS
 62
     1
100
AcDbLine
 10
163.721344
 20
499.1
 30
0.0
 11
160.721344
 21
498.6
 31
0.0
  0
LINE
  5
2FE
100
AcDbEntity
  8
LAY-6
  6
CONTINUOUS
 62
     1
100
AcDbLine
 10
160.721344
 20
498.6
 30
0.0
 11
163.721344
 21
498.1
 31
0.0
  0
LINE
  5
2FF
100
AcDbEntity
  8
LAY-6
  6
CONTINUOUS
 62
     1
100
AcDbLine
 10
166.721344
 20
498.1
 30
0.0
 11
169.721344
 21
498.6
 31
0.0
  0
LINE
  5
300
100
AcDbEntity
  8
LAY-6
  6
CONTINUOUS
 62
     1
100
AcDbLine
 10
169.721344
 20
498.6
 30
0.0
 11
166.721344
 21
499.1
 31
0.0
  0
LINE
  5
301
100
AcDbEntity
  8
LAY-6
  6
CONTINUOUS
 62
     1
100
AcDbLine
 10
194.721344
 20
502.0
 30
0.0
 11
194.721344
 21
497.1
 31
0.0
  0
TEXT
  5
302
100
AcDbEntity
  8
LAY-6
  6
CONTINUOUS
 62
     2
100
AcDbText
 10
178.221344
 20
499.1
 30
0.0
 40
5.0
  1
２５
 41
0.672
  7
EXCADSTD
 72
     5
 11
185.554144
 21
499.1
 31
0.0
100
AcDbText
  0
LINE
  5
303
100
AcDbEntity
  8
LAY-6
  6
CONTINUOUS
 62
     1
100
AcDbLine
 10
169.721344
 20
498.6
 30
0.0
 11
194.721344
 21
498.6
 31
0.0
  0
LINE
  5
304
100
AcDbEntity
  8
LAY-6
  6
CONTINUOUS
 62
     1
100
AcDbLine
 10
172.721344
 20
499.1
 30
0.0
 11
169.721344
 21
498.6
 31
0.0
  0
LINE
  5
305
100
AcDbEntity
  8
LAY-6
  6
CONTINUOUS
 62
     1
100
AcDbLine
 10
169.721344
 20
498.6
 30
0.0
 11
172.721344
 21
498.1
 31
0.0
  0
LINE
  5
306
100
AcDbEntity
  8
LAY-6
  6
CONTINUOUS
 62
     1
100
AcDbLine
 10
191.721344
 20
498.1
 30
0.0
 11
194.721344
 21
498.6
 31
0.0
  0
LINE
  5
307
100
AcDbEntity
  8
LAY-6
  6
CONTINUOUS
 62
     1
100
AcDbLine
 10
194.721344
 20
498.6
 30
0.0
 11
191.721344
 21
499.1
 31
0.0
  0
TEXT
  5
308
100
AcDbEntity
  8
LAY-6
  6
CONTINUOUS
 62
     2
100
AcDbText
 10
249.721344
 20
499.1
 30
0.0
 40
5.0
  1
１２２
 41
0.672
  7
EXCADSTD
 72
     5
 11
261.721344
 21
499.1
 31
0.0
100
AcDbText
  0
LINE
  5
309
100
AcDbEntity
  8
LAY-6
  6
CONTINUOUS
 62
     1
100
AcDbLine
 10
194.721344
 20
498.6
 30
0.0
 11
316.721344
 21
498.6
 31
0.0
  0
LINE
  5
30A
100
AcDbEntity
  8
LAY-6
  6
CONTINUOUS
 62
     1
100
AcDbLine
 10
197.721344
 20
499.1
 30
0.0
 11
194.721344
 21
498.6
 31
0.0
  0
LINE
  5
30B
100
AcDbEntity
  8
LAY-6
  6
CONTINUOUS
 62
     1
100
AcDbLine
 10
194.721344
 20
498.6
 30
0.0
 11
197.721344
 21
498.1
 31
0.0
  0
LINE
  5
30C
100
AcDbEntity
  8
LAY-6
  6
CONTINUOUS
 62
     1
100
AcDbLine
 10
313.721344
 20
498.1
 30
0.0
 11
316.721344
 21
498.6
 31
0.0
  0
LINE
  5
30D
100
AcDbEntity
  8
LAY-6
  6
CONTINUOUS
 62
     1
100
AcDbLine
 10
316.721344
 20
498.6
 30
0.0
 11
313.721344
 21
499.1
 31
0.0
  0
LINE
  5
30E
100
AcDbEntity
  8
LAY-6
  6
CONTINUOUS
 62
     1
100
AcDbLine
 10
329.721344
 20
512.227448
 30
0.0
 11
329.721344
 21
497.1
 31
0.0
  0
TEXT
  5
30F
100
AcDbEntity
  8
LAY-6
  6
CONTINUOUS
 62
     2
100
AcDbText
 10
319.221344
 20
499.1
 30
0.0
 40
5.0
  1
１３
 41
0.672
  7
EXCADSTD
 72
     5
 11
326.554144
 21
499.1
 31
0.0
100
AcDbText
  0
LINE
  5
310
100
AcDbEntity
  8
LAY-6
  6
CONTINUOUS
 62
     1
100
AcDbLine
 10
316.721344
 20
498.6
 30
0.0
 11
329.721344
 21
498.6
 31
0.0
  0
LINE
  5
311
100
AcDbEntity
  8
LAY-6
  6
CONTINUOUS
 62
     1
100
AcDbLine
 10
319.721344
 20
499.1
 30
0.0
 11
316.721344
 21
498.6
 31
0.0
  0
LINE
  5
312
100
AcDbEntity
  8
LAY-6
  6
CONTINUOUS
 62
     1
100
AcDbLine
 10
316.721344
 20
498.6
 30
0.0
 11
319.721344
 21
498.1
 31
0.0
  0
LINE
  5
313
100
AcDbEntity
  8
LAY-6
  6
CONTINUOUS
 62
     1
100
AcDbLine
 10
326.721344
 20
498.1
 30
0.0
 11
329.721344
 21
498.6
 31
0.0
  0
LINE
  5
314
100
AcDbEntity
  8
LAY-6
  6
CONTINUOUS
 62
     1
100
AcDbLine
 10
329.721344
 20
498.6
 30
0.0
 11
326.721344
 21
499.1
 31
0.0
  0
LINE
  5
315
100
AcDbEntity
  8
LAY-6
  6
CONTINUOUS
 62
     1
100
AcDbLine
 10
160.721344
 20
497.1
 30
0.0
 11
160.721344
 21
485.7
 31
0.0
  0
LINE
  5
316
100
AcDbEntity
  8
LAY-6
  6
CONTINUOUS
 62
     1
100
AcDbLine
 10
194.721344
 20
502.0
 30
0.0
 11
194.721344
 21
485.7
 31
0.0
  0
TEXT
  5
317
100
AcDbEntity
  8
LAY-6
  6
CONTINUOUS
 62
     2
100
AcDbText
 10
173.721344
 20
487.7
 30
0.0
 40
5.0
  1
３４
 41
0.672
  7
EXCADSTD
 72
     5
 11
181.054144
 21
487.7
 31
0.0
100
AcDbText
  0
LINE
  5
318
100
AcDbEntity
  8
LAY-6
  6
CONTINUOUS
 62
     1
100
AcDbLine
 10
160.721344
 20
487.2
 30
0.0
 11
194.721344
 21
487.2
 31
0.0
  0
LINE
  5
319
100
AcDbEntity
  8
LAY-6
  6
CONTINUOUS
 62
     1
100
AcDbLine
 10
163.721344
 20
487.7
 30
0.0
 11
160.721344
 21
487.2
 31
0.0
  0
LINE
  5
31A
100
AcDbEntity
  8
LAY-6
  6
CONTINUOUS
 62
     1
100
AcDbLine
 10
160.721344
 20
487.2
 30
0.0
 11
163.721344
 21
486.7
 31
0.0
  0
LINE
  5
31B
100
AcDbEntity
  8
LAY-6
  6
CONTINUOUS
 62
     1
100
AcDbLine
 10
191.721344
 20
486.7
 30
0.0
 11
194.721344
 21
487.2
 31
0.0
  0
LINE
  5
31C
100
AcDbEntity
  8
LAY-6
  6
CONTINUOUS
 62
     1
100
AcDbLine
 10
194.721344
 20
487.2
 30
0.0
 11
191.721344
 21
487.7
 31
0.0
  0
LINE
  5
31D
100
AcDbEntity
  8
LAY-6
  6
CONTINUOUS
 62
     1
100
AcDbLine
 10
329.721344
 20
497.1
 30
0.0
 11
329.721344
 21
485.7
 31
0.0
  0
TEXT
  5
31E
100
AcDbEntity
  8
LAY-6
  6
CONTINUOUS
 62
     2
100
AcDbText
 10
256.221344
 20
487.7
 30
0.0
 40
5.0
  1
１３５
 41
0.672
  7
EXCADSTD
 72
     5
 11
268.221344
 21
487.7
 31
0.0
100
AcDbText
  0
LINE
  5
31F
100
AcDbEntity
  8
LAY-6
  6
CONTINUOUS
 62
     1
100
AcDbLine
 10
194.721344
 20
487.2
 30
0.0
 11
329.721344
 21
487.2
 31
0.0
  0
LINE
  5
320
100
AcDbEntity
  8
LAY-6
  6
CONTINUOUS
 62
     1
100
AcDbLine
 10
197.721344
 20
487.7
 30
0.0
 11
194.721344
 21
487.2
 31
0.0
  0
LINE
  5
321
100
AcDbEntity
  8
LAY-6
  6
CONTINUOUS
 62
     1
100
AcDbLine
 10
194.721344
 20
487.2
 30
0.0
 11
197.721344
 21
486.7
 31
0.0
  0
LINE
  5
322
100
AcDbEntity
  8
LAY-6
  6
CONTINUOUS
 62
     1
100
AcDbLine
 10
326.721344
 20
486.7
 30
0.0
 11
329.721344
 21
487.2
 31
0.0
  0
LINE
  5
323
100
AcDbEntity
  8
LAY-6
  6
CONTINUOUS
 62
     1
100
AcDbLine
 10
329.721344
 20
487.2
 30
0.0
 11
326.721344
 21
487.7
 31
0.0
  0
LINE
  5
324
100
AcDbEntity
  8
LAY-6
  6
CONTINUOUS
 62
     1
100
AcDbLine
 10
153.721344
 20
546.727417
 30
0.0
 11
140.5
 21
546.727417
 31
0.0
  0
LINE
  5
325
100
AcDbEntity
  8
LAY-6
  6
CONTINUOUS
 62
     1
100
AcDbLine
 10
153.721344
 20
509.727386
 30
0.0
 11
140.5
 21
509.727386
 31
0.0
  0
TEXT
  5
326
100
AcDbEntity
  8
LAY-6
  6
CONTINUOUS
 62
     2
100
AcDbText
 10
141.5
 20
526.227402
 30
0.0
 40
5.0
  1
３７
 50
90.0
 41
0.672
  7
EXCADSTD
 72
     5
 11
141.5
 21
533.560202
 31
0.0
100
AcDbText
  0
LINE
  5
327
100
AcDbEntity
  8
LAY-6
  6
CONTINUOUS
 62
     1
100
AcDbLine
 10
142.0
 20
546.727417
 30
0.0
 11
142.0
 21
509.727386
 31
0.0
  0
LINE
  5
328
100
AcDbEntity
  8
LAY-6
  6
CONTINUOUS
 62
     1
100
AcDbLine
 10
142.5
 20
543.727417
 30
0.0
 11
142.0
 21
546.727417
 31
0.0
  0
LINE
  5
329
100
AcDbEntity
  8
LAY-6
  6
CONTINUOUS
 62
     1
100
AcDbLine
 10
142.0
 20
546.727417
 30
0.0
 11
141.5
 21
543.727417
 31
0.0
  0
LINE
  5
32A
100
AcDbEntity
  8
LAY-6
  6
CONTINUOUS
 62
     1
100
AcDbLine
 10
141.5
 20
512.727386
 30
0.0
 11
142.0
 21
509.727386
 31
0.0
  0
LINE
  5
32B
100
AcDbEntity
  8
LAY-6
  6
CONTINUOUS
 62
     1
100
AcDbLine
 10
142.0
 20
509.727386
 30
0.0
 11
142.5
 21
512.727386
 31
0.0
  0
LINE
  5
32C
100
AcDbEntity
  8
LAY-6
  6
CONTINUOUS
 62
     1
100
AcDbLine
 10
328.256958
 20
537.227417
 30
0.0
 11
350.1
 21
537.227417
 31
0.0
  0
LINE
  5
32D
100
AcDbEntity
  8
LAY-6
  6
CONTINUOUS
 62
     1
100
AcDbLine
 10
328.256958
 20
519.227386
 30
0.0
 11
350.1
 21
519.227386
 31
0.0
  0
TEXT
  5
32E
100
AcDbEntity
  8
LAY-6
  6
CONTINUOUS
 62
     2
100
AcDbText
 10
348.1
 20
524.227402
 30
0.0
 40
5.0
  1
１８
 50
90.0
 41
0.672
  7
EXCADSTD
 72
     5
 11
348.1
 21
531.560202
 31
0.0
100
AcDbText
  0
LINE
  5
32F
100
AcDbEntity
  8
LAY-6
  6
CONTINUOUS
 62
     1
100
AcDbLine
 10
348.6
 20
537.227417
 30
0.0
 11
348.6
 21
519.227386
 31
0.0
  0
LINE
  5
330
100
AcDbEntity
  8
LAY-6
  6
CONTINUOUS
 62
     1
100
AcDbLine
 10
349.1
 20
534.227417
 30
0.0
 11
348.6
 21
537.227417
 31
0.0
  0
LINE
  5
331
100
AcDbEntity
  8
LAY-6
  6
CONTINUOUS
 62
     1
100
AcDbLine
 10
348.6
 20
537.227417
 30
0.0
 11
348.1
 21
534.227417
 31
0.0
  0
LINE
  5
332
100
AcDbEntity
  8
LAY-6
  6
CONTINUOUS
 62
     1
100
AcDbLine
 10
348.1
 20
522.227386
 30
0.0
 11
348.6
 21
519.227386
 31
0.0
  0
LINE
  5
333
100
AcDbEntity
  8
LAY-6
  6
CONTINUOUS
 62
     1
100
AcDbLine
 10
348.6
 20
519.227386
 30
0.0
 11
349.1
 21
522.227386
 31
0.0
  0
LINE
  5
334
100
AcDbEntity
  8
LAY-6
  6
CONTINUOUS
 62
     1
100
AcDbLine
 10
329.721344
 20
544.227417
 30
0.0
 11
361.4
 21
544.227417
 31
0.0
  0
LINE
  5
335
100
AcDbEntity
  8
LAY-6
  6
CONTINUOUS
 62
     1
100
AcDbLine
 10
329.721344
 20
512.227448
 30
0.0
 11
361.4
 21
512.227448
 31
0.0
  0
TEXT
  5
336
100
AcDbEntity
  8
LAY-6
  6
CONTINUOUS
 62
     2
100
AcDbText
 10
359.4
 20
524.227432
 30
0.0
 40
5.0
  1
３２
 50
90.0
 41
0.672
  7
EXCADSTD
 72
     5
 11
359.4
 21
531.560232
 31
0.0
100
AcDbText
  0
LINE
  5
337
100
AcDbEntity
  8
LAY-6
  6
CONTINUOUS
 62
     1
100
AcDbLine
 10
359.9
 20
544.227417
 30
0.0
 11
359.9
 21
512.227448
 31
0.0
  0
LINE
  5
338
100
AcDbEntity
  8
LAY-6
  6
CONTINUOUS
 62
     1
100
AcDbLine
 10
360.4
 20
541.227417
 30
0.0
 11
359.9
 21
544.227417
 31
0.0
  0
LINE
  5
339
100
AcDbEntity
  8
LAY-6
  6
CONTINUOUS
 62
     1
100
AcDbLine
 10
359.9
 20
544.227417
 30
0.0
 11
359.4
 21
541.227417
 31
0.0
  0
LINE
  5
33A
100
AcDbEntity
  8
LAY-6
  6
CONTINUOUS
 62
     1
100
AcDbLine
 10
359.4
 20
515.227448
 30
0.0
 11
359.9
 21
512.227448
 31
0.0
  0
LINE
  5
33B
100
AcDbEntity
  8
LAY-6
  6
CONTINUOUS
 62
     1
100
AcDbLine
 10
359.9
 20
512.227448
 30
0.0
 11
360.4
 21
515.227448
 31
0.0
  0
INSERT
  5
33C
100
AcDbEntity
  8
LAY-6
  6
CONTINUOUS
 62
     0
100
AcDbBlockReference
  2
SYM-1
 10
140.3
 20
523.5
 30
0.0
 50
90.0
  0
LINE
  5
33D
100
AcDbEntity
  8
LAY-6
  6
CONTINUOUS
 62
     1
100
AcDbLine
 10
160.721313
 20
430.309814
 30
0.0
 11
160.721313
 21
466.9
 31
0.0
  0
LINE
  5
33E
100
AcDbEntity
  8
LAY-6
  6
CONTINUOUS
 62
     1
100
AcDbLine
 10
180.721313
 20
430.309814
 30
0.0
 11
180.721313
 21
466.9
 31
0.0
  0
LINE
  5
33F
100
AcDbEntity
  8
LAY-6
  6
CONTINUOUS
 62
     1
100
AcDbLine
 10
160.721313
 20
465.4
 30
0.0
 11
180.721313
 21
465.4
 31
0.0
  0
LINE
  5
340
100
AcDbEntity
  8
LAY-6
  6
CONTINUOUS
 62
     1
100
AcDbLine
 10
163.721313
 20
465.9
 30
0.0
 11
160.721313
 21
465.4
 31
0.0
  0
LINE
  5
341
100
AcDbEntity
  8
LAY-6
  6
CONTINUOUS
 62
     1
100
AcDbLine
 10
160.721313
 20
465.4
 30
0.0
 11
163.721313
 21
464.9
 31
0.0
  0
LINE
  5
342
100
AcDbEntity
  8
LAY-6
  6
CONTINUOUS
 62
     1
100
AcDbLine
 10
177.721313
 20
464.9
 30
0.0
 11
180.721313
 21
465.4
 31
0.0
  0
LINE
  5
343
100
AcDbEntity
  8
LAY-6
  6
CONTINUOUS
 62
     1
100
AcDbLine
 10
180.721313
 20
465.4
 30
0.0
 11
177.721313
 21
465.9
 31
0.0
  0
TEXT
  5
344
100
AcDbEntity
  8
LAY-6
  6
CONTINUOUS
 62
     2
100
AcDbText
 10
166.721313
 20
465.9
 30
0.0
 40
5.0
  1
２０
 41
0.672
  7
EXCADSTD
 72
     5
 11
174.054113
 21
465.9
 31
0.0
100
AcDbText
  0
LINE
  5
345
100
AcDbEntity
  8
LAY-6
  6
CONTINUOUS
 62
     1
100
AcDbLine
 10
194.721344
 20
461.361022
 30
0.0
 11
194.721344
 21
466.9
 31
0.0
  0
LINE
  5
346
100
AcDbEntity
  8
LAY-6
  6
CONTINUOUS
 62
     1
100
AcDbLine
 10
180.721313
 20
465.4
 30
0.0
 11
194.721344
 21
465.4
 31
0.0
  0
LINE
  5
347
100
AcDbEntity
  8
LAY-6
  6
CONTINUOUS
 62
     1
100
AcDbLine
 10
183.721313
 20
465.9
 30
0.0
 11
180.721313
 21
465.4
 31
0.0
  0
LINE
  5
348
100
AcDbEntity
  8
LAY-6
  6
CONTINUOUS
 62
     1
100
AcDbLine
 10
180.721313
 20
465.4
 30
0.0
 11
183.721313
 21
464.9
 31
0.0
  0
LINE
  5
349
100
AcDbEntity
  8
LAY-6
  6
CONTINUOUS
 62
     1
100
AcDbLine
 10
191.721344
 20
464.9
 30
0.0
 11
194.721344
 21
465.4
 31
0.0
  0
LINE
  5
34A
100
AcDbEntity
  8
LAY-6
  6
CONTINUOUS
 62
     1
100
AcDbLine
 10
194.721344
 20
465.4
 30
0.0
 11
191.721344
 21
465.9
 31
0.0
  0
TEXT
  5
34B
100
AcDbEntity
  8
LAY-6
  6
CONTINUOUS
 62
     2
100
AcDbText
 10
183.721329
 20
465.9
 30
0.0
 40
5.0
  1
１４
 41
0.672
  7
EXCADSTD
 72
     5
 11
191.054129
 21
465.9
 31
0.0
100
AcDbText
  0
LINE
  5
34C
100
AcDbEntity
  8
LAY-6
  6
CONTINUOUS
 62
     1
100
AcDbLine
 10
310.721344
 20
430.309814
 30
0.0
 11
310.721344
 21
466.9
 31
0.0
  0
LINE
  5
34D
100
AcDbEntity
  8
LAY-6
  6
CONTINUOUS
 62
     1
100
AcDbLine
 10
194.721344
 20
465.4
 30
0.0
 11
310.721344
 21
465.4
 31
0.0
  0
LINE
  5
34E
100
AcDbEntity
  8
LAY-6
  6
CONTINUOUS
 62
     1
100
AcDbLine
 10
197.721344
 20
465.9
 30
0.0
 11
194.721344
 21
465.4
 31
0.0
  0
LINE
  5
34F
100
AcDbEntity
  8
LAY-6
  6
CONTINUOUS
 62
     1
100
AcDbLine
 10
194.721344
 20
465.4
 30
0.0
 11
197.721344
 21
464.9
 31
0.0
  0
LINE
  5
350
100
AcDbEntity
  8
LAY-6
  6
CONTINUOUS
 62
     1
100
AcDbLine
 10
307.721344
 20
464.9
 30
0.0
 11
310.721344
 21
465.4
 31
0.0
  0
LINE
  5
351
100
AcDbEntity
  8
LAY-6
  6
CONTINUOUS
 62
     1
100
AcDbLine
 10
310.721344
 20
465.4
 30
0.0
 11
307.721344
 21
465.9
 31
0.0
  0
TEXT
  5
352
100
AcDbEntity
  8
LAY-6
  6
CONTINUOUS
 62
     2
100
AcDbText
 10
246.721344
 20
465.9
 30
0.0
 40
5.0
  1
１１６
 41
0.672
  7
EXCADSTD
 72
     5
 11
258.721344
 21
465.9
 31
0.0
100
AcDbText
  0
LINE
  5
353
100
AcDbEntity
  8
LAY-6
  6
CONTINUOUS
 62
     1
100
AcDbLine
 10
329.721344
 20
430.309814
 30
0.0
 11
329.721344
 21
466.9
 31
0.0
  0
LINE
  5
354
100
AcDbEntity
  8
LAY-6
  6
CONTINUOUS
 62
     1
100
AcDbLine
 10
310.721344
 20
465.4
 30
0.0
 11
329.721344
 21
465.4
 31
0.0
  0
LINE
  5
355
100
AcDbEntity
  8
LAY-6
  6
CONTINUOUS
 62
     1
100
AcDbLine
 10
313.721344
 20
465.9
 30
0.0
 11
310.721344
 21
465.4
 31
0.0
  0
LINE
  5
356
100
AcDbEntity
  8
LAY-6
  6
CONTINUOUS
 62
     1
100
AcDbLine
 10
310.721344
 20
465.4
 30
0.0
 11
313.721344
 21
464.9
 31
0.0
  0
LINE
  5
357
100
AcDbEntity
  8
LAY-6
  6
CONTINUOUS
 62
     1
100
AcDbLine
 10
326.721344
 20
464.9
 30
0.0
 11
329.721344
 21
465.4
 31
0.0
  0
LINE
  5
358
100
AcDbEntity
  8
LAY-6
  6
CONTINUOUS
 62
     1
100
AcDbLine
 10
329.721344
 20
465.4
 30
0.0
 11
326.721344
 21
465.9
 31
0.0
  0
TEXT
  5
359
100
AcDbEntity
  8
LAY-6
  6
CONTINUOUS
 62
     2
100
AcDbText
 10
316.221344
 20
465.9
 30
0.0
 40
5.0
  1
１９
 41
0.672
  7
EXCADSTD
 72
     5
 11
323.554144
 21
465.9
 31
0.0
100
AcDbText
  0
LINE
  5
35A
100
AcDbEntity
  8
LAY-6
  6
CONTINUOUS
 62
     1
100
AcDbLine
 10
178.721329
 20
410.809814
 30
0.0
 11
178.721329
 21
382.6
 31
0.0
  0
LINE
  5
35B
100
AcDbEntity
  8
LAY-6
  6
CONTINUOUS
 62
     1
100
AcDbLine
 10
194.721344
 20
394.743334
 30
0.0
 11
194.721344
 21
382.6
 31
0.0
  0
LINE
  5
35C
100
AcDbEntity
  8
LAY-6
  6
CONTINUOUS
 62
     1
100
AcDbLine
 10
178.721329
 20
384.1
 30
0.0
 11
194.721344
 21
384.1
 31
0.0
  0
LINE
  5
35D
100
AcDbEntity
  8
LAY-6
  6
CONTINUOUS
 62
     1
100
AcDbLine
 10
181.721329
 20
384.6
 30
0.0
 11
178.721329
 21
384.1
 31
0.0
  0
LINE
  5
35E
100
AcDbEntity
  8
LAY-6
  6
CONTINUOUS
 62
     1
100
AcDbLine
 10
178.721329
 20
384.1
 30
0.0
 11
181.721329
 21
383.6
 31
0.0
  0
LINE
  5
35F
100
AcDbEntity
  8
LAY-6
  6
CONTINUOUS
 62
     1
100
AcDbLine
 10
191.721344
 20
383.6
 30
0.0
 11
194.721344
 21
384.1
 31
0.0
  0
LINE
  5
360
100
AcDbEntity
  8
LAY-6
  6
CONTINUOUS
 62
     1
100
AcDbLine
 10
194.721344
 20
384.1
 30
0.0
 11
191.721344
 21
384.6
 31
0.0
  0
TEXT
  5
361
100
AcDbEntity
  8
LAY-6
  6
CONTINUOUS
 62
     2
100
AcDbText
 10
182.721337
 20
384.6
 30
0.0
 40
5.0
  1
１６
 41
0.672
  7
EXCADSTD
 72
     5
 11
190.054137
 21
384.6
 31
0.0
100
AcDbText
  0
LINE
  5
362
100
AcDbEntity
  8
LAY-6
  6
CONTINUOUS
 62
     1
100
AcDbLine
 10
214.721344
 20
406.309814
 30
0.0
 11
214.721344
 21
382.6
 31
0.0
  0
LINE
  5
363
100
AcDbEntity
  8
LAY-6
  6
CONTINUOUS
 62
     1
100
AcDbLine
 10
194.721344
 20
384.1
 30
0.0
 11
214.721344
 21
384.1
 31
0.0
  0
LINE
  5
364
100
AcDbEntity
  8
LAY-6
  6
CONTINUOUS
 62
     1
100
AcDbLine
 10
197.721344
 20
384.6
 30
0.0
 11
194.721344
 21
384.1
 31
0.0
  0
LINE
  5
365
100
AcDbEntity
  8
LAY-6
  6
CONTINUOUS
 62
     1
100
AcDbLine
 10
194.721344
 20
384.1
 30
0.0
 11
197.721344
 21
383.6
 31
0.0
  0
LINE
  5
366
100
AcDbEntity
  8
LAY-6
  6
CONTINUOUS
 62
     1
100
AcDbLine
 10
211.721344
 20
383.6
 30
0.0
 11
214.721344
 21
384.1
 31
0.0
  0
LINE
  5
367
100
AcDbEntity
  8
LAY-6
  6
CONTINUOUS
 62
     1
100
AcDbLine
 10
214.721344
 20
384.1
 30
0.0
 11
211.721344
 21
384.6
 31
0.0
  0
TEXT
  5
368
100
AcDbEntity
  8
LAY-6
  6
CONTINUOUS
 62
     2
100
AcDbText
 10
200.721344
 20
384.6
 30
0.0
 40
5.0
  1
２０
 41
0.672
  7
EXCADSTD
 72
     5
 11
208.054144
 21
384.6
 31
0.0
100
AcDbText
  0
LINE
  5
369
100
AcDbEntity
  8
LAY-6
  6
CONTINUOUS
 62
     1
100
AcDbLine
 10
329.721344
 20
406.309814
 30
0.0
 11
329.721344
 21
382.6
 31
0.0
  0
LINE
  5
36A
100
AcDbEntity
  8
LAY-6
  6
CONTINUOUS
 62
     1
100
AcDbLine
 10
214.721344
 20
384.1
 30
0.0
 11
329.721344
 21
384.1
 31
0.0
  0
LINE
  5
36B
100
AcDbEntity
  8
LAY-6
  6
CONTINUOUS
 62
     1
100
AcDbLine
 10
217.721344
 20
384.6
 30
0.0
 11
214.721344
 21
384.1
 31
0.0
  0
LINE
  5
36C
100
AcDbEntity
  8
LAY-6
  6
CONTINUOUS
 62
     1
100
AcDbLine
 10
214.721344
 20
384.1
 30
0.0
 11
217.721344
 21
383.6
 31
0.0
  0
LINE
  5
36D
100
AcDbEntity
  8
LAY-6
  6
CONTINUOUS
 62
     1
100
AcDbLine
 10
326.721344
 20
383.6
 30
0.0
 11
329.721344
 21
384.1
 31
0.0
  0
LINE
  5
36E
100
AcDbEntity
  8
LAY-6
  6
CONTINUOUS
 62
     1
100
AcDbLine
 10
329.721344
 20
384.1
 30
0.0
 11
326.721344
 21
384.6
 31
0.0
  0
TEXT
  5
36F
100
AcDbEntity
  8
LAY-6
  6
CONTINUOUS
 62
     2
100
AcDbText
 10
266.221344
 20
384.6
 30
0.0
 40
5.0
  1
１１５
 41
0.672
  7
EXCADSTD
 72
     5
 11
278.221344
 21
384.6
 31
0.0
100
AcDbText
  0
LINE
  5
370
100
AcDbEntity
  8
LAY-6
  6
CONTINUOUS
 62
     1
100
AcDbLine
 10
199.7
 20
395.809863
 30
0.0
 11
247.0
 21
395.809863
 31
0.0
  0
LINE
  5
371
100
AcDbEntity
  8
LAY-6
  6
CONTINUOUS
 62
     1
100
AcDbLine
 10
245.5
 20
395.809863
 30
0.0
 11
245.5
 21
416.809814
 31
0.0
  0
LINE
  5
372
100
AcDbEntity
  8
LAY-6
  6
CONTINUOUS
 62
     1
100
AcDbLine
 10
245.0
 20
398.809863
 30
0.0
 11
245.5
 21
395.809863
 31
0.0
  0
LINE
  5
373
100
AcDbEntity
  8
LAY-6
  6
CONTINUOUS
 62
     1
100
AcDbLine
 10
245.5
 20
395.809863
 30
0.0
 11
246.0
 21
398.809863
 31
0.0
  0
LINE
  5
374
100
AcDbEntity
  8
LAY-6
  6
CONTINUOUS
 62
     1
100
AcDbLine
 10
246.0
 20
413.809814
 30
0.0
 11
245.5
 21
416.809814
 31
0.0
  0
LINE
  5
375
100
AcDbEntity
  8
LAY-6
  6
CONTINUOUS
 62
     1
100
AcDbLine
 10
245.5
 20
416.809814
 30
0.0
 11
245.0
 21
413.809814
 31
0.0
  0
TEXT
  5
376
100
AcDbEntity
  8
LAY-6
  6
CONTINUOUS
 62
     2
100
AcDbText
 10
245.0
 20
402.309839
 30
0.0
 40
5.0
  1
２１
 50
90.0
 41
0.672
  7
EXCADSTD
 72
     5
 11
245.0
 21
409.642639
 31
0.0
100
AcDbText
  0
LINE
  5
377
100
AcDbEntity
  8
LAY-6
  6
CONTINUOUS
 62
     1
100
AcDbLine
 10
204.171357
 20
457.809875
 30
0.0
 11
247.0
 21
457.809875
 31
0.0
  0
LINE
  5
378
100
AcDbEntity
  8
LAY-6
  6
CONTINUOUS
 62
     1
100
AcDbLine
 10
245.5
 20
419.809814
 30
0.0
 11
245.5
 21
457.809875
 31
0.0
  0
LINE
  5
379
100
AcDbEntity
  8
LAY-6
  6
CONTINUOUS
 62
     1
100
AcDbLine
 10
245.0
 20
422.809814
 30
0.0
 11
245.5
 21
419.809814
 31
0.0
  0
LINE
  5
37A
100
AcDbEntity
  8
LAY-6
  6
CONTINUOUS
 62
     1
100
AcDbLine
 10
245.5
 20
419.809814
 30
0.0
 11
246.0
 21
422.809814
 31
0.0
  0
LINE
  5
37B
100
AcDbEntity
  8
LAY-6
  6
CONTINUOUS
 62
     1
100
AcDbLine
 10
246.0
 20
454.809875
 30
0.0
 11
245.5
 21
457.809875
 31
0.0
  0
LINE
  5
37C
100
AcDbEntity
  8
LAY-6
  6
CONTINUOUS
 62
     1
100
AcDbLine
 10
245.5
 20
457.809875
 30
0.0
 11
245.0
 21
454.809875
 31
0.0
  0
TEXT
  5
37D
100
AcDbEntity
  8
LAY-6
  6
CONTINUOUS
 62
     2
100
AcDbText
 10
245.0
 20
432.909845
 30
0.0
 40
5.0
  1
３８
 50
90.0
 41
0.672
  7
EXCADSTD
 72
     5
 11
245.0
 21
440.242645
 31
0.0
100
AcDbText
  0
LINE
  5
37E
100
AcDbEntity
  8
LAY-6
  6
CONTINUOUS
 62
     1
100
AcDbLine
 10
329.721344
 20
410.809814
 30
0.0
 11
347.0
 21
410.809814
 31
0.0
  0
LINE
  5
37F
100
AcDbEntity
  8
LAY-6
  6
CONTINUOUS
 62
     1
100
AcDbLine
 10
345.5
 20
410.809814
 30
0.0
 11
345.5
 21
416.809814
 31
0.0
  0
LINE
  5
380
100
AcDbEntity
  8
LAY-6
  6
CONTINUOUS
 62
     1
100
AcDbLine
 10
345.033333
 20
413.609814
 30
0.0
 11
345.5
 21
410.809814
 31
0.0
  0
LINE
  5
381
100
AcDbEntity
  8
LAY-6
  6
CONTINUOUS
 62
     1
100
AcDbLine
 10
345.5
 20
410.809814
 30
0.0
 11
345.966667
 21
413.609814
 31
0.0
  0
LINE
  5
382
100
AcDbEntity
  8
LAY-6
  6
CONTINUOUS
 62
     1
100
AcDbLine
 10
345.966667
 20
414.009814
 30
0.0
 11
345.5
 21
416.809814
 31
0.0
  0
LINE
  5
383
100
AcDbEntity
  8
LAY-6
  6
CONTINUOUS
 62
     1
100
AcDbLine
 10
345.5
 20
416.809814
 30
0.0
 11
345.033333
 21
414.009814
 31
0.0
  0
TEXT
  5
384
100
AcDbEntity
  8
LAY-6
  6
CONTINUOUS
 62
     2
100
AcDbText
 10
345.0
 20
411.809814
 30
0.0
 40
5.0
  1
６
 50
90.0
 41
0.672
  7
EXCADSTD
 72
     5
 11
345.0
 21
415.009814
 31
0.0
100
AcDbText
  0
LINE
  5
385
100
AcDbEntity
  8
LAY-6
  6
CONTINUOUS
 62
     1
100
AcDbLine
 10
329.721344
 20
425.809814
 30
0.0
 11
347.0
 21
425.809814
 31
0.0
  0
LINE
  5
386
100
AcDbEntity
  8
LAY-6
  6
CONTINUOUS
 62
     1
100
AcDbLine
 10
345.5
 20
419.809814
 30
0.0
 11
345.5
 21
425.809814
 31
0.0
  0
LINE
  5
387
100
AcDbEntity
  8
LAY-6
  6
CONTINUOUS
 62
     1
100
AcDbLine
 10
345.033333
 20
422.609814
 30
0.0
 11
345.5
 21
419.809814
 31
0.0
  0
LINE
  5
388
100
AcDbEntity
  8
LAY-6
  6
CONTINUOUS
 62
     1
100
AcDbLine
 10
345.5
 20
419.809814
 30
0.0
 11
345.966667
 21
422.609814
 31
0.0
  0
LINE
  5
389
100
AcDbEntity
  8
LAY-6
  6
CONTINUOUS
 62
     1
100
AcDbLine
 10
345.966667
 20
423.009814
 30
0.0
 11
345.5
 21
425.809814
 31
0.0
  0
LINE
  5
38A
100
AcDbEntity
  8
LAY-6
  6
CONTINUOUS
 62
     1
100
AcDbLine
 10
345.5
 20
425.809814
 30
0.0
 11
345.033333
 21
423.009814
 31
0.0
  0
TEXT
  5
38B
100
AcDbEntity
  8
LAY-6
  6
CONTINUOUS
 62
     2
100
AcDbText
 10
345.0
 20
420.809814
 30
0.0
 40
5.0
  1
６
 50
90.0
 41
0.672
  7
EXCADSTD
 72
     5
 11
345.0
 21
424.009814
 31
0.0
100
AcDbText
  0
LINE
  5
38C
100
AcDbEntity
  8
LAY-6
  6
CONTINUOUS
 62
     1
100
AcDbLine
 10
260.256958
 20
319.15741
 30
0.0
 11
246.7
 21
319.15741
 31
0.0
  0
LINE
  5
38D
100
AcDbEntity
  8
LAY-6
  6
CONTINUOUS
 62
     1
100
AcDbLine
 10
245.8
 20
327.15741
 30
0.0
 11
249.7
 21
327.15741
 31
0.0
  0
LINE
  5
38E
100
AcDbEntity
  8
LAY-6
  6
CONTINUOUS
 62
     1
100
AcDbLine
 10
248.2
 20
319.15741
 30
0.0
 11
248.2
 21
327.15741
 31
0.0
  0
LINE
  5
38F
100
AcDbEntity
  8
LAY-6
  6
CONTINUOUS
 62
     1
100
AcDbLine
 10
247.7
 20
322.15741
 30
0.0
 11
248.2
 21
319.15741
 31
0.0
  0
LINE
  5
390
100
AcDbEntity
  8
LAY-6
  6
CONTINUOUS
 62
     1
100
AcDbLine
 10
248.2
 20
319.15741
 30
0.0
 11
248.7
 21
322.15741
 31
0.0
  0
LINE
  5
391
100
AcDbEntity
  8
LAY-6
  6
CONTINUOUS
 62
     1
100
AcDbLine
 10
248.7
 20
324.15741
 30
0.0
 11
248.2
 21
327.15741
 31
0.0
  0
LINE
  5
392
100
AcDbEntity
  8
LAY-6
  6
CONTINUOUS
 62
     1
100
AcDbLine
 10
248.2
 20
327.15741
 30
0.0
 11
247.7
 21
324.15741
 31
0.0
  0
TEXT
  5
393
100
AcDbEntity
  8
LAY-6
  6
CONTINUOUS
 62
     2
100
AcDbText
 10
247.7
 20
321.15741
 30
0.0
 40
5.0
  1
８
 50
90.0
 41
0.672
  7
EXCADSTD
 72
     5
 11
247.7
 21
324.35741
 31
0.0
100
AcDbText
  0
LINE
  5
394
100
AcDbEntity
  8
LAY-6
  6
CONTINUOUS
 62
     1
100
AcDbLine
 10
234.256958
 20
335.15741
 30
0.0
 11
249.7
 21
335.15741
 31
0.0
  0
LINE
  5
395
100
AcDbEntity
  8
LAY-6
  6
CONTINUOUS
 62
     1
100
AcDbLine
 10
248.2
 20
327.15741
 30
0.0
 11
248.2
 21
335.15741
 31
0.0
  0
LINE
  5
396
100
AcDbEntity
  8
LAY-6
  6
CONTINUOUS
 62
     1
100
AcDbLine
 10
247.7
 20
330.15741
 30
0.0
 11
248.2
 21
327.15741
 31
0.0
  0
LINE
  5
397
100
AcDbEntity
  8
LAY-6
  6
CONTINUOUS
 62
     1
100
AcDbLine
 10
248.2
 20
327.15741
 30
0.0
 11
248.7
 21
330.15741
 31
0.0
  0
LINE
  5
398
100
AcDbEntity
  8
LAY-6
  6
CONTINUOUS
 62
     1
100
AcDbLine
 10
248.7
 20
332.15741
 30
0.0
 11
248.2
 21
335.15741
 31
0.0
  0
LINE
  5
399
100
AcDbEntity
  8
LAY-6
  6
CONTINUOUS
 62
     1
100
AcDbLine
 10
248.2
 20
335.15741
 30
0.0
 11
247.7
 21
332.15741
 31
0.0
  0
TEXT
  5
39A
100
AcDbEntity
  8
LAY-6
  6
CONTINUOUS
 62
     2
100
AcDbText
 10
247.7
 20
329.15741
 30
0.0
 40
5.0
  1
８
 50
90.0
 41
0.672
  7
EXCADSTD
 72
     5
 11
247.7
 21
332.35741
 31
0.0
100
AcDbText
  0
LINE
  5
39B
100
AcDbEntity
  8
LAY-6
  6
CONTINUOUS
 62
     1
100
AcDbLine
 10
329.721344
 20
343.15741
 30
0.0
 11
345.5
 21
343.15741
 31
0.0
  0
LINE
  5
39C
100
AcDbEntity
  8
LAY-6
  6
CONTINUOUS
 62
     1
100
AcDbLine
 10
329.721344
 20
311.15741
 30
0.0
 11
345.5
 21
311.15741
 31
0.0
  0
LINE
  5
39D
100
AcDbEntity
  8
LAY-6
  6
CONTINUOUS
 62
     1
100
AcDbLine
 10
344.0
 20
343.15741
 30
0.0
 11
344.0
 21
311.15741
 31
0.0
  0
LINE
  5
39E
100
AcDbEntity
  8
LAY-6
  6
CONTINUOUS
 62
     1
100
AcDbLine
 10
344.5
 20
340.15741
 30
0.0
 11
344.0
 21
343.15741
 31
0.0
  0
LINE
  5
39F
100
AcDbEntity
  8
LAY-6
  6
CONTINUOUS
 62
     1
100
AcDbLine
 10
344.0
 20
343.15741
 30
0.0
 11
343.5
 21
340.15741
 31
0.0
  0
LINE
  5
3A0
100
AcDbEntity
  8
LAY-6
  6
CONTINUOUS
 62
     1
100
AcDbLine
 10
343.5
 20
314.15741
 30
0.0
 11
344.0
 21
311.15741
 31
0.0
  0
LINE
  5
3A1
100
AcDbEntity
  8
LAY-6
  6
CONTINUOUS
 62
     1
100
AcDbLine
 10
344.0
 20
311.15741
 30
0.0
 11
344.5
 21
314.15741
 31
0.0
  0
TEXT
  5
3A2
100
AcDbEntity
  8
LAY-6
  6
CONTINUOUS
 62
     2
100
AcDbText
 10
343.5
 20
323.15741
 30
0.0
 40
5.0
  1
３２
 50
90.0
 41
0.672
  7
EXCADSTD
 72
     5
 11
343.5
 21
330.49021
 31
0.0
100
AcDbText
  0
LINE
  5
3A3
100
AcDbEntity
  8
LAY-6
  6
CONTINUOUS
 62
     1
100
AcDbLine
 10
194.721344
 20
308.0
 30
0.0
 11
194.721344
 21
295.0
 31
0.0
  0
LINE
  5
3A4
100
AcDbEntity
  8
LAY-6
  6
CONTINUOUS
 62
     1
100
AcDbLine
 10
224.721314
 20
323.0
 30
0.0
 11
224.721314
 21
295.0
 31
0.0
  0
LINE
  5
3A5
100
AcDbEntity
  8
LAY-6
  6
CONTINUOUS
 62
     1
100
AcDbLine
 10
194.721344
 20
296.5
 30
0.0
 11
224.721314
 21
296.5
 31
0.0
  0
LINE
  5
3A6
100
AcDbEntity
  8
LAY-6
  6
CONTINUOUS
 62
     1
100
AcDbLine
 10
197.721344
 20
297.0
 30
0.0
 11
194.721344
 21
296.5
 31
0.0
  0
LINE
  5
3A7
100
AcDbEntity
  8
LAY-6
  6
CONTINUOUS
 62
     1
100
AcDbLine
 10
194.721344
 20
296.5
 30
0.0
 11
197.721344
 21
296.0
 31
0.0
  0
LINE
  5
3A8
100
AcDbEntity
  8
LAY-6
  6
CONTINUOUS
 62
     1
100
AcDbLine
 10
221.721314
 20
296.0
 30
0.0
 11
224.721314
 21
296.5
 31
0.0
  0
LINE
  5
3A9
100
AcDbEntity
  8
LAY-6
  6
CONTINUOUS
 62
     1
100
AcDbLine
 10
224.721314
 20
296.5
 30
0.0
 11
221.721314
 21
297.0
 31
0.0
  0
TEXT
  5
3AA
100
AcDbEntity
  8
LAY-6
  6
CONTINUOUS
 62
     2
100
AcDbText
 10
205.721329
 20
297.0
 30
0.0
 40
5.0
  1
３０
 41
0.672
  7
EXCADSTD
 72
     5
 11
213.054129
 21
297.0
 31
0.0
100
AcDbText
  0
LINE
  5
3AB
100
AcDbEntity
  8
LAY-6
  6
CONTINUOUS
 62
     1
100
AcDbLine
 10
270.721344
 20
306.154175
 30
0.0
 11
270.721344
 21
295.0
 31
0.0
  0
LINE
  5
3AC
100
AcDbEntity
  8
LAY-6
  6
CONTINUOUS
 62
     1
100
AcDbLine
 10
224.721314
 20
296.5
 30
0.0
 11
270.721344
 21
296.5
 31
0.0
  0
LINE
  5
3AD
100
AcDbEntity
  8
LAY-6
  6
CONTINUOUS
 62
     1
100
AcDbLine
 10
227.721314
 20
297.0
 30
0.0
 11
224.721314
 21
296.5
 31
0.0
  0
LINE
  5
3AE
100
AcDbEntity
  8
LAY-6
  6
CONTINUOUS
 62
     1
100
AcDbLine
 10
224.721314
 20
296.5
 30
0.0
 11
227.721314
 21
296.0
 31
0.0
  0
LINE
  5
3AF
100
AcDbEntity
  8
LAY-6
  6
CONTINUOUS
 62
     1
100
AcDbLine
 10
267.721344
 20
296.0
 30
0.0
 11
270.721344
 21
296.5
 31
0.0
  0
LINE
  5
3B0
100
AcDbEntity
  8
LAY-6
  6
CONTINUOUS
 62
     1
100
AcDbLine
 10
270.721344
 20
296.5
 30
0.0
 11
267.721344
 21
297.0
 31
0.0
  0
TEXT
  5
3B1
100
AcDbEntity
  8
LAY-6
  6
CONTINUOUS
 62
     2
100
AcDbText
 10
243.721329
 20
297.0
 30
0.0
 40
5.0
  1
４６
 41
0.672
  7
EXCADSTD
 72
     5
 11
251.054129
 21
297.0
 31
0.0
100
AcDbText
  0
LINE
  5
3B2
100
AcDbEntity
  8
LAY-6
  6
CONTINUOUS
 62
     1
100
AcDbLine
 10
316.721344
 20
326.0
 30
0.0
 11
316.721344
 21
295.0
 31
0.0
  0
LINE
  5
3B3
100
AcDbEntity
  8
LAY-6
  6
CONTINUOUS
 62
     1
100
AcDbLine
 10
270.721344
 20
296.5
 30
0.0
 11
316.721344
 21
296.5
 31
0.0
  0
LINE
  5
3B4
100
AcDbEntity
  8
LAY-6
  6
CONTINUOUS
 62
     1
100
AcDbLine
 10
273.721344
 20
297.0
 30
0.0
 11
270.721344
 21
296.5
 31
0.0
  0
LINE
  5
3B5
100
AcDbEntity
  8
LAY-6
  6
CONTINUOUS
 62
     1
100
AcDbLine
 10
270.721344
 20
296.5
 30
0.0
 11
273.721344
 21
296.0
 31
0.0
  0
LINE
  5
3B6
100
AcDbEntity
  8
LAY-6
  6
CONTINUOUS
 62
     1
100
AcDbLine
 10
313.721344
 20
296.0
 30
0.0
 11
316.721344
 21
296.5
 31
0.0
  0
LINE
  5
3B7
100
AcDbEntity
  8
LAY-6
  6
CONTINUOUS
 62
     1
100
AcDbLine
 10
316.721344
 20
296.5
 30
0.0
 11
313.721344
 21
297.0
 31
0.0
  0
TEXT
  5
3B8
100
AcDbEntity
  8
LAY-6
  6
CONTINUOUS
 62
     2
100
AcDbText
 10
289.721344
 20
297.0
 30
0.0
 40
5.0
  1
４６
 41
0.672
  7
EXCADSTD
 72
     5
 11
297.054144
 21
297.0
 31
0.0
100
AcDbText
  0
LINE
  5
3B9
100
AcDbEntity
  8
LAY-6
  6
CONTINUOUS
 62
     1
100
AcDbLine
 10
178.721314
 20
311.15741
 30
0.0
 11
178.721314
 21
286.2
 31
0.0
  0
LINE
  5
3BA
100
AcDbEntity
  8
LAY-6
  6
CONTINUOUS
 62
     1
100
AcDbLine
 10
194.721344
 20
295.0
 30
0.0
 11
194.721344
 21
286.2
 31
0.0
  0
LINE
  5
3BB
100
AcDbEntity
  8
LAY-6
  6
CONTINUOUS
 62
     1
100
AcDbLine
 10
178.721314
 20
287.7
 30
0.0
 11
194.721344
 21
287.7
 31
0.0
  0
LINE
  5
3BC
100
AcDbEntity
  8
LAY-6
  6
CONTINUOUS
 62
     1
100
AcDbLine
 10
181.721314
 20
288.2
 30
0.0
 11
178.721314
 21
287.7
 31
0.0
  0
LINE
  5
3BD
100
AcDbEntity
  8
LAY-6
  6
CONTINUOUS
 62
     1
100
AcDbLine
 10
178.721314
 20
287.7
 30
0.0
 11
181.721314
 21
287.2
 31
0.0
  0
LINE
  5
3BE
100
AcDbEntity
  8
LAY-6
  6
CONTINUOUS
 62
     1
100
AcDbLine
 10
191.721344
 20
287.2
 30
0.0
 11
194.721344
 21
287.7
 31
0.0
  0
LINE
  5
3BF
100
AcDbEntity
  8
LAY-6
  6
CONTINUOUS
 62
     1
100
AcDbLine
 10
194.721344
 20
287.7
 30
0.0
 11
191.721344
 21
288.2
 31
0.0
  0
TEXT
  5
3C0
100
AcDbEntity
  8
LAY-6
  6
CONTINUOUS
 62
     2
100
AcDbText
 10
182.721329
 20
288.2
 30
0.0
 40
5.0
  1
１６
 41
0.672
  7
EXCADSTD
 72
     5
 11
190.054129
 21
288.2
 31
0.0
100
AcDbText
  0
TEXT
  5
3C1
100
AcDbEntity
  8
LAY-6
  6
CONTINUOUS
 62
     2
100
AcDbText
 10
182.221341
 20
212.8
 30
0.0
 40
5.0
  1
１７
 41
0.672
  7
EXCADSTD
 72
     5
 11
189.55414
 21
212.8
 31
0.0
100
AcDbText
  0
LINE
  5
3C2
100
AcDbEntity
  8
LAY-6
  6
CONTINUOUS
 62
     1
100
AcDbLine
 10
194.721344
 20
219.45
 30
0.0
 11
194.721344
 21
210.8
 31
0.0
  0
LINE
  5
3C3
100
AcDbEntity
  8
LAY-6
  6
CONTINUOUS
 62
     1
100
AcDbLine
 10
177.721337
 20
212.3
 30
0.0
 11
194.721344
 21
212.3
 31
0.0
  0
LINE
  5
3C4
100
AcDbEntity
  8
LAY-6
  6
CONTINUOUS
 62
     1
100
AcDbLine
 10
180.721337
 20
212.8
 30
0.0
 11
177.721337
 21
212.3
 31
0.0
  0
LINE
  5
3C5
100
AcDbEntity
  8
LAY-6
  6
CONTINUOUS
 62
     1
100
AcDbLine
 10
177.721337
 20
212.3
 30
0.0
 11
180.721337
 21
211.8
 31
0.0
  0
LINE
  5
3C6
100
AcDbEntity
  8
LAY-6
  6
CONTINUOUS
 62
     1
100
AcDbLine
 10
191.721344
 20
211.8
 30
0.0
 11
194.721344
 21
212.3
 31
0.0
  0
LINE
  5
3C7
100
AcDbEntity
  8
LAY-6
  6
CONTINUOUS
 62
     1
100
AcDbLine
 10
194.721344
 20
212.3
 30
0.0
 11
191.721344
 21
212.8
 31
0.0
  0
LINE
  5
3C8
100
AcDbEntity
  8
LAY-6
  6
CONTINUOUS
 62
     1
100
AcDbLine
 10
219.721329
 20
238.6
 30
0.0
 11
219.721329
 21
210.8
 31
0.0
  0
LINE
  5
3C9
100
AcDbEntity
  8
LAY-6
  6
CONTINUOUS
 62
     1
100
AcDbLine
 10
194.721344
 20
212.3
 30
0.0
 11
219.721329
 21
212.3
 31
0.0
  0
LINE
  5
3CA
100
AcDbEntity
  8
LAY-6
  6
CONTINUOUS
 62
     1
100
AcDbLine
 10
197.721344
 20
212.8
 30
0.0
 11
194.721344
 21
212.3
 31
0.0
  0
LINE
  5
3CB
100
AcDbEntity
  8
LAY-6
  6
CONTINUOUS
 62
     1
100
AcDbLine
 10
194.721344
 20
212.3
 30
0.0
 11
197.721344
 21
211.8
 31
0.0
  0
LINE
  5
3CC
100
AcDbEntity
  8
LAY-6
  6
CONTINUOUS
 62
     1
100
AcDbLine
 10
216.721329
 20
211.8
 30
0.0
 11
219.721329
 21
212.3
 31
0.0
  0
LINE
  5
3CD
100
AcDbEntity
  8
LAY-6
  6
CONTINUOUS
 62
     1
100
AcDbLine
 10
219.721329
 20
212.3
 30
0.0
 11
216.721329
 21
212.8
 31
0.0
  0
TEXT
  5
3CE
100
AcDbEntity
  8
LAY-6
  6
CONTINUOUS
 62
     2
100
AcDbText
 10
203.221336
 20
212.8
 30
0.0
 40
5.0
  1
２５
 41
0.672
  7
EXCADSTD
 72
     5
 11
210.554136
 21
212.8
 31
0.0
100
AcDbText
  0
LINE
  5
3CF
100
AcDbEntity
  8
LAY-6
  6
CONTINUOUS
 62
     1
100
AcDbLine
 10
234.721329
 20
230.2
 30
0.0
 11
234.721329
 21
210.8
 31
0.0
  0
LINE
  5
3D0
100
AcDbEntity
  8
LAY-6
  6
CONTINUOUS
 62
     1
100
AcDbLine
 10
219.721329
 20
212.3
 30
0.0
 11
234.721329
 21
212.3
 31
0.0
  0
LINE
  5
3D1
100
AcDbEntity
  8
LAY-6
  6
CONTINUOUS
 62
     1
100
AcDbLine
 10
222.721329
 20
212.8
 30
0.0
 11
219.721329
 21
212.3
 31
0.0
  0
LINE
  5
3D2
100
AcDbEntity
  8
LAY-6
  6
CONTINUOUS
 62
     1
100
AcDbLine
 10
219.721329
 20
212.3
 30
0.0
 11
222.721329
 21
211.8
 31
0.0
  0
LINE
  5
3D3
100
AcDbEntity
  8
LAY-6
  6
CONTINUOUS
 62
     1
100
AcDbLine
 10
231.721329
 20
211.8
 30
0.0
 11
234.721329
 21
212.3
 31
0.0
  0
LINE
  5
3D4
100
AcDbEntity
  8
LAY-6
  6
CONTINUOUS
 62
     1
100
AcDbLine
 10
234.721329
 20
212.3
 30
0.0
 11
231.721329
 21
212.8
 31
0.0
  0
TEXT
  5
3D5
100
AcDbEntity
  8
LAY-6
  6
CONTINUOUS
 62
     2
100
AcDbText
 10
223.221329
 20
212.8
 30
0.0
 40
5.0
  1
１５
 41
0.672
  7
EXCADSTD
 72
     5
 11
230.554129
 21
212.8
 31
0.0
100
AcDbText
  0
LINE
  5
3D6
100
AcDbEntity
  8
LAY-6
  6
CONTINUOUS
 62
     1
100
AcDbLine
 10
322.721344
 20
236.052094
 30
0.0
 11
322.721344
 21
210.8
 31
0.0
  0
LINE
  5
3D7
100
AcDbEntity
  8
LAY-6
  6
CONTINUOUS
 62
     1
100
AcDbLine
 10
234.721329
 20
212.3
 30
0.0
 11
322.721344
 21
212.3
 31
0.0
  0
LINE
  5
3D8
100
AcDbEntity
  8
LAY-6
  6
CONTINUOUS
 62
     1
100
AcDbLine
 10
237.721329
 20
212.8
 30
0.0
 11
234.721329
 21
212.3
 31
0.0
  0
LINE
  5
3D9
100
AcDbEntity
  8
LAY-6
  6
CONTINUOUS
 62
     1
100
AcDbLine
 10
234.721329
 20
212.3
 30
0.0
 11
237.721329
 21
211.8
 31
0.0
  0
LINE
  5
3DA
100
AcDbEntity
  8
LAY-6
  6
CONTINUOUS
 62
     1
100
AcDbLine
 10
319.721344
 20
211.8
 30
0.0
 11
322.721344
 21
212.3
 31
0.0
  0
LINE
  5
3DB
100
AcDbEntity
  8
LAY-6
  6
CONTINUOUS
 62
     1
100
AcDbLine
 10
322.721344
 20
212.3
 30
0.0
 11
319.721344
 21
212.8
 31
0.0
  0
TEXT
  5
3DC
100
AcDbEntity
  8
LAY-6
  6
CONTINUOUS
 62
     2
100
AcDbText
 10
274.721337
 20
212.8
 30
0.0
 40
5.0
  1
８８
 41
0.672
  7
EXCADSTD
 72
     5
 11
282.054137
 21
212.8
 31
0.0
100
AcDbText
  0
LINE
  5
3DD
100
AcDbEntity
  8
LAY-6
  6
CONTINUOUS
 62
     1
100
AcDbLine
 10
322.721344
 20
238.2
 30
0.0
 11
322.721344
 21
210.8
 31
0.0
  0
LINE
  5
3DE
100
AcDbEntity
  8
LAY-6
  6
CONTINUOUS
 62
     1
100
AcDbLine
 10
337.721344
 20
230.6
 30
0.0
 11
337.721344
 21
210.8
 31
0.0
  0
LINE
  5
3DF
100
AcDbEntity
  8
LAY-6
  6
CONTINUOUS
 62
     1
100
AcDbLine
 10
322.721344
 20
212.3
 30
0.0
 11
337.721344
 21
212.3
 31
0.0
  0
LINE
  5
3E0
100
AcDbEntity
  8
LAY-6
  6
CONTINUOUS
 62
     1
100
AcDbLine
 10
325.721344
 20
212.8
 30
0.0
 11
322.721344
 21
212.3
 31
0.0
  0
LINE
  5
3E1
100
AcDbEntity
  8
LAY-6
  6
CONTINUOUS
 62
     1
100
AcDbLine
 10
322.721344
 20
212.3
 30
0.0
 11
325.721344
 21
211.8
 31
0.0
  0
LINE
  5
3E2
100
AcDbEntity
  8
LAY-6
  6
CONTINUOUS
 62
     1
100
AcDbLine
 10
334.721344
 20
211.8
 30
0.0
 11
337.721344
 21
212.3
 31
0.0
  0
LINE
  5
3E3
100
AcDbEntity
  8
LAY-6
  6
CONTINUOUS
 62
     1
100
AcDbLine
 10
337.721344
 20
212.3
 30
0.0
 11
334.721344
 21
212.8
 31
0.0
  0
TEXT
  5
3E4
100
AcDbEntity
  8
LAY-6
  6
CONTINUOUS
 62
     2
100
AcDbText
 10
326.221344
 20
212.8
 30
0.0
 40
5.0
  1
１５
 41
0.672
  7
EXCADSTD
 72
     5
 11
333.554144
 21
212.8
 31
0.0
100
AcDbText
  0
LINE
  5
3E5
100
AcDbEntity
  8
LAY-6
  6
CONTINUOUS
 62
     1
100
AcDbLine
 10
204.221351
 20
130.552002
 30
0.0
 11
291.6
 21
130.552002
 31
0.0
  0
LINE
  5
3E6
100
AcDbEntity
  8
LAY-6
  6
CONTINUOUS
 62
     1
100
AcDbLine
 10
214.72136
 20
137.552063
 30
0.0
 11
291.6
 21
137.552063
 31
0.0
  0
TEXT
  5
3E7
100
AcDbEntity
  8
LAY-6
  6
CONTINUOUS
 62
     2
100
AcDbText
 10
274.6
 20
132.052033
 30
0.0
 40
5.0
  1
７
 50
90.0
 41
0.672
  7
EXCADSTD
 72
     5
 11
274.6
 21
135.252032
 31
0.0
100
AcDbText
  0
LINE
  5
3E8
100
AcDbEntity
  8
LAY-6
  6
CONTINUOUS
 62
     1
100
AcDbLine
 10
275.1
 20
130.552002
 30
0.0
 11
275.1
 21
137.552063
 31
0.0
  0
LINE
  5
3E9
100
AcDbEntity
  8
LAY-6
  6
CONTINUOUS
 62
     1
100
AcDbLine
 10
274.6
 20
133.552002
 30
0.0
 11
275.1
 21
130.552002
 31
0.0
  0
LINE
  5
3EA
100
AcDbEntity
  8
LAY-6
  6
CONTINUOUS
 62
     1
100
AcDbLine
 10
275.1
 20
130.552002
 30
0.0
 11
275.6
 21
133.552002
 31
0.0
  0
LINE
  5
3EB
100
AcDbEntity
  8
LAY-6
  6
CONTINUOUS
 62
     1
100
AcDbLine
 10
275.6
 20
134.552063
 30
0.0
 11
275.1
 21
137.552063
 31
0.0
  0
LINE
  5
3EC
100
AcDbEntity
  8
LAY-6
  6
CONTINUOUS
 62
     1
100
AcDbLine
 10
275.1
 20
137.552063
 30
0.0
 11
274.6
 21
134.552063
 31
0.0
  0
LINE
  5
3ED
100
AcDbEntity
  8
LAY-6
  6
CONTINUOUS
 62
     1
100
AcDbLine
 10
279.2
 20
145.552063
 30
0.0
 11
268.6
 21
145.552063
 31
0.0
  0
TEXT
  5
3EE
100
AcDbEntity
  8
LAY-6
  6
CONTINUOUS
 62
     2
100
AcDbText
 10
274.6
 20
139.552063
 30
0.0
 40
5.0
  1
８
 50
90.0
 41
0.672
  7
EXCADSTD
 72
     5
 11
274.6
 21
142.752063
 31
0.0
100
AcDbText
  0
LINE
  5
3EF
100
AcDbEntity
  8
LAY-6
  6
CONTINUOUS
 62
     1
100
AcDbLine
 10
275.1
 20
137.552063
 30
0.0
 11
275.1
 21
145.552063
 31
0.0
  0
LINE
  5
3F0
100
AcDbEntity
  8
LAY-6
  6
CONTINUOUS
 62
     1
100
AcDbLine
 10
274.6
 20
140.552063
 30
0.0
 11
275.1
 21
137.552063
 31
0.0
  0
LINE
  5
3F1
100
AcDbEntity
  8
LAY-6
  6
CONTINUOUS
 62
     1
100
AcDbLine
 10
275.1
 20
137.552063
 30
0.0
 11
275.6
 21
140.552063
 31
0.0
  0
LINE
  5
3F2
100
AcDbEntity
  8
LAY-6
  6
CONTINUOUS
 62
     1
100
AcDbLine
 10
275.6
 20
142.552063
 30
0.0
 11
275.1
 21
145.552063
 31
0.0
  0
LINE
  5
3F3
100
AcDbEntity
  8
LAY-6
  6
CONTINUOUS
 62
     1
100
AcDbLine
 10
275.1
 20
145.552063
 30
0.0
 11
274.6
 21
142.552063
 31
0.0
  0
TEXT
  5
3F4
100
AcDbEntity
  8
LAY-6
  6
CONTINUOUS
 62
     2
100
AcDbText
 10
286.4
 20
133.852033
 30
0.0
 40
5.0
  1
１５
 50
90.0
 41
0.672
  7
EXCADSTD
 72
     5
 11
286.4
 21
141.184833
 31
0.0
100
AcDbText
  0
LINE
  5
3F5
100
AcDbEntity
  8
LAY-6
  6
CONTINUOUS
 62
     1
100
AcDbLine
 10
178.22136
 20
145.552063
 30
0.0
 11
313.6
 21
145.552063
 31
0.0
  0
LINE
  5
3F6
100
AcDbEntity
  8
LAY-6
  6
CONTINUOUS
 62
     1
100
AcDbLine
 10
287.1
 20
130.552002
 30
0.0
 11
287.1
 21
145.552063
 31
0.0
  0
LINE
  5
3F7
100
AcDbEntity
  8
LAY-6
  6
CONTINUOUS
 62
     1
100
AcDbLine
 10
287.6
 20
142.552063
 30
0.0
 11
287.1
 21
145.552063
 31
0.0
  0
LINE
  5
3F8
100
AcDbEntity
  8
LAY-6
  6
CONTINUOUS
 62
     1
100
AcDbLine
 10
287.1
 20
145.552063
 30
0.0
 11
286.6
 21
142.552063
 31
0.0
  0
LINE
  5
3F9
100
AcDbEntity
  8
LAY-6
  6
CONTINUOUS
 62
     1
100
AcDbLine
 10
254.721344
 20
109.552063
 30
0.0
 11
268.5
 21
109.552063
 31
0.0
  0
TEXT
  5
3FA
100
AcDbEntity
  8
LAY-6
  6
CONTINUOUS
 62
     2
100
AcDbText
 10
266.5
 20
113.552063
 30
0.0
 40
5.0
  1
１６
 50
90.0
 41
0.672
  7
EXCADSTD
 72
     5
 11
266.5
 21
120.884863
 31
0.0
100
AcDbText
  0
LINE
  5
3FB
100
AcDbEntity
  8
LAY-6
  6
CONTINUOUS
 62
     1
100
AcDbLine
 10
267.0
 20
109.552063
 30
0.0
 11
267.0
 21
125.552063
 31
0.0
  0
LINE
  5
3FC
100
AcDbEntity
  8
LAY-6
  6
CONTINUOUS
 62
     1
100
AcDbLine
 10
266.5
 20
112.552063
 30
0.0
 11
267.0
 21
109.552063
 31
0.0
  0
LINE
  5
3FD
100
AcDbEntity
  8
LAY-6
  6
CONTINUOUS
 62
     1
100
AcDbLine
 10
267.0
 20
109.552063
 30
0.0
 11
267.5
 21
112.552063
 31
0.0
  0
LINE
  5
3FE
100
AcDbEntity
  8
LAY-6
  6
CONTINUOUS
 62
     1
100
AcDbLine
 10
267.5
 20
122.552063
 30
0.0
 11
267.0
 21
125.552063
 31
0.0
  0
LINE
  5
3FF
100
AcDbEntity
  8
LAY-6
  6
CONTINUOUS
 62
     1
100
AcDbLine
 10
267.0
 20
125.552063
 30
0.0
 11
266.5
 21
122.552063
 31
0.0
  0
LINE
  5
400
100
AcDbEntity
  8
LAY-6
  6
CONTINUOUS
 62
     1
100
AcDbLine
 10
408.4
 20
125.552063
 30
0.0
 11
254.721344
 21
125.552063
 31
0.0
  0
LINE
  5
401
100
AcDbEntity
  8
LAY-6
  6
CONTINUOUS
 62
     1
100
AcDbLine
 10
267.0
 20
120.552063
 30
0.0
 11
267.0
 21
132.052063
 31
0.0
  0
LINE
  5
402
100
AcDbEntity
  8
LAY-6
  6
CONTINUOUS
 62
     1
100
AcDbLine
 10
267.5
 20
122.552063
 30
0.0
 11
267.0
 21
125.552063
 31
0.0
  0
LINE
  5
403
100
AcDbEntity
  8
LAY-6
  6
CONTINUOUS
 62
     1
100
AcDbLine
 10
267.0
 20
125.552063
 30
0.0
 11
266.5
 21
122.552063
 31
0.0
  0
LINE
  5
404
100
AcDbEntity
  8
LAY-6
  6
CONTINUOUS
 62
     1
100
AcDbLine
 10
266.5
 20
130.052063
 30
0.0
 11
267.0
 21
127.052063
 31
0.0
  0
LINE
  5
405
100
AcDbEntity
  8
LAY-6
  6
CONTINUOUS
 62
     1
100
AcDbLine
 10
267.0
 20
127.052063
 30
0.0
 11
267.5
 21
130.052063
 31
0.0
  0
TEXT
  5
406
100
AcDbEntity
  8
LAY-6
  6
CONTINUOUS
 62
     2
100
AcDbText
 10
266.3
 20
131.002063
 30
0.0
 40
5.0
  1
１.５
 50
90.0
 41
0.595556
  7
EXCADSTD
 72
     5
 11
266.3
 21
141.002063
 31
0.0
100
AcDbText
  0
LINE
  5
407
100
AcDbEntity
  8
LAY-6
  6
CONTINUOUS
 62
     1
100
AcDbLine
 10
677.478339
 20
495.009753
 30
0.0
 11
677.478339
 21
508.3
 31
0.0
  0
LINE
  5
408
100
AcDbEntity
  8
LAY-6
  6
CONTINUOUS
 62
     1
100
AcDbLine
 10
645.478339
 20
495.009753
 30
0.0
 11
645.478339
 21
508.3
 31
0.0
  0
TEXT
  5
409
100
AcDbEntity
  8
LAY-6
  6
CONTINUOUS
 62
     2
100
AcDbText
 10
657.478339
 20
507.3
 30
0.0
 40
5.0
  1
３２
 41
0.672
  7
EXCADSTD
 72
     5
 11
664.811139
 21
507.3
 31
0.0
100
AcDbText
  0
LINE
  5
40A
100
AcDbEntity
  8
LAY-6
  6
CONTINUOUS
 62
     1
100
AcDbLine
 10
677.478339
 20
506.8
 30
0.0
 11
645.478339
 21
506.8
 31
0.0
  0
LINE
  5
40B
100
AcDbEntity
  8
LAY-6
  6
CONTINUOUS
 62
     1
100
AcDbLine
 10
674.478339
 20
506.3
 30
0.0
 11
677.478339
 21
506.8
 31
0.0
  0
LINE
  5
40C
100
AcDbEntity
  8
LAY-6
  6
CONTINUOUS
 62
     1
100
AcDbLine
 10
677.478339
 20
506.8
 30
0.0
 11
674.478339
 21
507.3
 31
0.0
  0
LINE
  5
40D
100
AcDbEntity
  8
LAY-6
  6
CONTINUOUS
 62
     1
100
AcDbLine
 10
648.478339
 20
507.3
 30
0.0
 11
645.478339
 21
506.8
 31
0.0
  0
LINE
  5
40E
100
AcDbEntity
  8
LAY-6
  6
CONTINUOUS
 62
     1
100
AcDbLine
 10
645.478339
 20
506.8
 30
0.0
 11
648.478339
 21
506.3
 31
0.0
  0
TEXT
  5
40F
100
AcDbEntity
  8
LAY-6
  6
CONTINUOUS
 62
     2
100
AcDbText
 10
696.4
 20
471.509836
 30
0.0
 40
5.0
  1
２１
 50
90.0
 41
0.672
  7
EXCADSTD
 72
     5
 11
696.4
 21
478.842636
 31
0.0
100
AcDbText
  0
LINE
  5
410
100
AcDbEntity
  8
LAY-6
  6
CONTINUOUS
 62
     1
100
AcDbLine
 10
666.55
 20
465.00986
 30
0.0
 11
698.4
 21
465.00986
 31
0.0
  0
LINE
  5
411
100
AcDbEntity
  8
LAY-6
  6
CONTINUOUS
 62
     1
100
AcDbLine
 10
696.9
 20
465.00986
 30
0.0
 11
696.9
 21
486.009811
 31
0.0
  0
LINE
  5
412
100
AcDbEntity
  8
LAY-6
  6
CONTINUOUS
 62
     1
100
AcDbLine
 10
696.4
 20
468.00986
 30
0.0
 11
696.9
 21
465.00986
 31
0.0
  0
LINE
  5
413
100
AcDbEntity
  8
LAY-6
  6
CONTINUOUS
 62
     1
100
AcDbLine
 10
696.9
 20
465.00986
 30
0.0
 11
697.4
 21
468.00986
 31
0.0
  0
LINE
  5
414
100
AcDbEntity
  8
LAY-6
  6
CONTINUOUS
 62
     1
100
AcDbLine
 10
697.4
 20
483.009811
 30
0.0
 11
696.9
 21
486.009811
 31
0.0
  0
LINE
  5
415
100
AcDbEntity
  8
LAY-6
  6
CONTINUOUS
 62
     1
100
AcDbLine
 10
696.9
 20
486.009811
 30
0.0
 11
696.4
 21
483.009811
 31
0.0
  0
LINE
  5
416
100
AcDbEntity
  8
LAY-6
  6
CONTINUOUS
 62
     1
100
AcDbLine
 10
679.978339
 20
489.009814
 30
0.0
 11
698.4
 21
489.009814
 31
0.0
  0
TEXT
  5
417
100
AcDbEntity
  8
LAY-6
  6
CONTINUOUS
 62
     2
100
AcDbText
 10
696.4
 20
504.009851
 30
0.0
 40
5.0
  1
３８
 50
90.0
 41
0.672
  7
EXCADSTD
 72
     5
 11
696.4
 21
511.342651
 31
0.0
100
AcDbText
  0
LINE
  5
418
100
AcDbEntity
  8
LAY-6
  6
CONTINUOUS
 62
     1
100
AcDbLine
 10
670.978351
 20
527.009888
 30
0.0
 11
698.4
 21
527.009888
 31
0.0
  0
LINE
  5
419
100
AcDbEntity
  8
LAY-6
  6
CONTINUOUS
 62
     1
100
AcDbLine
 10
696.9
 20
489.009814
 30
0.0
 11
696.9
 21
527.009888
 31
0.0
  0
LINE
  5
41A
100
AcDbEntity
  8
LAY-6
  6
CONTINUOUS
 62
     1
100
AcDbLine
 10
696.4
 20
492.009814
 30
0.0
 11
696.9
 21
489.009814
 31
0.0
  0
LINE
  5
41B
100
AcDbEntity
  8
LAY-6
  6
CONTINUOUS
 62
     1
100
AcDbLine
 10
696.9
 20
489.009814
 30
0.0
 11
697.4
 21
492.009814
 31
0.0
  0
LINE
  5
41C
100
AcDbEntity
  8
LAY-6
  6
CONTINUOUS
 62
     1
100
AcDbLine
 10
697.4
 20
524.009888
 30
0.0
 11
696.9
 21
527.009888
 31
0.0
  0
LINE
  5
41D
100
AcDbEntity
  8
LAY-6
  6
CONTINUOUS
 62
     1
100
AcDbLine
 10
696.9
 20
527.009888
 30
0.0
 11
696.4
 21
524.009888
 31
0.0
  0
LINE
  5
41E
100
AcDbEntity
  8
LAY-6
  6
CONTINUOUS
 62
     1
100
AcDbLine
 10
641.478461
 20
411.6
 30
0.0
 11
641.478461
 21
427.1
 31
0.0
  0
LINE
  5
41F
100
AcDbEntity
  8
LAY-6
  6
CONTINUOUS
 62
     1
100
AcDbLine
 10
681.478461
 20
411.6
 30
0.0
 11
681.478461
 21
427.1
 31
0.0
  0
TEXT
  5
420
100
AcDbEntity
  8
LAY-6
  6
CONTINUOUS
 62
     2
100
AcDbText
 10
654.178461
 20
391.0
 30
0.0
 40
5.0
  1
４０以上
 41
0.672
  7
EXCADSTD
 72
     5
 11
670.178461
 21
391.0
 31
0.0
100
AcDbText
  0
LINE
  5
421
100
AcDbEntity
  8
LAY-6
  6
CONTINUOUS
 62
     1
100
AcDbLine
 10
641.478461
 20
390.6
 30
0.0
 11
681.478461
 21
390.6
 31
0.0
  0
LINE
  5
422
100
AcDbEntity
  8
LAY-6
  6
CONTINUOUS
 62
     1
100
AcDbLine
 10
644.478461
 20
391.1
 30
0.0
 11
641.478461
 21
390.6
 31
0.0
  0
LINE
  5
423
100
AcDbEntity
  8
LAY-6
  6
CONTINUOUS
 62
     1
100
AcDbLine
 10
641.478461
 20
390.6
 30
0.0
 11
644.478461
 21
390.1
 31
0.0
  0
LINE
  5
424
100
AcDbEntity
  8
LAY-6
  6
CONTINUOUS
 62
     1
100
AcDbLine
 10
678.478461
 20
390.1
 30
0.0
 11
681.478461
 21
390.6
 31
0.0
  0
LINE
  5
425
100
AcDbEntity
  8
LAY-6
  6
CONTINUOUS
 62
     1
100
AcDbLine
 10
681.478461
 20
390.6
 30
0.0
 11
678.478461
 21
391.1
 31
0.0
  0
LINE
  5
426
100
AcDbEntity
  8
LAY-6
  6
CONTINUOUS
 62
     1
100
AcDbLine
 10
673.4784
 20
345.552063
 30
0.0
 11
673.4784
 21
370.0
 31
0.0
  0
LINE
  5
427
100
AcDbEntity
  8
LAY-6
  6
CONTINUOUS
 62
     1
100
AcDbLine
 10
649.4784
 20
345.552063
 30
0.0
 11
649.4784
 21
370.0
 31
0.0
  0
LINE
  5
428
100
AcDbEntity
  8
LAY-6
  6
CONTINUOUS
 62
     1
100
AcDbLine
 10
673.4784
 20
368.5
 30
0.0
 11
649.4784
 21
368.5
 31
0.0
  0
LINE
  5
429
100
AcDbEntity
  8
LAY-6
  6
CONTINUOUS
 62
     1
100
AcDbLine
 10
670.4784
 20
368.0
 30
0.0
 11
673.4784
 21
368.5
 31
0.0
  0
LINE
  5
42A
100
AcDbEntity
  8
LAY-6
  6
CONTINUOUS
 62
     1
100
AcDbLine
 10
673.4784
 20
368.5
 30
0.0
 11
670.4784
 21
369.0
 31
0.0
  0
LINE
  5
42B
100
AcDbEntity
  8
LAY-6
  6
CONTINUOUS
 62
     1
100
AcDbLine
 10
652.4784
 20
369.0
 30
0.0
 11
649.4784
 21
368.5
 31
0.0
  0
LINE
  5
42C
100
AcDbEntity
  8
LAY-6
  6
CONTINUOUS
 62
     1
100
AcDbLine
 10
649.4784
 20
368.5
 30
0.0
 11
652.4784
 21
368.0
 31
0.0
  0
TEXT
  5
42D
100
AcDbEntity
  8
LAY-6
  6
CONTINUOUS
 62
     2
100
AcDbText
 10
657.4784
 20
369.0
 30
0.0
 40
5.0
  1
２４
 41
0.672
  7
EXCADSTD
 72
     5
 11
664.8112
 21
369.0
 31
0.0
100
AcDbText
  0
LINE
  5
42E
100
AcDbEntity
  8
LAY-6
  6
CONTINUOUS
 62
     1
100
AcDbLine
 10
671.478401
 20
347.552063
 30
0.0
 11
696.9
 21
347.552063
 31
0.0
  0
LINE
  5
42F
100
AcDbEntity
  8
LAY-6
  6
CONTINUOUS
 62
     1
100
AcDbLine
 10
695.4
 20
332.552063
 30
0.0
 11
695.4
 21
347.552063
 31
0.0
  0
LINE
  5
430
100
AcDbEntity
  8
LAY-6
  6
CONTINUOUS
 62
     1
100
AcDbLine
 10
694.9
 20
335.552063
 30
0.0
 11
695.4
 21
332.552063
 31
0.0
  0
LINE
  5
431
100
AcDbEntity
  8
LAY-6
  6
CONTINUOUS
 62
     1
100
AcDbLine
 10
695.4
 20
332.552063
 30
0.0
 11
695.9
 21
335.552063
 31
0.0
  0
LINE
  5
432
100
AcDbEntity
  8
LAY-6
  6
CONTINUOUS
 62
     1
100
AcDbLine
 10
695.9
 20
344.552063
 30
0.0
 11
695.4
 21
347.552063
 31
0.0
  0
LINE
  5
433
100
AcDbEntity
  8
LAY-6
  6
CONTINUOUS
 62
     1
100
AcDbLine
 10
695.4
 20
347.552063
 30
0.0
 11
694.9
 21
344.552063
 31
0.0
  0
TEXT
  5
434
100
AcDbEntity
  8
LAY-6
  6
CONTINUOUS
 62
     2
100
AcDbText
 10
694.9
 20
336.052063
 30
0.0
 40
5.0
  1
１５
 50
90.0
 41
0.672
  7
EXCADSTD
 72
     5
 11
694.9
 21
343.384863
 31
0.0
100
AcDbText
  0
POLYLINE
  5
435
100
AcDbEntity
  8
LAY-6
  6
CONTINUOUS
 62
     1
100
AcDb2dPolyline
 66
     1
 10
0.0
 20
0.0
 30
0.0
 70
   128
  0
VERTEX
  5
436
100
AcDbEntity
  8
LAY-6
  6
CONTINUOUS
 62
     1
100
AcDbVertex
100
AcDb2dVertex
 10
316.721314
 20
435.809826
 30
0.0
  0
VERTEX
  5
437
100
AcDbEntity
  8
LAY-6
  6
CONTINUOUS
 62
     1
100
AcDbVertex
100
AcDb2dVertex
 10
356.6
 20
466.3
 30
0.0
  0
VERTEX
  5
438
100
AcDbEntity
  8
LAY-6
  6
CONTINUOUS
 62
     1
100
AcDbVertex
100
AcDb2dVertex
 10
404.4
 20
466.3
 30
0.0
  0
SEQEND
  5
439
100
AcDbEntity
  8
LAY-6
  6
CONTINUOUS
 62
     1
  0
LINE
  5
43A
100
AcDbEntity
  8
LAY-6
  6
CONTINUOUS
 62
     1
100
AcDbLine
 10
318.800848
 20
438.029181
 30
0.0
 11
316.721314
 21
435.809826
 31
0.0
  0
LINE
  5
43B
100
AcDbEntity
  8
LAY-6
  6
CONTINUOUS
 62
     1
100
AcDbLine
 10
316.721314
 20
435.809826
 30
0.0
 11
319.408232
 21
437.234772
 31
0.0
  0
TEXT
  5
43C
100
AcDbEntity
  8
LAY-6
  6
CONTINUOUS
 62
     2
100
AcDbText
 10
360.4
 20
466.3
 30
0.0
 40
5.0
  1
４－Ｍ６×１６皿小ネジ
 41
0.672
  7
EXCADSTD
 72
     5
 11
404.4
 21
466.3
 31
0.0
100
AcDbText
  0
POLYLINE
  5
43D
100
AcDbEntity
  8
LAY-6
  6
CONTINUOUS
 62
     1
100
AcDb2dPolyline
 66
     1
 10
0.0
 20
0.0
 30
0.0
 70
   128
  0
VERTEX
  5
43E
100
AcDbEntity
  8
LAY-6
  6
CONTINUOUS
 62
     1
100
AcDbVertex
100
AcDb2dVertex
 10
316.721344
 20
400.809814
 30
0.0
  0
VERTEX
  5
43F
100
AcDbEntity
  8
LAY-6
  6
CONTINUOUS
 62
     1
100
AcDbVertex
100
AcDb2dVertex
 10
356.6
 20
384.1
 30
0.0
  0
VERTEX
  5
440
100
AcDbEntity
  8
LAY-6
  6
CONTINUOUS
 62
     1
100
AcDbVertex
100
AcDb2dVertex
 10
404.6
 20
384.1
 30
0.0
  0
SEQEND
  5
441
100
AcDbEntity
  8
LAY-6
  6
CONTINUOUS
 62
     1
  0
LINE
  5
442
100
AcDbEntity
  8
LAY-6
  6
CONTINUOUS
 62
     1
100
AcDbLine
 10
319.681492
 20
400.111583
 30
0.0
 11
316.721344
 21
400.809814
 31
0.0
  0
LINE
  5
443
100
AcDbEntity
  8
LAY-6
  6
CONTINUOUS
 62
     1
100
AcDbLine
 10
316.721344
 20
400.809814
 30
0.0
 11
319.29503
 21
399.189277
 31
0.0
  0
TEXT
  5
444
100
AcDbEntity
  8
LAY-6
  6
CONTINUOUS
 62
     2
100
AcDbText
 10
360.6
 20
384.1
 30
0.0
 40
5.0
  1
３－Ｍ６×１６皿小ネジ
 41
0.672
  7
EXCADSTD
 72
     5
 11
404.6
 21
384.1
 31
0.0
100
AcDbText
  0
POLYLINE
  5
445
100
AcDbEntity
  8
LAY-6
  6
CONTINUOUS
 62
     1
100
AcDb2dPolyline
 66
     1
 10
0.0
 20
0.0
 30
0.0
 70
   128
  0
VERTEX
  5
446
100
AcDbEntity
  8
LAY-6
  6
CONTINUOUS
 62
     1
100
AcDbVertex
100
AcDb2dVertex
 10
234.521344
 20
157.452063
 30
0.0
  0
VERTEX
  5
447
100
AcDbEntity
  8
LAY-6
  6
CONTINUOUS
 62
     1
100
AcDbVertex
100
AcDb2dVertex
 10
245.5
 20
173.0
 30
0.0
  0
VERTEX
  5
448
100
AcDbEntity
  8
LAY-6
  6
CONTINUOUS
 62
     1
100
AcDbVertex
100
AcDb2dVertex
 10
293.1
 20
173.0
 30
0.0
  0
SEQEND
  5
449
100
AcDbEntity
  8
LAY-6
  6
CONTINUOUS
 62
     1
  0
LINE
  5
44A
100
AcDbEntity
  8
LAY-6
  6
CONTINUOUS
 62
     1
100
AcDbLine
 10
235.843338
 20
160.191102
 30
0.0
 11
234.521344
 21
157.452063
 31
0.0
  0
LINE
  5
44B
100
AcDbEntity
  8
LAY-6
  6
CONTINUOUS
 62
     1
100
AcDbLine
 10
234.521344
 20
157.452063
 30
0.0
 11
236.660216
 21
159.614291
 31
0.0
  0
TEXT
  5
44C
100
AcDbEntity
  8
LAY-6
  6
CONTINUOUS
 62
     2
100
AcDbText
 10
249.1
 20
173.0
 30
0.0
 40
5.0
  1
４－Ｍ６×２０皿小ネジ
 41
0.672
  7
EXCADSTD
 72
     5
 11
293.1
 21
173.0
 31
0.0
100
AcDbText
  0
POLYLINE
  5
44D
100
AcDbEntity
  8
LAY-6
  6
CONTINUOUS
 62
     1
100
AcDb2dPolyline
 66
     1
 10
0.0
 20
0.0
 30
0.0
 70
   128
  0
VERTEX
  5
44E
100
AcDbEntity
  8
LAY-6
  6
CONTINUOUS
 62
     1
100
AcDbVertex
100
AcDb2dVertex
 10
717.5
 20
172.452078
 30
0.0
  0
VERTEX
  5
44F
100
AcDbEntity
  8
LAY-6
  6
CONTINUOUS
 62
     1
100
AcDbVertex
100
AcDb2dVertex
 10
729.3
 20
192.7
 30
0.0
  0
VERTEX
  5
450
100
AcDbEntity
  8
LAY-6
  6
CONTINUOUS
 62
     1
100
AcDbVertex
100
AcDb2dVertex
 10
781.5
 20
192.7
 30
0.0
  0
SEQEND
  5
451
100
AcDbEntity
  8
LAY-6
  6
CONTINUOUS
 62
     1
  0
LINE
  5
452
100
AcDbEntity
  8
LAY-6
  6
CONTINUOUS
 62
     1
100
AcDbLine
 10
718.578541
 20
175.295799
 30
0.0
 11
717.5
 21
172.452078
 31
0.0
  0
LINE
  5
453
100
AcDbEntity
  8
LAY-6
  6
CONTINUOUS
 62
     1
100
AcDbLine
 10
717.5
 20
172.452078
 30
0.0
 11
719.442529
 21
174.792288
 31
0.0
  0
TEXT
  5
454
100
AcDbEntity
  8
LAY-6
  6
CONTINUOUS
 62
     2
100
AcDbText
 10
729.5
 20
192.7
 30
0.0
 40
5.0
  1
フロアプレート　　１．５ｔ
 41
0.672
  7
EXCADSTD
 72
     5
 11
781.5
 21
192.7
 31
0.0
100
AcDbText
  0
CIRCLE
  5
455
100
AcDbEntity
  8
LAY-6
  6
CONTINUOUS
 62
     1
100
AcDbCircle
 10
629.4
 20
532.1
 30
0.0
 40
4.0
  0
TEXT
  5
456
100
AcDbEntity
  8
LAY-6
  6
CONTINUOUS
 62
     2
100
AcDbText
 10
626.571573
 20
529.271573
 30
0.0
 40
5.656854
  1
１
 41
0.84
  7
EXCADSTD
 72
     5
 11
631.097056
 21
529.271573
 31
0.0
100
AcDbText
  0
POLYLINE
  5
457
100
AcDbEntity
  8
LAY-6
  6
CONTINUOUS
 62
     1
100
AcDb2dPolyline
 66
     1
 10
0.0
 20
0.0
 30
0.0
 70
   128
  0
VERTEX
  5
458
100
AcDbEntity
  8
LAY-6
  6
CONTINUOUS
 62
     1
100
AcDbVertex
100
AcDb2dVertex
 10
651.978387
 20
521.3
 30
0.0
  0
VERTEX
  5
459
100
AcDbEntity
  8
LAY-6
  6
CONTINUOUS
 62
     1
100
AcDbVertex
100
AcDb2dVertex
 10
633.009919
 20
530.37707
 30
0.0
  0
SEQEND
  5
45A
100
AcDbEntity
  8
LAY-6
  6
CONTINUOUS
 62
     1
  0
LINE
  5
45B
100
AcDbEntity
  8
LAY-6
  6
CONTINUOUS
 62
     1
100
AcDbLine
 10
649.056445
 20
522.14395
 30
0.0
 11
651.978387
 21
521.3
 31
0.0
  0
LINE
  5
45C
100
AcDbEntity
  8
LAY-6
  6
CONTINUOUS
 62
     1
100
AcDbLine
 10
651.978387
 20
521.3
 30
0.0
 11
649.488101
 21
523.045989
 31
0.0
  0
CIRCLE
  5
45D
100
AcDbEntity
  8
LAY-6
  6
CONTINUOUS
 62
     1
100
AcDbCircle
 10
629.764468
 20
469.020639
 30
0.0
 40
4.0
  0
TEXT
  5
45E
100
AcDbEntity
  8
LAY-6
  6
CONTINUOUS
 62
     2
100
AcDbText
 10
626.936041
 20
466.192211
 30
0.0
 40
5.656854
  1
２
 41
0.84
  7
EXCADSTD
 72
     5
 11
631.461524
 21
466.192211
 31
0.0
100
AcDbText
  0
POLYLINE
  5
45F
100
AcDbEntity
  8
LAY-6
  6
CONTINUOUS
 62
     1
100
AcDb2dPolyline
 66
     1
 10
0.0
 20
0.0
 30
0.0
 70
   128
  0
VERTEX
  5
460
100
AcDbEntity
  8
LAY-6
  6
CONTINUOUS
 62
     1
100
AcDbVertex
100
AcDb2dVertex
 10
652.728461
 20
474.3
 30
0.0
  0
VERTEX
  5
461
100
AcDbEntity
  8
LAY-6
  6
CONTINUOUS
 62
     1
100
AcDbVertex
100
AcDb2dVertex
 10
633.664874
 20
469.907675
 30
0.0
  0
SEQEND
  5
462
100
AcDbEntity
  8
LAY-6
  6
CONTINUOUS
 62
     1
  0
LINE
  5
463
100
AcDbEntity
  8
LAY-6
  6
CONTINUOUS
 62
     1
100
AcDbLine
 10
649.917314
 20
473.139201
 30
0.0
 11
652.728461
 21
474.3
 31
0.0
  0
LINE
  5
464
100
AcDbEntity
  8
LAY-6
  6
CONTINUOUS
 62
     1
100
AcDbLine
 10
652.728461
 20
474.3
 30
0.0
 11
649.692793
 21
474.11367
 31
0.0
  0
CIRCLE
  5
465
100
AcDbEntity
  8
LAY-6
  6
CONTINUOUS
 62
     1
100
AcDbCircle
 10
625.3
 20
356.2
 30
0.0
 40
4.0
  0
POLYLINE
  5
466
100
AcDbEntity
  8
LAY-6
  6
CONTINUOUS
 62
     1
100
AcDb2dPolyline
 66
     1
 10
0.0
 20
0.0
 30
0.0
 70
   128
  0
VERTEX
  5
467
100
AcDbEntity
  8
LAY-6
  6
CONTINUOUS
 62
     1
100
AcDbVertex
100
AcDb2dVertex
 10
649.4784
 20
343.7
 30
0.0
  0
VERTEX
  5
468
100
AcDbEntity
  8
LAY-6
  6
CONTINUOUS
 62
     1
100
AcDbVertex
100
AcDb2dVertex
 10
628.744739
 20
354.166832
 30
0.0
  0
SEQEND
  5
469
100
AcDbEntity
  8
LAY-6
  6
CONTINUOUS
 62
     1
  0
LINE
  5
46A
100
AcDbEntity
  8
LAY-6
  6
CONTINUOUS
 62
     1
100
AcDbLine
 10
646.574978
 20
344.605615
 30
0.0
 11
649.4784
 21
343.7
 31
0.0
  0
LINE
  5
46B
100
AcDbEntity
  8
LAY-6
  6
CONTINUOUS
 62
     1
100
AcDbLine
 10
649.4784
 20
343.7
 30
0.0
 11
647.025632
 21
345.498314
 31
0.0
  0
TEXT
  5
46C
100
AcDbEntity
  8
LAY-6
  6
CONTINUOUS
 62
     2
100
AcDbText
 10
622.471573
 20
353.371573
 30
0.0
 40
5.656854
  1
３
 41
0.84
  7
EXCADSTD
 72
     5
 11
626.997056
 21
353.371573
 31
0.0
100
AcDbText
  0
CIRCLE
  5
46D
100
AcDbEntity
  8
LAY-6
  6
CONTINUOUS
 62
     1
100
AcDbCircle
 10
611.589228
 20
337.986613
 30
0.0
 40
4.0
  0
TEXT
  5
46E
100
AcDbEntity
  8
LAY-6
  6
CONTINUOUS
 62
     2
100
AcDbText
 10
608.760801
 20
335.158186
 30
0.0
 40
5.656854
  1
４
 41
0.84
  7
EXCADSTD
 72
     5
 11
613.286284
 21
335.158186
 31
0.0
100
AcDbText
  0
POLYLINE
  5
46F
100
AcDbEntity
  8
LAY-6
  6
CONTINUOUS
 62
     1
100
AcDb2dPolyline
 66
     1
 10
0.0
 20
0.0
 30
0.0
 70
   128
  0
VERTEX
  5
470
100
AcDbEntity
  8
LAY-6
  6
CONTINUOUS
 62
     1
100
AcDbVertex
100
AcDb2dVertex
 10
643.478461
 20
319.6
 30
0.0
  0
VERTEX
  5
471
100
AcDbEntity
  8
LAY-6
  6
CONTINUOUS
 62
     1
100
AcDbVertex
100
AcDb2dVertex
 10
615.043119
 20
335.969032
 30
0.0
  0
SEQEND
  5
472
100
AcDbEntity
  8
LAY-6
  6
CONTINUOUS
 62
     1
  0
LINE
  5
473
100
AcDbEntity
  8
LAY-6
  6
CONTINUOUS
 62
     1
100
AcDbLine
 10
640.629032
 20
320.663369
 30
0.0
 11
643.478461
 21
319.6
 31
0.0
  0
LINE
  5
474
100
AcDbEntity
  8
LAY-6
  6
CONTINUOUS
 62
     1
100
AcDbLine
 10
643.478461
 20
319.6
 30
0.0
 11
641.127932
 21
321.530029
 31
0.0
  0
TEXT
  5
475
100
AcDbEntity
  8
LAY-6
  6
CONTINUOUS
 62
     2
100
AcDbText
 10
654.278461
 20
419.6
 30
0.0
 40
6.0
  1
ド　ア
 41
0.672
  7
EXCADSTD
 72
     5
 11
668.678461
 21
419.6
 31
0.0
100
AcDbText
  0
TEXT
  5
476
100
AcDbEntity
  8
LAY-6
  6
CONTINUOUS
 62
     2
100
AcDbText
 10
368.9
 20
424.3
 30
0.0
 40
6.0
  1
上　枠
 41
0.672
  7
EXCADSTD
 72
     5
 11
383.300001
 21
424.3
 31
0.0
100
AcDbText
  0
TEXT
  5
477
100
AcDbEntity
  8
LAY-6
  6
CONTINUOUS
 62
     2
100
AcDbText
 10
369.4
 20
404.8
 30
0.0
 40
6.0
  1
ド　ア
 41
0.672
  7
EXCADSTD
 72
     5
 11
383.800001
 21
404.8
 31
0.0
100
AcDbText
  0
TEXT
  5
478
100
AcDbEntity
  8
LAY-6
  6
CONTINUOUS
 62
     2
100
AcDbText
 10
384.3
 20
323.3
 30
0.0
 40
6.0
  1
ド　ア
 41
0.672
  7
EXCADSTD
 72
     5
 11
398.700001
 21
323.3
 31
0.0
100
AcDbText
  0
TEXT
  5
479
100
AcDbEntity
  8
LAY-6
  6
CONTINUOUS
 62
     2
100
AcDbText
 10
381.6
 20
240.4
 30
0.0
 40
6.0
  1
ド　ア
 41
0.672
  7
EXCADSTD
 72
     5
 11
396.000001
 21
240.4
 31
0.0
100
AcDbText
  0
TEXT
  5
47A
100
AcDbEntity
  8
LAY-6
  6
CONTINUOUS
 62
     2
100
AcDbText
 10
380.7
 20
134.1
 30
0.0
 40
6.0
  1
ド　ア
 41
0.672
  7
EXCADSTD
 72
     5
 11
395.100001
 21
134.1
 31
0.0
100
AcDbText
  0
TEXT
  5
47B
100
AcDbEntity
  8
LAY-6
  6
CONTINUOUS
 62
     2
100
AcDbText
 10
121.7
 20
167.0
 30
0.0
 40
6.0
  1
竪　枠
 41
0.8
  7
EXCADVERT
 72
     3
 11
121.7
 21
149.0
 31
0.0
100
AcDbText
  0
TEXT
  5
47C
100
AcDbEntity
  8
LAY-6
  6
CONTINUOUS
 62
     2
100
AcDbText
 10
120.7
 20
409.2
 30
0.0
 40
6.0
  1
竪　枠
 41
0.8
  7
EXCADVERT
 72
     3
 11
120.7
 21
391.2
 31
0.0
100
AcDbText
  0
INSERT
  5
47D
100
AcDbEntity
  8
LAY-6
  6
CONTINUOUS
 62
     0
100
AcDbBlockReference
  2
SYM-2
 10
80.0
 20
357.0
 30
0.0
  0
INSERT
  5
47E
100
AcDbEntity
  8
LAY-6
  6
CONTINUOUS
 62
     0
100
AcDbBlockReference
  2
SYM-3
 10
79.0
 20
272.0
 30
0.0
  0
INSERT
  5
47F
100
AcDbEntity
  8
LAY-6
  6
CONTINUOUS
 62
     0
100
AcDbBlockReference
  2
SYM-4
 10
599.0
 20
207.0
 30
0.0
  0
INSERT
  5
480
100
AcDbEntity
  8
LAY-6
  6
CONTINUOUS
 62
     0
100
AcDbBlockReference
  2
SYM-5
 10
81.0
 20
567.0
 30
0.0
  0
TEXT
  5
481
100
AcDbEntity
  8
LAY-6
  6
CONTINUOUS
 62
     2
100
AcDbText
 10
324.1
 20
567.7
 30
0.0
 40
5.0
  1
トッププレート　０.８ｔ
 41
0.654222
  7
EXCADSTD
 72
     5
 11
370.1
 21
567.7
 31
0.0
100
AcDbText
  0
POLYLINE
  5
482
100
AcDbEntity
  8
LAY-6
  6
CONTINUOUS
 62
     1
100
AcDb2dPolyline
 66
     1
 10
0.0
 20
0.0
 30
0.0
 70
   128
  0
VERTEX
  5
483
100
AcDbEntity
  8
LAY-6
  6
CONTINUOUS
 62
     1
100
AcDbVertex
100
AcDb2dVertex
 10
301.8
 20
546.727417
 30
0.0
  0
VERTEX
  5
484
100
AcDbEntity
  8
LAY-6
  6
CONTINUOUS
 62
     1
100
AcDbVertex
100
AcDb2dVertex
 10
322.7
 20
567.7
 30
0.0
  0
VERTEX
  5
485
100
AcDbEntity
  8
LAY-6
  6
CONTINUOUS
 62
     1
100
AcDbVertex
100
AcDb2dVertex
 10
370.6
 20
567.7
 30
0.0
  0
SEQEND
  5
486
100
AcDbEntity
  8
LAY-6
  6
CONTINUOUS
 62
     1
  0
LINE
  5
487
100
AcDbEntity
  8
LAY-6
  6
CONTINUOUS
 62
     1
100
AcDbLine
 10
303.563474
 20
549.205351
 30
0.0
 11
301.8
 21
546.727417
 31
0.0
  0
LINE
  5
488
100
AcDbEntity
  8
LAY-6
  6
CONTINUOUS
 62
     1
100
AcDbLine
 10
301.8
 20
546.727417
 30
0.0
 11
304.271806
 21
548.499471
 31
0.0
  0
LINE
  5
489
100
AcDbEntity
  8
LAY-6
  6
CONTINUOUS
 62
     1
100
AcDbLine
 10
598.8
 20
311.551885
 30
0.0
 11
598.8
 21
327.551885
 31
0.0
  0
LINE
  5
48A
100
AcDbEntity
  8
LAY-6
  6
CONTINUOUS
 62
     1
100
AcDbLine
 10
598.3
 20
314.551885
 30
0.0
 11
598.8
 21
311.551885
 31
0.0
  0
LINE
  5
48B
100
AcDbEntity
  8
LAY-6
  6
CONTINUOUS
 62
     1
100
AcDbLine
 10
598.8
 20
311.551885
 30
0.0
 11
599.3
 21
314.551885
 31
0.0
  0
LINE
  5
48C
100
AcDbEntity
  8
LAY-6
  6
CONTINUOUS
 62
     1
100
AcDbLine
 10
599.3
 20
324.551885
 30
0.0
 11
598.8
 21
327.551885
 31
0.0
  0
LINE
  5
48D
100
AcDbEntity
  8
LAY-6
  6
CONTINUOUS
 62
     1
100
AcDbLine
 10
598.8
 20
327.551885
 30
0.0
 11
598.3
 21
324.551885
 31
0.0
  0
TEXT
  5
48E
100
AcDbEntity
  8
LAY-6
  6
CONTINUOUS
 62
     2
100
AcDbText
 10
598.3
 20
315.551885
 30
0.0
 40
5.0
  1
１６
 50
90.0
 41
0.672
  7
EXCADSTD
 72
     5
 11
598.3
 21
322.884685
 31
0.0
100
AcDbText
  0
LINE
  5
48F
100
AcDbEntity
  8
LAY-6
  6
CONTINUOUS
 62
     1
100
AcDbLine
 10
636.9
 20
311.551885
 30
0.0
 11
597.3
 21
311.551885
 31
0.0
  0
LINE
  5
490
100
AcDbEntity
  8
LAY-6
  6
CONTINUOUS
 62
     1
100
AcDbLine
 10
641.478461
 20
329.051695
 30
0.0
 11
597.3
 21
329.051695
 31
0.0
  0
LINE
  5
491
100
AcDbEntity
  8
LAY-6
  6
CONTINUOUS
 62
     1
100
AcDbLine
 10
598.8
 20
322.551885
 30
0.0
 11
598.8
 21
334.051695
 31
0.0
  0
LINE
  5
492
100
AcDbEntity
  8
LAY-6
  6
CONTINUOUS
 62
     1
100
AcDbLine
 10
599.3
 20
324.551885
 30
0.0
 11
598.8
 21
327.551885
 31
0.0
  0
LINE
  5
493
100
AcDbEntity
  8
LAY-6
  6
CONTINUOUS
 62
     1
100
AcDbLine
 10
598.8
 20
327.551885
 30
0.0
 11
598.3
 21
324.551885
 31
0.0
  0
LINE
  5
494
100
AcDbEntity
  8
LAY-6
  6
CONTINUOUS
 62
     1
100
AcDbLine
 10
598.3
 20
332.051695
 30
0.0
 11
598.8
 21
329.051695
 31
0.0
  0
LINE
  5
495
100
AcDbEntity
  8
LAY-6
  6
CONTINUOUS
 62
     1
100
AcDbLine
 10
598.8
 20
329.051695
 30
0.0
 11
599.3
 21
332.051695
 31
0.0
  0
TEXT
  5
496
100
AcDbEntity
  8
LAY-6
  6
CONTINUOUS
 62
     2
100
AcDbText
 10
598.2
 20
332.50179
 30
0.0
 40
5.0
  1
１.５
 50
90.0
 41
0.595556
  7
EXCADSTD
 72
     5
 11
598.2
 21
342.50179
 31
0.0
100
AcDbText
  0
INSERT
  5
497
100
AcDbEntity
  8
LAY-6
  6
CONTINUOUS
 62
     0
100
AcDbBlockReference
  2
SYM-1
 10
597.2
 20
330.2
 30
0.0
 50
90.0
  0
LINE
  5
498
100
AcDbEntity
  8
LAY-6
  6
CONTINUOUS
 62
     1
100
AcDbLine
 10
598.8
 20
329.051695
 30
0.0
 11
598.8
 21
342.0
 31
0.0
  0
LINE
  5
499
100
AcDbEntity
  8
LAY-6
  6
CONTINUOUS
 62
     1
100
AcDbLine
 10
671.4784
 20
332.552063
 30
0.0
 11
696.9
 21
332.552063
 31
0.0
  0
LINE
  5
49A
100
AcDbEntity
  8
LAY-6
  6
CONTINUOUS
 62
     1
100
AcDbLine
 10
696.9
 20
332.552063
 30
0.0
 11
711.8
 21
332.552063
 31
0.0
  0
TEXT
  5
49B
100
AcDbEntity
  8
LAY-6
  6
CONTINUOUS
 62
     2
100
AcDbText
 10
709.8
 20
405.280937
 30
0.0
 40
5.0
  1
ＤＨ
 50
90.0
 41
0.672
  7
EXCADSTD
 72
     5
 11
709.8
 21
412.613737
 31
0.0
100
AcDbText
  0
LINE
  5
49C
100
AcDbEntity
  8
LAY-6
  6
CONTINUOUS
 62
     1
100
AcDbLine
 10
698.4
 20
486.009811
 30
0.0
 11
711.8
 21
486.009811
 31
0.0
  0
LINE
  5
49D
100
AcDbEntity
  8
LAY-6
  6
CONTINUOUS
 62
     1
100
AcDbLine
 10
710.3
 20
332.552063
 30
0.0
 11
710.3
 21
486.009811
 31
0.0
  0
LINE
  5
49E
100
AcDbEntity
  8
LAY-6
  6
CONTINUOUS
 62
     1
100
AcDbLine
 10
710.633333
 20
484.009811
 30
0.0
 11
710.3
 21
486.009811
 31
0.0
  0
LINE
  5
49F
100
AcDbEntity
  8
LAY-6
  6
CONTINUOUS
 62
     1
100
AcDbLine
 10
710.3
 20
486.009811
 30
0.0
 11
709.966667
 21
484.009811
 31
0.0
  0
LINE
  5
4A0
100
AcDbEntity
  8
LAY-6
  6
CONTINUOUS
 62
     1
100
AcDbLine
 10
710.3
 20
481.009811
 30
0.0
 11
710.3
 21
494.009814
 31
0.0
  0
LINE
  5
4A1
100
AcDbEntity
  8
LAY-6
  6
CONTINUOUS
 62
     1
100
AcDbLine
 10
710.8
 20
483.009811
 30
0.0
 11
710.3
 21
486.009811
 31
0.0
  0
LINE
  5
4A2
100
AcDbEntity
  8
LAY-6
  6
CONTINUOUS
 62
     1
100
AcDbLine
 10
710.3
 20
486.009811
 30
0.0
 11
709.8
 21
483.009811
 31
0.0
  0
LINE
  5
4A3
100
AcDbEntity
  8
LAY-6
  6
CONTINUOUS
 62
     1
100
AcDbLine
 10
709.8
 20
492.009814
 30
0.0
 11
710.3
 21
489.009814
 31
0.0
  0
LINE
  5
4A4
100
AcDbEntity
  8
LAY-6
  6
CONTINUOUS
 62
     1
100
AcDbLine
 10
710.3
 20
489.009814
 30
0.0
 11
710.8
 21
492.009814
 31
0.0
  0
TEXT
  5
4A5
100
AcDbEntity
  8
LAY-6
  6
CONTINUOUS
 62
     2
100
AcDbText
 10
709.8
 20
485.509813
 30
0.0
 40
5.0
  1
３
 50
90.0
 41
0.672
  7
EXCADSTD
 72
     5
 11
709.8
 21
488.709813
 31
0.0
100
AcDbText
  0
TEXT
  5
4A6
100
AcDbEntity
  8
LAY-6
  6
CONTINUOUS
 62
     2
100
AcDbText
 10
712.5
 20
510.1
 30
0.0
 40
6.0
  1
上　枠
 41
0.672
  7
EXCADSTD
 72
     5
 11
726.900001
 21
510.1
 31
0.0
100
AcDbText
  0
LINE
  5
4A7
100
AcDbEntity
  8
LAY-6
  6
CONTINUOUS
 62
     1
100
AcDbLine
 10
345.7
 20
256.052094
 30
0.0
 11
364.2
 21
256.052094
 31
0.0
  0
LINE
  5
4A8
100
AcDbEntity
  8
LAY-6
  6
CONTINUOUS
 62
     1
100
AcDbLine
 10
345.3
 20
232.052094
 30
0.0
 11
364.2
 21
232.052094
 31
0.0
  0
LINE
  5
4A9
100
AcDbEntity
  8
LAY-6
  6
CONTINUOUS
 62
     1
100
AcDbLine
 10
363.2
 20
256.052094
 30
0.0
 11
363.2
 21
232.052094
 31
0.0
  0
LINE
  5
4AA
100
AcDbEntity
  8
LAY-6
  6
CONTINUOUS
 62
     1
100
AcDbLine
 10
363.7
 20
253.052094
 30
0.0
 11
363.2
 21
256.052094
 31
0.0
  0
LINE
  5
4AB
100
AcDbEntity
  8
LAY-6
  6
CONTINUOUS
 62
     1
100
AcDbLine
 10
363.2
 20
256.052094
 30
0.0
 11
362.7
 21
253.052094
 31
0.0
  0
LINE
  5
4AC
100
AcDbEntity
  8
LAY-6
  6
CONTINUOUS
 62
     1
100
AcDbLine
 10
362.7
 20
235.052094
 30
0.0
 11
363.2
 21
232.052094
 31
0.0
  0
LINE
  5
4AD
100
AcDbEntity
  8
LAY-6
  6
CONTINUOUS
 62
     1
100
AcDbLine
 10
363.2
 20
232.052094
 30
0.0
 11
363.7
 21
235.052094
 31
0.0
  0
TEXT
  5
4AE
100
AcDbEntity
  8
LAY-6
  6
CONTINUOUS
 62
     2
100
AcDbText
 10
362.7
 20
240.052094
 30
0.0
 40
5.0
  1
２４
 50
90.0
 41
0.672
  7
EXCADSTD
 72
     5
 11
362.7
 21
247.384894
 31
0.0
100
AcDbText
  0
TEXT
  5
4AF
100
AcDbEntity
  8
LAY-6
  6
CONTINUOUS
 62
     2
100
AcDbText
 10
709.8
 20
328.052069
 30
0.0
 40
5.0
  1
５
 50
90.0
 41
0.672
  7
EXCADSTD
 72
     5
 11
709.8
 21
331.252069
 31
0.0
100
AcDbText
  0
LINE
  5
4B0
100
AcDbEntity
  8
LAY-6
  6
CONTINUOUS
 62
     1
100
AcDbLine
 10
708.8
 20
332.552063
 30
0.0
 11
711.3
 21
332.552063
 31
0.0
  0
LINE
  5
4B1
100
AcDbEntity
  8
LAY-6
  6
CONTINUOUS
 62
     1
100
AcDbLine
 10
709.9
 20
327.552074
 30
0.0
 11
711.3
 21
327.552074
 31
0.0
  0
LINE
  5
4B2
100
AcDbEntity
  8
LAY-6
  6
CONTINUOUS
 62
     1
100
AcDbLine
 10
710.3
 20
336.552063
 30
0.0
 11
710.3
 21
327.551885
 31
0.0
  0
CIRCLE
  5
4B3
100
AcDbEntity
  8
LAY-6
  6
CONTINUOUS
 62
     1
100
AcDbCircle
 10
710.3
 20
332.552063
 30
0.0
 40
1.0
  0
CIRCLE
  5
4B4
100
AcDbEntity
  8
LAY-6
  6
CONTINUOUS
 62
     1
100
AcDbCircle
 10
710.3
 20
332.552063
 30
0.0
 40
0.5
  0
CIRCLE
  5
4B5
100
AcDbEntity
  8
LAY-6
  6
CONTINUOUS
 62
     1
100
AcDbCircle
 10
710.3
 20
327.552074
 30
0.0
 40
1.0
  0
CIRCLE
  5
4B6
100
AcDbEntity
  8
LAY-6
  6
CONTINUOUS
 62
     1
100
AcDbCircle
 10
710.3
 20
327.552074
 30
0.0
 40
0.5
  0
INSERT
  5
4B7
100
AcDbEntity
  8
LAY-6
  6
CONTINUOUS
 62
     0
100
AcDbBlockReference
  2
SYM-1
 10
762.9
 20
193.6
 30
0.0
  0
LINE
  5
4B8
100
AcDbEntity
  8
LAY-6
  6
CONTINUOUS
 62
     1
100
AcDbLine
 10
721.478461
 20
170.552078
 30
0.0
 11
744.5
 21
170.552078
 31
0.0
  0
LINE
  5
4B9
100
AcDbEntity
  8
LAY-6
  6
CONTINUOUS
 62
     1
100
AcDbLine
 10
721.478461
 20
134.552078
 30
0.0
 11
744.5
 21
134.552078
 31
0.0
  0
LINE
  5
4BA
100
AcDbEntity
  8
LAY-6
  6
CONTINUOUS
 62
     1
100
AcDbLine
 10
743.5
 20
170.552078
 30
0.0
 11
743.5
 21
134.552078
 31
0.0
  0
LINE
  5
4BB
100
AcDbEntity
  8
LAY-6
  6
CONTINUOUS
 62
     1
100
AcDbLine
 10
744.0
 20
167.552078
 30
0.0
 11
743.5
 21
170.552078
 31
0.0
  0
LINE
  5
4BC
100
AcDbEntity
  8
LAY-6
  6
CONTINUOUS
 62
     1
100
AcDbLine
 10
743.5
 20
170.552078
 30
0.0
 11
743.0
 21
167.552078
 31
0.0
  0
LINE
  5
4BD
100
AcDbEntity
  8
LAY-6
  6
CONTINUOUS
 62
     1
100
AcDbLine
 10
743.0
 20
137.552078
 30
0.0
 11
743.5
 21
134.552078
 31
0.0
  0
LINE
  5
4BE
100
AcDbEntity
  8
LAY-6
  6
CONTINUOUS
 62
     1
100
AcDbLine
 10
743.5
 20
134.552078
 30
0.0
 11
744.0
 21
137.552078
 31
0.0
  0
TEXT
  5
4BF
100
AcDbEntity
  8
LAY-6
  6
CONTINUOUS
 62
     2
100
AcDbText
 10
743.0
 20
148.552078
 30
0.0
 40
5.0
  1
３６
 50
90.0
 41
0.672
  7
EXCADSTD
 72
     5
 11
743.0
 21
155.884878
 31
0.0
100
AcDbText
  0
LINE
  5
4C0
100
AcDbEntity
  8
LAY-6
  6
CONTINUOUS
 62
     1
100
AcDbLine
 10
722.478461
 20
162.552078
 30
0.0
 11
734.2
 21
162.552078
 31
0.0
  0
LINE
  5
4C1
100
AcDbEntity
  8
LAY-6
  6
CONTINUOUS
 62
     1
100
AcDbLine
 10
722.478461
 20
142.552078
 30
0.0
 11
734.2
 21
142.552078
 31
0.0
  0
LINE
  5
4C2
100
AcDbEntity
  8
LAY-6
  6
CONTINUOUS
 62
     1
100
AcDbLine
 10
733.2
 20
162.552078
 30
0.0
 11
733.2
 21
142.552078
 31
0.0
  0
LINE
  5
4C3
100
AcDbEntity
  8
LAY-6
  6
CONTINUOUS
 62
     1
100
AcDbLine
 10
733.7
 20
159.552078
 30
0.0
 11
733.2
 21
162.552078
 31
0.0
  0
LINE
  5
4C4
100
AcDbEntity
  8
LAY-6
  6
CONTINUOUS
 62
     1
100
AcDbLine
 10
733.2
 20
162.552078
 30
0.0
 11
732.7
 21
159.552078
 31
0.0
  0
LINE
  5
4C5
100
AcDbEntity
  8
LAY-6
  6
CONTINUOUS
 62
     1
100
AcDbLine
 10
732.7
 20
145.552078
 30
0.0
 11
733.2
 21
142.552078
 31
0.0
  0
LINE
  5
4C6
100
AcDbEntity
  8
LAY-6
  6
CONTINUOUS
 62
     1
100
AcDbLine
 10
733.2
 20
142.552078
 30
0.0
 11
733.7
 21
145.552078
 31
0.0
  0
TEXT
  5
4C7
100
AcDbEntity
  8
LAY-6
  6
CONTINUOUS
 62
     2
100
AcDbText
 10
732.7
 20
148.552078
 30
0.0
 40
5.0
  1
２０
 50
90.0
 41
0.672
  7
EXCADSTD
 72
     5
 11
732.7
 21
155.884878
 31
0.0
100
AcDbText
  0
LINE
  5
4C8
100
AcDbEntity
  8
LAY-6
  6
CONTINUOUS
 62
     1
100
AcDbLine
 10
641.478461
 20
172.552078
 30
0.0
 11
627.0
 21
172.552078
 31
0.0
  0
LINE
  5
4C9
100
AcDbEntity
  8
LAY-6
  6
CONTINUOUS
 62
     1
100
AcDbLine
 10
641.478461
 20
132.552078
 30
0.0
 11
627.0
 21
132.552078
 31
0.0
  0
LINE
  5
4CA
100
AcDbEntity
  8
LAY-6
  6
CONTINUOUS
 62
     1
100
AcDbLine
 10
628.0
 20
172.552078
 30
0.0
 11
628.0
 21
132.552078
 31
0.0
  0
LINE
  5
4CB
100
AcDbEntity
  8
LAY-6
  6
CONTINUOUS
 62
     1
100
AcDbLine
 10
628.5
 20
169.552078
 30
0.0
 11
628.0
 21
172.552078
 31
0.0
  0
LINE
  5
4CC
100
AcDbEntity
  8
LAY-6
  6
CONTINUOUS
 62
     1
100
AcDbLine
 10
628.0
 20
172.552078
 30
0.0
 11
627.5
 21
169.552078
 31
0.0
  0
LINE
  5
4CD
100
AcDbEntity
  8
LAY-6
  6
CONTINUOUS
 62
     1
100
AcDbLine
 10
627.5
 20
135.552078
 30
0.0
 11
628.0
 21
132.552078
 31
0.0
  0
LINE
  5
4CE
100
AcDbEntity
  8
LAY-6
  6
CONTINUOUS
 62
     1
100
AcDbLine
 10
628.0
 20
132.552078
 30
0.0
 11
628.5
 21
135.552078
 31
0.0
  0
TEXT
  5
4CF
100
AcDbEntity
  8
LAY-6
  6
CONTINUOUS
 62
     2
100
AcDbText
 10
627.5
 20
148.552078
 30
0.0
 40
5.0
  1
４０
 50
90.0
 41
0.672
  7
EXCADSTD
 72
     5
 11
627.5
 21
155.884878
 31
0.0
100
AcDbText
  0
TEXT
  5
4D0
100
AcDbEntity
  8
LAY-6
  6
CONTINUOUS
 62
     2
100
AcDbText
 10
648.478461
 20
122.9
 30
0.0
 40
5.0
  1
１８
 41
0.672
  7
EXCADSTD
 72
     5
 11
655.811261
 21
122.9
 31
0.0
100
AcDbText
  0
LINE
  5
4D1
100
AcDbEntity
  8
LAY-6
  6
CONTINUOUS
 62
     1
100
AcDbLine
 10
661.478461
 20
122.6
 30
0.0
 11
661.478461
 21
121.4
 31
0.0
  0
LINE
  5
4D2
100
AcDbEntity
  8
LAY-6
  6
CONTINUOUS
 62
     1
100
AcDbLine
 10
643.478461
 20
122.4
 30
0.0
 11
661.478461
 21
122.4
 31
0.0
  0
LINE
  5
4D3
100
AcDbEntity
  8
LAY-6
  6
CONTINUOUS
 62
     1
100
AcDbLine
 10
646.478461
 20
122.9
 30
0.0
 11
643.478461
 21
122.4
 31
0.0
  0
LINE
  5
4D4
100
AcDbEntity
  8
LAY-6
  6
CONTINUOUS
 62
     1
100
AcDbLine
 10
643.478461
 20
122.4
 30
0.0
 11
646.478461
 21
121.9
 31
0.0
  0
LINE
  5
4D5
100
AcDbEntity
  8
LAY-6
  6
CONTINUOUS
 62
     1
100
AcDbLine
 10
658.478461
 20
121.9
 30
0.0
 11
661.478461
 21
122.4
 31
0.0
  0
LINE
  5
4D6
100
AcDbEntity
  8
LAY-6
  6
CONTINUOUS
 62
     1
100
AcDbLine
 10
661.478461
 20
122.4
 30
0.0
 11
658.478461
 21
122.9
 31
0.0
  0
LINE
  5
4D7
100
AcDbEntity
  8
LAY-6
  6
CONTINUOUS
 62
     1
100
AcDbLine
 10
686.478461
 20
131.0
 30
0.0
 11
686.478461
 21
121.4
 31
0.0
  0
LINE
  5
4D8
100
AcDbEntity
  8
LAY-6
  6
CONTINUOUS
 62
     1
100
AcDbLine
 10
661.478461
 20
122.4
 30
0.0
 11
686.478461
 21
122.4
 31
0.0
  0
LINE
  5
4D9
100
AcDbEntity
  8
LAY-6
  6
CONTINUOUS
 62
     1
100
AcDbLine
 10
664.478461
 20
122.9
 30
0.0
 11
661.478461
 21
122.4
 31
0.0
  0
LINE
  5
4DA
100
AcDbEntity
  8
LAY-6
  6
CONTINUOUS
 62
     1
100
AcDbLine
 10
661.478461
 20
122.4
 30
0.0
 11
664.478461
 21
121.9
 31
0.0
  0
LINE
  5
4DB
100
AcDbEntity
  8
LAY-6
  6
CONTINUOUS
 62
     1
100
AcDbLine
 10
683.478461
 20
121.9
 30
0.0
 11
686.478461
 21
122.4
 31
0.0
  0
LINE
  5
4DC
100
AcDbEntity
  8
LAY-6
  6
CONTINUOUS
 62
     1
100
AcDbLine
 10
686.478461
 20
122.4
 30
0.0
 11
683.478461
 21
122.9
 31
0.0
  0
TEXT
  5
4DD
100
AcDbEntity
  8
LAY-6
  6
CONTINUOUS
 62
     2
100
AcDbText
 10
669.978461
 20
122.9
 30
0.0
 40
5.0
  1
２５
 41
0.672
  7
EXCADSTD
 72
     5
 11
677.311261
 21
122.9
 31
0.0
100
AcDbText
  0
LINE
  5
4DE
100
AcDbEntity
  8
LAY-6
  6
CONTINUOUS
 62
     1
100
AcDbLine
 10
711.478461
 20
131.0
 30
0.0
 11
711.478461
 21
121.4
 31
0.0
  0
LINE
  5
4DF
100
AcDbEntity
  8
LAY-6
  6
CONTINUOUS
 62
     1
100
AcDbLine
 10
686.478461
 20
122.4
 30
0.0
 11
711.478461
 21
122.4
 31
0.0
  0
LINE
  5
4E0
100
AcDbEntity
  8
LAY-6
  6
CONTINUOUS
 62
     1
100
AcDbLine
 10
689.478461
 20
122.9
 30
0.0
 11
686.478461
 21
122.4
 31
0.0
  0
LINE
  5
4E1
100
AcDbEntity
  8
LAY-6
  6
CONTINUOUS
 62
     1
100
AcDbLine
 10
686.478461
 20
122.4
 30
0.0
 11
689.478461
 21
121.9
 31
0.0
  0
LINE
  5
4E2
100
AcDbEntity
  8
LAY-6
  6
CONTINUOUS
 62
     1
100
AcDbLine
 10
708.478461
 20
121.9
 30
0.0
 11
711.478461
 21
122.4
 31
0.0
  0
LINE
  5
4E3
100
AcDbEntity
  8
LAY-6
  6
CONTINUOUS
 62
     1
100
AcDbLine
 10
711.478461
 20
122.4
 30
0.0
 11
708.478461
 21
122.9
 31
0.0
  0
TEXT
  5
4E4
100
AcDbEntity
  8
LAY-6
  6
CONTINUOUS
 62
     2
100
AcDbText
 10
694.978461
 20
122.9
 30
0.0
 40
5.0
  1
２５
 41
0.672
  7
EXCADSTD
 72
     5
 11
702.311261
 21
122.9
 31
0.0
100
AcDbText
  0
LINE
  5
4E5
100
AcDbEntity
  8
LAY-6
  6
CONTINUOUS
 62
     1
100
AcDbLine
 10
641.478461
 20
172.552078
 30
0.0
 11
641.478461
 21
182.5
 31
0.0
  0
LINE
  5
4E6
100
AcDbEntity
  8
LAY-6
  6
CONTINUOUS
 62
     1
100
AcDbLine
 10
661.478461
 20
181.9
 30
0.0
 11
661.478461
 21
180.5
 31
0.0
  0
LINE
  5
4E7
100
AcDbEntity
  8
LAY-6
  6
CONTINUOUS
 62
     1
100
AcDbLine
 10
641.478461
 20
181.5
 30
0.0
 11
661.478461
 21
181.5
 31
0.0
  0
LINE
  5
4E8
100
AcDbEntity
  8
LAY-6
  6
CONTINUOUS
 62
     1
100
AcDbLine
 10
644.478461
 20
182.0
 30
0.0
 11
641.478461
 21
181.5
 31
0.0
  0
LINE
  5
4E9
100
AcDbEntity
  8
LAY-6
  6
CONTINUOUS
 62
     1
100
AcDbLine
 10
641.478461
 20
181.5
 30
0.0
 11
644.478461
 21
181.0
 31
0.0
  0
LINE
  5
4EA
100
AcDbEntity
  8
LAY-6
  6
CONTINUOUS
 62
     1
100
AcDbLine
 10
658.478461
 20
181.0
 30
0.0
 11
661.478461
 21
181.5
 31
0.0
  0
LINE
  5
4EB
100
AcDbEntity
  8
LAY-6
  6
CONTINUOUS
 62
     1
100
AcDbLine
 10
661.478461
 20
181.5
 30
0.0
 11
658.478461
 21
182.0
 31
0.0
  0
TEXT
  5
4EC
100
AcDbEntity
  8
LAY-6
  6
CONTINUOUS
 62
     2
100
AcDbText
 10
647.478461
 20
182.0
 30
0.0
 40
5.0
  1
２０
 41
0.672
  7
EXCADSTD
 72
     5
 11
654.811261
 21
182.0
 31
0.0
100
AcDbText
  0
LINE
  5
4ED
100
AcDbEntity
  8
LAY-6
  6
CONTINUOUS
 62
     1
100
AcDbLine
 10
722.478461
 20
172.552078
 30
0.0
 11
722.478461
 21
182.5
 31
0.0
  0
LINE
  5
4EE
100
AcDbEntity
  8
LAY-6
  6
CONTINUOUS
 62
     1
100
AcDbLine
 10
661.478461
 20
181.5
 30
0.0
 11
722.478461
 21
181.5
 31
0.0
  0
LINE
  5
4EF
100
AcDbEntity
  8
LAY-6
  6
CONTINUOUS
 62
     1
100
AcDbLine
 10
664.478461
 20
182.0
 30
0.0
 11
661.478461
 21
181.5
 31
0.0
  0
LINE
  5
4F0
100
AcDbEntity
  8
LAY-6
  6
CONTINUOUS
 62
     1
100
AcDbLine
 10
661.478461
 20
181.5
 30
0.0
 11
664.478461
 21
181.0
 31
0.0
  0
LINE
  5
4F1
100
AcDbEntity
  8
LAY-6
  6
CONTINUOUS
 62
     1
100
AcDbLine
 10
719.478461
 20
181.0
 30
0.0
 11
722.478461
 21
181.5
 31
0.0
  0
LINE
  5
4F2
100
AcDbEntity
  8
LAY-6
  6
CONTINUOUS
 62
     1
100
AcDbLine
 10
722.478461
 20
181.5
 30
0.0
 11
719.478461
 21
182.0
 31
0.0
  0
TEXT
  5
4F3
100
AcDbEntity
  8
LAY-6
  6
CONTINUOUS
 62
     2
100
AcDbText
 10
687.978461
 20
182.0
 30
0.0
 40
5.0
  1
６１
 41
0.672
  7
EXCADSTD
 72
     5
 11
695.311261
 21
182.0
 31
0.0
100
AcDbText
  0
LINE
  5
4F4
100
AcDbEntity
  8
LAY-6
  6
CONTINUOUS
 62
     1
100
AcDbLine
 10
722.478461
 20
178.4
 30
0.0
 11
722.478461
 21
193.2
 31
0.0
  0
LINE
  5
4F5
100
AcDbEntity
  8
LAY-6
  6
CONTINUOUS
 62
     1
100
AcDbLine
 10
641.478461
 20
179.1
 30
0.0
 11
641.478461
 21
193.2
 31
0.0
  0
LINE
  5
4F6
100
AcDbEntity
  8
LAY-6
  6
CONTINUOUS
 62
     1
100
AcDbLine
 10
722.478461
 20
192.2
 30
0.0
 11
641.478461
 21
192.2
 31
0.0
  0
LINE
  5
4F7
100
AcDbEntity
  8
LAY-6
  6
CONTINUOUS
 62
     1
100
AcDbLine
 10
719.478461
 20
191.7
 30
0.0
 11
722.478461
 21
192.2
 31
0.0
  0
LINE
  5
4F8
100
AcDbEntity
  8
LAY-6
  6
CONTINUOUS
 62
     1
100
AcDbLine
 10
722.478461
 20
192.2
 30
0.0
 11
719.478461
 21
192.7
 31
0.0
  0
LINE
  5
4F9
100
AcDbEntity
  8
LAY-6
  6
CONTINUOUS
 62
     1
100
AcDbLine
 10
644.478461
 20
192.7
 30
0.0
 11
641.478461
 21
192.2
 31
0.0
  0
LINE
  5
4FA
100
AcDbEntity
  8
LAY-6
  6
CONTINUOUS
 62
     1
100
AcDbLine
 10
641.478461
 20
192.2
 30
0.0
 11
644.478461
 21
191.7
 31
0.0
  0
TEXT
  5
4FB
100
AcDbEntity
  8
LAY-6
  6
CONTINUOUS
 62
     2
100
AcDbText
 10
677.978461
 20
192.7
 30
0.0
 40
5.0
  1
８１
 41
0.672
  7
EXCADSTD
 72
     5
 11
685.311261
 21
192.7
 31
0.0
100
AcDbText
  0
INSERT
  5
4FC
100
AcDbEntity
  8
LAY-6
  6
CONTINUOUS
 62
     0
100
AcDbBlockReference
  2
SYM-1
 10
676.8
 20
193.9
 30
0.0
  0
INSERT
  5
4FD
100
AcDbEntity
  8
LAY-6
  6
CONTINUOUS
 62
     0
100
AcDbBlockReference
  2
SYM-1
 10
626.9
 20
146.9
 30
0.0
 50
90.0
  0
TEXT
  5
4FE
100
AcDbEntity
  8
LAY-6
  6
CONTINUOUS
 62
     2
100
AcDbText
 10
732.149849
 20
111.69784
 30
0.0
 40
5.0
  1
４－Ｍ６×２５皿小ネジ
 41
0.672
  7
EXCADSTD
 72
     5
 11
776.149849
 21
111.69784
 31
0.0
100
AcDbText
  0
POLYLINE
  5
4FF
100
AcDbEntity
  8
LAY-6
  6
CONTINUOUS
 62
     1
100
AcDb2dPolyline
 66
     1
 10
0.0
 20
0.0
 30
0.0
 70
   128
  0
VERTEX
  5
500
100
AcDbEntity
  8
LAY-6
  6
CONTINUOUS
 62
     1
100
AcDbVertex
100
AcDb2dVertex
 10
716.216803
 20
139.294685
 30
0.0
  0
VERTEX
  5
501
100
AcDbEntity
  8
LAY-6
  6
CONTINUOUS
 62
     1
100
AcDbVertex
100
AcDb2dVertex
 10
732.149849
 20
111.69784
 30
0.0
  0
VERTEX
  5
502
100
AcDbEntity
  8
LAY-6
  6
CONTINUOUS
 62
     1
100
AcDbVertex
100
AcDb2dVertex
 10
777.3
 20
111.69784
 30
0.0
  0
SEQEND
  5
503
100
AcDbEntity
  8
LAY-6
  6
CONTINUOUS
 62
     1
  0
LINE
  5
504
100
AcDbEntity
  8
LAY-6
  6
CONTINUOUS
 62
     1
100
AcDbLine
 10
718.149816
 20
136.946608
 30
0.0
 11
716.216803
 21
139.294685
 31
0.0
  0
LINE
  5
505
100
AcDbEntity
  8
LAY-6
  6
CONTINUOUS
 62
     1
100
AcDbLine
 10
716.216803
 20
139.294685
 30
0.0
 11
717.283791
 21
136.446608
 31
0.0
  0
LINE
  5
506
100
AcDbEntity
  8
LAY-6
  6
CONTINUOUS
 62
     1
100
AcDbLine
 10
390.0
 20
416.809814
 30
0.0
 11
329.721344
 21
416.809814
 31
0.0
  0
LINE
  5
507
100
AcDbEntity
  8
LAY-6
  6
CONTINUOUS
 62
     1
100
AcDbLine
 10
391.0
 20
419.809814
 30
0.0
 11
335.7
 21
419.809814
 31
0.0
  0
LINE
  5
508
100
AcDbEntity
  8
LAY-6
  6
CONTINUOUS
 62
     1
100
AcDbLine
 10
677.478339
 20
486.009811
 30
0.0
 11
698.4
 21
486.009811
 31
0.0
  0
TEXT
  5
509
100
AcDbEntity
  8
LAY-6
  6
CONTINUOUS
 62
     2
100
AcDbText
 10
657.478461
 20
456.8
 30
0.0
 40
5.0
  1
３２
 41
0.672
  7
EXCADSTD
 72
     5
 11
664.811261
 21
456.8
 31
0.0
100
AcDbText
  0
LINE
  5
50A
100
AcDbEntity
  8
LAY-6
  6
CONTINUOUS
 62
     1
100
AcDbLine
 10
645.478583
 20
479.509811
 30
0.0
 11
645.478583
 21
455.3
 31
0.0
  0
LINE
  5
50B
100
AcDbEntity
  8
LAY-6
  6
CONTINUOUS
 62
     1
100
AcDbLine
 10
677.478339
 20
479.509811
 30
0.0
 11
677.478339
 21
455.3
 31
0.0
  0
LINE
  5
50C
100
AcDbEntity
  8
LAY-6
  6
CONTINUOUS
 62
     1
100
AcDbLine
 10
645.478583
 20
456.3
 30
0.0
 11
677.478339
 21
456.3
 31
0.0
  0
LINE
  5
50D
100
AcDbEntity
  8
LAY-6
  6
CONTINUOUS
 62
     1
100
AcDbLine
 10
648.478583
 20
456.8
 30
0.0
 11
645.478583
 21
456.3
 31
0.0
  0
LINE
  5
50E
100
AcDbEntity
  8
LAY-6
  6
CONTINUOUS
 62
     1
100
AcDbLine
 10
645.478583
 20
456.3
 30
0.0
 11
648.478583
 21
455.8
 31
0.0
  0
LINE
  5
50F
100
AcDbEntity
  8
LAY-6
  6
CONTINUOUS
 62
     1
100
AcDbLine
 10
674.478339
 20
455.8
 30
0.0
 11
677.478339
 21
456.3
 31
0.0
  0
LINE
  5
510
100
AcDbEntity
  8
LAY-6
  6
CONTINUOUS
 62
     1
100
AcDbLine
 10
677.478339
 20
456.3
 30
0.0
 11
674.478339
 21
456.8
 31
0.0
  0
LINE
  5
511
100
AcDbEntity
  8
LAY-6
  6
CONTINUOUS
 62
     1
100
AcDbLine
 10
316.721344
 20
512.227448
 30
0.0
 11
316.721344
 21
497.1
 31
0.0
  0
TEXT
  5
512
100
AcDbEntity
  8
LAY-6
  6
CONTINUOUS
 62
     2
100
AcDbText
 10
286.6
 20
126.052033
 30
0.0
 40
5.0
  1
５
 50
90.0
 41
0.672
  7
EXCADSTD
 72
     5
 11
286.6
 21
129.252032
 31
0.0
100
AcDbText
  0
LINE
  5
513
100
AcDbEntity
  8
LAY-6
  6
CONTINUOUS
 62
     1
100
AcDbLine
 10
256.221344
 20
125.552063
 30
0.0
 11
288.1
 21
125.552063
 31
0.0
  0
LINE
  5
514
100
AcDbEntity
  8
LAY-6
  6
CONTINUOUS
 62
     1
100
AcDbLine
 10
287.1
 20
125.552063
 30
0.0
 11
287.1
 21
130.552002
 31
0.0
  0
CIRCLE
  5
515
100
AcDbEntity
  8
LAY-6
  6
CONTINUOUS
 62
     1
100
AcDbCircle
 10
287.1
 20
125.552063
 30
0.0
 40
1.0
  0
CIRCLE
  5
516
100
AcDbEntity
  8
LAY-6
  6
CONTINUOUS
 62
     1
100
AcDbCircle
 10
287.1
 20
125.552063
 30
0.0
 40
0.5
  0
CIRCLE
  5
517
100
AcDbEntity
  8
LAY-6
  6
CONTINUOUS
 62
     1
100
AcDbCircle
 10
287.1
 20
130.552002
 30
0.0
 40
1.0
  0
CIRCLE
  5
518
100
AcDbEntity
  8
LAY-6
  6
CONTINUOUS
 62
     1
100
AcDbCircle
 10
287.1
 20
130.552002
 30
0.0
 40
0.5
  0
LINE
  5
519
100
AcDbEntity
  8
LAY-6
  6
CONTINUOUS
 62
     1
100
AcDbLine
 10
255.721344
 20
127.052063
 30
0.0
 11
268.2
 21
127.052063
 31
0.0
  0
INSERT
  5
51A
100
AcDbEntity
  8
LAY-6
  6
CONTINUOUS
 62
     0
100
AcDbBlockReference
  2
SYM-1
 10
265.5
 20
130.1
 30
0.0
 50
90.0
  0
LINE
  5
51B
100
AcDbEntity
  8
LAY-6
  6
CONTINUOUS
 62
     1
100
AcDbLine
 10
267.0
 20
127.052063
 30
0.0
 11
267.0
 21
140.4
 31
0.0
  0
TEXT
  5
51C
100
AcDbEntity
  8
LAY-6
  6
CONTINUOUS
 62
     2
100
AcDbText
 10
211.721344
 20
92.1
 30
0.0
 40
5.0
  1
７８
 41
0.672
  7
EXCADSTD
 72
     5
 11
219.054144
 21
92.1
 31
0.0
100
AcDbText
  0
LINE
  5
51D
100
AcDbEntity
  8
LAY-6
  6
CONTINUOUS
 62
     1
100
AcDbLine
 10
176.721344
 20
109.052063
 30
0.0
 11
176.721344
 21
90.6
 31
0.0
  0
LINE
  5
51E
100
AcDbEntity
  8
LAY-6
  6
CONTINUOUS
 62
     1
100
AcDbLine
 10
254.721344
 20
109.052063
 30
0.0
 11
254.721344
 21
90.6
 31
0.0
  0
LINE
  5
51F
100
AcDbEntity
  8
LAY-6
  6
CONTINUOUS
 62
     1
100
AcDbLine
 10
176.721344
 20
91.6
 30
0.0
 11
254.721344
 21
91.6
 31
0.0
  0
LINE
  5
520
100
AcDbEntity
  8
LAY-6
  6
CONTINUOUS
 62
     1
100
AcDbLine
 10
179.721344
 20
92.1
 30
0.0
 11
176.721344
 21
91.6
 31
0.0
  0
LINE
  5
521
100
AcDbEntity
  8
LAY-6
  6
CONTINUOUS
 62
     1
100
AcDbLine
 10
176.721344
 20
91.6
 30
0.0
 11
179.721344
 21
91.1
 31
0.0
  0
LINE
  5
522
100
AcDbEntity
  8
LAY-6
  6
CONTINUOUS
 62
     1
100
AcDbLine
 10
251.721344
 20
91.1
 30
0.0
 11
254.721344
 21
91.6
 31
0.0
  0
LINE
  5
523
100
AcDbEntity
  8
LAY-6
  6
CONTINUOUS
 62
     1
100
AcDbLine
 10
254.721344
 20
91.6
 30
0.0
 11
251.721344
 21
92.1
 31
0.0
  0
TEXT
  5
524
100
AcDbEntity
  8
LAY-6
  6
CONTINUOUS
 62
     2
100
AcDbText
 10
657.478461
 20
290.1
 30
0.0
 40
5.0
  1
３６
 41
0.672
  7
EXCADSTD
 72
     5
 11
664.811261
 21
290.1
 31
0.0
100
AcDbText
  0
LINE
  5
525
100
AcDbEntity
  8
LAY-6
  6
CONTINUOUS
 62
     1
100
AcDbLine
 10
643.478461
 20
311.051885
 30
0.0
 11
643.478461
 21
288.6
 31
0.0
  0
LINE
  5
526
100
AcDbEntity
  8
LAY-6
  6
CONTINUOUS
 62
     1
100
AcDbLine
 10
679.478461
 20
311.051885
 30
0.0
 11
679.478461
 21
288.6
 31
0.0
  0
LINE
  5
527
100
AcDbEntity
  8
LAY-6
  6
CONTINUOUS
 62
     1
100
AcDbLine
 10
643.478461
 20
289.6
 30
0.0
 11
679.478461
 21
289.6
 31
0.0
  0
LINE
  5
528
100
AcDbEntity
  8
LAY-6
  6
CONTINUOUS
 62
     1
100
AcDbLine
 10
646.478461
 20
290.1
 30
0.0
 11
643.478461
 21
289.6
 31
0.0
  0
LINE
  5
529
100
AcDbEntity
  8
LAY-6
  6
CONTINUOUS
 62
     1
100
AcDbLine
 10
643.478461
 20
289.6
 30
0.0
 11
646.478461
 21
289.1
 31
0.0
  0
LINE
  5
52A
100
AcDbEntity
  8
LAY-6
  6
CONTINUOUS
 62
     1
100
AcDbLine
 10
676.478461
 20
289.1
 30
0.0
 11
679.478461
 21
289.6
 31
0.0
  0
LINE
  5
52B
100
AcDbEntity
  8
LAY-6
  6
CONTINUOUS
 62
     1
100
AcDbLine
 10
679.478461
 20
289.6
 30
0.0
 11
676.478461
 21
290.1
 31
0.0
  0
TEXT
  5
52C
100
AcDbEntity
  8
LAY-6
  6
CONTINUOUS
 62
     2
100
AcDbText
 10
190.72133
 20
136.9
 30
0.0
 40
5.0
  1
１９
 41
0.672
  7
EXCADSTD
 72
     5
 11
198.05413
 21
136.9
 31
0.0
100
AcDbText
  0
LINE
  5
52D
100
AcDbEntity
  8
LAY-6
  6
CONTINUOUS
 62
     1
100
AcDbLine
 10
185.221344
 20
136.4
 30
0.0
 11
204.221315
 21
136.4
 31
0.0
  0
LINE
  5
52E
100
AcDbEntity
  8
LAY-6
  6
CONTINUOUS
 62
     1
100
AcDbLine
 10
188.221344
 20
136.9
 30
0.0
 11
185.221344
 21
136.4
 31
0.0
  0
LINE
  5
52F
100
AcDbEntity
  8
LAY-6
  6
CONTINUOUS
 62
     1
100
AcDbLine
 10
185.221344
 20
136.4
 30
0.0
 11
188.221344
 21
135.9
 31
0.0
  0
LINE
  5
530
100
AcDbEntity
  8
LAY-6
  6
CONTINUOUS
 62
     1
100
AcDbLine
 10
201.221315
 20
135.9
 30
0.0
 11
204.221315
 21
136.4
 31
0.0
  0
LINE
  5
531
100
AcDbEntity
  8
LAY-6
  6
CONTINUOUS
 62
     1
100
AcDbLine
 10
204.221315
 20
136.4
 30
0.0
 11
201.221315
 21
136.9
 31
0.0
  0
POLYLINE
  5
532
100
AcDbEntity
  8
LAY-6
  6
CONTINUOUS
 62
     1
100
AcDb2dPolyline
 66
     1
 10
0.0
 20
0.0
 30
0.0
 70
   128
  0
VERTEX
  5
533
100
AcDbEntity
  8
LAY-6
  6
CONTINUOUS
 62
     1
100
AcDbVertex
100
AcDb2dVertex
 10
388.840375
 20
150.052002
 30
0.0
  0
VERTEX
  5
534
100
AcDbEntity
  8
LAY-6
  6
CONTINUOUS
 62
     1
100
AcDbVertex
100
AcDb2dVertex
 10
399.580101
 20
168.653754
 30
0.0
  0
VERTEX
  5
535
100
AcDbEntity
  8
LAY-6
  6
CONTINUOUS
 62
     1
100
AcDbVertex
100
AcDb2dVertex
 10
448.4
 20
168.653754
 30
0.0
  0
SEQEND
  5
536
100
AcDbEntity
  8
LAY-6
  6
CONTINUOUS
 62
     1
  0
LINE
  5
537
100
AcDbEntity
  8
LAY-6
  6
CONTINUOUS
 62
     1
100
AcDbLine
 10
389.907362
 20
152.900078
 30
0.0
 11
388.840375
 21
150.052002
 31
0.0
  0
LINE
  5
538
100
AcDbEntity
  8
LAY-6
  6
CONTINUOUS
 62
     1
100
AcDbLine
 10
388.840375
 20
150.052002
 30
0.0
 11
390.773387
 21
152.400078
 31
0.0
  0
TEXT
  5
539
100
AcDbEntity
  8
LAY-6
  6
CONTINUOUS
 62
     2
100
AcDbText
 10
402.4
 20
169.153754
 30
0.0
 40
5.0
  1
裏板３.２ｔ以上（別途）
 41
0.654222
  7
EXCADSTD
 72
     5
 11
448.4
 21
169.153754
 31
0.0
100
AcDbText
  0
TEXT
  5
53A
100
AcDbEntity
  8
LAY-6
  6
CONTINUOUS
 62
     2
100
AcDbText
 10
413.7
 20
88.276032
 30
0.0
 40
5.0
  1
裏板３.２ｔ以上（別途）
 41
0.654222
  7
EXCADSTD
 72
     5
 11
459.7
 21
88.276032
 31
0.0
100
AcDbText
  0
POLYLINE
  5
53B
100
AcDbEntity
  8
LAY-6
  6
CONTINUOUS
 62
     1
100
AcDb2dPolyline
 66
     1
 10
0.0
 20
0.0
 30
0.0
 70
   128
  0
VERTEX
  5
53C
100
AcDbEntity
  8
LAY-6
  6
CONTINUOUS
 62
     1
100
AcDbVertex
100
AcDb2dVertex
 10
393.3
 20
105.052063
 30
0.0
  0
VERTEX
  5
53D
100
AcDbEntity
  8
LAY-6
  6
CONTINUOUS
 62
     1
100
AcDbVertex
100
AcDb2dVertex
 10
410.576032
 20
87.776032
 30
0.0
  0
VERTEX
  5
53E
100
AcDbEntity
  8
LAY-6
  6
CONTINUOUS
 62
     1
100
AcDbVertex
100
AcDb2dVertex
 10
459.7
 20
87.776032
 30
0.0
  0
SEQEND
  5
53F
100
AcDbEntity
  8
LAY-6
  6
CONTINUOUS
 62
     1
  0
LINE
  5
540
100
AcDbEntity
  8
LAY-6
  6
CONTINUOUS
 62
     1
100
AcDbLine
 10
394.949916
 20
103.873552
 30
0.0
 11
393.3
 21
105.052063
 31
0.0
  0
LINE
  5
541
100
AcDbEntity
  8
LAY-6
  6
CONTINUOUS
 62
     1
100
AcDbLine
 10
393.3
 20
105.052063
 30
0.0
 11
394.478511
 21
103.402147
 31
0.0
  0
LINE
  5
542
100
AcDbEntity
  8
LAY-6
  6
CONTINUOUS
 62
     1
100
AcDbLine
 10
640.078461
 20
327.551885
 30
0.0
 11
597.5
 21
327.551885
 31
0.0
  0
TEXT
  5
543
100
AcDbEntity
  8
LAY-6
  6
CONTINUOUS
 62
     2
100
AcDbText
 10
688.205228
 20
451.724038
 30
0.0
 40
5.0
  1
φ
 41
0.672
  7
EXCADSTD
 72
     5
 11
691.405228
 21
451.724038
 31
0.0
100
AcDbText
  0
TEXT
  5
544
100
AcDbEntity
  8
LAY-6
  6
CONTINUOUS
 62
     2
100
AcDbText
 10
692.205228
 20
451.724038
 30
0.0
 40
5.0
  1
１２.５
 41
0.616
  7
EXCADSTD
 72
     5
 11
706.205228
 21
451.724038
 31
0.0
100
AcDbText
  0
LINE
  5
545
100
AcDbEntity
  8
LAY-6
  6
CONTINUOUS
 62
     1
100
AcDbLine
 10
655.228339
 20
485.509811
 30
0.0
 11
655.228339
 21
481.9
 31
0.0
  0
LINE
  5
546
100
AcDbEntity
  8
LAY-6
  6
CONTINUOUS
 62
     1
100
AcDbLine
 10
667.728339
 20
485.509811
 30
0.0
 11
667.728339
 21
481.9
 31
0.0
  0
LINE
  5
547
100
AcDbEntity
  8
LAY-6
  6
CONTINUOUS
 62
     1
100
AcDbLine
 10
652.228339
 20
482.9
 30
0.0
 11
671.3
 21
482.9
 31
0.0
  0
LINE
  5
548
100
AcDbEntity
  8
LAY-6
  6
CONTINUOUS
 62
     1
100
AcDbLine
 10
652.228339
 20
482.4
 30
0.0
 11
655.228339
 21
482.9
 31
0.0
  0
LINE
  5
549
100
AcDbEntity
  8
LAY-6
  6
CONTINUOUS
 62
     1
100
AcDbLine
 10
655.228339
 20
482.9
 30
0.0
 11
652.228339
 21
483.4
 31
0.0
  0
LINE
  5
54A
100
AcDbEntity
  8
LAY-6
  6
CONTINUOUS
 62
     1
100
AcDbLine
 10
670.728339
 20
483.4
 30
0.0
 11
667.728339
 21
482.9
 31
0.0
  0
LINE
  5
54B
100
AcDbEntity
  8
LAY-6
  6
CONTINUOUS
 62
     1
100
AcDbLine
 10
667.728339
 20
482.9
 30
0.0
 11
670.728339
 21
482.4
 31
0.0
  0
POLYLINE
  5
54C
100
AcDbEntity
  8
LAY-6
  6
CONTINUOUS
 62
     1
100
AcDb2dPolyline
 66
     1
 10
0.0
 20
0.0
 30
0.0
 70
   128
  0
VERTEX
  5
54D
100
AcDbEntity
  8
LAY-6
  6
CONTINUOUS
 62
     1
100
AcDbVertex
100
AcDb2dVertex
 10
661.478461
 20
482.85
 30
0.0
  0
VERTEX
  5
54E
100
AcDbEntity
  8
LAY-6
  6
CONTINUOUS
 62
     1
100
AcDbVertex
100
AcDb2dVertex
 10
687.489548
 20
451.7
 30
0.0
  0
VERTEX
  5
54F
100
AcDbEntity
  8
LAY-6
  6
CONTINUOUS
 62
     1
100
AcDbVertex
100
AcDb2dVertex
 10
706.8
 20
451.7
 30
0.0
  0
SEQEND
  5
550
100
AcDbEntity
  8
LAY-6
  6
CONTINUOUS
 62
     1
  0
CIRCLE
  5
551
100
AcDbEntity
  8
LAY-6
  6
CONTINUOUS
 62
     1
100
AcDbCircle
 10
661.478461
 20
482.85
 30
0.0
 40
1.0
  0
CIRCLE
  5
552
100
AcDbEntity
  8
LAY-6
  6
CONTINUOUS
 62
     1
100
AcDbCircle
 10
661.478461
 20
482.85
 30
0.0
 40
0.5
  0
LINE
  5
553
100
AcDbEntity
  8
LAY-6
  6
CONTINUOUS
 62
     1
100
AcDbLine
 10
652.728461
 20
470.709796
 30
0.0
 11
652.728461
 21
472.7
 31
0.0
  0
LINE
  5
554
100
AcDbEntity
  8
LAY-6
  6
CONTINUOUS
 62
     1
100
AcDbLine
 10
670.228461
 20
470.709796
 30
0.0
 11
670.228461
 21
472.7
 31
0.0
  0
LINE
  5
555
100
AcDbEntity
  8
LAY-6
  6
CONTINUOUS
 62
     1
100
AcDbLine
 10
652.728461
 20
471.7
 30
0.0
 11
670.228461
 21
471.7
 31
0.0
  0
LINE
  5
556
100
AcDbEntity
  8
LAY-6
  6
CONTINUOUS
 62
     1
100
AcDbLine
 10
655.728461
 20
472.2
 30
0.0
 11
652.728461
 21
471.7
 31
0.0
  0
LINE
  5
557
100
AcDbEntity
  8
LAY-6
  6
CONTINUOUS
 62
     1
100
AcDbLine
 10
652.728461
 20
471.7
 30
0.0
 11
655.728461
 21
471.2
 31
0.0
  0
LINE
  5
558
100
AcDbEntity
  8
LAY-6
  6
CONTINUOUS
 62
     1
100
AcDbLine
 10
667.228461
 20
471.2
 30
0.0
 11
670.228461
 21
471.7
 31
0.0
  0
LINE
  5
559
100
AcDbEntity
  8
LAY-6
  6
CONTINUOUS
 62
     1
100
AcDbLine
 10
670.228461
 20
471.7
 30
0.0
 11
667.228461
 21
472.2
 31
0.0
  0
TEXT
  5
55A
100
AcDbEntity
  8
LAY-6
  6
CONTINUOUS
 62
     2
100
AcDbText
 10
617.078461
 20
448.1
 30
0.0
 40
5.0
  1
φ
 41
0.672
  7
EXCADSTD
 72
     5
 11
620.278461
 21
448.1
 31
0.0
100
AcDbText
  0
TEXT
  5
55B
100
AcDbEntity
  8
LAY-6
  6
CONTINUOUS
 62
     2
100
AcDbText
 10
621.078461
 20
448.1
 30
0.0
 40
5.0
  1
１７.５
 41
0.616
  7
EXCADSTD
 72
     5
 11
635.078461
 21
448.1
 31
0.0
100
AcDbText
  0
TEXT
  5
55C
100
AcDbEntity
  8
LAY-6
  6
CONTINUOUS
 62
     2
100
AcDbText
 10
655.478369
 20
541.0
 30
0.0
 40
5.0
  1
φ
 41
0.672
  7
EXCADSTD
 72
     5
 11
658.678369
 21
541.0
 31
0.0
100
AcDbText
  0
TEXT
  5
55D
100
AcDbEntity
  8
LAY-6
  6
CONTINUOUS
 62
     2
100
AcDbText
 10
659.478369
 20
541.0
 30
0.0
 40
5.0
  1
１９
 41
0.672
  7
EXCADSTD
 72
     5
 11
666.811169
 21
541.0
 31
0.0
100
AcDbText
  0
LINE
  5
55E
100
AcDbEntity
  8
LAY-6
  6
CONTINUOUS
 62
     1
100
AcDbLine
 10
651.978387
 20
527.509888
 30
0.0
 11
651.978387
 21
541.5
 31
0.0
  0
LINE
  5
55F
100
AcDbEntity
  8
LAY-6
  6
CONTINUOUS
 62
     1
100
AcDbLine
 10
670.978351
 20
527.509888
 30
0.0
 11
670.978351
 21
541.5
 31
0.0
  0
LINE
  5
560
100
AcDbEntity
  8
LAY-6
  6
CONTINUOUS
 62
     1
100
AcDbLine
 10
651.978387
 20
540.5
 30
0.0
 11
670.978351
 21
540.5
 31
0.0
  0
LINE
  5
561
100
AcDbEntity
  8
LAY-6
  6
CONTINUOUS
 62
     1
100
AcDbLine
 10
654.978387
 20
541.0
 30
0.0
 11
651.978387
 21
540.5
 31
0.0
  0
LINE
  5
562
100
AcDbEntity
  8
LAY-6
  6
CONTINUOUS
 62
     1
100
AcDbLine
 10
651.978387
 20
540.5
 30
0.0
 11
654.978387
 21
540.0
 31
0.0
  0
LINE
  5
563
100
AcDbEntity
  8
LAY-6
  6
CONTINUOUS
 62
     1
100
AcDbLine
 10
667.978351
 20
540.0
 30
0.0
 11
670.978351
 21
540.5
 31
0.0
  0
LINE
  5
564
100
AcDbEntity
  8
LAY-6
  6
CONTINUOUS
 62
     1
100
AcDbLine
 10
670.978351
 20
540.5
 30
0.0
 11
667.978351
 21
541.0
 31
0.0
  0
POLYLINE
  5
565
100
AcDbEntity
  8
LAY-6
  6
CONTINUOUS
 62
     1
100
AcDb2dPolyline
 66
     1
 10
0.0
 20
0.0
 30
0.0
 70
   128
  0
VERTEX
  5
566
100
AcDbEntity
  8
LAY-6
  6
CONTINUOUS
 62
     1
100
AcDbVertex
100
AcDb2dVertex
 10
661.478461
 20
471.8
 30
0.0
  0
VERTEX
  5
567
100
AcDbEntity
  8
LAY-6
  6
CONTINUOUS
 62
     1
100
AcDbVertex
100
AcDb2dVertex
 10
635.6
 20
447.8
 30
0.0
  0
VERTEX
  5
568
100
AcDbEntity
  8
LAY-6
  6
CONTINUOUS
 62
     1
100
AcDbVertex
100
AcDb2dVertex
 10
616.9
 20
447.8
 30
0.0
  0
SEQEND
  5
569
100
AcDbEntity
  8
LAY-6
  6
CONTINUOUS
 62
     1
  0
CIRCLE
  5
56A
100
AcDbEntity
  8
LAY-6
  6
CONTINUOUS
 62
     1
100
AcDbCircle
 10
661.478461
 20
471.8
 30
0.0
 40
1.0
  0
CIRCLE
  5
56B
100
AcDbEntity
  8
LAY-6
  6
CONTINUOUS
 62
     1
100
AcDbCircle
 10
661.478461
 20
471.8
 30
0.0
 40
0.5
  0
TEXT
  5
56C
100
AcDbEntity
  8
LAY-6
  6
CONTINUOUS
 62
     2
100
AcDbText
 10
380.820835
 20
114.324682
 30
0.0
 40
6.0
  1
沓　摺
 41
0.672
  7
EXCADSTD
 72
     5
 11
395.220835
 21
114.324682
 31
0.0
100
AcDbText
  0
TEXT
  5
56D
100
AcDbEntity
  8
LAY-6
  6
CONTINUOUS
 62
     2
100
AcDbText
 10
560.7
 20
317.1
 30
0.0
 40
6.0
  1
床　面
 41
0.672
  7
EXCADSTD
 72
     5
 11
575.100001
 21
317.1
 31
0.0
100
AcDbText
  0
TEXT
  5
56E
100
AcDbEntity
  8
LAY-6
  6
CONTINUOUS
 62
     2
100
AcDbText
 10
686.420835
 20
297.424682
 30
0.0
 40
6.0
  1
沓　摺
 41
0.672
  7
EXCADSTD
 72
     5
 11
700.820835
 21
297.424682
 31
0.0
100
AcDbText
  0
POLYLINE
  5
56F
100
AcDbEntity
  8
LAY-6
  6
CONTINUOUS
 62
     1
100
AcDb2dPolyline
 66
     1
 10
0.0
 20
0.0
 30
0.0
 70
   128
  0
VERTEX
  5
570
100
AcDbEntity
  8
LAY-6
  6
CONTINUOUS
 62
     1
100
AcDbVertex
100
AcDb2dVertex
 10
329.721344
 20
430.309814
 30
0.0
  0
VERTEX
  5
571
100
AcDbEntity
  8
LAY-6
  6
CONTINUOUS
 62
     1
100
AcDbVertex
100
AcDb2dVertex
 10
356.6
 20
451.6
 30
0.0
  0
VERTEX
  5
572
100
AcDbEntity
  8
LAY-6
  6
CONTINUOUS
 62
     1
100
AcDbVertex
100
AcDb2dVertex
 10
404.4
 20
451.6
 30
0.0
  0
SEQEND
  5
573
100
AcDbEntity
  8
LAY-6
  6
CONTINUOUS
 62
     1
  0
LINE
  5
574
100
AcDbEntity
  8
LAY-6
  6
CONTINUOUS
 62
     1
100
AcDbLine
 10
331.76255
 20
432.564471
 30
0.0
 11
329.721344
 21
430.309814
 31
0.0
  0
LINE
  5
575
100
AcDbEntity
  8
LAY-6
  6
CONTINUOUS
 62
     1
100
AcDbLine
 10
329.721344
 20
430.309814
 30
0.0
 11
332.383455
 21
431.780585
 31
0.0
  0
TEXT
  5
576
100
AcDbEntity
  8
LAY-6
  6
CONTINUOUS
 62
     2
100
AcDbText
 10
358.4
 20
452.1
 30
0.0
 40
5.0
  1
裏板３.２ｔ以上（別途）
 41
0.654222
  7
EXCADSTD
 72
     5
 11
404.4
 21
452.1
 31
0.0
100
AcDbText
  0
TEXT
  5
577
100
AcDbEntity
  8
LAY-6
  6
CONTINUOUS
 62
     2
100
AcDbText
 10
341.0
 20
363.554907
 30
0.0
 40
5.0
  1
裏板３.２ｔ以上（別途）
 41
0.654222
  7
EXCADSTD
 72
     5
 11
387.0
 21
363.554907
 31
0.0
100
AcDbText
  0
POLYLINE
  5
578
100
AcDbEntity
  8
LAY-6
  6
CONTINUOUS
 62
     1
100
AcDb2dPolyline
 66
     1
 10
0.0
 20
0.0
 30
0.0
 70
   128
  0
VERTEX
  5
579
100
AcDbEntity
  8
LAY-6
  6
CONTINUOUS
 62
     1
100
AcDbVertex
100
AcDb2dVertex
 10
296.4
 20
406.309814
 30
0.0
  0
VERTEX
  5
57A
100
AcDbEntity
  8
LAY-6
  6
CONTINUOUS
 62
     1
100
AcDbVertex
100
AcDb2dVertex
 10
339.654907
 20
363.054907
 30
0.0
  0
VERTEX
  5
57B
100
AcDbEntity
  8
LAY-6
  6
CONTINUOUS
 62
     1
100
AcDbVertex
100
AcDb2dVertex
 10
387.0
 20
363.054907
 30
0.0
  0
SEQEND
  5
57C
100
AcDbEntity
  8
LAY-6
  6
CONTINUOUS
 62
     1
  0
LINE
  5
57D
100
AcDbEntity
  8
LAY-6
  6
CONTINUOUS
 62
     1
100
AcDbLine
 10
298.049916
 20
405.131303
 30
0.0
 11
296.4
 21
406.309814
 31
0.0
  0
LINE
  5
57E
100
AcDbEntity
  8
LAY-6
  6
CONTINUOUS
 62
     1
100
AcDbLine
 10
296.4
 20
406.309814
 30
0.0
 11
297.578511
 21
404.659898
 31
0.0
  0
INSERT
  5
57F
100
AcDbEntity
  8
LAY-6
  6
CONTINUOUS
 62
     0
100
AcDbBlockReference
  2
SYM-1
 10
354.2
 20
568.7
 30
0.0
  0
TEXT
  5
580
100
AcDbEntity
  8
LAY-6
  6
CONTINUOUS
 62
     2
100
AcDbText
 10
170.221344
 20
552.4
 30
0.0
 40
5.0
  1
４１
 41
0.672
  7
EXCADSTD
 72
     5
 11
177.554144
 21
552.4
 31
0.0
100
AcDbText
  0
LINE
  5
581
100
AcDbEntity
  8
LAY-6
  6
CONTINUOUS
 62
     1
100
AcDbLine
 10
153.721344
 20
551.9
 30
0.0
 11
194.721344
 21
551.9
 31
0.0
  0
LINE
  5
582
100
AcDbEntity
  8
LAY-6
  6
CONTINUOUS
 62
     1
100
AcDbLine
 10
156.721344
 20
552.4
 30
0.0
 11
153.721344
 21
551.9
 31
0.0
  0
LINE
  5
583
100
AcDbEntity
  8
LAY-6
  6
CONTINUOUS
 62
     1
100
AcDbLine
 10
153.721344
 20
551.9
 30
0.0
 11
156.721344
 21
551.4
 31
0.0
  0
LINE
  5
584
100
AcDbEntity
  8
LAY-6
  6
CONTINUOUS
 62
     1
100
AcDbLine
 10
191.721344
 20
551.4
 30
0.0
 11
194.721344
 21
551.9
 31
0.0
  0
LINE
  5
585
100
AcDbEntity
  8
LAY-6
  6
CONTINUOUS
 62
     1
100
AcDbLine
 10
194.721344
 20
551.9
 30
0.0
 11
191.721344
 21
552.4
 31
0.0
  0
TEXT
  5
586
100
AcDbEntity
  8
LAY-6
  6
CONTINUOUS
 62
     2
100
AcDbText
 10
259.221344
 20
552.4
 30
0.0
 40
5.0
  1
１４１
 41
0.672
  7
EXCADSTD
 72
     5
 11
271.221344
 21
552.4
 31
0.0
100
AcDbText
  0
LINE
  5
587
100
AcDbEntity
  8
LAY-6
  6
CONTINUOUS
 62
     1
100
AcDbLine
 10
194.721344
 20
555.330078
 30
0.0
 11
194.721344
 21
550.4
 31
0.0
  0
LINE
  5
588
100
AcDbEntity
  8
LAY-6
  6
CONTINUOUS
 62
     1
100
AcDbLine
 10
194.721344
 20
551.9
 30
0.0
 11
335.721344
 21
551.9
 31
0.0
  0
LINE
  5
589
100
AcDbEntity
  8
LAY-6
  6
CONTINUOUS
 62
     1
100
AcDbLine
 10
197.721344
 20
552.4
 30
0.0
 11
194.721344
 21
551.9
 31
0.0
  0
LINE
  5
58A
100
AcDbEntity
  8
LAY-6
  6
CONTINUOUS
 62
     1
100
AcDbLine
 10
194.721344
 20
551.9
 30
0.0
 11
197.721344
 21
551.4
 31
0.0
  0
LINE
  5
58B
100
AcDbEntity
  8
LAY-6
  6
CONTINUOUS
 62
     1
100
AcDbLine
 10
332.721344
 20
551.4
 30
0.0
 11
335.721344
 21
551.9
 31
0.0
  0
LINE
  5
58C
100
AcDbEntity
  8
LAY-6
  6
CONTINUOUS
 62
     1
100
AcDbLine
 10
335.721344
 20
551.9
 30
0.0
 11
332.721344
 21
552.4
 31
0.0
  0
TEXT
  5
58D
100
AcDbEntity
  8
LAY-6
  6
CONTINUOUS
 62
     2
100
AcDbText
 10
238.721344
 20
561.1
 30
0.0
 40
5.0
  1
１８２
 41
0.672
  7
EXCADSTD
 72
     5
 11
250.721344
 21
561.1
 31
0.0
100
AcDbText
  0
LINE
  5
58E
100
AcDbEntity
  8
LAY-6
  6
CONTINUOUS
 62
     1
100
AcDbLine
 10
153.721344
 20
547.227417
 30
0.0
 11
153.721344
 21
562.1
 31
0.0
  0
LINE
  5
58F
100
AcDbEntity
  8
LAY-6
  6
CONTINUOUS
 62
     1
100
AcDbLine
 10
335.721344
 20
547.227417
 30
0.0
 11
335.721344
 21
562.1
 31
0.0
  0
LINE
  5
590
100
AcDbEntity
  8
LAY-6
  6
CONTINUOUS
 62
     1
100
AcDbLine
 10
153.721344
 20
560.6
 30
0.0
 11
335.721344
 21
560.6
 31
0.0
  0
LINE
  5
591
100
AcDbEntity
  8
LAY-6
  6
CONTINUOUS
 62
     1
100
AcDbLine
 10
156.721344
 20
561.1
 30
0.0
 11
153.721344
 21
560.6
 31
0.0
  0
LINE
  5
592
100
AcDbEntity
  8
LAY-6
  6
CONTINUOUS
 62
     1
100
AcDbLine
 10
153.721344
 20
560.6
 30
0.0
 11
156.721344
 21
560.1
 31
0.0
  0
LINE
  5
593
100
AcDbEntity
  8
LAY-6
  6
CONTINUOUS
 62
     1
100
AcDbLine
 10
332.721344
 20
560.1
 30
0.0
 11
335.721344
 21
560.6
 31
0.0
  0
LINE
  5
594
100
AcDbEntity
  8
LAY-6
  6
CONTINUOUS
 62
     1
100
AcDbLine
 10
335.721344
 20
560.6
 30
0.0
 11
332.721344
 21
561.1
 31
0.0
  0
INSERT
  5
595
100
AcDbEntity
  8
LAY-6
  6
CONTINUOUS
 62
     0
100
AcDbBlockReference
  2
SYM-1
 10
236.5
 20
562.1
 30
0.0
  0
LINE
  5
596
100
AcDbEntity
  8
LAY-6
  6
CONTINUOUS
 62
     1
100
AcDbLine
 10
329.721344
 20
310.65741
 30
0.0
 11
329.721344
 21
286.2
 31
0.0
  0
LINE
  5
597
100
AcDbEntity
  8
LAY-6
  6
CONTINUOUS
 62
     1
100
AcDbLine
 10
194.721344
 20
287.7
 30
0.0
 11
329.721344
 21
287.7
 31
0.0
  0
LINE
  5
598
100
AcDbEntity
  8
LAY-6
  6
CONTINUOUS
 62
     1
100
AcDbLine
 10
197.721344
 20
288.2
 30
0.0
 11
194.721344
 21
287.7
 31
0.0
  0
LINE
  5
599
100
AcDbEntity
  8
LAY-6
  6
CONTINUOUS
 62
     1
100
AcDbLine
 10
194.721344
 20
287.7
 30
0.0
 11
197.721344
 21
287.2
 31
0.0
  0
LINE
  5
59A
100
AcDbEntity
  8
LAY-6
  6
CONTINUOUS
 62
     1
100
AcDbLine
 10
326.721344
 20
287.2
 30
0.0
 11
329.721344
 21
287.7
 31
0.0
  0
LINE
  5
59B
100
AcDbEntity
  8
LAY-6
  6
CONTINUOUS
 62
     1
100
AcDbLine
 10
329.721344
 20
287.7
 30
0.0
 11
326.721344
 21
288.2
 31
0.0
  0
TEXT
  5
59C
100
AcDbEntity
  8
LAY-6
  6
CONTINUOUS
 62
     2
100
AcDbText
 10
256.221344
 20
288.2
 30
0.0
 40
5.0
  1
１３５
 41
0.672
  7
EXCADSTD
 72
     5
 11
268.221344
 21
288.2
 31
0.0
100
AcDbText
  0
LINE
  5
59D
100
AcDbEntity
  8
LAY-6
  6
CONTINUOUS
 62
     1
100
AcDbLine
 10
177.721337
 20
233.552094
 30
0.0
 11
177.721337
 21
201.8
 31
0.0
  0
LINE
  5
59E
100
AcDbEntity
  8
LAY-6
  6
CONTINUOUS
 62
     1
100
AcDbLine
 10
347.721344
 20
233.552094
 30
0.0
 11
347.721344
 21
201.8
 31
0.0
  0
LINE
  5
59F
100
AcDbEntity
  8
LAY-6
  6
CONTINUOUS
 62
     1
100
AcDbLine
 10
177.721337
 20
203.3
 30
0.0
 11
347.721344
 21
203.3
 31
0.0
  0
LINE
  5
5A0
100
AcDbEntity
  8
LAY-6
  6
CONTINUOUS
 62
     1
100
AcDbLine
 10
180.721337
 20
203.8
 30
0.0
 11
177.721337
 21
203.3
 31
0.0
  0
LINE
  5
5A1
100
AcDbEntity
  8
LAY-6
  6
CONTINUOUS
 62
     1
100
AcDbLine
 10
177.721337
 20
203.3
 30
0.0
 11
180.721337
 21
202.8
 31
0.0
  0
LINE
  5
5A2
100
AcDbEntity
  8
LAY-6
  6
CONTINUOUS
 62
     1
100
AcDbLine
 10
344.721344
 20
202.8
 30
0.0
 11
347.721344
 21
203.3
 31
0.0
  0
LINE
  5
5A3
100
AcDbEntity
  8
LAY-6
  6
CONTINUOUS
 62
     1
100
AcDbLine
 10
347.721344
 20
203.3
 30
0.0
 11
344.721344
 21
203.8
 31
0.0
  0
TEXT
  5
5A4
100
AcDbEntity
  8
LAY-6
  6
CONTINUOUS
 62
     2
100
AcDbText
 10
256.721341
 20
203.8
 30
0.0
 40
5.0
  1
１７０
 41
0.672
  7
EXCADSTD
 72
     5
 11
268.721341
 21
203.8
 31
0.0
100
AcDbText
  0
LINE
  5
5A5
100
AcDbEntity
  8
LAY-6
  6
CONTINUOUS
 62
     1
100
AcDbLine
 10
643.478461
 20
134.052078
 30
0.0
 11
643.478461
 21
111.6
 31
0.0
  0
LINE
  5
5A6
100
AcDbEntity
  8
LAY-6
  6
CONTINUOUS
 62
     1
100
AcDbLine
 10
721.478461
 20
134.052078
 30
0.0
 11
721.478461
 21
111.6
 31
0.0
  0
LINE
  5
5A7
100
AcDbEntity
  8
LAY-6
  6
CONTINUOUS
 62
     1
100
AcDbLine
 10
643.478461
 20
113.1
 30
0.0
 11
721.478461
 21
113.1
 31
0.0
  0
LINE
  5
5A8
100
AcDbEntity
  8
LAY-6
  6
CONTINUOUS
 62
     1
100
AcDbLine
 10
646.478461
 20
113.6
 30
0.0
 11
643.478461
 21
113.1
 31
0.0
  0
LINE
  5
5A9
100
AcDbEntity
  8
LAY-6
  6
CONTINUOUS
 62
     1
100
AcDbLine
 10
643.478461
 20
113.1
 30
0.0
 11
646.478461
 21
112.6
 31
0.0
  0
LINE
  5
5AA
100
AcDbEntity
  8
LAY-6
  6
CONTINUOUS
 62
     1
100
AcDbLine
 10
718.478461
 20
112.6
 30
0.0
 11
721.478461
 21
113.1
 31
0.0
  0
LINE
  5
5AB
100
AcDbEntity
  8
LAY-6
  6
CONTINUOUS
 62
     1
100
AcDbLine
 10
721.478461
 20
113.1
 30
0.0
 11
718.478461
 21
113.6
 31
0.0
  0
TEXT
  5
5AC
100
AcDbEntity
  8
LAY-6
  6
CONTINUOUS
 62
     2
100
AcDbText
 10
678.478461
 20
113.6
 30
0.0
 40
5.0
  1
７８
 41
0.672
  7
EXCADSTD
 72
     5
 11
685.811261
 21
113.6
 31
0.0
100
AcDbText
  0
TEXT
  5
5AD
100
AcDbEntity
  8
LAY-6
  6
CONTINUOUS
 62
     2
100
AcDbText
 10
306.1
 20
240.052094
 30
0.0
 40
5.0
  1
４
 50
90.0
 41
0.672
  7
EXCADSTD
 72
     5
 11
306.1
 21
243.252094
 31
0.0
100
AcDbText
  0
LINE
  5
5AE
100
AcDbEntity
  8
LAY-6
  6
CONTINUOUS
 62
     1
100
AcDbLine
 10
327.4
 20
240.052109
 30
0.0
 11
305.1
 21
240.052109
 31
0.0
  0
LINE
  5
5AF
100
AcDbEntity
  8
LAY-6
  6
CONTINUOUS
 62
     1
100
AcDbLine
 10
306.6
 20
237.052109
 30
0.0
 11
306.6
 21
244.052078
 31
0.0
  0
LINE
  5
5B0
100
AcDbEntity
  8
LAY-6
  6
CONTINUOUS
 62
     1
100
AcDbLine
 10
307.1
 20
237.052109
 30
0.0
 11
306.6
 21
240.052109
 31
0.0
  0
LINE
  5
5B1
100
AcDbEntity
  8
LAY-6
  6
CONTINUOUS
 62
     1
100
AcDbLine
 10
306.6
 20
240.052109
 30
0.0
 11
306.1
 21
237.052109
 31
0.0
  0
LINE
  5
5B2
100
AcDbEntity
  8
LAY-6
  6
CONTINUOUS
 62
     1
100
AcDbLine
 10
310.8
 20
248.052109
 30
0.0
 11
305.1
 21
248.052109
 31
0.0
  0
LINE
  5
5B3
100
AcDbEntity
  8
LAY-6
  6
CONTINUOUS
 62
     1
100
AcDbLine
 10
306.6
 20
244.052078
 30
0.0
 11
306.6
 21
251.052109
 31
0.0
  0
CIRCLE
  5
5B4
100
AcDbEntity
  8
LAY-6
  6
CONTINUOUS
 62
     1
100
AcDbCircle
 10
306.6
 20
244.052078
 30
0.0
 40
0.5
  0
CIRCLE
  5
5B5
100
AcDbEntity
  8
LAY-6
  6
CONTINUOUS
 62
     1
100
AcDbCircle
 10
306.6
 20
244.052078
 30
0.0
 40
0.25
  0
LINE
  5
5B6
100
AcDbEntity
  8
LAY-6
  6
CONTINUOUS
 62
     1
100
AcDbLine
 10
306.1
 20
251.052109
 30
0.0
 11
306.6
 21
248.052109
 31
0.0
  0
LINE
  5
5B7
100
AcDbEntity
  8
LAY-6
  6
CONTINUOUS
 62
     1
100
AcDbLine
 10
306.6
 20
248.052109
 30
0.0
 11
307.1
 21
251.052109
 31
0.0
  0
TEXT
  5
5B8
100
AcDbEntity
  8
LAY-6
  6
CONTINUOUS
 62
     2
100
AcDbText
 10
306.1
 20
244.052094
 30
0.0
 40
5.0
  1
４
 50
90.0
 41
0.672
  7
EXCADSTD
 72
     5
 11
306.1
 21
247.252094
 31
0.0
100
AcDbText
  0
LINE
  5
5B9
100
AcDbEntity
  8
LAY-9
  6
CONTINUOUS
 62
     1
100
AcDbLine
 10
136.321344
 20
415.209814
 30
0.0
 11
178.721329
 21
415.209814
 31
0.0
  0
LINE
  5
5BA
100
AcDbEntity
  8
LAY-9
  6
CONTINUOUS
 62
     1
100
AcDbLine
 10
329.721344
 20
415.209814
 30
0.0
 11
389.538211
 21
415.209814
 31
0.0
  0
POLYLINE
  5
5BB
100
AcDbEntity
  8
LAY-9
  6
CONTINUOUS
 62
     1
100
AcDb2dPolyline
 66
     1
 10
0.0
 20
0.0
 30
0.0
 70
   128
  0
VERTEX
  5
5BC
100
AcDbEntity
  8
LAY-9
  6
CONTINUOUS
 62
     1
100
AcDbVertex
100
AcDb2dVertex
 10
391.0
 20
419.809814
 30
0.0
  0
VERTEX
  5
5BD
100
AcDbEntity
  8
LAY-9
  6
CONTINUOUS
 62
     1
100
AcDbVertex
100
AcDb2dVertex
 10
391.024918
 20
419.882651
 30
0.0
  0
VERTEX
  5
5BE
100
AcDbEntity
  8
LAY-9
  6
CONTINUOUS
 62
     1
100
AcDbVertex
100
AcDb2dVertex
 10
391.093618
 20
420.088724
 30
0.0
  0
VERTEX
  5
5BF
100
AcDbEntity
  8
LAY-9
  6
CONTINUOUS
 62
     1
100
AcDbVertex
100
AcDb2dVertex
 10
391.197024
 20
420.409371
 30
0.0
  0
VERTEX
  5
5C0
100
AcDbEntity
  8
LAY-9
  6
CONTINUOUS
 62
     1
100
AcDbVertex
100
AcDb2dVertex
 10
391.326056
 20
420.825933
 30
0.0
  0
VERTEX
  5
5C1
100
AcDbEntity
  8
LAY-9
  6
CONTINUOUS
 62
     1
100
AcDbVertex
100
AcDb2dVertex
 10
391.471635
 20
421.31975
 30
0.0
  0
VERTEX
  5
5C2
100
AcDbEntity
  8
LAY-9
  6
CONTINUOUS
 62
     1
100
AcDbVertex
100
AcDb2dVertex
 10
391.624684
 20
421.872162
 30
0.0
  0
VERTEX
  5
5C3
100
AcDbEntity
  8
LAY-9
  6
CONTINUOUS
 62
     1
100
AcDbVertex
100
AcDb2dVertex
 10
391.776125
 20
422.464509
 30
0.0
  0
VERTEX
  5
5C4
100
AcDbEntity
  8
LAY-9
  6
CONTINUOUS
 62
     1
100
AcDbVertex
100
AcDb2dVertex
 10
391.916877
 20
423.07813
 30
0.0
  0
VERTEX
  5
5C5
100
AcDbEntity
  8
LAY-9
  6
CONTINUOUS
 62
     1
100
AcDbVertex
100
AcDb2dVertex
 10
392.037865
 20
423.694367
 30
0.0
  0
VERTEX
  5
5C6
100
AcDbEntity
  8
LAY-9
  6
CONTINUOUS
 62
     1
100
AcDbVertex
100
AcDb2dVertex
 10
392.130008
 20
424.294559
 30
0.0
  0
VERTEX
  5
5C7
100
AcDbEntity
  8
LAY-9
  6
CONTINUOUS
 62
     1
100
AcDbVertex
100
AcDb2dVertex
 10
392.184228
 20
424.860046
 30
0.0
  0
VERTEX
  5
5C8
100
AcDbEntity
  8
LAY-9
  6
CONTINUOUS
 62
     1
100
AcDbVertex
100
AcDb2dVertex
 10
392.194679
 20
425.335674
 30
0.0
  0
VERTEX
  5
5C9
100
AcDbEntity
  8
LAY-9
  6
CONTINUOUS
 62
     1
100
AcDbVertex
100
AcDb2dVertex
 10
392.169545
 20
425.774812
 30
0.0
  0
VERTEX
  5
5CA
100
AcDbEntity
  8
LAY-9
  6
CONTINUOUS
 62
     1
100
AcDbVertex
100
AcDb2dVertex
 10
392.112718
 20
426.185795
 30
0.0
  0
VERTEX
  5
5CB
100
AcDbEntity
  8
LAY-9
  6
CONTINUOUS
 62
     1
100
AcDbVertex
100
AcDb2dVertex
 10
392.02809
 20
426.576955
 30
0.0
  0
VERTEX
  5
5CC
100
AcDbEntity
  8
LAY-9
  6
CONTINUOUS
 62
     1
100
AcDbVertex
100
AcDb2dVertex
 10
391.919555
 20
426.956626
 30
0.0
  0
VERTEX
  5
5CD
100
AcDbEntity
  8
LAY-9
  6
CONTINUOUS
 62
     1
100
AcDbVertex
100
AcDb2dVertex
 10
391.791003
 20
427.333141
 30
0.0
  0
VERTEX
  5
5CE
100
AcDbEntity
  8
LAY-9
  6
CONTINUOUS
 62
     1
100
AcDbVertex
100
AcDb2dVertex
 10
391.646327
 20
427.714834
 30
0.0
  0
VERTEX
  5
5CF
100
AcDbEntity
  8
LAY-9
  6
CONTINUOUS
 62
     1
100
AcDbVertex
100
AcDb2dVertex
 10
391.489419
 20
428.110038
 30
0.0
  0
VERTEX
  5
5D0
100
AcDbEntity
  8
LAY-9
  6
CONTINUOUS
 62
     1
100
AcDbVertex
100
AcDb2dVertex
 10
391.324172
 20
428.527085
 30
0.0
  0
VERTEX
  5
5D1
100
AcDbEntity
  8
LAY-9
  6
CONTINUOUS
 62
     1
100
AcDbVertex
100
AcDb2dVertex
 10
391.154478
 20
428.97431
 30
0.0
  0
VERTEX
  5
5D2
100
AcDbEntity
  8
LAY-9
  6
CONTINUOUS
 62
     1
100
AcDbVertex
100
AcDb2dVertex
 10
390.984228
 20
429.460046
 30
0.0
  0
VERTEX
  5
5D3
100
AcDbEntity
  8
LAY-9
  6
CONTINUOUS
 62
     1
100
AcDbVertex
100
AcDb2dVertex
 10
390.82803
 20
429.951992
 30
0.0
  0
VERTEX
  5
5D4
100
AcDbEntity
  8
LAY-9
  6
CONTINUOUS
 62
     1
100
AcDbVertex
100
AcDb2dVertex
 10
390.676824
 20
430.469511
 30
0.0
  0
VERTEX
  5
5D5
100
AcDbEntity
  8
LAY-9
  6
CONTINUOUS
 62
     1
100
AcDbVertex
100
AcDb2dVertex
 10
390.532692
 20
430.997342
 30
0.0
  0
VERTEX
  5
5D6
100
AcDbEntity
  8
LAY-9
  6
CONTINUOUS
 62
     1
100
AcDbVertex
100
AcDb2dVertex
 10
390.397717
 20
431.520227
 30
0.0
  0
VERTEX
  5
5D7
100
AcDbEntity
  8
LAY-9
  6
CONTINUOUS
 62
     1
100
AcDbVertex
100
AcDb2dVertex
 10
390.273981
 20
432.022904
 30
0.0
  0
VERTEX
  5
5D8
100
AcDbEntity
  8
LAY-9
  6
CONTINUOUS
 62
     1
100
AcDbVertex
100
AcDb2dVertex
 10
390.163568
 20
432.490114
 30
0.0
  0
VERTEX
  5
5D9
100
AcDbEntity
  8
LAY-9
  6
CONTINUOUS
 62
     1
100
AcDbVertex
100
AcDb2dVertex
 10
390.068559
 20
432.906596
 30
0.0
  0
VERTEX
  5
5DA
100
AcDbEntity
  8
LAY-9
  6
CONTINUOUS
 62
     1
100
AcDbVertex
100
AcDb2dVertex
 10
389.991038
 20
433.25709
 30
0.0
  0
VERTEX
  5
5DB
100
AcDbEntity
  8
LAY-9
  6
CONTINUOUS
 62
     1
100
AcDbVertex
100
AcDb2dVertex
 10
389.933088
 20
433.526337
 30
0.0
  0
VERTEX
  5
5DC
100
AcDbEntity
  8
LAY-9
  6
CONTINUOUS
 62
     1
100
AcDbVertex
100
AcDb2dVertex
 10
389.89679
 20
433.699075
 30
0.0
  0
VERTEX
  5
5DD
100
AcDbEntity
  8
LAY-9
  6
CONTINUOUS
 62
     1
100
AcDbVertex
100
AcDb2dVertex
 10
389.884228
 20
433.760046
 30
0.0
  0
SEQEND
  5
5DE
100
AcDbEntity
  8
LAY-9
  6
CONTINUOUS
 62
     1
  0
POLYLINE
  5
5DF
100
AcDbEntity
  8
LAY-9
  6
CONTINUOUS
 62
     1
100
AcDb2dPolyline
 66
     1
 10
0.0
 20
0.0
 30
0.0
 70
   128
  0
VERTEX
  5
5E0
100
AcDbEntity
  8
LAY-9
  6
CONTINUOUS
 62
     1
100
AcDbVertex
100
AcDb2dVertex
 10
390.0
 20
416.809814
 30
0.0
  0
VERTEX
  5
5E1
100
AcDbEntity
  8
LAY-9
  6
CONTINUOUS
 62
     1
100
AcDbVertex
100
AcDb2dVertex
 10
389.980961
 20
416.728123
 30
0.0
  0
VERTEX
  5
5E2
100
AcDbEntity
  8
LAY-9
  6
CONTINUOUS
 62
     1
100
AcDbVertex
100
AcDb2dVertex
 10
389.928103
 20
416.49705
 30
0.0
  0
VERTEX
  5
5E3
100
AcDbEntity
  8
LAY-9
  6
CONTINUOUS
 62
     1
100
AcDbVertex
100
AcDb2dVertex
 10
389.847811
 20
416.137593
 30
0.0
  0
VERTEX
  5
5E4
100
AcDbEntity
  8
LAY-9
  6
CONTINUOUS
 62
     1
100
AcDbVertex
100
AcDb2dVertex
 10
389.746473
 20
415.670753
 30
0.0
  0
VERTEX
  5
5E5
100
AcDbEntity
  8
LAY-9
  6
CONTINUOUS
 62
     1
100
AcDbVertex
100
AcDb2dVertex
 10
389.630473
 20
415.117527
 30
0.0
  0
VERTEX
  5
5E6
100
AcDbEntity
  8
LAY-9
  6
CONTINUOUS
 62
     1
100
AcDbVertex
100
AcDb2dVertex
 10
389.506199
 20
414.498916
 30
0.0
  0
VERTEX
  5
5E7
100
AcDbEntity
  8
LAY-9
  6
CONTINUOUS
 62
     1
100
AcDbVertex
100
AcDb2dVertex
 10
389.380036
 20
413.835919
 30
0.0
  0
VERTEX
  5
5E8
100
AcDbEntity
  8
LAY-9
  6
CONTINUOUS
 62
     1
100
AcDbVertex
100
AcDb2dVertex
 10
389.258372
 20
413.149534
 30
0.0
  0
VERTEX
  5
5E9
100
AcDbEntity
  8
LAY-9
  6
CONTINUOUS
 62
     1
100
AcDbVertex
100
AcDb2dVertex
 10
389.147591
 20
412.460761
 30
0.0
  0
VERTEX
  5
5EA
100
AcDbEntity
  8
LAY-9
  6
CONTINUOUS
 62
     1
100
AcDbVertex
100
AcDb2dVertex
 10
389.054081
 20
411.790598
 30
0.0
  0
VERTEX
  5
5EB
100
AcDbEntity
  8
LAY-9
  6
CONTINUOUS
 62
     1
100
AcDbVertex
100
AcDb2dVertex
 10
388.984228
 20
411.160046
 30
0.0
  0
VERTEX
  5
5EC
100
AcDbEntity
  8
LAY-9
  6
CONTINUOUS
 62
     1
100
AcDbVertex
100
AcDb2dVertex
 10
388.949955
 20
410.708615
 30
0.0
  0
VERTEX
  5
5ED
100
AcDbEntity
  8
LAY-9
  6
CONTINUOUS
 62
     1
100
AcDbVertex
100
AcDb2dVertex
 10
388.934152
 20
410.287138
 30
0.0
  0
VERTEX
  5
5EE
100
AcDbEntity
  8
LAY-9
  6
CONTINUOUS
 62
     1
100
AcDbVertex
100
AcDb2dVertex
 10
388.937188
 20
409.88906
 30
0.0
  0
VERTEX
  5
5EF
100
AcDbEntity
  8
LAY-9
  6
CONTINUOUS
 62
     1
100
AcDbVertex
100
AcDb2dVertex
 10
388.959435
 20
409.507824
 30
0.0
  0
VERTEX
  5
5F0
100
AcDbEntity
  8
LAY-9
  6
CONTINUOUS
 62
     1
100
AcDbVertex
100
AcDb2dVertex
 10
389.001263
 20
409.136875
 30
0.0
  0
VERTEX
  5
5F1
100
AcDbEntity
  8
LAY-9
  6
CONTINUOUS
 62
     1
100
AcDbVertex
100
AcDb2dVertex
 10
389.063045
 20
408.769656
 30
0.0
  0
VERTEX
  5
5F2
100
AcDbEntity
  8
LAY-9
  6
CONTINUOUS
 62
     1
100
AcDbVertex
100
AcDb2dVertex
 10
389.14515
 20
408.39961
 30
0.0
  0
VERTEX
  5
5F3
100
AcDbEntity
  8
LAY-9
  6
CONTINUOUS
 62
     1
100
AcDbVertex
100
AcDb2dVertex
 10
389.24795
 20
408.020183
 30
0.0
  0
VERTEX
  5
5F4
100
AcDbEntity
  8
LAY-9
  6
CONTINUOUS
 62
     1
100
AcDbVertex
100
AcDb2dVertex
 10
389.371816
 20
407.624817
 30
0.0
  0
VERTEX
  5
5F5
100
AcDbEntity
  8
LAY-9
  6
CONTINUOUS
 62
     1
100
AcDbVertex
100
AcDb2dVertex
 10
389.517118
 20
407.206957
 30
0.0
  0
VERTEX
  5
5F6
100
AcDbEntity
  8
LAY-9
  6
CONTINUOUS
 62
     1
100
AcDbVertex
100
AcDb2dVertex
 10
389.684228
 20
406.760046
 30
0.0
  0
VERTEX
  5
5F7
100
AcDbEntity
  8
LAY-9
  6
CONTINUOUS
 62
     1
100
AcDbVertex
100
AcDb2dVertex
 10
389.867439
 20
406.293105
 30
0.0
  0
VERTEX
  5
5F8
100
AcDbEntity
  8
LAY-9
  6
CONTINUOUS
 62
     1
100
AcDbVertex
100
AcDb2dVertex
 10
390.065047
 20
405.805915
 30
0.0
  0
VERTEX
  5
5F9
100
AcDbEntity
  8
LAY-9
  6
CONTINUOUS
 62
     1
100
AcDbVertex
100
AcDb2dVertex
 10
390.270341
 20
405.312114
 30
0.0
  0
VERTEX
  5
5FA
100
AcDbEntity
  8
LAY-9
  6
CONTINUOUS
 62
     1
100
AcDbVertex
100
AcDb2dVertex
 10
390.476611
 20
404.825337
 30
0.0
  0
VERTEX
  5
5FB
100
AcDbEntity
  8
LAY-9
  6
CONTINUOUS
 62
     1
100
AcDbVertex
100
AcDb2dVertex
 10
390.677149
 20
404.359221
 30
0.0
  0
VERTEX
  5
5FC
100
AcDbEntity
  8
LAY-9
  6
CONTINUOUS
 62
     1
100
AcDbVertex
100
AcDb2dVertex
 10
390.865243
 20
403.927403
 30
0.0
  0
VERTEX
  5
5FD
100
AcDbEntity
  8
LAY-9
  6
CONTINUOUS
 62
     1
100
AcDbVertex
100
AcDb2dVertex
 10
391.034185
 20
403.543518
 30
0.0
  0
VERTEX
  5
5FE
100
AcDbEntity
  8
LAY-9
  6
CONTINUOUS
 62
     1
100
AcDbVertex
100
AcDb2dVertex
 10
391.177264
 20
403.221204
 30
0.0
  0
VERTEX
  5
5FF
100
AcDbEntity
  8
LAY-9
  6
CONTINUOUS
 62
     1
100
AcDbVertex
100
AcDb2dVertex
 10
391.287771
 20
402.974096
 30
0.0
  0
VERTEX
  5
600
100
AcDbEntity
  8
LAY-9
  6
CONTINUOUS
 62
     1
100
AcDbVertex
100
AcDb2dVertex
 10
391.358995
 20
402.815831
 30
0.0
  0
VERTEX
  5
601
100
AcDbEntity
  8
LAY-9
  6
CONTINUOUS
 62
     1
100
AcDbVertex
100
AcDb2dVertex
 10
391.384228
 20
402.760046
 30
0.0
  0
SEQEND
  5
602
100
AcDbEntity
  8
LAY-9
  6
CONTINUOUS
 62
     1
  0
LINE
  5
603
100
AcDbEntity
  8
LAY-9
  6
CONTINUOUS
 62
     1
100
AcDbLine
 10
160.721313
 20
425.809814
 30
0.0
 11
160.721313
 21
430.309814
 31
0.0
  0
LINE
  5
604
100
AcDbEntity
  8
LAY-9
  6
CONTINUOUS
 62
     1
100
AcDbLine
 10
160.721313
 20
430.309814
 30
0.0
 11
180.721313
 21
430.309814
 31
0.0
  0
LINE
  5
605
100
AcDbEntity
  8
LAY-9
  6
CONTINUOUS
 62
     1
100
AcDbLine
 10
180.721313
 20
430.309814
 30
0.0
 11
180.721313
 21
425.809814
 31
0.0
  0
LINE
  5
606
100
AcDbEntity
  8
LAY-9
  6
CONTINUOUS
 62
     1
100
AcDbLine
 10
329.721344
 20
425.809814
 30
0.0
 11
329.721344
 21
430.309814
 31
0.0
  0
LINE
  5
607
100
AcDbEntity
  8
LAY-9
  6
CONTINUOUS
 62
     1
100
AcDbLine
 10
329.721344
 20
430.309814
 30
0.0
 11
310.721344
 21
430.309814
 31
0.0
  0
LINE
  5
608
100
AcDbEntity
  8
LAY-9
  6
CONTINUOUS
 62
     1
100
AcDbLine
 10
310.721344
 20
430.309814
 30
0.0
 11
310.721344
 21
425.809814
 31
0.0
  0
LINE
  5
609
100
AcDbEntity
  8
LAY-9
  6
CONTINUOUS
 62
     1
100
AcDbLine
 10
171.505569
 20
425.809814
 30
0.0
 11
176.005569
 21
430.309814
 31
0.0
  0
LINE
  5
60A
100
AcDbEntity
  8
LAY-9
  6
CONTINUOUS
 62
     1
100
AcDbLine
 10
174.333996
 20
425.809814
 30
0.0
 11
178.833996
 21
430.309814
 31
0.0
  0
LINE
  5
60B
100
AcDbEntity
  8
LAY-9
  6
CONTINUOUS
 62
     1
100
AcDbLine
 10
318.133996
 20
425.809814
 30
0.0
 11
322.633996
 21
430.309814
 31
0.0
  0
LINE
  5
60C
100
AcDbEntity
  8
LAY-9
  6
CONTINUOUS
 62
     1
100
AcDbLine
 10
320.962423
 20
425.809814
 30
0.0
 11
325.462423
 21
430.309814
 31
0.0
  0
LINE
  5
60D
100
AcDbEntity
  8
LAY-9
  6
CONTINUOUS
 62
     1
100
AcDbLine
 10
329.721344
 20
410.809814
 30
0.0
 11
329.721344
 21
406.309814
 31
0.0
  0
LINE
  5
60E
100
AcDbEntity
  8
LAY-9
  6
CONTINUOUS
 62
     1
100
AcDbLine
 10
329.721344
 20
406.309814
 30
0.0
 11
214.721344
 21
406.309814
 31
0.0
  0
LINE
  5
60F
100
AcDbEntity
  8
LAY-9
  6
CONTINUOUS
 62
     1
100
AcDbLine
 10
214.721344
 20
406.309814
 30
0.0
 11
214.721344
 21
410.809814
 31
0.0
  0
LINE
  5
610
100
AcDbEntity
  8
LAY-9
  6
CONTINUOUS
 62
     1
100
AcDbLine
 10
228.361304
 20
406.309814
 30
0.0
 11
232.861304
 21
410.809814
 31
0.0
  0
LINE
  5
611
100
AcDbEntity
  8
LAY-9
  6
CONTINUOUS
 62
     1
100
AcDbLine
 10
231.189731
 20
406.309814
 30
0.0
 11
235.689731
 21
410.809814
 31
0.0
  0
LINE
  5
612
100
AcDbEntity
  8
LAY-9
  6
CONTINUOUS
 62
     1
100
AcDbLine
 10
256.645575
 20
406.309814
 30
0.0
 11
261.145575
 21
410.809814
 31
0.0
  0
LINE
  5
613
100
AcDbEntity
  8
LAY-9
  6
CONTINUOUS
 62
     1
100
AcDbLine
 10
259.474002
 20
406.309814
 30
0.0
 11
263.974002
 21
410.809814
 31
0.0
  0
LINE
  5
614
100
AcDbEntity
  8
LAY-9
  6
CONTINUOUS
 62
     1
100
AcDbLine
 10
284.929847
 20
406.309814
 30
0.0
 11
289.429847
 21
410.809814
 31
0.0
  0
LINE
  5
615
100
AcDbEntity
  8
LAY-9
  6
CONTINUOUS
 62
     1
100
AcDbLine
 10
287.758274
 20
406.309814
 30
0.0
 11
292.258274
 21
410.809814
 31
0.0
  0
LINE
  5
616
100
AcDbEntity
  8
LAY-9
  6
CONTINUOUS
 62
     1
100
AcDbLine
 10
313.214118
 20
406.309814
 30
0.0
 11
317.714118
 21
410.809814
 31
0.0
  0
LINE
  5
617
100
AcDbEntity
  8
LAY-9
  6
CONTINUOUS
 62
     1
100
AcDbLine
 10
316.042545
 20
406.309814
 30
0.0
 11
320.542545
 21
410.809814
 31
0.0
  0
LINE
  5
618
100
AcDbEntity
  8
LAY-9
  6
CONTINUOUS
 62
     1
100
AcDbLine
 10
136.321344
 20
145.552002
 30
0.0
 11
405.540584
 21
145.552002
 31
0.0
  0
LINE
  5
619
100
AcDbEntity
  8
LAY-9
  6
CONTINUOUS
 62
     1
100
AcDbLine
 10
136.321344
 20
150.052002
 30
0.0
 11
407.03866
 21
150.052002
 31
0.0
  0
LINE
  5
61A
100
AcDbEntity
  8
LAY-9
  6
CONTINUOUS
 62
     1
100
AcDbLine
 10
136.321344
 20
152.352002
 30
0.0
 11
407.536816
 21
152.352002
 31
0.0
  0
LINE
  5
61B
100
AcDbEntity
  8
LAY-9
  6
CONTINUOUS
 62
     1
100
AcDbLine
 10
136.321344
 20
181.599939
 30
0.0
 11
136.321344
 21
130.552002
 31
0.0
  0
LINE
  5
61C
100
AcDbEntity
  8
LAY-9
  6
CONTINUOUS
 62
     1
100
AcDbLine
 10
134.721344
 20
181.599939
 30
0.0
 11
134.721344
 21
130.552002
 31
0.0
  0
POLYLINE
  5
61D
100
AcDbEntity
  8
LAY-9
  6
CONTINUOUS
 62
     1
100
AcDb2dPolyline
 66
     1
 10
0.0
 20
0.0
 30
0.0
 70
   128
  0
VERTEX
  5
61E
100
AcDbEntity
  8
LAY-9
  6
CONTINUOUS
 62
     1
100
AcDbVertex
100
AcDb2dVertex
 10
405.7
 20
130.552002
 30
0.0
  0
VERTEX
  5
61F
100
AcDbEntity
  8
LAY-9
  6
CONTINUOUS
 62
     1
100
AcDbVertex
100
AcDb2dVertex
 10
405.649901
 20
130.692152
 30
0.0
  0
VERTEX
  5
620
100
AcDbEntity
  8
LAY-9
  6
CONTINUOUS
 62
     1
100
AcDbVertex
100
AcDb2dVertex
 10
405.513362
 20
131.088767
 30
0.0
  0
VERTEX
  5
621
100
AcDbEntity
  8
LAY-9
  6
CONTINUOUS
 62
     1
100
AcDbVertex
100
AcDb2dVertex
 10
405.311022
 20
131.706094
 30
0.0
  0
VERTEX
  5
622
100
AcDbEntity
  8
LAY-9
  6
CONTINUOUS
 62
     1
100
AcDbVertex
100
AcDb2dVertex
 10
405.063518
 20
132.508379
 30
0.0
  0
VERTEX
  5
623
100
AcDbEntity
  8
LAY-9
  6
CONTINUOUS
 62
     1
100
AcDbVertex
100
AcDb2dVertex
 10
404.791489
 20
133.45987
 30
0.0
  0
VERTEX
  5
624
100
AcDbEntity
  8
LAY-9
  6
CONTINUOUS
 62
     1
100
AcDbVertex
100
AcDb2dVertex
 10
404.515571
 20
134.524812
 30
0.0
  0
VERTEX
  5
625
100
AcDbEntity
  8
LAY-9
  6
CONTINUOUS
 62
     1
100
AcDbVertex
100
AcDb2dVertex
 10
404.256404
 20
135.667453
 30
0.0
  0
VERTEX
  5
626
100
AcDbEntity
  8
LAY-9
  6
CONTINUOUS
 62
     1
100
AcDbVertex
100
AcDb2dVertex
 10
404.034626
 20
136.852039
 30
0.0
  0
VERTEX
  5
627
100
AcDbEntity
  8
LAY-9
  6
CONTINUOUS
 62
     1
100
AcDbVertex
100
AcDb2dVertex
 10
403.870874
 20
138.042818
 30
0.0
  0
VERTEX
  5
628
100
AcDbEntity
  8
LAY-9
  6
CONTINUOUS
 62
     1
100
AcDbVertex
100
AcDb2dVertex
 10
403.785786
 20
139.204036
 30
0.0
  0
VERTEX
  5
629
100
AcDbEntity
  8
LAY-9
  6
CONTINUOUS
 62
     1
100
AcDbVertex
100
AcDb2dVertex
 10
403.8
 20
140.299939
 30
0.0
  0
VERTEX
  5
62A
100
AcDbEntity
  8
LAY-9
  6
CONTINUOUS
 62
     1
100
AcDbVertex
100
AcDb2dVertex
 10
403.848247
 20
140.800447
 30
0.0
  0
VERTEX
  5
62B
100
AcDbEntity
  8
LAY-9
  6
CONTINUOUS
 62
     1
100
AcDbVertex
100
AcDb2dVertex
 10
403.922251
 20
141.278847
 30
0.0
  0
VERTEX
  5
62C
100
AcDbEntity
  8
LAY-9
  6
CONTINUOUS
 62
     1
100
AcDbVertex
100
AcDb2dVertex
 10
404.0193
 20
141.737021
 30
0.0
  0
VERTEX
  5
62D
100
AcDbEntity
  8
LAY-9
  6
CONTINUOUS
 62
     1
100
AcDbVertex
100
AcDb2dVertex
 10
404.136683
 20
142.176849
 30
0.0
  0
VERTEX
  5
62E
100
AcDbEntity
  8
LAY-9
  6
CONTINUOUS
 62
     1
100
AcDbVertex
100
AcDb2dVertex
 10
404.27169
 20
142.600212
 30
0.0
  0
VERTEX
  5
62F
100
AcDbEntity
  8
LAY-9
  6
CONTINUOUS
 62
     1
100
AcDbVertex
100
AcDb2dVertex
 10
404.421609
 20
143.00899
 30
0.0
  0
VERTEX
  5
630
100
AcDbEntity
  8
LAY-9
  6
CONTINUOUS
 62
     1
100
AcDbVertex
100
AcDb2dVertex
 10
404.583729
 20
143.405064
 30
0.0
  0
VERTEX
  5
631
100
AcDbEntity
  8
LAY-9
  6
CONTINUOUS
 62
     1
100
AcDbVertex
100
AcDb2dVertex
 10
404.755339
 20
143.790316
 30
0.0
  0
VERTEX
  5
632
100
AcDbEntity
  8
LAY-9
  6
CONTINUOUS
 62
     1
100
AcDbVertex
100
AcDb2dVertex
 10
404.933728
 20
144.166625
 30
0.0
  0
VERTEX
  5
633
100
AcDbEntity
  8
LAY-9
  6
CONTINUOUS
 62
     1
100
AcDbVertex
100
AcDb2dVertex
 10
405.116186
 20
144.535872
 30
0.0
  0
VERTEX
  5
634
100
AcDbEntity
  8
LAY-9
  6
CONTINUOUS
 62
     1
100
AcDbVertex
100
AcDb2dVertex
 10
405.3
 20
144.899939
 30
0.0
  0
VERTEX
  5
635
100
AcDbEntity
  8
LAY-9
  6
CONTINUOUS
 62
     1
100
AcDbVertex
100
AcDb2dVertex
 10
405.653624
 20
145.599607
 30
0.0
  0
VERTEX
  5
636
100
AcDbEntity
  8
LAY-9
  6
CONTINUOUS
 62
     1
100
AcDbVertex
100
AcDb2dVertex
 10
405.996633
 20
146.296291
 30
0.0
  0
VERTEX
  5
637
100
AcDbEntity
  8
LAY-9
  6
CONTINUOUS
 62
     1
100
AcDbVertex
100
AcDb2dVertex
 10
406.323537
 20
146.999492
 30
0.0
  0
VERTEX
  5
638
100
AcDbEntity
  8
LAY-9
  6
CONTINUOUS
 62
     1
100
AcDbVertex
100
AcDb2dVertex
 10
406.628844
 20
147.718712
 30
0.0
  0
VERTEX
  5
639
100
AcDbEntity
  8
LAY-9
  6
CONTINUOUS
 62
     1
100
AcDbVertex
100
AcDb2dVertex
 10
406.907063
 20
148.463453
 30
0.0
  0
VERTEX
  5
63A
100
AcDbEntity
  8
LAY-9
  6
CONTINUOUS
 62
     1
100
AcDbVertex
100
AcDb2dVertex
 10
407.152702
 20
149.243217
 30
0.0
  0
VERTEX
  5
63B
100
AcDbEntity
  8
LAY-9
  6
CONTINUOUS
 62
     1
100
AcDbVertex
100
AcDb2dVertex
 10
407.36027
 20
150.067505
 30
0.0
  0
VERTEX
  5
63C
100
AcDbEntity
  8
LAY-9
  6
CONTINUOUS
 62
     1
100
AcDbVertex
100
AcDb2dVertex
 10
407.524275
 20
150.94582
 30
0.0
  0
VERTEX
  5
63D
100
AcDbEntity
  8
LAY-9
  6
CONTINUOUS
 62
     1
100
AcDbVertex
100
AcDb2dVertex
 10
407.639226
 20
151.887662
 30
0.0
  0
VERTEX
  5
63E
100
AcDbEntity
  8
LAY-9
  6
CONTINUOUS
 62
     1
100
AcDbVertex
100
AcDb2dVertex
 10
407.699632
 20
152.902535
 30
0.0
  0
VERTEX
  5
63F
100
AcDbEntity
  8
LAY-9
  6
CONTINUOUS
 62
     1
100
AcDbVertex
100
AcDb2dVertex
 10
407.7
 20
153.999939
 30
0.0
  0
VERTEX
  5
640
100
AcDbEntity
  8
LAY-9
  6
CONTINUOUS
 62
     1
100
AcDbVertex
100
AcDb2dVertex
 10
407.674463
 20
154.620249
 30
0.0
  0
VERTEX
  5
641
100
AcDbEntity
  8
LAY-9
  6
CONTINUOUS
 62
     1
100
AcDbVertex
100
AcDb2dVertex
 10
407.63392
 20
155.251948
 30
0.0
  0
VERTEX
  5
642
100
AcDbEntity
  8
LAY-9
  6
CONTINUOUS
 62
     1
100
AcDbVertex
100
AcDb2dVertex
 10
407.582044
 20
155.880189
 30
0.0
  0
VERTEX
  5
643
100
AcDbEntity
  8
LAY-9
  6
CONTINUOUS
 62
     1
100
AcDbVertex
100
AcDb2dVertex
 10
407.52251
 20
156.490126
 30
0.0
  0
VERTEX
  5
644
100
AcDbEntity
  8
LAY-9
  6
CONTINUOUS
 62
     1
100
AcDbVertex
100
AcDb2dVertex
 10
407.458993
 20
157.066909
 30
0.0
  0
VERTEX
  5
645
100
AcDbEntity
  8
LAY-9
  6
CONTINUOUS
 62
     1
100
AcDbVertex
100
AcDb2dVertex
 10
407.395166
 20
157.595693
 30
0.0
  0
VERTEX
  5
646
100
AcDbEntity
  8
LAY-9
  6
CONTINUOUS
 62
     1
100
AcDbVertex
100
AcDb2dVertex
 10
407.334705
 20
158.061628
 30
0.0
  0
VERTEX
  5
647
100
AcDbEntity
  8
LAY-9
  6
CONTINUOUS
 62
     1
100
AcDbVertex
100
AcDb2dVertex
 10
407.281283
 20
158.449868
 30
0.0
  0
VERTEX
  5
648
100
AcDbEntity
  8
LAY-9
  6
CONTINUOUS
 62
     1
100
AcDbVertex
100
AcDb2dVertex
 10
407.238575
 20
158.745564
 30
0.0
  0
VERTEX
  5
649
100
AcDbEntity
  8
LAY-9
  6
CONTINUOUS
 62
     1
100
AcDbVertex
100
AcDb2dVertex
 10
407.210256
 20
158.933871
 30
0.0
  0
VERTEX
  5
64A
100
AcDbEntity
  8
LAY-9
  6
CONTINUOUS
 62
     1
100
AcDbVertex
100
AcDb2dVertex
 10
407.2
 20
158.999939
 30
0.0
  0
SEQEND
  5
64B
100
AcDbEntity
  8
LAY-9
  6
CONTINUOUS
 62
     1
  0
LINE
  5
64C
100
AcDbEntity
  8
LAY-9
  6
CONTINUOUS
 62
     1
100
AcDbLine
 10
158.522049
 20
145.552002
 30
0.0
 11
163.022049
 21
150.052002
 31
0.0
  0
LINE
  5
64D
100
AcDbEntity
  8
LAY-9
  6
CONTINUOUS
 62
     1
100
AcDbLine
 10
161.350476
 20
145.552002
 30
0.0
 11
165.850476
 21
150.052002
 31
0.0
  0
LINE
  5
64E
100
AcDbEntity
  8
LAY-9
  6
CONTINUOUS
 62
     1
100
AcDbLine
 10
186.80632
 20
145.552002
 30
0.0
 11
191.30632
 21
150.052002
 31
0.0
  0
LINE
  5
64F
100
AcDbEntity
  8
LAY-9
  6
CONTINUOUS
 62
     1
100
AcDbLine
 10
189.634747
 20
145.552002
 30
0.0
 11
194.134747
 21
150.052002
 31
0.0
  0
LINE
  5
650
100
AcDbEntity
  8
LAY-9
  6
CONTINUOUS
 62
     1
100
AcDbLine
 10
215.090591
 20
145.552002
 30
0.0
 11
219.590591
 21
150.052002
 31
0.0
  0
LINE
  5
651
100
AcDbEntity
  8
LAY-9
  6
CONTINUOUS
 62
     1
100
AcDbLine
 10
217.919019
 20
145.552002
 30
0.0
 11
222.419019
 21
150.052002
 31
0.0
  0
LINE
  5
652
100
AcDbEntity
  8
LAY-9
  6
CONTINUOUS
 62
     1
100
AcDbLine
 10
243.374863
 20
145.552002
 30
0.0
 11
247.874863
 21
150.052002
 31
0.0
  0
LINE
  5
653
100
AcDbEntity
  8
LAY-9
  6
CONTINUOUS
 62
     1
100
AcDbLine
 10
246.20329
 20
145.552002
 30
0.0
 11
250.70329
 21
150.052002
 31
0.0
  0
LINE
  5
654
100
AcDbEntity
  8
LAY-9
  6
CONTINUOUS
 62
     1
100
AcDbLine
 10
271.659134
 20
145.552002
 30
0.0
 11
276.159134
 21
150.052002
 31
0.0
  0
LINE
  5
655
100
AcDbEntity
  8
LAY-9
  6
CONTINUOUS
 62
     1
100
AcDbLine
 10
274.487561
 20
145.552002
 30
0.0
 11
278.987561
 21
150.052002
 31
0.0
  0
LINE
  5
656
100
AcDbEntity
  8
LAY-9
  6
CONTINUOUS
 62
     1
100
AcDbLine
 10
299.943405
 20
145.552002
 30
0.0
 11
304.443405
 21
150.052002
 31
0.0
  0
LINE
  5
657
100
AcDbEntity
  8
LAY-9
  6
CONTINUOUS
 62
     1
100
AcDbLine
 10
302.771832
 20
145.552002
 30
0.0
 11
307.271832
 21
150.052002
 31
0.0
  0
LINE
  5
658
100
AcDbEntity
  8
LAY-9
  6
CONTINUOUS
 62
     1
100
AcDbLine
 10
328.227676
 20
145.552002
 30
0.0
 11
332.727676
 21
150.052002
 31
0.0
  0
LINE
  5
659
100
AcDbEntity
  8
LAY-9
  6
CONTINUOUS
 62
     1
100
AcDbLine
 10
331.056104
 20
145.552002
 30
0.0
 11
335.556104
 21
150.052002
 31
0.0
  0
LINE
  5
65A
100
AcDbEntity
  8
LAY-9
  6
CONTINUOUS
 62
     1
100
AcDbLine
 10
356.511948
 20
145.552002
 30
0.0
 11
361.011948
 21
150.052002
 31
0.0
  0
LINE
  5
65B
100
AcDbEntity
  8
LAY-9
  6
CONTINUOUS
 62
     1
100
AcDbLine
 10
359.340375
 20
145.552002
 30
0.0
 11
363.840375
 21
150.052002
 31
0.0
  0
LINE
  5
65C
100
AcDbEntity
  8
LAY-9
  6
CONTINUOUS
 62
     1
100
AcDbLine
 10
134.721344
 20
130.552002
 30
0.0
 11
182.221338
 21
130.552002
 31
0.0
  0
LINE
  5
65D
100
AcDbEntity
  8
LAY-9
  6
CONTINUOUS
 62
     1
100
AcDbLine
 10
207.221351
 20
130.552002
 30
0.0
 11
405.7
 21
130.552002
 31
0.0
  0
ARC
  5
65E
100
AcDbEntity
  8
LAY-9
  6
CONTINUOUS
 62
     1
100
AcDbCircle
 10
194.721344
 20
244.052078
 30
0.0
 40
60.0
100
AcDbArc
 50
160.528779
 51
199.471221
  0
LINE
  5
65F
100
AcDbEntity
  8
LAY-9
  6
CONTINUOUS
 62
     1
100
AcDbLine
 10
138.152802
 20
264.052078
 30
0.0
 11
405.760229
 21
264.052078
 31
0.0
  0
LINE
  5
660
100
AcDbEntity
  8
LAY-9
  6
CONTINUOUS
 62
     1
100
AcDbLine
 10
138.152802
 20
224.052078
 30
0.0
 11
405.760229
 21
224.052078
 31
0.0
  0
POLYLINE
  5
661
100
AcDbEntity
  8
LAY-9
  6
CONTINUOUS
 62
     1
100
AcDb2dPolyline
 66
     1
 10
0.0
 20
0.0
 30
0.0
 70
   128
  0
VERTEX
  5
662
100
AcDbEntity
  8
LAY-9
  6
CONTINUOUS
 62
     1
100
AcDbVertex
100
AcDb2dVertex
 10
405.760229
 20
264.052078
 30
0.0
  0
VERTEX
  5
663
100
AcDbEntity
  8
LAY-9
  6
CONTINUOUS
 62
     1
100
AcDbVertex
100
AcDb2dVertex
 10
405.827992
 20
263.896393
 30
0.0
  0
VERTEX
  5
664
100
AcDbEntity
  8
LAY-9
  6
CONTINUOUS
 62
     1
100
AcDbVertex
100
AcDb2dVertex
 10
406.014094
 20
263.454746
 30
0.0
  0
VERTEX
  5
665
100
AcDbEntity
  8
LAY-9
  6
CONTINUOUS
 62
     1
100
AcDbVertex
100
AcDb2dVertex
 10
406.292752
 20
262.765248
 30
0.0
  0
VERTEX
  5
666
100
AcDbEntity
  8
LAY-9
  6
CONTINUOUS
 62
     1
100
AcDbVertex
100
AcDb2dVertex
 10
406.638185
 20
261.86601
 30
0.0
  0
VERTEX
  5
667
100
AcDbEntity
  8
LAY-9
  6
CONTINUOUS
 62
     1
100
AcDbVertex
100
AcDb2dVertex
 10
407.024611
 20
260.795145
 30
0.0
  0
VERTEX
  5
668
100
AcDbEntity
  8
LAY-9
  6
CONTINUOUS
 62
     1
100
AcDbVertex
100
AcDb2dVertex
 10
407.426247
 20
259.590762
 30
0.0
  0
VERTEX
  5
669
100
AcDbEntity
  8
LAY-9
  6
CONTINUOUS
 62
     1
100
AcDbVertex
100
AcDb2dVertex
 10
407.817313
 20
258.290975
 30
0.0
  0
VERTEX
  5
66A
100
AcDbEntity
  8
LAY-9
  6
CONTINUOUS
 62
     1
100
AcDbVertex
100
AcDb2dVertex
 10
408.172026
 20
256.933893
 30
0.0
  0
VERTEX
  5
66B
100
AcDbEntity
  8
LAY-9
  6
CONTINUOUS
 62
     1
100
AcDbVertex
100
AcDb2dVertex
 10
408.464604
 20
255.557629
 30
0.0
  0
VERTEX
  5
66C
100
AcDbEntity
  8
LAY-9
  6
CONTINUOUS
 62
     1
100
AcDbVertex
100
AcDb2dVertex
 10
408.669266
 20
254.200295
 30
0.0
  0
VERTEX
  5
66D
100
AcDbEntity
  8
LAY-9
  6
CONTINUOUS
 62
     1
100
AcDbVertex
100
AcDb2dVertex
 10
408.760229
 20
252.9
 30
0.0
  0
VERTEX
  5
66E
100
AcDbEntity
  8
LAY-9
  6
CONTINUOUS
 62
     1
100
AcDbVertex
100
AcDb2dVertex
 10
408.736357
 20
251.905848
 30
0.0
  0
VERTEX
  5
66F
100
AcDbEntity
  8
LAY-9
  6
CONTINUOUS
 62
     1
100
AcDbVertex
100
AcDb2dVertex
 10
408.629395
 20
250.968668
 30
0.0
  0
VERTEX
  5
670
100
AcDbEntity
  8
LAY-9
  6
CONTINUOUS
 62
     1
100
AcDbVertex
100
AcDb2dVertex
 10
408.448632
 20
250.082413
 30
0.0
  0
VERTEX
  5
671
100
AcDbEntity
  8
LAY-9
  6
CONTINUOUS
 62
     1
100
AcDbVertex
100
AcDb2dVertex
 10
408.203355
 20
249.241035
 30
0.0
  0
VERTEX
  5
672
100
AcDbEntity
  8
LAY-9
  6
CONTINUOUS
 62
     1
100
AcDbVertex
100
AcDb2dVertex
 10
407.902852
 20
248.438487
 30
0.0
  0
VERTEX
  5
673
100
AcDbEntity
  8
LAY-9
  6
CONTINUOUS
 62
     1
100
AcDbVertex
100
AcDb2dVertex
 10
407.556412
 20
247.668723
 30
0.0
  0
VERTEX
  5
674
100
AcDbEntity
  8
LAY-9
  6
CONTINUOUS
 62
     1
100
AcDbVertex
100
AcDb2dVertex
 10
407.173323
 20
246.925695
 30
0.0
  0
VERTEX
  5
675
100
AcDbEntity
  8
LAY-9
  6
CONTINUOUS
 62
     1
100
AcDbVertex
100
AcDb2dVertex
 10
406.762871
 20
246.203355
 30
0.0
  0
VERTEX
  5
676
100
AcDbEntity
  8
LAY-9
  6
CONTINUOUS
 62
     1
100
AcDbVertex
100
AcDb2dVertex
 10
406.334347
 20
245.495658
 30
0.0
  0
VERTEX
  5
677
100
AcDbEntity
  8
LAY-9
  6
CONTINUOUS
 62
     1
100
AcDbVertex
100
AcDb2dVertex
 10
405.897037
 20
244.796555
 30
0.0
  0
VERTEX
  5
678
100
AcDbEntity
  8
LAY-9
  6
CONTINUOUS
 62
     1
100
AcDbVertex
100
AcDb2dVertex
 10
405.460229
 20
244.1
 30
0.0
  0
VERTEX
  5
679
100
AcDbEntity
  8
LAY-9
  6
CONTINUOUS
 62
     1
100
AcDbVertex
100
AcDb2dVertex
 10
405.054279
 20
243.435957
 30
0.0
  0
VERTEX
  5
67A
100
AcDbEntity
  8
LAY-9
  6
CONTINUOUS
 62
     1
100
AcDbVertex
100
AcDb2dVertex
 10
404.662967
 20
242.764116
 30
0.0
  0
VERTEX
  5
67B
100
AcDbEntity
  8
LAY-9
  6
CONTINUOUS
 62
     1
100
AcDbVertex
100
AcDb2dVertex
 10
404.292112
 20
242.079831
 30
0.0
  0
VERTEX
  5
67C
100
AcDbEntity
  8
LAY-9
  6
CONTINUOUS
 62
     1
100
AcDbVertex
100
AcDb2dVertex
 10
403.947535
 20
241.378456
 30
0.0
  0
VERTEX
  5
67D
100
AcDbEntity
  8
LAY-9
  6
CONTINUOUS
 62
     1
100
AcDbVertex
100
AcDb2dVertex
 10
403.635057
 20
240.655344
 30
0.0
  0
VERTEX
  5
67E
100
AcDbEntity
  8
LAY-9
  6
CONTINUOUS
 62
     1
100
AcDbVertex
100
AcDb2dVertex
 10
403.360499
 20
239.905849
 30
0.0
  0
VERTEX
  5
67F
100
AcDbEntity
  8
LAY-9
  6
CONTINUOUS
 62
     1
100
AcDbVertex
100
AcDb2dVertex
 10
403.129682
 20
239.125324
 30
0.0
  0
VERTEX
  5
680
100
AcDbEntity
  8
LAY-9
  6
CONTINUOUS
 62
     1
100
AcDbVertex
100
AcDb2dVertex
 10
402.948425
 20
238.309123
 30
0.0
  0
VERTEX
  5
681
100
AcDbEntity
  8
LAY-9
  6
CONTINUOUS
 62
     1
100
AcDbVertex
100
AcDb2dVertex
 10
402.82255
 20
237.452599
 30
0.0
  0
VERTEX
  5
682
100
AcDbEntity
  8
LAY-9
  6
CONTINUOUS
 62
     1
100
AcDbVertex
100
AcDb2dVertex
 10
402.757878
 20
236.551107
 30
0.0
  0
VERTEX
  5
683
100
AcDbEntity
  8
LAY-9
  6
CONTINUOUS
 62
     1
100
AcDbVertex
100
AcDb2dVertex
 10
402.760229
 20
235.6
 30
0.0
  0
VERTEX
  5
684
100
AcDbEntity
  8
LAY-9
  6
CONTINUOUS
 62
     1
100
AcDbVertex
100
AcDb2dVertex
 10
402.871897
 20
234.250333
 30
0.0
  0
VERTEX
  5
685
100
AcDbEntity
  8
LAY-9
  6
CONTINUOUS
 62
     1
100
AcDbVertex
100
AcDb2dVertex
 10
403.089395
 20
232.842824
 30
0.0
  0
VERTEX
  5
686
100
AcDbEntity
  8
LAY-9
  6
CONTINUOUS
 62
     1
100
AcDbVertex
100
AcDb2dVertex
 10
403.388185
 20
231.416744
 30
0.0
  0
VERTEX
  5
687
100
AcDbEntity
  8
LAY-9
  6
CONTINUOUS
 62
     1
100
AcDbVertex
100
AcDb2dVertex
 10
403.743726
 20
230.011364
 30
0.0
  0
VERTEX
  5
688
100
AcDbEntity
  8
LAY-9
  6
CONTINUOUS
 62
     1
100
AcDbVertex
100
AcDb2dVertex
 10
404.131479
 20
228.665955
 30
0.0
  0
VERTEX
  5
689
100
AcDbEntity
  8
LAY-9
  6
CONTINUOUS
 62
     1
100
AcDbVertex
100
AcDb2dVertex
 10
404.526904
 20
227.419789
 30
0.0
  0
VERTEX
  5
68A
100
AcDbEntity
  8
LAY-9
  6
CONTINUOUS
 62
     1
100
AcDbVertex
100
AcDb2dVertex
 10
404.905462
 20
226.312136
 30
0.0
  0
VERTEX
  5
68B
100
AcDbEntity
  8
LAY-9
  6
CONTINUOUS
 62
     1
100
AcDbVertex
100
AcDb2dVertex
 10
405.242613
 20
225.382267
 30
0.0
  0
VERTEX
  5
68C
100
AcDbEntity
  8
LAY-9
  6
CONTINUOUS
 62
     1
100
AcDbVertex
100
AcDb2dVertex
 10
405.513818
 20
224.669454
 30
0.0
  0
VERTEX
  5
68D
100
AcDbEntity
  8
LAY-9
  6
CONTINUOUS
 62
     1
100
AcDbVertex
100
AcDb2dVertex
 10
405.694536
 20
224.212967
 30
0.0
  0
VERTEX
  5
68E
100
AcDbEntity
  8
LAY-9
  6
CONTINUOUS
 62
     1
100
AcDbVertex
100
AcDb2dVertex
 10
405.760229
 20
224.052078
 30
0.0
  0
SEQEND
  5
68F
100
AcDbEntity
  8
LAY-9
  6
CONTINUOUS
 62
     1
  0
LINE
  5
690
100
AcDbEntity
  8
LAY-9
  6
CONTINUOUS
 62
     1
100
AcDbLine
 10
645.378461
 20
352.052032
 30
0.0
 11
677.578461
 21
352.052032
 31
0.0
  0
LINE
  5
691
100
AcDbEntity
  8
LAY-9
  6
CONTINUOUS
 62
     1
100
AcDbLine
 10
645.378461
 20
347.552063
 30
0.0
 11
677.578461
 21
347.552063
 31
0.0
  0
LINE
  5
692
100
AcDbEntity
  8
LAY-9
  6
CONTINUOUS
 62
     1
100
AcDbLine
 10
641.478461
 20
406.6
 30
0.0
 11
641.478461
 21
332.552005
 31
0.0
  0
LINE
  5
693
100
AcDbEntity
  8
LAY-9
  6
CONTINUOUS
 62
     1
100
AcDbLine
 10
643.078461
 20
406.6
 30
0.0
 11
643.078461
 21
332.552005
 31
0.0
  0
LINE
  5
694
100
AcDbEntity
  8
LAY-9
  6
CONTINUOUS
 62
     1
100
AcDbLine
 10
645.378461
 20
352.052032
 30
0.0
 11
645.378461
 21
334.352005
 31
0.0
  0
LINE
  5
695
100
AcDbEntity
  8
LAY-9
  6
CONTINUOUS
 62
     1
100
AcDbLine
 10
681.478461
 20
406.6
 30
0.0
 11
681.478461
 21
332.552005
 31
0.0
  0
LINE
  5
696
100
AcDbEntity
  8
LAY-9
  6
CONTINUOUS
 62
     1
100
AcDbLine
 10
679.878461
 20
406.6
 30
0.0
 11
679.878461
 21
332.552005
 31
0.0
  0
LINE
  5
697
100
AcDbEntity
  8
LAY-9
  6
CONTINUOUS
 62
     1
100
AcDbLine
 10
677.578461
 20
352.052032
 30
0.0
 11
677.578461
 21
334.352005
 31
0.0
  0
LINE
  5
698
100
AcDbEntity
  8
LAY-9
  6
CONTINUOUS
 62
     1
100
AcDbLine
 10
681.478461
 20
332.552005
 30
0.0
 11
679.878461
 21
332.552005
 31
0.0
  0
LINE
  5
699
100
AcDbEntity
  8
LAY-9
  6
CONTINUOUS
 62
     1
100
AcDbLine
 10
641.478461
 20
332.552005
 30
0.0
 11
643.078461
 21
332.552005
 31
0.0
  0
LINE
  5
69A
100
AcDbEntity
  8
LAY-9
  6
CONTINUOUS
 62
     1
100
AcDbLine
 10
645.378461
 20
354.352032
 30
0.0
 11
677.578461
 21
354.352032
 31
0.0
  0
LINE
  5
69B
100
AcDbEntity
  8
LAY-9
  6
CONTINUOUS
 62
     1
100
AcDbLine
 10
645.378461
 20
334.352005
 30
0.0
 11
643.078461
 21
334.352005
 31
0.0
  0
LINE
  5
69C
100
AcDbEntity
  8
LAY-9
  6
CONTINUOUS
 62
     1
100
AcDbLine
 10
679.878461
 20
334.352005
 30
0.0
 11
677.578461
 21
334.352005
 31
0.0
  0
ARC
  5
69D
100
AcDbEntity
  8
LAY-9
  6
CONTINUOUS
 62
     1
100
AcDbCircle
 10
645.378461
 20
352.052032
 30
0.0
 40
2.3
100
AcDbArc
 50
90.0
 51
180.0
  0
ARC
  5
69E
100
AcDbEntity
  8
LAY-9
  6
CONTINUOUS
 62
     1
100
AcDbCircle
 10
677.578461
 20
352.052032
 30
0.0
 40
2.3
100
AcDbArc
 50
0.0
 51
90.0
  0
LINE
  5
69F
100
AcDbEntity
  8
LAY-9
  6
CONTINUOUS
 62
     1
100
AcDbLine
 10
679.978339
 20
489.009814
 30
0.0
 11
710.3
 21
489.009814
 31
0.0
  0
LINE
  5
6A0
100
AcDbEntity
  8
LAY-9
  6
CONTINUOUS
 62
     1
100
AcDbLine
 10
642.978339
 20
489.009784
 30
0.0
 11
618.4
 21
489.009784
 31
0.0
  0
LINE
  5
6A1
100
AcDbEntity
  8
LAY-9
  6
CONTINUOUS
 62
     1
100
AcDbLine
 10
645.378461
 20
482.109811
 30
0.0
 11
645.378461
 21
464.409811
 31
0.0
  0
LINE
  5
6A2
100
AcDbEntity
  8
LAY-9
  6
CONTINUOUS
 62
     1
100
AcDbLine
 10
677.578461
 20
482.109811
 30
0.0
 11
677.578461
 21
464.409811
 31
0.0
  0
ARC
  5
6A3
100
AcDbEntity
  8
LAY-9
  6
CONTINUOUS
 62
     1
100
AcDbCircle
 10
643.078461
 20
484.409811
 30
0.0
 40
1.6
100
AcDbArc
 50
90.0
 51
180.0
  0
ARC
  5
6A4
100
AcDbEntity
  8
LAY-9
  6
CONTINUOUS
 62
     1
100
AcDbCircle
 10
679.878461
 20
484.409811
 30
0.0
 40
1.6
100
AcDbArc
 50
0.0
 51
90.0
  0
LINE
  5
6A5
100
AcDbEntity
  8
LAY-9
  6
CONTINUOUS
 62
     1
100
AcDbLine
 10
645.378461
 20
464.409811
 30
0.0
 11
643.078461
 21
464.409811
 31
0.0
  0
LINE
  5
6A6
100
AcDbEntity
  8
LAY-9
  6
CONTINUOUS
 62
     1
100
AcDbLine
 10
677.578461
 20
464.409811
 30
0.0
 11
679.878461
 21
464.409811
 31
0.0
  0
ARC
  5
6A7
100
AcDbEntity
  8
LAY-9
  6
CONTINUOUS
 62
     1
100
AcDbCircle
 10
645.378461
 20
482.109811
 30
0.0
 40
2.3
100
AcDbArc
 50
90.0
 51
180.0
  0
ARC
  5
6A8
100
AcDbEntity
  8
LAY-9
  6
CONTINUOUS
 62
     1
100
AcDbCircle
 10
677.578461
 20
482.109811
 30
0.0
 40
2.3
100
AcDbArc
 50
0.0
 51
90.0
  0
LINE
  5
6A9
100
AcDbEntity
  8
LAY-9
  6
CONTINUOUS
 62
     1
100
AcDbLine
 10
643.078461
 20
484.409811
 30
0.0
 11
645.478339
 21
484.409811
 31
0.0
  0
LINE
  5
6AA
100
AcDbEntity
  8
LAY-9
  6
CONTINUOUS
 62
     1
100
AcDbLine
 10
677.478339
 20
484.409811
 30
0.0
 11
679.878461
 21
484.409811
 31
0.0
  0
LINE
  5
6AB
100
AcDbEntity
  8
LAY-9
  6
CONTINUOUS
 62
     1
100
AcDbLine
 10
645.378461
 20
482.109811
 30
0.0
 11
645.478339
 21
482.109811
 31
0.0
  0
LINE
  5
6AC
100
AcDbEntity
  8
LAY-9
  6
CONTINUOUS
 62
     1
100
AcDbLine
 10
677.478339
 20
482.109811
 30
0.0
 11
677.578461
 21
482.109811
 31
0.0
  0
LINE
  5
6AD
100
AcDbEntity
  8
LAY-9
  6
CONTINUOUS
 62
     1
100
AcDbLine
 10
641.478461
 20
484.409811
 30
0.0
 11
641.478461
 21
411.6
 31
0.0
  0
LINE
  5
6AE
100
AcDbEntity
  8
LAY-9
  6
CONTINUOUS
 62
     1
100
AcDbLine
 10
679.878461
 20
484.409811
 30
0.0
 11
679.878461
 21
411.6
 31
0.0
  0
LINE
  5
6AF
100
AcDbEntity
  8
LAY-9
  6
CONTINUOUS
 62
     1
100
AcDbLine
 10
643.078461
 20
484.409811
 30
0.0
 11
643.078461
 21
411.6
 31
0.0
  0
LINE
  5
6B0
100
AcDbEntity
  8
LAY-9
  6
CONTINUOUS
 62
     1
100
AcDbLine
 10
136.321344
 20
415.209814
 30
0.0
 11
136.321344
 21
370.0
 31
0.0
  0
LINE
  5
6B1
100
AcDbEntity
  8
LAY-9
  6
CONTINUOUS
 62
     1
100
AcDbLine
 10
134.721344
 20
416.809814
 30
0.0
 11
134.721344
 21
370.0
 31
0.0
  0
LINE
  5
6B2
100
AcDbEntity
  8
LAY-9
  6
CONTINUOUS
 62
     1
100
AcDbLine
 10
131.721344
 20
419.809814
 30
0.0
 11
131.721344
 21
370.0
 31
0.0
  0
ARC
  5
6B3
100
AcDbEntity
  8
LAY-9
  6
CONTINUOUS
 62
     1
100
AcDbCircle
 10
194.721344
 20
327.15741
 30
0.0
 40
60.0
100
AcDbArc
 50
160.528779
 51
199.471221
  0
LINE
  5
6B4
100
AcDbEntity
  8
LAY-9
  6
CONTINUOUS
 62
     1
100
AcDbLine
 10
138.152802
 20
347.15741
 30
0.0
 11
405.760229
 21
347.15741
 31
0.0
  0
LINE
  5
6B5
100
AcDbEntity
  8
LAY-9
  6
CONTINUOUS
 62
     1
100
AcDbLine
 10
138.152802
 20
307.15741
 30
0.0
 11
405.760229
 21
307.15741
 31
0.0
  0
POLYLINE
  5
6B6
100
AcDbEntity
  8
LAY-9
  6
CONTINUOUS
 62
     1
100
AcDb2dPolyline
 66
     1
 10
0.0
 20
0.0
 30
0.0
 70
   128
  0
VERTEX
  5
6B7
100
AcDbEntity
  8
LAY-9
  6
CONTINUOUS
 62
     1
100
AcDbVertex
100
AcDb2dVertex
 10
405.760229
 20
347.15741
 30
0.0
  0
VERTEX
  5
6B8
100
AcDbEntity
  8
LAY-9
  6
CONTINUOUS
 62
     1
100
AcDbVertex
100
AcDb2dVertex
 10
405.827992
 20
347.001725
 30
0.0
  0
VERTEX
  5
6B9
100
AcDbEntity
  8
LAY-9
  6
CONTINUOUS
 62
     1
100
AcDbVertex
100
AcDb2dVertex
 10
406.014094
 20
346.560078
 30
0.0
  0
VERTEX
  5
6BA
100
AcDbEntity
  8
LAY-9
  6
CONTINUOUS
 62
     1
100
AcDbVertex
100
AcDb2dVertex
 10
406.292752
 20
345.87058
 30
0.0
  0
VERTEX
  5
6BB
100
AcDbEntity
  8
LAY-9
  6
CONTINUOUS
 62
     1
100
AcDbVertex
100
AcDb2dVertex
 10
406.638185
 20
344.971342
 30
0.0
  0
VERTEX
  5
6BC
100
AcDbEntity
  8
LAY-9
  6
CONTINUOUS
 62
     1
100
AcDbVertex
100
AcDb2dVertex
 10
407.024611
 20
343.900477
 30
0.0
  0
VERTEX
  5
6BD
100
AcDbEntity
  8
LAY-9
  6
CONTINUOUS
 62
     1
100
AcDbVertex
100
AcDb2dVertex
 10
407.426247
 20
342.696094
 30
0.0
  0
VERTEX
  5
6BE
100
AcDbEntity
  8
LAY-9
  6
CONTINUOUS
 62
     1
100
AcDbVertex
100
AcDb2dVertex
 10
407.817313
 20
341.396307
 30
0.0
  0
VERTEX
  5
6BF
100
AcDbEntity
  8
LAY-9
  6
CONTINUOUS
 62
     1
100
AcDbVertex
100
AcDb2dVertex
 10
408.172026
 20
340.039225
 30
0.0
  0
VERTEX
  5
6C0
100
AcDbEntity
  8
LAY-9
  6
CONTINUOUS
 62
     1
100
AcDbVertex
100
AcDb2dVertex
 10
408.464604
 20
338.662961
 30
0.0
  0
VERTEX
  5
6C1
100
AcDbEntity
  8
LAY-9
  6
CONTINUOUS
 62
     1
100
AcDbVertex
100
AcDb2dVertex
 10
408.669266
 20
337.305627
 30
0.0
  0
VERTEX
  5
6C2
100
AcDbEntity
  8
LAY-9
  6
CONTINUOUS
 62
     1
100
AcDbVertex
100
AcDb2dVertex
 10
408.760229
 20
336.005332
 30
0.0
  0
VERTEX
  5
6C3
100
AcDbEntity
  8
LAY-9
  6
CONTINUOUS
 62
     1
100
AcDbVertex
100
AcDb2dVertex
 10
408.736357
 20
335.01118
 30
0.0
  0
VERTEX
  5
6C4
100
AcDbEntity
  8
LAY-9
  6
CONTINUOUS
 62
     1
100
AcDbVertex
100
AcDb2dVertex
 10
408.629395
 20
334.074
 30
0.0
  0
VERTEX
  5
6C5
100
AcDbEntity
  8
LAY-9
  6
CONTINUOUS
 62
     1
100
AcDbVertex
100
AcDb2dVertex
 10
408.448632
 20
333.187745
 30
0.0
  0
VERTEX
  5
6C6
100
AcDbEntity
  8
LAY-9
  6
CONTINUOUS
 62
     1
100
AcDbVertex
100
AcDb2dVertex
 10
408.203355
 20
332.346367
 30
0.0
  0
VERTEX
  5
6C7
100
AcDbEntity
  8
LAY-9
  6
CONTINUOUS
 62
     1
100
AcDbVertex
100
AcDb2dVertex
 10
407.902852
 20
331.543819
 30
0.0
  0
VERTEX
  5
6C8
100
AcDbEntity
  8
LAY-9
  6
CONTINUOUS
 62
     1
100
AcDbVertex
100
AcDb2dVertex
 10
407.556412
 20
330.774055
 30
0.0
  0
VERTEX
  5
6C9
100
AcDbEntity
  8
LAY-9
  6
CONTINUOUS
 62
     1
100
AcDbVertex
100
AcDb2dVertex
 10
407.173323
 20
330.031027
 30
0.0
  0
VERTEX
  5
6CA
100
AcDbEntity
  8
LAY-9
  6
CONTINUOUS
 62
     1
100
AcDbVertex
100
AcDb2dVertex
 10
406.762871
 20
329.308687
 30
0.0
  0
VERTEX
  5
6CB
100
AcDbEntity
  8
LAY-9
  6
CONTINUOUS
 62
     1
100
AcDbVertex
100
AcDb2dVertex
 10
406.334347
 20
328.60099
 30
0.0
  0
VERTEX
  5
6CC
100
AcDbEntity
  8
LAY-9
  6
CONTINUOUS
 62
     1
100
AcDbVertex
100
AcDb2dVertex
 10
405.897037
 20
327.901887
 30
0.0
  0
VERTEX
  5
6CD
100
AcDbEntity
  8
LAY-9
  6
CONTINUOUS
 62
     1
100
AcDbVertex
100
AcDb2dVertex
 10
405.460229
 20
327.205332
 30
0.0
  0
VERTEX
  5
6CE
100
AcDbEntity
  8
LAY-9
  6
CONTINUOUS
 62
     1
100
AcDbVertex
100
AcDb2dVertex
 10
405.054279
 20
326.541289
 30
0.0
  0
VERTEX
  5
6CF
100
AcDbEntity
  8
LAY-9
  6
CONTINUOUS
 62
     1
100
AcDbVertex
100
AcDb2dVertex
 10
404.662967
 20
325.869448
 30
0.0
  0
VERTEX
  5
6D0
100
AcDbEntity
  8
LAY-9
  6
CONTINUOUS
 62
     1
100
AcDbVertex
100
AcDb2dVertex
 10
404.292112
 20
325.185163
 30
0.0
  0
VERTEX
  5
6D1
100
AcDbEntity
  8
LAY-9
  6
CONTINUOUS
 62
     1
100
AcDbVertex
100
AcDb2dVertex
 10
403.947535
 20
324.483788
 30
0.0
  0
VERTEX
  5
6D2
100
AcDbEntity
  8
LAY-9
  6
CONTINUOUS
 62
     1
100
AcDbVertex
100
AcDb2dVertex
 10
403.635057
 20
323.760676
 30
0.0
  0
VERTEX
  5
6D3
100
AcDbEntity
  8
LAY-9
  6
CONTINUOUS
 62
     1
100
AcDbVertex
100
AcDb2dVertex
 10
403.360499
 20
323.011181
 30
0.0
  0
VERTEX
  5
6D4
100
AcDbEntity
  8
LAY-9
  6
CONTINUOUS
 62
     1
100
AcDbVertex
100
AcDb2dVertex
 10
403.129682
 20
322.230656
 30
0.0
  0
VERTEX
  5
6D5
100
AcDbEntity
  8
LAY-9
  6
CONTINUOUS
 62
     1
100
AcDbVertex
100
AcDb2dVertex
 10
402.948425
 20
321.414455
 30
0.0
  0
VERTEX
  5
6D6
100
AcDbEntity
  8
LAY-9
  6
CONTINUOUS
 62
     1
100
AcDbVertex
100
AcDb2dVertex
 10
402.82255
 20
320.557931
 30
0.0
  0
VERTEX
  5
6D7
100
AcDbEntity
  8
LAY-9
  6
CONTINUOUS
 62
     1
100
AcDbVertex
100
AcDb2dVertex
 10
402.757878
 20
319.656439
 30
0.0
  0
VERTEX
  5
6D8
100
AcDbEntity
  8
LAY-9
  6
CONTINUOUS
 62
     1
100
AcDbVertex
100
AcDb2dVertex
 10
402.760229
 20
318.705332
 30
0.0
  0
VERTEX
  5
6D9
100
AcDbEntity
  8
LAY-9
  6
CONTINUOUS
 62
     1
100
AcDbVertex
100
AcDb2dVertex
 10
402.871897
 20
317.355665
 30
0.0
  0
VERTEX
  5
6DA
100
AcDbEntity
  8
LAY-9
  6
CONTINUOUS
 62
     1
100
AcDbVertex
100
AcDb2dVertex
 10
403.089395
 20
315.948156
 30
0.0
  0
VERTEX
  5
6DB
100
AcDbEntity
  8
LAY-9
  6
CONTINUOUS
 62
     1
100
AcDbVertex
100
AcDb2dVertex
 10
403.388185
 20
314.522076
 30
0.0
  0
VERTEX
  5
6DC
100
AcDbEntity
  8
LAY-9
  6
CONTINUOUS
 62
     1
100
AcDbVertex
100
AcDb2dVertex
 10
403.743726
 20
313.116696
 30
0.0
  0
VERTEX
  5
6DD
100
AcDbEntity
  8
LAY-9
  6
CONTINUOUS
 62
     1
100
AcDbVertex
100
AcDb2dVertex
 10
404.131479
 20
311.771287
 30
0.0
  0
VERTEX
  5
6DE
100
AcDbEntity
  8
LAY-9
  6
CONTINUOUS
 62
     1
100
AcDbVertex
100
AcDb2dVertex
 10
404.526904
 20
310.525121
 30
0.0
  0
VERTEX
  5
6DF
100
AcDbEntity
  8
LAY-9
  6
CONTINUOUS
 62
     1
100
AcDbVertex
100
AcDb2dVertex
 10
404.905462
 20
309.417468
 30
0.0
  0
VERTEX
  5
6E0
100
AcDbEntity
  8
LAY-9
  6
CONTINUOUS
 62
     1
100
AcDbVertex
100
AcDb2dVertex
 10
405.242613
 20
308.487599
 30
0.0
  0
VERTEX
  5
6E1
100
AcDbEntity
  8
LAY-9
  6
CONTINUOUS
 62
     1
100
AcDbVertex
100
AcDb2dVertex
 10
405.513818
 20
307.774786
 30
0.0
  0
VERTEX
  5
6E2
100
AcDbEntity
  8
LAY-9
  6
CONTINUOUS
 62
     1
100
AcDbVertex
100
AcDb2dVertex
 10
405.694536
 20
307.318299
 30
0.0
  0
VERTEX
  5
6E3
100
AcDbEntity
  8
LAY-9
  6
CONTINUOUS
 62
     1
100
AcDbVertex
100
AcDb2dVertex
 10
405.760229
 20
307.15741
 30
0.0
  0
SEQEND
  5
6E4
100
AcDbEntity
  8
LAY-9
  6
CONTINUOUS
 62
     1
  0
LINE
  5
6E5
100
AcDbEntity
  8
LAY-9
  6
DIVIDE
 62
     1
100
AcDbLine
 10
636.5
 20
411.6
 30
0.0
 11
686.3
 21
411.6
 31
0.0
  0
LINE
  5
6E6
100
AcDbEntity
  8
LAY-9
  6
DIVIDE
 62
     1
100
AcDbLine
 10
636.5
 20
406.6
 30
0.0
 11
686.3
 21
406.6
 31
0.0
  0
LINE
  5
6E7
100
AcDbEntity
  8
LAY-9
  6
CONTINUOUS
 62
     1
100
AcDbLine
 10
381.511948
 20
145.552002
 30
0.0
 11
386.011948
 21
150.052002
 31
0.0
  0
LINE
  5
6E8
100
AcDbEntity
  8
LAY-9
  6
CONTINUOUS
 62
     1
100
AcDbLine
 10
384.340375
 20
145.552002
 30
0.0
 11
388.840375
 21
150.052002
 31
0.0
  0
LINE
  5
6E9
100
AcDbEntity
  8
LAY-9
  6
CONTINUOUS
 62
     1
100
AcDbLine
 10
652.799969
 20
352.052032
 30
0.0
 11
648.3
 21
347.552063
 31
0.0
  0
LINE
  5
6EA
100
AcDbEntity
  8
LAY-9
  6
CONTINUOUS
 62
     1
100
AcDbLine
 10
655.628396
 20
352.052032
 30
0.0
 11
651.128427
 21
347.552063
 31
0.0
  0
LINE
  5
6EB
100
AcDbEntity
  8
LAY-9
  6
CONTINUOUS
 62
     1
100
AcDbLine
 10
673.6
 20
352.052032
 30
0.0
 11
669.100031
 21
347.552063
 31
0.0
  0
LINE
  5
6EC
100
AcDbEntity
  8
LAY-9
  6
CONTINUOUS
 62
     1
100
AcDbLine
 10
670.771573
 20
352.052032
 30
0.0
 11
666.271604
 21
347.552063
 31
0.0
  0
LINE
  5
6ED
100
AcDbEntity
  8
LAY-9
  6
CONTINUOUS
 62
     1
100
AcDbLine
 10
131.721344
 20
419.809814
 30
0.0
 11
153.7
 21
419.809814
 31
0.0
  0
LINE
  5
6EE
100
AcDbEntity
  8
LAY-9
  6
CONTINUOUS
 62
     1
100
AcDbLine
 10
134.721344
 20
416.809814
 30
0.0
 11
178.721329
 21
416.809814
 31
0.0
  0
LINE
  5
6EF
100
AcDbEntity
  8
LAY-9
  6
CONTINUOUS
 62
     1
100
AcDbLine
 10
365.0
 20
419.809814
 30
0.0
 11
391.0
 21
419.809814
 31
0.0
  0
LINE
  5
6F0
100
AcDbEntity
  8
LAY-9
  6
CONTINUOUS
 62
     1
100
AcDbLine
 10
365.0
 20
416.809814
 30
0.0
 11
390.0
 21
416.809814
 31
0.0
  0
LINE
  5
6F1
100
AcDbEntity
  8
LAY-9
  6
CONTINUOUS
 62
     1
100
AcDbLine
 10
643.078461
 20
486.009811
 30
0.0
 11
645.478583
 21
486.009811
 31
0.0
  0
LINE
  5
6F2
100
AcDbEntity
  8
LAY-9
  6
CONTINUOUS
 62
     1
100
AcDbLine
 10
679.0
 20
486.009811
 30
0.0
 11
679.878461
 21
486.009811
 31
0.0
  0
LINE
  5
6F3
100
AcDbEntity
  8
LAY-9
  6
CONTINUOUS
 62
     1
100
AcDbLine
 10
684.478461
 20
324.551885
 30
0.0
 11
744.06935
 21
324.551885
 31
0.0
  0
POLYLINE
  5
6F4
100
AcDbEntity
  8
LAY-9
  6
CONTINUOUS
 62
     1
100
AcDb2dPolyline
 66
     1
 10
0.0
 20
0.0
 30
0.0
 70
   128
  0
VERTEX
  5
6F5
100
AcDbEntity
  8
LAY-9
  6
CONTINUOUS
 62
     1
100
AcDbVertex
100
AcDb2dVertex
 10
744.06935
 20
324.551885
 30
0.0
  0
VERTEX
  5
6F6
100
AcDbEntity
  8
LAY-9
  6
CONTINUOUS
 62
     1
100
AcDbVertex
100
AcDb2dVertex
 10
744.101138
 20
324.438881
 30
0.0
  0
VERTEX
  5
6F7
100
AcDbEntity
  8
LAY-9
  6
CONTINUOUS
 62
     1
100
AcDbVertex
100
AcDb2dVertex
 10
744.188746
 20
324.118122
 30
0.0
  0
VERTEX
  5
6F8
100
AcDbEntity
  8
LAY-9
  6
CONTINUOUS
 62
     1
100
AcDbVertex
100
AcDb2dVertex
 10
744.320539
 20
323.616988
 30
0.0
  0
VERTEX
  5
6F9
100
AcDbEntity
  8
LAY-9
  6
CONTINUOUS
 62
     1
100
AcDbVertex
100
AcDb2dVertex
 10
744.484882
 20
322.962856
 30
0.0
  0
VERTEX
  5
6FA
100
AcDbEntity
  8
LAY-9
  6
CONTINUOUS
 62
     1
100
AcDbVertex
100
AcDb2dVertex
 10
744.67014
 20
322.183105
 30
0.0
  0
VERTEX
  5
6FB
100
AcDbEntity
  8
LAY-9
  6
CONTINUOUS
 62
     1
100
AcDbVertex
100
AcDb2dVertex
 10
744.864678
 20
321.305115
 30
0.0
  0
VERTEX
  5
6FC
100
AcDbEntity
  8
LAY-9
  6
CONTINUOUS
 62
     1
100
AcDbVertex
100
AcDb2dVertex
 10
745.056862
 20
320.356263
 30
0.0
  0
VERTEX
  5
6FD
100
AcDbEntity
  8
LAY-9
  6
CONTINUOUS
 62
     1
100
AcDbVertex
100
AcDb2dVertex
 10
745.235056
 20
319.363929
 30
0.0
  0
VERTEX
  5
6FE
100
AcDbEntity
  8
LAY-9
  6
CONTINUOUS
 62
     1
100
AcDbVertex
100
AcDb2dVertex
 10
745.387625
 20
318.355492
 30
0.0
  0
VERTEX
  5
6FF
100
AcDbEntity
  8
LAY-9
  6
CONTINUOUS
 62
     1
100
AcDbVertex
100
AcDb2dVertex
 10
745.502934
 20
317.35833
 30
0.0
  0
VERTEX
  5
700
100
AcDbEntity
  8
LAY-9
  6
CONTINUOUS
 62
     1
100
AcDbVertex
100
AcDb2dVertex
 10
745.56935
 20
316.399822
 30
0.0
  0
VERTEX
  5
701
100
AcDbEntity
  8
LAY-9
  6
CONTINUOUS
 62
     1
100
AcDbVertex
100
AcDb2dVertex
 10
745.580803
 20
315.672066
 30
0.0
  0
VERTEX
  5
702
100
AcDbEntity
  8
LAY-9
  6
CONTINUOUS
 62
     1
100
AcDbVertex
100
AcDb2dVertex
 10
745.555463
 20
314.983229
 30
0.0
  0
VERTEX
  5
703
100
AcDbEntity
  8
LAY-9
  6
CONTINUOUS
 62
     1
100
AcDbVertex
100
AcDb2dVertex
 10
745.495739
 20
314.329461
 30
0.0
  0
VERTEX
  5
704
100
AcDbEntity
  8
LAY-9
  6
CONTINUOUS
 62
     1
100
AcDbVertex
100
AcDb2dVertex
 10
745.404042
 20
313.706911
 30
0.0
  0
VERTEX
  5
705
100
AcDbEntity
  8
LAY-9
  6
CONTINUOUS
 62
     1
100
AcDbVertex
100
AcDb2dVertex
 10
745.28278
 20
313.111732
 30
0.0
  0
VERTEX
  5
706
100
AcDbEntity
  8
LAY-9
  6
CONTINUOUS
 62
     1
100
AcDbVertex
100
AcDb2dVertex
 10
745.134366
 20
312.540071
 30
0.0
  0
VERTEX
  5
707
100
AcDbEntity
  8
LAY-9
  6
CONTINUOUS
 62
     1
100
AcDbVertex
100
AcDb2dVertex
 10
744.961209
 20
311.988081
 30
0.0
  0
VERTEX
  5
708
100
AcDbEntity
  8
LAY-9
  6
CONTINUOUS
 62
     1
100
AcDbVertex
100
AcDb2dVertex
 10
744.765718
 20
311.451911
 30
0.0
  0
VERTEX
  5
709
100
AcDbEntity
  8
LAY-9
  6
CONTINUOUS
 62
     1
100
AcDbVertex
100
AcDb2dVertex
 10
744.550304
 20
310.92771
 30
0.0
  0
VERTEX
  5
70A
100
AcDbEntity
  8
LAY-9
  6
CONTINUOUS
 62
     1
100
AcDbVertex
100
AcDb2dVertex
 10
744.317378
 20
310.411631
 30
0.0
  0
VERTEX
  5
70B
100
AcDbEntity
  8
LAY-9
  6
CONTINUOUS
 62
     1
100
AcDbVertex
100
AcDb2dVertex
 10
744.06935
 20
309.899822
 30
0.0
  0
VERTEX
  5
70C
100
AcDbEntity
  8
LAY-9
  6
CONTINUOUS
 62
     1
100
AcDbVertex
100
AcDb2dVertex
 10
743.795148
 20
309.360589
 30
0.0
  0
VERTEX
  5
70D
100
AcDbEntity
  8
LAY-9
  6
CONTINUOUS
 62
     1
100
AcDbVertex
100
AcDb2dVertex
 10
743.51589
 20
308.817759
 30
0.0
  0
VERTEX
  5
70E
100
AcDbEntity
  8
LAY-9
  6
CONTINUOUS
 62
     1
100
AcDbVertex
100
AcDb2dVertex
 10
743.240632
 20
308.267269
 30
0.0
  0
VERTEX
  5
70F
100
AcDbEntity
  8
LAY-9
  6
CONTINUOUS
 62
     1
100
AcDbVertex
100
AcDb2dVertex
 10
742.97843
 20
307.705053
 30
0.0
  0
VERTEX
  5
710
100
AcDbEntity
  8
LAY-9
  6
CONTINUOUS
 62
     1
100
AcDbVertex
100
AcDb2dVertex
 10
742.738342
 20
307.127048
 30
0.0
  0
VERTEX
  5
711
100
AcDbEntity
  8
LAY-9
  6
CONTINUOUS
 62
     1
100
AcDbVertex
100
AcDb2dVertex
 10
742.529423
 20
306.529188
 30
0.0
  0
VERTEX
  5
712
100
AcDbEntity
  8
LAY-9
  6
CONTINUOUS
 62
     1
100
AcDbVertex
100
AcDb2dVertex
 10
742.360731
 20
305.90741
 30
0.0
  0
VERTEX
  5
713
100
AcDbEntity
  8
LAY-9
  6
CONTINUOUS
 62
     1
100
AcDbVertex
100
AcDb2dVertex
 10
742.24132
 20
305.257649
 30
0.0
  0
VERTEX
  5
714
100
AcDbEntity
  8
LAY-9
  6
CONTINUOUS
 62
     1
100
AcDbVertex
100
AcDb2dVertex
 10
742.180249
 20
304.57584
 30
0.0
  0
VERTEX
  5
715
100
AcDbEntity
  8
LAY-9
  6
CONTINUOUS
 62
     1
100
AcDbVertex
100
AcDb2dVertex
 10
742.186573
 20
303.857919
 30
0.0
  0
VERTEX
  5
716
100
AcDbEntity
  8
LAY-9
  6
CONTINUOUS
 62
     1
100
AcDbVertex
100
AcDb2dVertex
 10
742.26935
 20
303.099822
 30
0.0
  0
VERTEX
  5
717
100
AcDbEntity
  8
LAY-9
  6
CONTINUOUS
 62
     1
100
AcDbVertex
100
AcDb2dVertex
 10
742.422121
 20
302.346514
 30
0.0
  0
VERTEX
  5
718
100
AcDbEntity
  8
LAY-9
  6
CONTINUOUS
 62
     1
100
AcDbVertex
100
AcDb2dVertex
 10
742.635451
 20
301.57305
 30
0.0
  0
VERTEX
  5
719
100
AcDbEntity
  8
LAY-9
  6
CONTINUOUS
 62
     1
100
AcDbVertex
100
AcDb2dVertex
 10
742.893514
 20
300.798794
 30
0.0
  0
VERTEX
  5
71A
100
AcDbEntity
  8
LAY-9
  6
CONTINUOUS
 62
     1
100
AcDbVertex
100
AcDb2dVertex
 10
743.180484
 20
300.043107
 30
0.0
  0
VERTEX
  5
71B
100
AcDbEntity
  8
LAY-9
  6
CONTINUOUS
 62
     1
100
AcDbVertex
100
AcDb2dVertex
 10
743.480537
 20
299.325356
 30
0.0
  0
VERTEX
  5
71C
100
AcDbEntity
  8
LAY-9
  6
CONTINUOUS
 62
     1
100
AcDbVertex
100
AcDb2dVertex
 10
743.777846
 20
298.664902
 30
0.0
  0
VERTEX
  5
71D
100
AcDbEntity
  8
LAY-9
  6
CONTINUOUS
 62
     1
100
AcDbVertex
100
AcDb2dVertex
 10
744.056586
 20
298.081109
 30
0.0
  0
VERTEX
  5
71E
100
AcDbEntity
  8
LAY-9
  6
CONTINUOUS
 62
     1
100
AcDbVertex
100
AcDb2dVertex
 10
744.300932
 20
297.593341
 30
0.0
  0
VERTEX
  5
71F
100
AcDbEntity
  8
LAY-9
  6
CONTINUOUS
 62
     1
100
AcDbVertex
100
AcDb2dVertex
 10
744.495058
 20
297.220962
 30
0.0
  0
VERTEX
  5
720
100
AcDbEntity
  8
LAY-9
  6
CONTINUOUS
 62
     1
100
AcDbVertex
100
AcDb2dVertex
 10
744.623139
 20
296.983334
 30
0.0
  0
VERTEX
  5
721
100
AcDbEntity
  8
LAY-9
  6
CONTINUOUS
 62
     1
100
AcDbVertex
100
AcDb2dVertex
 10
744.66935
 20
296.899822
 30
0.0
  0
SEQEND
  5
722
100
AcDbEntity
  8
LAY-9
  6
CONTINUOUS
 62
     1
  0
POLYLINE
  5
723
100
AcDbEntity
  8
LAY-9
  6
CONTINUOUS
 62
     1
100
AcDb2dPolyline
 66
     1
 10
0.0
 20
0.0
 30
0.0
 70
   128
  0
VERTEX
  5
724
100
AcDbEntity
  8
LAY-9
  6
CONTINUOUS
 62
     1
100
AcDbVertex
100
AcDb2dVertex
 10
553.069265
 20
324.551885
 30
0.0
  0
VERTEX
  5
725
100
AcDbEntity
  8
LAY-9
  6
CONTINUOUS
 62
     1
100
AcDbVertex
100
AcDb2dVertex
 10
553.101054
 20
324.438881
 30
0.0
  0
VERTEX
  5
726
100
AcDbEntity
  8
LAY-9
  6
CONTINUOUS
 62
     1
100
AcDbVertex
100
AcDb2dVertex
 10
553.188662
 20
324.118122
 30
0.0
  0
VERTEX
  5
727
100
AcDbEntity
  8
LAY-9
  6
CONTINUOUS
 62
     1
100
AcDbVertex
100
AcDb2dVertex
 10
553.320455
 20
323.616988
 30
0.0
  0
VERTEX
  5
728
100
AcDbEntity
  8
LAY-9
  6
CONTINUOUS
 62
     1
100
AcDbVertex
100
AcDb2dVertex
 10
553.484798
 20
322.962856
 30
0.0
  0
VERTEX
  5
729
100
AcDbEntity
  8
LAY-9
  6
CONTINUOUS
 62
     1
100
AcDbVertex
100
AcDb2dVertex
 10
553.670056
 20
322.183105
 30
0.0
  0
VERTEX
  5
72A
100
AcDbEntity
  8
LAY-9
  6
CONTINUOUS
 62
     1
100
AcDbVertex
100
AcDb2dVertex
 10
553.864594
 20
321.305115
 30
0.0
  0
VERTEX
  5
72B
100
AcDbEntity
  8
LAY-9
  6
CONTINUOUS
 62
     1
100
AcDbVertex
100
AcDb2dVertex
 10
554.056778
 20
320.356263
 30
0.0
  0
VERTEX
  5
72C
100
AcDbEntity
  8
LAY-9
  6
CONTINUOUS
 62
     1
100
AcDbVertex
100
AcDb2dVertex
 10
554.234972
 20
319.363929
 30
0.0
  0
VERTEX
  5
72D
100
AcDbEntity
  8
LAY-9
  6
CONTINUOUS
 62
     1
100
AcDbVertex
100
AcDb2dVertex
 10
554.387541
 20
318.355492
 30
0.0
  0
VERTEX
  5
72E
100
AcDbEntity
  8
LAY-9
  6
CONTINUOUS
 62
     1
100
AcDbVertex
100
AcDb2dVertex
 10
554.50285
 20
317.35833
 30
0.0
  0
VERTEX
  5
72F
100
AcDbEntity
  8
LAY-9
  6
CONTINUOUS
 62
     1
100
AcDbVertex
100
AcDb2dVertex
 10
554.569265
 20
316.399822
 30
0.0
  0
VERTEX
  5
730
100
AcDbEntity
  8
LAY-9
  6
CONTINUOUS
 62
     1
100
AcDbVertex
100
AcDb2dVertex
 10
554.580719
 20
315.672066
 30
0.0
  0
VERTEX
  5
731
100
AcDbEntity
  8
LAY-9
  6
CONTINUOUS
 62
     1
100
AcDbVertex
100
AcDb2dVertex
 10
554.555379
 20
314.983229
 30
0.0
  0
VERTEX
  5
732
100
AcDbEntity
  8
LAY-9
  6
CONTINUOUS
 62
     1
100
AcDbVertex
100
AcDb2dVertex
 10
554.495655
 20
314.329461
 30
0.0
  0
VERTEX
  5
733
100
AcDbEntity
  8
LAY-9
  6
CONTINUOUS
 62
     1
100
AcDbVertex
100
AcDb2dVertex
 10
554.403957
 20
313.706911
 30
0.0
  0
VERTEX
  5
734
100
AcDbEntity
  8
LAY-9
  6
CONTINUOUS
 62
     1
100
AcDbVertex
100
AcDb2dVertex
 10
554.282696
 20
313.111732
 30
0.0
  0
VERTEX
  5
735
100
AcDbEntity
  8
LAY-9
  6
CONTINUOUS
 62
     1
100
AcDbVertex
100
AcDb2dVertex
 10
554.134282
 20
312.540071
 30
0.0
  0
VERTEX
  5
736
100
AcDbEntity
  8
LAY-9
  6
CONTINUOUS
 62
     1
100
AcDbVertex
100
AcDb2dVertex
 10
553.961124
 20
311.988081
 30
0.0
  0
VERTEX
  5
737
100
AcDbEntity
  8
LAY-9
  6
CONTINUOUS
 62
     1
100
AcDbVertex
100
AcDb2dVertex
 10
553.765634
 20
311.451911
 30
0.0
  0
VERTEX
  5
738
100
AcDbEntity
  8
LAY-9
  6
CONTINUOUS
 62
     1
100
AcDbVertex
100
AcDb2dVertex
 10
553.55022
 20
310.92771
 30
0.0
  0
VERTEX
  5
739
100
AcDbEntity
  8
LAY-9
  6
CONTINUOUS
 62
     1
100
AcDbVertex
100
AcDb2dVertex
 10
553.317294
 20
310.411631
 30
0.0
  0
VERTEX
  5
73A
100
AcDbEntity
  8
LAY-9
  6
CONTINUOUS
 62
     1
100
AcDbVertex
100
AcDb2dVertex
 10
553.069265
 20
309.899822
 30
0.0
  0
VERTEX
  5
73B
100
AcDbEntity
  8
LAY-9
  6
CONTINUOUS
 62
     1
100
AcDbVertex
100
AcDb2dVertex
 10
552.795064
 20
309.360589
 30
0.0
  0
VERTEX
  5
73C
100
AcDbEntity
  8
LAY-9
  6
CONTINUOUS
 62
     1
100
AcDbVertex
100
AcDb2dVertex
 10
552.515806
 20
308.817759
 30
0.0
  0
VERTEX
  5
73D
100
AcDbEntity
  8
LAY-9
  6
CONTINUOUS
 62
     1
100
AcDbVertex
100
AcDb2dVertex
 10
552.240548
 20
308.267269
 30
0.0
  0
VERTEX
  5
73E
100
AcDbEntity
  8
LAY-9
  6
CONTINUOUS
 62
     1
100
AcDbVertex
100
AcDb2dVertex
 10
551.978346
 20
307.705053
 30
0.0
  0
VERTEX
  5
73F
100
AcDbEntity
  8
LAY-9
  6
CONTINUOUS
 62
     1
100
AcDbVertex
100
AcDb2dVertex
 10
551.738258
 20
307.127048
 30
0.0
  0
VERTEX
  5
740
100
AcDbEntity
  8
LAY-9
  6
CONTINUOUS
 62
     1
100
AcDbVertex
100
AcDb2dVertex
 10
551.529339
 20
306.529188
 30
0.0
  0
VERTEX
  5
741
100
AcDbEntity
  8
LAY-9
  6
CONTINUOUS
 62
     1
100
AcDbVertex
100
AcDb2dVertex
 10
551.360647
 20
305.90741
 30
0.0
  0
VERTEX
  5
742
100
AcDbEntity
  8
LAY-9
  6
CONTINUOUS
 62
     1
100
AcDbVertex
100
AcDb2dVertex
 10
551.241236
 20
305.257649
 30
0.0
  0
VERTEX
  5
743
100
AcDbEntity
  8
LAY-9
  6
CONTINUOUS
 62
     1
100
AcDbVertex
100
AcDb2dVertex
 10
551.180165
 20
304.57584
 30
0.0
  0
VERTEX
  5
744
100
AcDbEntity
  8
LAY-9
  6
CONTINUOUS
 62
     1
100
AcDbVertex
100
AcDb2dVertex
 10
551.186489
 20
303.857919
 30
0.0
  0
VERTEX
  5
745
100
AcDbEntity
  8
LAY-9
  6
CONTINUOUS
 62
     1
100
AcDbVertex
100
AcDb2dVertex
 10
551.269265
 20
303.099822
 30
0.0
  0
VERTEX
  5
746
100
AcDbEntity
  8
LAY-9
  6
CONTINUOUS
 62
     1
100
AcDbVertex
100
AcDb2dVertex
 10
551.422037
 20
302.346514
 30
0.0
  0
VERTEX
  5
747
100
AcDbEntity
  8
LAY-9
  6
CONTINUOUS
 62
     1
100
AcDbVertex
100
AcDb2dVertex
 10
551.635367
 20
301.57305
 30
0.0
  0
VERTEX
  5
748
100
AcDbEntity
  8
LAY-9
  6
CONTINUOUS
 62
     1
100
AcDbVertex
100
AcDb2dVertex
 10
551.89343
 20
300.798794
 30
0.0
  0
VERTEX
  5
749
100
AcDbEntity
  8
LAY-9
  6
CONTINUOUS
 62
     1
100
AcDbVertex
100
AcDb2dVertex
 10
552.1804
 20
300.043107
 30
0.0
  0
VERTEX
  5
74A
100
AcDbEntity
  8
LAY-9
  6
CONTINUOUS
 62
     1
100
AcDbVertex
100
AcDb2dVertex
 10
552.480453
 20
299.325356
 30
0.0
  0
VERTEX
  5
74B
100
AcDbEntity
  8
LAY-9
  6
CONTINUOUS
 62
     1
100
AcDbVertex
100
AcDb2dVertex
 10
552.777762
 20
298.664902
 30
0.0
  0
VERTEX
  5
74C
100
AcDbEntity
  8
LAY-9
  6
CONTINUOUS
 62
     1
100
AcDbVertex
100
AcDb2dVertex
 10
553.056502
 20
298.081109
 30
0.0
  0
VERTEX
  5
74D
100
AcDbEntity
  8
LAY-9
  6
CONTINUOUS
 62
     1
100
AcDbVertex
100
AcDb2dVertex
 10
553.300848
 20
297.593341
 30
0.0
  0
VERTEX
  5
74E
100
AcDbEntity
  8
LAY-9
  6
CONTINUOUS
 62
     1
100
AcDbVertex
100
AcDb2dVertex
 10
553.494974
 20
297.220962
 30
0.0
  0
VERTEX
  5
74F
100
AcDbEntity
  8
LAY-9
  6
CONTINUOUS
 62
     1
100
AcDbVertex
100
AcDb2dVertex
 10
553.623055
 20
296.983334
 30
0.0
  0
VERTEX
  5
750
100
AcDbEntity
  8
LAY-9
  6
CONTINUOUS
 62
     1
100
AcDbVertex
100
AcDb2dVertex
 10
553.669265
 20
296.899822
 30
0.0
  0
SEQEND
  5
751
100
AcDbEntity
  8
LAY-9
  6
CONTINUOUS
 62
     1
  0
LINE
  5
752
100
AcDbEntity
  8
LAY-9
  6
CONTINUOUS
 62
     1
100
AcDbLine
 10
638.478461
 20
324.551885
 30
0.0
 11
553.069265
 21
324.551885
 31
0.0
  0
LINE
  5
753
100
AcDbEntity
  8
LAY-9
  6
CONTINUOUS
 62
     1
100
AcDbLine
 10
682.878461
 20
327.551885
 30
0.0
 11
711.3
 21
327.551885
 31
0.0
  0
LINE
  5
754
100
AcDbEntity
  8
LAY-9
  6
CONTINUOUS
 62
     1
100
AcDbLine
 10
176.721344
 20
125.552063
 30
0.0
 11
131.721344
 21
125.552063
 31
0.0
  0
LINE
  5
755
100
AcDbEntity
  8
LAY-9
  6
CONTINUOUS
 62
     1
100
AcDbLine
 10
131.721344
 20
181.599939
 30
0.0
 11
131.721344
 21
105.052063
 31
0.0
  0
POLYLINE
  5
756
100
AcDbEntity
  8
LAY-9
  6
CONTINUOUS
 62
     1
100
AcDb2dPolyline
 66
     1
 10
0.0
 20
0.0
 30
0.0
 70
   128
  0
VERTEX
  5
757
100
AcDbEntity
  8
LAY-9
  6
CONTINUOUS
 62
     1
100
AcDbVertex
100
AcDb2dVertex
 10
408.4
 20
125.552063
 30
0.0
  0
VERTEX
  5
758
100
AcDbEntity
  8
LAY-9
  6
CONTINUOUS
 62
     1
100
AcDbVertex
100
AcDb2dVertex
 10
408.442904
 20
125.447917
 30
0.0
  0
VERTEX
  5
759
100
AcDbEntity
  8
LAY-9
  6
CONTINUOUS
 62
     1
100
AcDbVertex
100
AcDb2dVertex
 10
408.561066
 20
125.153165
 30
0.0
  0
VERTEX
  5
75A
100
AcDbEntity
  8
LAY-9
  6
CONTINUOUS
 62
     1
100
AcDbVertex
100
AcDb2dVertex
 10
408.738662
 20
124.694333
 30
0.0
  0
VERTEX
  5
75B
100
AcDbEntity
  8
LAY-9
  6
CONTINUOUS
 62
     1
100
AcDbVertex
100
AcDb2dVertex
 10
408.959865
 20
124.097948
 30
0.0
  0
VERTEX
  5
75C
100
AcDbEntity
  8
LAY-9
  6
CONTINUOUS
 62
     1
100
AcDbVertex
100
AcDb2dVertex
 10
409.208851
 20
123.390536
 30
0.0
  0
VERTEX
  5
75D
100
AcDbEntity
  8
LAY-9
  6
CONTINUOUS
 62
     1
100
AcDbVertex
100
AcDb2dVertex
 10
409.469795
 20
122.598624
 30
0.0
  0
VERTEX
  5
75E
100
AcDbEntity
  8
LAY-9
  6
CONTINUOUS
 62
     1
100
AcDbVertex
100
AcDb2dVertex
 10
409.726871
 20
121.748739
 30
0.0
  0
VERTEX
  5
75F
100
AcDbEntity
  8
LAY-9
  6
CONTINUOUS
 62
     1
100
AcDbVertex
100
AcDb2dVertex
 10
409.964255
 20
120.867407
 30
0.0
  0
VERTEX
  5
760
100
AcDbEntity
  8
LAY-9
  6
CONTINUOUS
 62
     1
100
AcDbVertex
100
AcDb2dVertex
 10
410.166121
 20
119.981155
 30
0.0
  0
VERTEX
  5
761
100
AcDbEntity
  8
LAY-9
  6
CONTINUOUS
 62
     1
100
AcDbVertex
100
AcDb2dVertex
 10
410.316644
 20
119.116511
 30
0.0
  0
VERTEX
  5
762
100
AcDbEntity
  8
LAY-9
  6
CONTINUOUS
 62
     1
100
AcDbVertex
100
AcDb2dVertex
 10
410.4
 20
118.3
 30
0.0
  0
VERTEX
  5
763
100
AcDbEntity
  8
LAY-9
  6
CONTINUOUS
 62
     1
100
AcDbVertex
100
AcDb2dVertex
 10
410.406927
 20
117.597909
 30
0.0
  0
VERTEX
  5
764
100
AcDbEntity
  8
LAY-9
  6
CONTINUOUS
 62
     1
100
AcDbVertex
100
AcDb2dVertex
 10
410.350905
 20
116.948972
 30
0.0
  0
VERTEX
  5
765
100
AcDbEntity
  8
LAY-9
  6
CONTINUOUS
 62
     1
100
AcDbVertex
100
AcDb2dVertex
 10
410.241545
 20
116.341064
 30
0.0
  0
VERTEX
  5
766
100
AcDbEntity
  8
LAY-9
  6
CONTINUOUS
 62
     1
100
AcDbVertex
100
AcDb2dVertex
 10
410.088459
 20
115.762062
 30
0.0
  0
VERTEX
  5
767
100
AcDbEntity
  8
LAY-9
  6
CONTINUOUS
 62
     1
100
AcDbVertex
100
AcDb2dVertex
 10
409.901261
 20
115.199842
 30
0.0
  0
VERTEX
  5
768
100
AcDbEntity
  8
LAY-9
  6
CONTINUOUS
 62
     1
100
AcDbVertex
100
AcDb2dVertex
 10
409.689562
 20
114.642279
 30
0.0
  0
VERTEX
  5
769
100
AcDbEntity
  8
LAY-9
  6
CONTINUOUS
 62
     1
100
AcDbVertex
100
AcDb2dVertex
 10
409.462976
 20
114.07725
 30
0.0
  0
VERTEX
  5
76A
100
AcDbEntity
  8
LAY-9
  6
CONTINUOUS
 62
     1
100
AcDbVertex
100
AcDb2dVertex
 10
409.231114
 20
113.492632
 30
0.0
  0
VERTEX
  5
76B
100
AcDbEntity
  8
LAY-9
  6
CONTINUOUS
 62
     1
100
AcDbVertex
100
AcDb2dVertex
 10
409.003589
 20
112.8763
 30
0.0
  0
VERTEX
  5
76C
100
AcDbEntity
  8
LAY-9
  6
CONTINUOUS
 62
     1
100
AcDbVertex
100
AcDb2dVertex
 10
408.790013
 20
112.216131
 30
0.0
  0
VERTEX
  5
76D
100
AcDbEntity
  8
LAY-9
  6
CONTINUOUS
 62
     1
100
AcDbVertex
100
AcDb2dVertex
 10
408.6
 20
111.5
 30
0.0
  0
VERTEX
  5
76E
100
AcDbEntity
  8
LAY-9
  6
CONTINUOUS
 62
     1
100
AcDbVertex
100
AcDb2dVertex
 10
408.425152
 20
110.630685
 30
0.0
  0
VERTEX
  5
76F
100
AcDbEntity
  8
LAY-9
  6
CONTINUOUS
 62
     1
100
AcDbVertex
100
AcDb2dVertex
 10
408.287094
 20
109.706222
 30
0.0
  0
VERTEX
  5
770
100
AcDbEntity
  8
LAY-9
  6
CONTINUOUS
 62
     1
100
AcDbVertex
100
AcDb2dVertex
 10
408.181582
 20
108.755675
 30
0.0
  0
VERTEX
  5
771
100
AcDbEntity
  8
LAY-9
  6
CONTINUOUS
 62
     1
100
AcDbVertex
100
AcDb2dVertex
 10
408.104373
 20
107.808109
 30
0.0
  0
VERTEX
  5
772
100
AcDbEntity
  8
LAY-9
  6
CONTINUOUS
 62
     1
100
AcDbVertex
100
AcDb2dVertex
 10
408.051225
 20
106.892588
 30
0.0
  0
VERTEX
  5
773
100
AcDbEntity
  8
LAY-9
  6
CONTINUOUS
 62
     1
100
AcDbVertex
100
AcDb2dVertex
 10
408.017894
 20
106.038176
 30
0.0
  0
VERTEX
  5
774
100
AcDbEntity
  8
LAY-9
  6
CONTINUOUS
 62
     1
100
AcDbVertex
100
AcDb2dVertex
 10
408.000137
 20
105.273937
 30
0.0
  0
VERTEX
  5
775
100
AcDbEntity
  8
LAY-9
  6
CONTINUOUS
 62
     1
100
AcDbVertex
100
AcDb2dVertex
 10
407.993713
 20
104.628936
 30
0.0
  0
VERTEX
  5
776
100
AcDbEntity
  8
LAY-9
  6
CONTINUOUS
 62
     1
100
AcDbVertex
100
AcDb2dVertex
 10
407.994377
 20
104.132237
 30
0.0
  0
VERTEX
  5
777
100
AcDbEntity
  8
LAY-9
  6
CONTINUOUS
 62
     1
100
AcDbVertex
100
AcDb2dVertex
 10
407.997887
 20
103.812903
 30
0.0
  0
VERTEX
  5
778
100
AcDbEntity
  8
LAY-9
  6
CONTINUOUS
 62
     1
100
AcDbVertex
100
AcDb2dVertex
 10
408.0
 20
103.7
 30
0.0
  0
SEQEND
  5
779
100
AcDbEntity
  8
LAY-9
  6
CONTINUOUS
 62
     1
  0
LINE
  5
77A
100
AcDbEntity
  8
LAY-9
  6
CONTINUOUS
 62
     1
100
AcDbLine
 10
131.721344
 20
105.052063
 30
0.0
 11
407.997928
 21
105.052063
 31
0.0
  0
LINE
  5
77B
100
AcDbEntity
  8
LAY-9
  6
CONTINUOUS
 62
     1
100
AcDbLine
 10
254.721344
 20
109.552063
 30
0.0
 11
408.269982
 21
109.552063
 31
0.0
  0
LINE
  5
77C
100
AcDbEntity
  8
LAY-9
  6
CONTINUOUS
 62
     1
100
AcDbLine
 10
176.721344
 20
109.552063
 30
0.0
 11
131.721344
 21
109.552063
 31
0.0
  0
LINE
  5
77D
100
AcDbEntity
  8
LAY-9
  6
CONTINUOUS
 62
     1
100
AcDbLine
 10
382.771573
 20
105.052063
 30
0.0
 11
387.271573
 21
109.552063
 31
0.0
  0
LINE
  5
77E
100
AcDbEntity
  8
LAY-9
  6
CONTINUOUS
 62
     1
100
AcDbLine
 10
385.6
 20
105.052063
 30
0.0
 11
390.1
 21
109.552063
 31
0.0
  0
LINE
  5
77F
100
AcDbEntity
  8
LAY-9
  6
CONTINUOUS
 62
     1
100
AcDbLine
 10
354.0
 20
105.052063
 30
0.0
 11
358.5
 21
109.552063
 31
0.0
  0
LINE
  5
780
100
AcDbEntity
  8
LAY-9
  6
CONTINUOUS
 62
     1
100
AcDbLine
 10
356.828427
 20
105.052063
 30
0.0
 11
361.328427
 21
109.552063
 31
0.0
  0
LINE
  5
781
100
AcDbEntity
  8
LAY-9
  6
CONTINUOUS
 62
     1
100
AcDbLine
 10
325.3
 20
105.052063
 30
0.0
 11
329.8
 21
109.552063
 31
0.0
  0
LINE
  5
782
100
AcDbEntity
  8
LAY-9
  6
CONTINUOUS
 62
     1
100
AcDbLine
 10
328.128427
 20
105.052063
 30
0.0
 11
332.628427
 21
109.552063
 31
0.0
  0
LINE
  5
783
100
AcDbEntity
  8
LAY-9
  6
CONTINUOUS
 62
     1
100
AcDbLine
 10
294.7
 20
105.052063
 30
0.0
 11
299.2
 21
109.552063
 31
0.0
  0
LINE
  5
784
100
AcDbEntity
  8
LAY-9
  6
CONTINUOUS
 62
     1
100
AcDbLine
 10
297.528427
 20
105.052063
 30
0.0
 11
302.028427
 21
109.552063
 31
0.0
  0
LINE
  5
785
100
AcDbEntity
  8
LAY-9
  6
CONTINUOUS
 62
     1
100
AcDbLine
 10
268.0
 20
105.052063
 30
0.0
 11
272.5
 21
109.552063
 31
0.0
  0
LINE
  5
786
100
AcDbEntity
  8
LAY-9
  6
CONTINUOUS
 62
     1
100
AcDbLine
 10
270.828427
 20
105.052063
 30
0.0
 11
275.328427
 21
109.552063
 31
0.0
  0
LINE
  5
787
100
AcDbEntity
  8
LAY-9
  6
CONTINUOUS
 62
     1
100
AcDbLine
 10
202.8
 20
105.052063
 30
0.0
 11
207.3
 21
109.552063
 31
0.0
  0
LINE
  5
788
100
AcDbEntity
  8
LAY-9
  6
CONTINUOUS
 62
     1
100
AcDbLine
 10
205.628427
 20
105.052063
 30
0.0
 11
210.128427
 21
109.552063
 31
0.0
  0
LINE
  5
789
100
AcDbEntity
  8
LAY-9
  6
CONTINUOUS
 62
     1
100
AcDbLine
 10
159.8
 20
105.052063
 30
0.0
 11
164.3
 21
109.552063
 31
0.0
  0
LINE
  5
78A
100
AcDbEntity
  8
LAY-9
  6
CONTINUOUS
 62
     1
100
AcDbLine
 10
162.628427
 20
105.052063
 30
0.0
 11
167.128427
 21
109.552063
 31
0.0
  0
LINE
  5
78B
100
AcDbEntity
  8
LAY-9
  6
CONTINUOUS
 62
     1
100
AcDbLine
 10
131.721344
 20
105.052063
 30
0.0
 11
136.221344
 21
109.552063
 31
0.0
  0
LINE
  5
78C
100
AcDbEntity
  8
LAY-9
  6
CONTINUOUS
 62
     1
100
AcDbLine
 10
134.549771
 20
105.052063
 30
0.0
 11
139.049771
 21
109.552063
 31
0.0
  0
LINE
  5
78D
100
AcDbEntity
  8
LAY-9
  6
CONTINUOUS
 62
     1
100
AcDbLine
 10
681.478461
 20
484.409811
 30
0.0
 11
681.478461
 21
411.6
 31
0.0
  0
LINE
  5
78E
100
AcDbEntity
  8
LAY-9
  6
CONTINUOUS
 62
     1
100
AcDbLine
 10
653.378399
 20
311.551854
 30
0.0
 11
648.87843
 21
307.051885
 31
0.0
  0
LINE
  5
78F
100
AcDbEntity
  8
LAY-9
  6
CONTINUOUS
 62
     1
100
AcDbLine
 10
650.549972
 20
311.551854
 30
0.0
 11
646.050003
 21
307.051885
 31
0.0
  0
LINE
  5
790
100
AcDbEntity
  8
LAY-9
  6
CONTINUOUS
 62
     1
100
AcDbLine
 10
673.378399
 20
311.551854
 30
0.0
 11
668.87843
 21
307.051885
 31
0.0
  0
LINE
  5
791
100
AcDbEntity
  8
LAY-9
  6
CONTINUOUS
 62
     1
100
AcDbLine
 10
670.549972
 20
311.551854
 30
0.0
 11
666.050003
 21
307.051885
 31
0.0
  0
LINE
  5
792
100
AcDbEntity
  8
LAY-9
  6
CONTINUOUS
 62
     1
100
AcDbLine
 10
679.478461
 20
325.951885
 30
0.0
 11
682.878461
 21
325.951885
 31
0.0
  0
LINE
  5
793
100
AcDbEntity
  8
LAY-9
  6
CONTINUOUS
 62
     1
100
AcDbLine
 10
681.478461
 20
327.551885
 30
0.0
 11
682.878461
 21
327.551885
 31
0.0
  0
ARC
  5
794
100
AcDbEntity
  8
LAY-9
  6
CONTINUOUS
 62
     1
100
AcDbCircle
 10
682.878461
 20
325.951885
 30
0.0
 40
1.6
100
AcDbArc
 50
0.0
 51
90.0
  0
LINE
  5
795
100
AcDbEntity
  8
LAY-9
  6
CONTINUOUS
 62
     1
100
AcDbLine
 10
684.478461
 20
325.951885
 30
0.0
 11
684.478461
 21
302.551885
 31
0.0
  0
LINE
  5
796
100
AcDbEntity
  8
LAY-9
  6
CONTINUOUS
 62
     1
100
AcDbLine
 10
682.878461
 20
325.951885
 30
0.0
 11
682.878461
 21
302.551885
 31
0.0
  0
LINE
  5
797
100
AcDbEntity
  8
LAY-9
  6
CONTINUOUS
 62
     1
100
AcDbLine
 10
682.878461
 20
302.551885
 30
0.0
 11
684.478461
 21
302.551885
 31
0.0
  0
ARC
  5
798
100
AcDbEntity
  8
LAY-9
  6
CONTINUOUS
 62
     1
100
AcDbCircle
 10
640.078461
 20
325.951885
 30
0.0
 40
1.6
100
AcDbArc
 50
90.0
 51
180.0
  0
LINE
  5
799
100
AcDbEntity
  8
LAY-9
  6
CONTINUOUS
 62
     1
100
AcDbLine
 10
640.078461
 20
325.951885
 30
0.0
 11
640.078461
 21
302.551885
 31
0.0
  0
LINE
  5
79A
100
AcDbEntity
  8
LAY-9
  6
CONTINUOUS
 62
     1
100
AcDbLine
 10
638.478461
 20
325.951885
 30
0.0
 11
638.478461
 21
302.551885
 31
0.0
  0
LINE
  5
79B
100
AcDbEntity
  8
LAY-9
  6
CONTINUOUS
 62
     1
100
AcDbLine
 10
638.478461
 20
302.551885
 30
0.0
 11
640.078461
 21
302.551885
 31
0.0
  0
LINE
  5
79C
100
AcDbEntity
  8
LAY-9
  6
CONTINUOUS
 62
     1
100
AcDbLine
 10
640.078461
 20
325.951885
 30
0.0
 11
643.478461
 21
325.951885
 31
0.0
  0
LINE
  5
79D
100
AcDbEntity
  8
LAY-9
  6
CONTINUOUS
 62
     1
100
AcDbLine
 10
641.478461
 20
327.551885
 30
0.0
 11
640.078461
 21
327.551885
 31
0.0
  0
LINE
  5
79E
100
AcDbEntity
  8
LAY-9
  6
CONTINUOUS
 62
     1
100
AcDbLine
 10
679.478461
 20
311.551885
 30
0.0
 11
682.878461
 21
311.551885
 31
0.0
  0
LINE
  5
79F
100
AcDbEntity
  8
LAY-9
  6
CONTINUOUS
 62
     1
100
AcDbLine
 10
640.078461
 20
311.551885
 30
0.0
 11
643.478461
 21
311.551885
 31
0.0
  0
LINE
  5
7A0
100
AcDbEntity
  8
LAY-10
  6
CONTINUOUS
 62
     5
100
AcDbLine
 10
15.0
 20
15.0
 30
0.0
 11
826.0
 21
15.0
 31
0.0
  0
LINE
  5
7A1
100
AcDbEntity
  8
LAY-10
  6
CONTINUOUS
 62
     5
100
AcDbLine
 10
826.0
 20
15.0
 30
0.0
 11
826.0
 21
579.0
 31
0.0
  0
LINE
  5
7A2
100
AcDbEntity
  8
LAY-10
  6
CONTINUOUS
 62
     5
100
AcDbLine
 10
15.0
 20
15.0
 30
0.0
 11
15.0
 21
579.0
 31
0.0
  0
LINE
  5
7A3
100
AcDbEntity
  8
LAY-10
  6
CONTINUOUS
 62
     5
100
AcDbLine
 10
15.0
 20
579.0
 30
0.0
 11
826.0
 21
579.0
 31
0.0
  0
LINE
  5
7A4
100
AcDbEntity
  8
LAY-10
  6
CONTINUOUS
 62
     5
100
AcDbLine
 10
15.0
 20
40.0
 30
0.0
 11
826.0
 21
40.0
 31
0.0
  0
LINE
  5
7A5
100
AcDbEntity
  8
LAY-10
  6
CONTINUOUS
 62
     1
100
AcDbLine
 10
224.0
 20
40.0
 30
0.0
 11
224.0
 21
15.0
 31
0.0
  0
LINE
  5
7A6
100
AcDbEntity
  8
LAY-10
  6
CONTINUOUS
 62
     1
100
AcDbLine
 10
249.5
 20
40.0
 30
0.0
 11
249.5
 21
15.0
 31
0.0
  0
LINE
  5
7A7
100
AcDbEntity
  8
LAY-10
  6
CONTINUOUS
 62
     1
100
AcDbLine
 10
275.0
 20
40.0
 30
0.0
 11
275.0
 21
15.0
 31
0.0
  0
LINE
  5
7A8
100
AcDbEntity
  8
LAY-10
  6
CONTINUOUS
 62
     1
100
AcDbLine
 10
300.5
 20
40.0
 30
0.0
 11
300.5
 21
15.0
 31
0.0
  0
LINE
  5
7A9
100
AcDbEntity
  8
LAY-10
  6
CONTINUOUS
 62
     1
100
AcDbLine
 10
326.0
 20
40.0
 30
0.0
 11
326.0
 21
15.0
 31
0.0
  0
LINE
  5
7AA
100
AcDbEntity
  8
LAY-10
  6
CONTINUOUS
 62
     1
100
AcDbLine
 10
377.0
 20
40.0
 30
0.0
 11
377.0
 21
15.0
 31
0.0
  0
LINE
  5
7AB
100
AcDbEntity
  8
LAY-10
  6
CONTINUOUS
 62
     1
100
AcDbLine
 10
738.0
 20
40.0
 30
0.0
 11
738.0
 21
15.0
 31
0.0
  0
LINE
  5
7AC
100
AcDbEntity
  8
LAY-10
  6
CONTINUOUS
 62
     1
100
AcDbLine
 10
224.0
 20
32.0
 30
0.0
 11
377.0
 21
32.0
 31
0.0
  0
TEXT
  5
7AD
100
AcDbEntity
  8
LAY-10
  6
CONTINUOUS
 62
     4
100
AcDbText
 10
227.5
 20
33.0
 30
0.0
 40
6.0
  1
検　  図
 41
0.57856
  7
EXCADSTD
 72
     5
 11
246.700001
 21
33.0
 31
0.0
100
AcDbText
  0
TEXT
  5
7AE
100
AcDbEntity
  8
LAY-10
  6
CONTINUOUS
 62
     4
100
AcDbText
 10
253.2
 20
33.0
 30
0.0
 40
6.0
  1
担　　当
 41
0.672
  7
EXCADSTD
 72
     5
 11
272.400001
 21
33.0
 31
0.0
100
AcDbText
  0
TEXT
  5
7AF
100
AcDbEntity
  8
LAY-10
  6
CONTINUOUS
 62
     4
100
AcDbText
 10
278.4
 20
33.0
 30
0.0
 40
6.0
  1
製　　図
 41
0.672
  7
EXCADSTD
 72
     5
 11
297.600001
 21
33.0
 31
0.0
100
AcDbText
  0
TEXT
  5
7B0
100
AcDbEntity
  8
LAY-10
  6
CONTINUOUS
 62
     4
100
AcDbText
 10
303.9
 20
33.0
 30
0.0
 40
6.0
  1
尺　　度
 41
0.672
  7
EXCADSTD
 72
     5
 11
323.100001
 21
33.0
 31
0.0
100
AcDbText
  0
TEXT
  5
7B1
100
AcDbEntity
  8
LAY-10
  6
CONTINUOUS
 62
     4
100
AcDbText
 10
339.5
 20
33.0
 30
0.0
 40
6.0
  1
作成年月日
 41
0.672
  7
EXCADSTD
 72
     5
 11
363.500001
 21
33.0
 31
0.0
100
AcDbText
  0
TEXT
  5
7B2
100
AcDbEntity
  8
LAY-10
  6
CONTINUOUS
 62
   134
100
AcDbText
 10
42.98
 20
20.91
 30
0.0
 40
13.0
  1
日本ドアーチエック製造株式会社
 41
0.653908
  7
EXCADSTD
 72
     5
 11
194.779994
 21
20.91
 31
0.0
100
AcDbText
  0
LINE
  5
7B3
100
AcDbEntity
  8
LAY-10
  6
CONTINUOUS
 62
     1
100
AcDbLine
 10
841.0
 20
0.0
 30
0.0
 11
841.0
 21
2.0
 31
0.0
  0
LINE
  5
7B4
100
AcDbEntity
  8
LAY-10
  6
CONTINUOUS
 62
     1
100
AcDbLine
 10
841.0
 20
592.0
 30
0.0
 11
841.0
 21
594.0
 31
0.0
  0
LINE
  5
7B5
100
AcDbEntity
  8
LAY-10
  6
CONTINUOUS
 62
     1
100
AcDbLine
 10
841.0
 20
594.0
 30
0.0
 11
839.0
 21
594.0
 31
0.0
  0
LINE
  5
7B6
100
AcDbEntity
  8
LAY-10
  6
CONTINUOUS
 62
     1
100
AcDbLine
 10
2.0
 20
594.0
 30
0.0
 11
0.0
 21
594.0
 31
0.0
  0
LINE
  5
7B7
100
AcDbEntity
  8
LAY-10
  6
CONTINUOUS
 62
     1
100
AcDbLine
 10
0.0
 20
594.0
 30
0.0
 11
0.0
 21
592.0
 31
0.0
  0
LINE
  5
7B8
100
AcDbEntity
  8
LAY-10
  6
CONTINUOUS
 62
     1
100
AcDbLine
 10
0.0
 20
2.0
 30
0.0
 11
0.0
 21
0.0
 31
0.0
  0
LINE
  5
7B9
100
AcDbEntity
  8
LAY-10
  6
CONTINUOUS
 62
     1
100
AcDbLine
 10
0.0
 20
0.0
 30
0.0
 11
2.0
 21
0.0
 31
0.0
  0
LINE
  5
7BA
100
AcDbEntity
  8
LAY-10
  6
CONTINUOUS
 62
     1
100
AcDbLine
 10
839.0
 20
0.0
 30
0.0
 11
841.0
 21
0.0
 31
0.0
  0
TEXT
  5
7BB
100
AcDbEntity
  8
LAY-10
  6
CONTINUOUS
 62
     4
100
AcDbText
 10
383.0
 20
33.0
 30
0.0
 40
6.0
  1
図 面 名
 41
0.57856
  7
EXCADSTD
 72
     5
 11
402.200001
 21
33.0
 31
0.0
100
AcDbText
  0
TEXT
  5
7BC
100
AcDbEntity
  8
LAY-10
  6
CONTINUOUS
 62
     4
100
AcDbText
 10
744.0
 20
33.0
 30
0.0
 40
6.0
  1
図面番号
 41
0.672
  7
EXCADSTD
 72
     5
 11
763.200001
 21
33.0
 31
0.0
100
AcDbText
  0
TEXT
  5
7BD
100
AcDbEntity
  8
LAY-10
  6
CONTINUOUS
 62
     2
100
AcDbText
 10
306.5
 20
20.2
 30
0.0
 40
6.0
  1
１／１
 41
0.672
  7
EXCADSTD
 72
     5
 11
320.900001
 21
20.2
 31
0.0
100
AcDbText
  0
TEXT
  5
7BE
100
AcDbEntity
  8
LAY-10
  6
CONTINUOUS
 62
     2
100
AcDbText
 10
406.828367
 20
19.274519
 30
0.0
 40
10.0
  1
ピボットヒンジ　Ｃ－１(沓摺格納型 )　納まり図
 41
0.653429
  7
EXCADSTD
 72
     5
 11
582.828367
 21
19.274519
 31
0.0
100
AcDbText
  0
ENDSEC
  0
SECTION
  2
OBJECTS
  0
DICTIONARY
  5
19
100
AcDbDictionary
  3
ACAD_GROUP
350
1A
  3
ACAD_MLINESTYLE
350
1B
  0
DICTIONARY
  5
1A
102
{ACAD_REACTORS
330
19
102
}
100
AcDbDictionary
  0
DICTIONARY
  5
1B
102
{ACAD_REACTORS
330
19
102
}
100
AcDbDictionary
  3
STANDARD
350
1C
  0
MLINESTYLE
  5
1C
102
{ACAD_REACTORS
330
1B
102
}
100
AcDbMlineStyle
  2
Standard
 70
     0
  3

 62
     0
 51
90.0
 52
90.0
 71
     2
 49
0.5
 62
   256
  6
ByLayer
 49
-0.5
 62
   256
  6
ByLayer
  0
ENDSEC
  0
EOF
