  0
SECTION
  2
HEADER
  9
$ACADVER
  1
AC1014
  9
$ACADMAINTVER
 70
     0
  9
$DWGCODEPAGE
  3
ANSI_932
  9
$INSBASE
 10
0.0
 20
0.0
 30
0.0
  9
$EXTMIN
 10
0.0
 20
0.0
 30
0.0
  9
$EXTMAX
 10
841.0
 20
594.0
 30
0.0
  9
$LIMMIN
 10
0.0
 20
0.0
  9
$LIMMAX
 10
841.0
 20
594.0
  9
$ORTHOMODE
 70
     0
  9
$REGENMODE
 70
     1
  9
$FILLMODE
 70
     1
  9
$QTEXTMODE
 70
     0
  9
$MIRRTEXT
 70
     1
  9
$DRAGMODE
 70
     2
  9
$LTSCALE
 40
1.0
  9
$OSMODE
 70
     0
  9
$ATTMODE
 70
     1
  9
$TEXTSIZE
 40
0.2
  9
$TRACEWID
 40
0.05
  9
$TEXTSTYLE
  7
STANDARD
  9
$CLAYER
  8
LAY-1
  9
$CELTYPE
  6
CONTINUOUS
  9
$CECOLOR
 62
   256
  9
$CELTSCALE
 40
1.0
  9
$DELOBJ
 70
     1
  9
$DISPSILH
 70
     0
  9
$DIMSCALE
 40
1.0
  9
$DIMASZ
 40
0.18
  9
$DIMEXO
 40
0.0625
  9
$DIMDLI
 40
0.38
  9
$DIMRND
 40
0.0
  9
$DIMDLE
 40
0.0
  9
$DIMEXE
 40
0.18
  9
$DIMTP
 40
0.0
  9
$DIMTM
 40
0.0
  9
$DIMTXT
 40
0.18
  9
$DIMCEN
 40
0.09
  9
$DIMTSZ
 40
0.0
  9
$DIMTOL
 70
     0
  9
$DIMLIM
 70
     0
  9
$DIMTIH
 70
     1
  9
$DIMTOH
 70
     1
  9
$DIMSE1
 70
     0
  9
$DIMSE2
 70
     0
  9
$DIMTAD
 70
     0
  9
$DIMZIN
 70
     0
  9
$DIMBLK
  1

  9
$DIMASO
 70
     1
  9
$DIMSHO
 70
     1
  9
$DIMPOST
  1

  9
$DIMAPOST
  1

  9
$DIMALT
 70
     0
  9
$DIMALTD
 70
     2
  9
$DIMALTF
 40
25.4
  9
$DIMLFAC
 40
1.0
  9
$DIMTOFL
 70
     0
  9
$DIMTVP
 40
0.0
  9
$DIMTIX
 70
     0
  9
$DIMSOXD
 70
     0
  9
$DIMSAH
 70
     0
  9
$DIMBLK1
  1

  9
$DIMBLK2
  1

  9
$DIMSTYLE
  2
STANDARD
  9
$DIMCLRD
 70
     0
  9
$DIMCLRE
 70
     0
  9
$DIMCLRT
 70
     0
  9
$DIMTFAC
 40
1.0
  9
$DIMGAP
 40
0.09
  9
$DIMJUST
 70
     0
  9
$DIMSD1
 70
     0
  9
$DIMSD2
 70
     0
  9
$DIMTOLJ
 70
     1
  9
$DIMTZIN
 70
     0
  9
$DIMALTZ
 70
     0
  9
$DIMALTTZ
 70
     0
  9
$DIMFIT
 70
     3
  9
$DIMUPT
 70
     0
  9
$DIMUNIT
 70
     2
  9
$DIMDEC
 70
     4
  9
$DIMTDEC
 70
     4
  9
$DIMALTU
 70
     2
  9
$DIMALTTD
 70
     2
  9
$DIMTXSTY
  7
STANDARD
  9
$DIMAUNIT
 70
     0
  9
$LUNITS
 70
     2
  9
$LUPREC
 70
     4
  9
$SKETCHINC
 40
0.1
  9
$FILLETRAD
 40
0.0
  9
$AUNITS
 70
     0
  9
$AUPREC
 70
     0
  9
$MENU
  1
acad
  9
$ELEVATION
 40
0.0
  9
$PELEVATION
 40
0.0
  9
$THICKNESS
 40
0.0
  9
$LIMCHECK
 70
     0
  9
$BLIPMODE
 70
     1
  9
$CHAMFERA
 40
0.0
  9
$CHAMFERB
 40
0.0
  9
$CHAMFERC
 40
0.0
  9
$CHAMFERD
 40
0.0
  9
$SKPOLY
 70
     0
  9
$TDCREATE
 40
2454542.036972442
  9
$TDUPDATE
 40
2454542.036972442
  9
$TDINDWG
 40
0.0000000000
  9
$TDUSRTIMER
 40
0.0000000000
  9
$USRTIMER
 70
     1
  9
$ANGBASE
 50
0.0
  9
$ANGDIR
 70
     0
  9
$PDMODE
 70
     0
  9
$PDSIZE
 40
0.0
  9
$PLINEWID
 40
0.0
  9
$COORDS
 70
     1
  9
$SPLFRAME
 70
     0
  9
$SPLINETYPE
 70
     6
  9
$SPLINESEGS
 70
     8
  9
$ATTDIA
 70
     0
  9
$ATTREQ
 70
     1
  9
$HANDLING
 70
     1
  9
$HANDSEED
  5
79F
  9
$SURFTAB1
 70
     6
  9
$SURFTAB2
 70
     6
  9
$SURFTYPE
 70
     6
  9
$SURFU
 70
     6
  9
$SURFV
 70
     6
  9
$UCSNAME
  2

  9
$UCSORG
 10
0.0
 20
0.0
 30
0.0
  9
$UCSXDIR
 10
1.0
 20
0.0
 30
0.0
  9
$UCSYDIR
 10
0.0
 20
1.0
 30
0.0
  9
$PUCSNAME
  2

  9
$PUCSORG
 10
0.0
 20
0.0
 30
0.0
  9
$PUCSXDIR
 10
1.0
 20
0.0
 30
0.0
  9
$PUCSYDIR
 10
0.0
 20
1.0
 30
0.0
  9
$USERI1
 70
     0
  9
$USERI2
 70
     0
  9
$USERI3
 70
     0
  9
$USERI4
 70
     0
  9
$USERI5
 70
     0
  9
$USERR1
 40
0.0
  9
$USERR2
 40
0.0
  9
$USERR3
 40
0.0
  9
$USERR4
 40
0.0
  9
$USERR5
 40
0.0
  9
$WORLDVIEW
 70
     1
  9
$SHADEDGE
 70
     3
  9
$SHADEDIF
 70
    70
  9
$TILEMODE
 70
     1
  9
$MAXACTVP
 70
    16
  9
$PINSBASE
 10
0.0
 20
0.0
 30
0.0
  9
$PLIMCHECK
 70
     0
  9
$PEXTMIN
 10
1.000000E+20
 20
1.000000E+20
 30
1.000000E+20
  9
$PEXTMAX
 10
-1.000000E+20
 20
-1.000000E+20
 30
-1.000000E+20
  9
$PLIMMIN
 10
0.0
 20
0.0
  9
$PLIMMAX
 10
12.0
 20
9.0
  9
$UNITMODE
 70
     0
  9
$VISRETAIN
 70
     0
  9
$PLINEGEN
 70
     1
  9
$PSLTSCALE
 70
     0
  9
$TREEDEPTH
 70
  3020
  9
$PICKSTYLE
 70
     1
  9
$CMLSTYLE
  2
Standard
  9
$CMLJUST
 70
     0
  9
$CMLSCALE
 40
1.0
  9
$PROXYGRAPHICS
 70
     0
  9
$MEASUREMENT
 70
     0
  0
ENDSEC
  0
SECTION
  2
CLASSES
  0
CLASS
  1
LWPOLYLINE
  2
AcDbPolyline
  3
"AutoCAD"
 90
        0
280
     0
281
     1
  0
CLASS
  1
IMAGE
  2
AcDbRasterImage
  3
ISM
 90
      127
280
     0
281
     1
  0
CLASS
  1
OLE2FRAME
  2
AcDbOle2Frame
  3
""
 90
        0
280
     0
281
     1
  0
CLASS
  1
HATCH
  2
AcDbHatch
  3
"ACAD_SEDONA"
 90
        0
280
     0
281
     1
  0
CLASS
  1
DICTIONARYVAR
  2
AcDbDictionaryVar
  3
"AutoCAD"
 90
        0
280
     0
281
     0
  0
CLASS
  1
RASTERVARIABLES
  2
AcDbRasterVariables
  3
ISM
 90
        0
280
     0
281
     0
  0
CLASS
  1
IMAGEDEF
  2
AcDbRasterImageDef
  3
ISM
 90
        0
280
     0
281
     0
  0
CLASS
  1
IMAGEDEF_REACTOR
  2
AcDbRasterImageDefReactor
  3
ISM
 90
        1
280
     0
281
     0
  0
CLASS
  1
IDBUFFER
  2
AcDbIdBuffer
  3
"Acad"
 90
        0
280
     0
281
     0
  0
CLASS
  1
SPATIAL_FILTER
  2
AcDbSpatialFilter
  3
"Acad"
 90
        0
280
     0
281
     0
  0
CLASS
  1
XRECORD
  2
AcDbXrecord
  3
"<Built In>"
 90
        0
280
     0
281
     0
  0
CLASS
  1
SORTENTSTABLE
  2
AcDbSortentsTable
  3
"AutoCAD"
 90
        0
280
     0
281
     0
  0
CLASS
  1
LAYER_INDEX
  2
AcDbLayerIndex
  3
"Acad"
 90
        0
280
     0
281
     0
  0
CLASS
  1
SPATIAL_INDEX
  2
AcDbSpatialIndex
  3
"Acad"
 90
        0
280
     0
281
     0
  0
CLASS
  1
OBJECT_PTR
  2
CAseDLPNTableRecord
  3
"ASE-LPNTableRecord"
 90
        1
280
     0
281
     0
  0
CLASS
  1
LAYOUT
  2
AcDbLayout
  3
"AutoCAD 2000"
 90
        0
280
     0
281
     0
  0
CLASS
  1
PLOTSETTINGS
  2
AcDbPlotSettings
  3
"AutoCAD 2000"
 90
        0
280
     0
281
     0
  0
CLASS
  1
ACDBDICTIONARYWDFLT
  2
AcDbDictionaryWithDefault
  3
"AutoCAD 2000"
 90
        0
280
     0
281
     0
  0
CLASS
  1
ACDBPLACEHOLDER
  2
AcDbPlaceHolder
  3
"AutoCAD 2000"
 90
        0
280
     0
281
     0
  0
CLASS
  1
VBA_PROJECT
  2
AcDbVbaProject
  3
"acadvba"
 90
        0
280
     0
281
     0
  0
CLASS
  1
WIPEOUT
  2
AcDbWipeout
  3
WipeOut|AutoCAD Express Tool|expresstools@autodesk.com
 90
      127
280
     0
281
     1
  0
CLASS
  1
WIPEOUTVARIABLES
  2
AcDbWipeoutVariables
  3
WipeOut|AutoCAD Express Tool|expresstools@autodesk.com
 90
        0
280
     0
281
     0
  0
CLASS
  1
RTEXT
  2
RText
  3
RText|AutoCAD Express Tool|expresstools@autodesk.com
 90
        0
280
     0
281
     1
  0
CLASS
  1
ARCALIGNEDTEXT
  2
AcDbArcAlignedText
  3
ATEXT|AutoCAD Express Tool|expresstools@autodesk.com
 90
        0
280
     0
281
     1
  0
ENDSEC
  0
SECTION
  2
TABLES
  0
TABLE
  2
VPORT
  5
7
100
AcDbSymbolTable
 70
     1
  0
VPORT
  5
15
100
AcDbSymbolTableRecord
100
AcDbViewportTableRecord
  2
*ACTIVE
 70
     0
 10
0.0
 20
0.0
 11
1.0
 21
1.0
 12
420.5
 22
297.0
 13
0.0
 23
0.0
 14
1.0
 24
1.0
 15
0.0
 25
0.0
 16
0.0
 26
0.0
 36
1.0
 17
0.0
 27
0.0
 37
0.0
 40
594.0
 41
1.722533
 42
50.0
 43
0.0
 44
0.0
 50
0.0
 51
0.0
 71
     0
 72
   100
 73
     1
 74
     1
 75
     0
 76
     0
 77
     0
 78
     0
  0
ENDTAB
  0
TABLE
  2
LTYPE
  5
4
100
AcDbSymbolTable
 70
     9
  0
LTYPE
  5
11
100
AcDbSymbolTableRecord
100
AcDbLinetypeTableRecord
  2
BYBLOCK
 70
    64
  3

 72
    65
 73
     0
 40
0.0
  0
LTYPE
  5
12
100
AcDbSymbolTableRecord
100
AcDbLinetypeTableRecord
  2
BYLAYER
 70
    64
  3

 72
    65
 73
     0
 40
0.0
  0
LTYPE
  5
13
100
AcDbSymbolTableRecord
100
AcDbLinetypeTableRecord
  2
CONTINUOUS
 70
    64
  3
実線
 72
    65
 73
     0
 40
0.0
  0
LTYPE
  5
1D
100
AcDbSymbolTableRecord
100
AcDbLinetypeTableRecord
  2
DASHED
 70
    64
  3
Dashed __ __ __ __ __ __ __ __ __ __ __ __ __ _
 72
    65
 73
     2
 40
19.05
 49
12.7
 74
     0
 49
-6.35
 74
     0
  0
LTYPE
  5
1E
100
AcDbSymbolTableRecord
100
AcDbLinetypeTableRecord
  2
DASHED2
 70
    64
  3
Dashed (.5x) _ _ _ _ _ _ _ _ _ _ _ _ _ _ _ _ _ 
 72
    65
 73
     2
 40
9.525
 49
6.35
 74
     0
 49
-3.175
 74
     0
  0
LTYPE
  5
1F
100
AcDbSymbolTableRecord
100
AcDbLinetypeTableRecord
  2
DASHDOT
 70
    64
  3
Dash dot __ . __ . __ . __ . __ . __ . __ . __
 72
    65
 73
     4
 40
25.4
 49
12.7
 74
     0
 49
-6.35
 74
     0
 49
0.0
 74
     0
 49
-6.35
 74
     0
  0
LTYPE
  5
20
100
AcDbSymbolTableRecord
100
AcDbLinetypeTableRecord
  2
DIVIDE
 70
    64
  3
Divide ____ . . ____ . . ____ . . ____ . . ____
 72
    65
 73
     6
 40
31.75
 49
12.7
 74
     0
 49
-6.35
 74
     0
 49
0.0
 74
     0
 49
-6.35
 74
     0
 49
0.0
 74
     0
 49
-6.35
 74
     0
  0
LTYPE
  5
21
100
AcDbSymbolTableRecord
100
AcDbLinetypeTableRecord
  2
ACAD_ISO06W100
 70
    64
  3
ISO long-dash triple-dot ____ ... ____ ... ____
 72
    65
 73
     8
 40
36.0
 49
24.0
 74
     0
 49
-3.0
 74
     0
 49
0.0
 74
     0
 49
-3.0
 74
     0
 49
0.0
 74
     0
 49
-3.0
 74
     0
 49
0.0
 74
     0
 49
-3.0
 74
     0
  0
LTYPE
  5
22
100
AcDbSymbolTableRecord
100
AcDbLinetypeTableRecord
  2
ACAD_ISO15W100
 70
    64
  3
ISO double-dash triple-dot __ __ . . . __ __ . .
 72
    65
 73
    10
 40
39.0
 49
12.0
 74
     0
 49
-3.0
 74
     0
 49
12.0
 74
     0
 49
-3.0
 74
     0
 49
0.0
 74
     0
 49
-3.0
 74
     0
 49
0.0
 74
     0
 49
-3.0
 74
     0
 49
0.0
 74
     0
 49
-3.0
 74
     0
  0
ENDTAB
  0
TABLE
  2
LAYER
  5
2
100
AcDbSymbolTable
 70
     9
  0
LAYER
  5
14
100
AcDbSymbolTableRecord
100
AcDbLayerTableRecord
  2
0
 70
     0
 62
     7
  6
CONTINUOUS
  0
LAYER
  5
25
100
AcDbSymbolTableRecord
100
AcDbLayerTableRecord
  2
LAY-1
 70
    64
 62
     3
  6
CONTINUOUS
  0
LAYER
  5
26
100
AcDbSymbolTableRecord
100
AcDbLayerTableRecord
  2
LAY-2
 70
    64
 62
     3
  6
CONTINUOUS
  0
LAYER
  5
27
100
AcDbSymbolTableRecord
100
AcDbLayerTableRecord
  2
LAY-3
 70
    64
 62
     3
  6
CONTINUOUS
  0
LAYER
  5
28
100
AcDbSymbolTableRecord
100
AcDbLayerTableRecord
  2
LAY-4
 70
    64
 62
     3
  6
CONTINUOUS
  0
LAYER
  5
29
100
AcDbSymbolTableRecord
100
AcDbLayerTableRecord
  2
LAY-5
 70
    64
 62
     1
  6
DASHDOT
  0
LAYER
  5
2A
100
AcDbSymbolTableRecord
100
AcDbLayerTableRecord
  2
LAY-6
 70
    64
 62
     2
  6
CONTINUOUS
  0
LAYER
  5
2B
100
AcDbSymbolTableRecord
100
AcDbLayerTableRecord
  2
LAY-9
 70
    64
 62
     1
  6
CONTINUOUS
  0
LAYER
  5
2C
100
AcDbSymbolTableRecord
100
AcDbLayerTableRecord
  2
LAY-10
 70
    64
 62
     5
  6
CONTINUOUS
  0
ENDTAB
  0
TABLE
  2
STYLE
  5
3
100
AcDbSymbolTable
 70
     3
  0
STYLE
  5
17
100
AcDbSymbolTableRecord
100
AcDbTextStyleTableRecord
  2
STANDARD
 70
     0
 40
0.0
 41
1.0
 50
0.0
 71
     0
 42
0.0
  3
monotxt
  4
extfont
  0
STYLE
  5
23
100
AcDbSymbolTableRecord
100
AcDbTextStyleTableRecord
  2
EXCADSTD
 70
    64
 40
0.0
 41
1.0
 50
0.0
 71
     0
 42
0.2
  3
monotxt
  4
extfont
  0
STYLE
  5
24
100
AcDbSymbolTableRecord
100
AcDbTextStyleTableRecord
  2
EXCADVERT
 70
    68
 40
0.0
 41
1.0
 50
0.0
 71
     0
 42
0.286885
  3
monotxt
  4
extfont
  0
ENDTAB
  0
TABLE
  2
VIEW
  5
5
100
AcDbSymbolTable
 70
     0
  0
ENDTAB
  0
TABLE
  2
UCS
  5
6
100
AcDbSymbolTable
 70
     0
  0
ENDTAB
  0
TABLE
  2
APPID
  5
8
100
AcDbSymbolTable
 70
     1
  0
APPID
  5
16
100
AcDbSymbolTableRecord
100
AcDbRegAppTableRecord
  2
ACAD
 70
     0
  0
ENDTAB
  0
TABLE
  2
DIMSTYLE
  5
9
100
AcDbSymbolTable
 70
     1
  0
DIMSTYLE
105
18
100
AcDbSymbolTableRecord
100
AcDbDimStyleTableRecord
  2
STANDARD
 70
     0
  3

  4

  5

  6

  7

 40
1.0
 41
0.18
 42
0.0625
 43
0.38
 44
0.18
 45
0.0
 46
0.0
 47
0.0
 48
0.0
 71
     0
 72
     0
 73
     1
 74
     1
 75
     0
 76
     0
 77
     0
 78
     0
140
0.18
141
0.09
142
0.0
143
25.4
144
1.0
145
0.0
146
1.0
147
0.09
170
     0
171
     2
172
     1
173
     0
174
     0
175
     0
176
     0
177
     0
178
     0
270
     2
271
     4
272
     4
273
     2
274
     2
275
     0
280
     0
281
     0
282
     0
283
     1
284
     0
285
     0
286
     0
287
     3
288
     0
340
17
  0
ENDTAB
  0
TABLE
  2
BLOCK_RECORD
  5
1
100
AcDbSymbolTable
 70
    19
  0
BLOCK_RECORD
  5
A
100
AcDbSymbolTableRecord
100
AcDbBlockTableRecord
  2
*MODEL_SPACE
  0
BLOCK_RECORD
  5
B
100
AcDbSymbolTableRecord
100
AcDbBlockTableRecord
  2
*PAPER_SPACE
  0
BLOCK_RECORD
  5
2D
100
AcDbSymbolTableRecord
100
AcDbBlockTableRecord
  2
_EX_NORM
  0
BLOCK_RECORD
  5
2E
100
AcDbSymbolTableRecord
100
AcDbBlockTableRecord
  2
_EX_BNORM
  0
BLOCK_RECORD
  5
2F
100
AcDbSymbolTableRecord
100
AcDbBlockTableRecord
  2
_EX_BCIR
  0
BLOCK_RECORD
  5
30
100
AcDbSymbolTableRecord
100
AcDbBlockTableRecord
  2
_EX_RCIVIL
  0
BLOCK_RECORD
  5
31
100
AcDbSymbolTableRecord
100
AcDbBlockTableRecord
  2
_EX_SLANT
  0
BLOCK_RECORD
  5
32
100
AcDbSymbolTableRecord
100
AcDbBlockTableRecord
  2
_EX_NONE
  0
BLOCK_RECORD
  5
33
100
AcDbSymbolTableRecord
100
AcDbBlockTableRecord
  2
_EX_CIVIL
  0
BLOCK_RECORD
  5
34
100
AcDbSymbolTableRecord
100
AcDbBlockTableRecord
  2
_EX_WCIR
  0
BLOCK_RECORD
  5
35
100
AcDbSymbolTableRecord
100
AcDbBlockTableRecord
  2
_EX_WCIR2
  0
BLOCK_RECORD
  5
36
100
AcDbSymbolTableRecord
100
AcDbBlockTableRecord
  2
_EX_WNORM
  0
BLOCK_RECORD
  5
37
100
AcDbSymbolTableRecord
100
AcDbBlockTableRecord
  2
_EX_NNORM
  0
BLOCK_RECORD
  5
38
100
AcDbSymbolTableRecord
100
AcDbBlockTableRecord
  2
_EX_BBOX
  0
BLOCK_RECORD
  5
39
100
AcDbSymbolTableRecord
100
AcDbBlockTableRecord
  2
_EX_WBOX
  0
BLOCK_RECORD
  5
3A
100
AcDbSymbolTableRecord
100
AcDbBlockTableRecord
  2
_EX_INTEGRAL
  0
BLOCK_RECORD
  5
3B
100
AcDbSymbolTableRecord
100
AcDbBlockTableRecord
  2
SYM-1
  0
BLOCK_RECORD
  5
3C
100
AcDbSymbolTableRecord
100
AcDbBlockTableRecord
  2
SYM-2
  0
BLOCK_RECORD
  5
3D
100
AcDbSymbolTableRecord
100
AcDbBlockTableRecord
  2
SYM-3
  0
BLOCK_RECORD
  5
3E
100
AcDbSymbolTableRecord
100
AcDbBlockTableRecord
  2
SYM-4
  0
BLOCK_RECORD
  5
3F
100
AcDbSymbolTableRecord
100
AcDbBlockTableRecord
  2
SYM-5
  0
ENDTAB
  0
ENDSEC
  0
SECTION
  2
BLOCKS
  0
BLOCK
  5
D
100
AcDbEntity
  8
0
100
AcDbBlockBegin
  2
*MODEL_SPACE
 70
     0
 10
0.0
 20
0.0
 30
0.0
  3
*MODEL_SPACE
  1

  0
ENDBLK
  5
E
100
AcDbEntity
  8
0
100
AcDbBlockEnd
  0
BLOCK
  5
F
100
AcDbEntity
 67
     1
  8
0
100
AcDbBlockBegin
  2
*PAPER_SPACE
 70
     0
 10
0.0
 20
0.0
 30
0.0
  3
*PAPER_SPACE
  1

  0
ENDBLK
  5
10
100
AcDbEntity
 67
     1
  8
0
100
AcDbBlockEnd
  0
BLOCK
  5
40
100
AcDbEntity
  8
0
100
AcDbBlockBegin
  2
_EX_NORM
 70
     0
 10
0.0
 20
0.0
 30
0.0
  3
_EX_NORM
  1

  0
LINE
  5
41
100
AcDbEntity
  8
0
  6
CONTINUOUS
 62
     0
100
AcDbLine
 10
0.0
 20
0.0
 30
0.0
 11
-1.0
 21
0.0
 31
0.0
  0
LINE
  5
42
100
AcDbEntity
  8
0
  6
CONTINUOUS
 62
     0
100
AcDbLine
 10
0.0
 20
0.0
 30
0.0
 11
-1.0
 21
0.166667
 31
0.0
  0
LINE
  5
43
100
AcDbEntity
  8
0
  6
CONTINUOUS
 62
     0
100
AcDbLine
 10
0.0
 20
0.0
 30
0.0
 11
-1.0
 21
-0.166667
 31
0.0
  0
ENDBLK
  5
44
100
AcDbEntity
  8
0
100
AcDbBlockEnd
  0
BLOCK
  5
45
100
AcDbEntity
  8
0
100
AcDbBlockBegin
  2
_EX_BNORM
 70
     0
 10
0.0
 20
0.0
 30
0.0
  3
_EX_BNORM
  1

  0
LINE
  5
46
100
AcDbEntity
  8
0
  6
CONTINUOUS
 62
     0
100
AcDbLine
 10
0.0
 20
0.0
 30
0.0
 11
-1.0
 21
0.0
 31
0.0
  0
LINE
  5
47
100
AcDbEntity
  8
0
  6
CONTINUOUS
 62
     0
100
AcDbLine
 10
0.0
 20
0.0
 30
0.0
 11
-1.0
 21
0.166667
 31
0.0
  0
LINE
  5
48
100
AcDbEntity
  8
0
  6
CONTINUOUS
 62
     0
100
AcDbLine
 10
0.0
 20
0.0
 30
0.0
 11
-1.0
 21
-0.166667
 31
0.0
  0
LINE
  5
49
100
AcDbEntity
  8
0
  6
CONTINUOUS
 62
     0
100
AcDbLine
 10
0.0
 20
0.0
 30
0.0
 11
-1.0
 21
0.083333
 31
0.0
  0
LINE
  5
4A
100
AcDbEntity
  8
0
  6
CONTINUOUS
 62
     0
100
AcDbLine
 10
0.0
 20
0.0
 30
0.0
 11
-1.0
 21
-0.083333
 31
0.0
  0
LINE
  5
4B
100
AcDbEntity
  8
0
  6
CONTINUOUS
 62
     0
100
AcDbLine
 10
-1.0
 20
0.166667
 30
0.0
 11
-1.0
 21
-0.166667
 31
0.0
  0
ENDBLK
  5
4C
100
AcDbEntity
  8
0
100
AcDbBlockEnd
  0
BLOCK
  5
4D
100
AcDbEntity
  8
0
100
AcDbBlockBegin
  2
_EX_BCIR
 70
     0
 10
0.0
 20
0.0
 30
0.0
  3
_EX_BCIR
  1

  0
LINE
  5
4E
100
AcDbEntity
  8
0
  6
CONTINUOUS
 62
     0
100
AcDbLine
 10
0.0
 20
0.0
 30
0.0
 11
-1.0
 21
0.0
 31
0.0
  0
CIRCLE
  5
4F
100
AcDbEntity
  8
0
  6
CONTINUOUS
 62
     0
100
AcDbCircle
 10
0.0
 20
0.0
 30
0.0
 40
0.5
  0
CIRCLE
  5
50
100
AcDbEntity
  8
0
  6
CONTINUOUS
 62
     0
100
AcDbCircle
 10
0.0
 20
0.0
 30
0.0
 40
0.25
  0
ENDBLK
  5
51
100
AcDbEntity
  8
0
100
AcDbBlockEnd
  0
BLOCK
  5
52
100
AcDbEntity
  8
0
100
AcDbBlockBegin
  2
_EX_RCIVIL
 70
     0
 10
0.0
 20
0.0
 30
0.0
  3
_EX_RCIVIL
  1

  0
LINE
  5
53
100
AcDbEntity
  8
0
  6
CONTINUOUS
 62
     0
100
AcDbLine
 10
0.0
 20
0.0
 30
0.0
 11
-1.0
 21
0.0
 31
0.0
  0
LINE
  5
54
100
AcDbEntity
  8
0
  6
CONTINUOUS
 62
     0
100
AcDbLine
 10
-1.0
 20
-0.25
 30
0.0
 11
0.0
 21
-0.25
 31
0.0
  0
LINE
  5
55
100
AcDbEntity
  8
0
  6
CONTINUOUS
 62
     0
100
AcDbLine
 10
-1.0
 20
-0.125
 30
0.0
 11
0.0
 21
-0.125
 31
0.0
  0
ENDBLK
  5
56
100
AcDbEntity
  8
0
100
AcDbBlockEnd
  0
BLOCK
  5
57
100
AcDbEntity
  8
0
100
AcDbBlockBegin
  2
_EX_SLANT
 70
     0
 10
0.0
 20
0.0
 30
0.0
  3
_EX_SLANT
  1

  0
LINE
  5
58
100
AcDbEntity
  8
0
  6
CONTINUOUS
 62
     0
100
AcDbLine
 10
0.0
 20
0.0
 30
0.0
 11
-1.0
 21
0.0
 31
0.0
  0
LINE
  5
59
100
AcDbEntity
  8
0
  6
CONTINUOUS
 62
     0
100
AcDbLine
 10
0.707107
 20
0.707107
 30
0.0
 11
-0.707107
 21
-0.707107
 31
0.0
  0
ENDBLK
  5
5A
100
AcDbEntity
  8
0
100
AcDbBlockEnd
  0
BLOCK
  5
5B
100
AcDbEntity
  8
0
100
AcDbBlockBegin
  2
_EX_NONE
 70
     0
 10
0.0
 20
0.0
 30
0.0
  3
_EX_NONE
  1

  0
LINE
  5
5C
100
AcDbEntity
  8
0
  6
CONTINUOUS
 62
     0
100
AcDbLine
 10
0.0
 20
0.0
 30
0.0
 11
-1.0
 21
0.0
 31
0.0
  0
ENDBLK
  5
5D
100
AcDbEntity
  8
0
100
AcDbBlockEnd
  0
BLOCK
  5
5E
100
AcDbEntity
  8
0
100
AcDbBlockBegin
  2
_EX_CIVIL
 70
     0
 10
0.0
 20
0.0
 30
0.0
  3
_EX_CIVIL
  1

  0
LINE
  5
5F
100
AcDbEntity
  8
0
  6
CONTINUOUS
 62
     0
100
AcDbLine
 10
0.0
 20
0.0
 30
0.0
 11
-1.0
 21
0.0
 31
0.0
  0
LINE
  5
60
100
AcDbEntity
  8
0
  6
CONTINUOUS
 62
     0
100
AcDbLine
 10
-1.0
 20
0.25
 30
0.0
 11
0.0
 21
0.25
 31
0.0
  0
LINE
  5
61
100
AcDbEntity
  8
0
  6
CONTINUOUS
 62
     0
100
AcDbLine
 10
-1.0
 20
0.125
 30
0.0
 11
0.0
 21
0.125
 31
0.0
  0
ENDBLK
  5
62
100
AcDbEntity
  8
0
100
AcDbBlockEnd
  0
BLOCK
  5
63
100
AcDbEntity
  8
0
100
AcDbBlockBegin
  2
_EX_WCIR
 70
     0
 10
0.0
 20
0.0
 30
0.0
  3
_EX_WCIR
  1

  0
LINE
  5
64
100
AcDbEntity
  8
0
  6
CONTINUOUS
 62
     0
100
AcDbLine
 10
0.0
 20
0.0
 30
0.0
 11
-1.0
 21
0.0
 31
0.0
  0
CIRCLE
  5
65
100
AcDbEntity
  8
0
  6
CONTINUOUS
 62
     0
100
AcDbCircle
 10
0.0
 20
0.0
 30
0.0
 40
0.5
  0
ENDBLK
  5
66
100
AcDbEntity
  8
0
100
AcDbBlockEnd
  0
BLOCK
  5
67
100
AcDbEntity
  8
0
100
AcDbBlockBegin
  2
_EX_WCIR2
 70
     0
 10
0.0
 20
0.0
 30
0.0
  3
_EX_WCIR2
  1

  0
LINE
  5
68
100
AcDbEntity
  8
0
  6
CONTINUOUS
 62
     0
100
AcDbLine
 10
-0.5
 20
0.0
 30
0.0
 11
-1.0
 21
0.0
 31
0.0
  0
CIRCLE
  5
69
100
AcDbEntity
  8
0
  6
CONTINUOUS
 62
     0
100
AcDbCircle
 10
0.0
 20
0.0
 30
0.0
 40
0.5
  0
ENDBLK
  5
6A
100
AcDbEntity
  8
0
100
AcDbBlockEnd
  0
BLOCK
  5
6B
100
AcDbEntity
  8
0
100
AcDbBlockBegin
  2
_EX_WNORM
 70
     0
 10
0.0
 20
0.0
 30
0.0
  3
_EX_WNORM
  1

  0
LINE
  5
6C
100
AcDbEntity
  8
0
  6
CONTINUOUS
 62
     0
100
AcDbLine
 10
-1.0
 20
0.0
 30
0.0
 11
-1.0
 21
0.0
 31
0.0
  0
LINE
  5
6D
100
AcDbEntity
  8
0
  6
CONTINUOUS
 62
     0
100
AcDbLine
 10
0.0
 20
0.0
 30
0.0
 11
-1.0
 21
0.166667
 31
0.0
  0
LINE
  5
6E
100
AcDbEntity
  8
0
  6
CONTINUOUS
 62
     0
100
AcDbLine
 10
0.0
 20
0.0
 30
0.0
 11
-1.0
 21
-0.166667
 31
0.0
  0
LINE
  5
6F
100
AcDbEntity
  8
0
  6
CONTINUOUS
 62
     0
100
AcDbLine
 10
-1.0
 20
0.166667
 30
0.0
 11
-1.0
 21
-0.166667
 31
0.0
  0
ENDBLK
  5
70
100
AcDbEntity
  8
0
100
AcDbBlockEnd
  0
BLOCK
  5
71
100
AcDbEntity
  8
0
100
AcDbBlockBegin
  2
_EX_NNORM
 70
     0
 10
0.0
 20
0.0
 30
0.0
  3
_EX_NNORM
  1

  0
LINE
  5
72
100
AcDbEntity
  8
0
  6
CONTINUOUS
 62
     0
100
AcDbLine
 10
0.0
 20
0.0
 30
0.0
 11
-1.0
 21
0.0
 31
0.0
  0
LINE
  5
73
100
AcDbEntity
  8
0
  6
CONTINUOUS
 62
     0
100
AcDbLine
 10
0.0
 20
0.0
 30
0.0
 11
-1.0
 21
0.166667
 31
0.0
  0
LINE
  5
74
100
AcDbEntity
  8
0
  6
CONTINUOUS
 62
     0
100
AcDbLine
 10
0.0
 20
0.0
 30
0.0
 11
-1.0
 21
-0.166667
 31
0.0
  0
LINE
  5
75
100
AcDbEntity
  8
0
  6
CONTINUOUS
 62
     0
100
AcDbLine
 10
-1.0
 20
0.166667
 30
0.0
 11
-1.0
 21
-0.166667
 31
0.0
  0
ENDBLK
  5
76
100
AcDbEntity
  8
0
100
AcDbBlockEnd
  0
BLOCK
  5
77
100
AcDbEntity
  8
0
100
AcDbBlockBegin
  2
_EX_BBOX
 70
     0
 10
0.0
 20
0.0
 30
0.0
  3
_EX_BBOX
  1

  0
LINE
  5
78
100
AcDbEntity
  8
0
  6
CONTINUOUS
 62
     0
100
AcDbLine
 10
0.0
 20
0.0
 30
0.0
 11
-1.0
 21
0.0
 31
0.0
  0
LINE
  5
79
100
AcDbEntity
  8
0
  6
CONTINUOUS
 62
     0
100
AcDbLine
 10
-0.5
 20
0.5
 30
0.0
 11
0.5
 21
0.5
 31
0.0
  0
LINE
  5
7A
100
AcDbEntity
  8
0
  6
CONTINUOUS
 62
     0
100
AcDbLine
 10
0.5
 20
0.5
 30
0.0
 11
0.5
 21
-0.5
 31
0.0
  0
LINE
  5
7B
100
AcDbEntity
  8
0
  6
CONTINUOUS
 62
     0
100
AcDbLine
 10
0.5
 20
-0.5
 30
0.0
 11
-0.5
 21
-0.5
 31
0.0
  0
LINE
  5
7C
100
AcDbEntity
  8
0
  6
CONTINUOUS
 62
     0
100
AcDbLine
 10
-0.5
 20
-0.5
 30
0.0
 11
-0.5
 21
0.5
 31
0.0
  0
LINE
  5
7D
100
AcDbEntity
  8
0
  6
CONTINUOUS
 62
     0
100
AcDbLine
 10
-0.25
 20
0.25
 30
0.0
 11
0.25
 21
0.25
 31
0.0
  0
LINE
  5
7E
100
AcDbEntity
  8
0
  6
CONTINUOUS
 62
     0
100
AcDbLine
 10
0.25
 20
0.25
 30
0.0
 11
0.25
 21
-0.25
 31
0.0
  0
LINE
  5
7F
100
AcDbEntity
  8
0
  6
CONTINUOUS
 62
     0
100
AcDbLine
 10
0.25
 20
-0.25
 30
0.0
 11
-0.25
 21
-0.25
 31
0.0
  0
LINE
  5
80
100
AcDbEntity
  8
0
  6
CONTINUOUS
 62
     0
100
AcDbLine
 10
-0.25
 20
-0.25
 30
0.0
 11
-0.25
 21
0.25
 31
0.0
  0
ENDBLK
  5
81
100
AcDbEntity
  8
0
100
AcDbBlockEnd
  0
BLOCK
  5
82
100
AcDbEntity
  8
0
100
AcDbBlockBegin
  2
_EX_WBOX
 70
     0
 10
0.0
 20
0.0
 30
0.0
  3
_EX_WBOX
  1

  0
LINE
  5
83
100
AcDbEntity
  8
0
  6
CONTINUOUS
 62
     0
100
AcDbLine
 10
-0.5
 20
0.0
 30
0.0
 11
-1.0
 21
0.0
 31
0.0
  0
LINE
  5
84
100
AcDbEntity
  8
0
  6
CONTINUOUS
 62
     0
100
AcDbLine
 10
-0.5
 20
0.5
 30
0.0
 11
0.5
 21
0.5
 31
0.0
  0
LINE
  5
85
100
AcDbEntity
  8
0
  6
CONTINUOUS
 62
     0
100
AcDbLine
 10
0.5
 20
0.5
 30
0.0
 11
0.5
 21
-0.5
 31
0.0
  0
LINE
  5
86
100
AcDbEntity
  8
0
  6
CONTINUOUS
 62
     0
100
AcDbLine
 10
0.5
 20
-0.5
 30
0.0
 11
-0.5
 21
-0.5
 31
0.0
  0
LINE
  5
87
100
AcDbEntity
  8
0
  6
CONTINUOUS
 62
     0
100
AcDbLine
 10
-0.5
 20
-0.5
 30
0.0
 11
-0.5
 21
0.5
 31
0.0
  0
ENDBLK
  5
88
100
AcDbEntity
  8
0
100
AcDbBlockEnd
  0
BLOCK
  5
89
100
AcDbEntity
  8
0
100
AcDbBlockBegin
  2
_EX_INTEGRAL
 70
     0
 10
0.0
 20
0.0
 30
0.0
  3
_EX_INTEGRAL
  1

  0
LINE
  5
8A
100
AcDbEntity
  8
0
  6
CONTINUOUS
 62
     0
100
AcDbLine
 10
0.0
 20
0.0
 30
0.0
 11
-1.0
 21
0.0
 31
0.0
  0
ARC
  5
8B
100
AcDbEntity
  8
0
  6
CONTINUOUS
 62
     0
100
AcDbCircle
 10
0.542115
 20
0.164992
 30
0.0
 40
0.56667
100
AcDbArc
 50
73.07249
 51
196.927513
  0
ARC
  5
8C
100
AcDbEntity
  8
0
  6
CONTINUOUS
 62
     0
100
AcDbCircle
 10
-0.542115
 20
-0.164992
 30
0.0
 40
0.56667
100
AcDbArc
 50
253.072487
 51
16.927513
  0
ENDBLK
  5
8D
100
AcDbEntity
  8
0
100
AcDbBlockEnd
  0
BLOCK
  5
8E
100
AcDbEntity
  8
0
100
AcDbBlockBegin
  2
SYM-1
 70
     0
 10
0.0
 20
0.0
 30
0.0
  3
SYM-1
  1

  0
TEXT
  5
8F
100
AcDbEntity
  8
0
  6
CONTINUOUS
 62
     2
100
AcDbText
 10
-2.7
 20
-1.0
 30
0.0
 40
5.0
  1
Ｐ
 41
0.672
  7
EXCADSTD
 72
     5
 11
0.5
 21
-1.0
 31
0.0
100
AcDbText
  0
TEXT
  5
90
100
AcDbEntity
  8
0
  6
CONTINUOUS
 62
     2
100
AcDbText
 10
-1.8
 20
-0.9
 30
0.0
 40
5.0
  1
Ｌ
 41
0.672
  7
EXCADSTD
 72
     5
 11
1.4
 21
-0.9
 31
0.0
100
AcDbText
  0
ENDBLK
  5
91
100
AcDbEntity
  8
0
100
AcDbBlockEnd
  0
BLOCK
  5
92
100
AcDbEntity
  8
0
100
AcDbBlockBegin
  2
SYM-2
 70
     0
 10
0.0
 20
0.0
 30
0.0
  3
SYM-2
  1

  0
TEXT
  5
93
100
AcDbEntity
  8
0
  6
CONTINUOUS
 62
     2
100
AcDbText
 10
-2.828427
 20
-2.828427
 30
0.0
 40
5.656854
  1
２
 41
0.84
  7
EXCADSTD
 72
     5
 11
1.697056
 21
-2.828427
 31
0.0
100
AcDbText
  0
CIRCLE
  5
94
100
AcDbEntity
  8
0
  6
CONTINUOUS
 62
     1
100
AcDbCircle
 10
0.0
 20
0.0
 30
0.0
 40
4.0
  0
TEXT
  5
95
100
AcDbEntity
  8
0
  6
CONTINUOUS
 62
     2
100
AcDbText
 10
6.6
 20
-3.2
 30
0.0
 40
7.0
  1
トップピボット（ドア側）
 41
0.672
  7
EXCADSTD
 72
     5
 11
73.799999
 21
-3.2
 31
0.0
100
AcDbText
  0
LINE
  5
96
100
AcDbEntity
  8
0
  6
CONTINUOUS
 62
     1
100
AcDbLine
 10
4.0
 20
-3.7
 30
0.0
 11
71.0
 21
-3.7
 31
0.0
  0
ENDBLK
  5
97
100
AcDbEntity
  8
0
100
AcDbBlockEnd
  0
BLOCK
  5
98
100
AcDbEntity
  8
0
100
AcDbBlockBegin
  2
SYM-3
 70
     0
 10
0.0
 20
0.0
 30
0.0
  3
SYM-3
  1

  0
TEXT
  5
99
100
AcDbEntity
  8
0
  6
CONTINUOUS
 62
     2
100
AcDbText
 10
-2.828427
 20
-2.828427
 30
0.0
 40
5.656854
  1
３
 41
0.84
  7
EXCADSTD
 72
     5
 11
1.697056
 21
-2.828427
 31
0.0
100
AcDbText
  0
CIRCLE
  5
9A
100
AcDbEntity
  8
0
  6
CONTINUOUS
 62
     1
100
AcDbCircle
 10
0.0
 20
0.0
 30
0.0
 40
4.0
  0
TEXT
  5
9B
100
AcDbEntity
  8
0
  6
CONTINUOUS
 62
     2
100
AcDbText
 10
6.6
 20
-3.2
 30
0.0
 40
7.0
  1
ア　ー　ム
 41
0.672
  7
EXCADSTD
 72
     5
 11
34.6
 21
-3.2
 31
0.0
100
AcDbText
  0
LINE
  5
9C
100
AcDbEntity
  8
0
  6
CONTINUOUS
 62
     1
100
AcDbLine
 10
4.0
 20
-3.7
 30
0.0
 11
34.9
 21
-3.7
 31
0.0
  0
ENDBLK
  5
9D
100
AcDbEntity
  8
0
100
AcDbBlockEnd
  0
BLOCK
  5
9E
100
AcDbEntity
  8
0
100
AcDbBlockBegin
  2
SYM-4
 70
     0
 10
0.0
 20
0.0
 30
0.0
  3
SYM-4
  1

  0
TEXT
  5
9F
100
AcDbEntity
  8
0
  6
CONTINUOUS
 62
     2
100
AcDbText
 10
-2.828427
 20
-2.828427
 30
0.0
 40
5.656854
  1
１
 41
0.84
  7
EXCADSTD
 72
     5
 11
1.697056
 21
-2.828427
 31
0.0
100
AcDbText
  0
CIRCLE
  5
A0
100
AcDbEntity
  8
0
  6
CONTINUOUS
 62
     1
100
AcDbCircle
 10
0.0
 20
0.0
 30
0.0
 40
4.0
  0
TEXT
  5
A1
100
AcDbEntity
  8
0
  6
CONTINUOUS
 62
     2
100
AcDbText
 10
6.6
 20
-3.2
 30
0.0
 40
7.0
  1
トップピボット（上枠側）
 41
0.672
  7
EXCADSTD
 72
     5
 11
73.799999
 21
-3.2
 31
0.0
100
AcDbText
  0
LINE
  5
A2
100
AcDbEntity
  8
0
  6
CONTINUOUS
 62
     1
100
AcDbLine
 10
4.0
 20
-3.7
 30
0.0
 11
70.1
 21
-3.7
 31
0.0
  0
ENDBLK
  5
A3
100
AcDbEntity
  8
0
100
AcDbBlockEnd
  0
BLOCK
  5
A4
100
AcDbEntity
  8
0
100
AcDbBlockBegin
  2
SYM-5
 70
     0
 10
0.0
 20
0.0
 30
0.0
  3
SYM-5
  1

  0
TEXT
  5
A5
100
AcDbEntity
  8
0
  6
CONTINUOUS
 62
     2
100
AcDbText
 10
-2.828427
 20
-2.828427
 30
0.0
 40
5.656854
  1
４
 41
0.84
  7
EXCADSTD
 72
     5
 11
1.697056
 21
-2.828427
 31
0.0
100
AcDbText
  0
CIRCLE
  5
A6
100
AcDbEntity
  8
0
  6
CONTINUOUS
 62
     1
100
AcDbCircle
 10
0.0
 20
0.0
 30
0.0
 40
4.0
  0
TEXT
  5
A7
100
AcDbEntity
  8
0
  6
CONTINUOUS
 62
     2
100
AcDbText
 10
6.6
 20
-3.2
 30
0.0
 40
7.0
  1
床面軸座
 41
0.672
  7
EXCADSTD
 72
     5
 11
29.0
 21
-3.2
 31
0.0
100
AcDbText
  0
LINE
  5
A8
100
AcDbEntity
  8
0
  6
CONTINUOUS
 62
     1
100
AcDbLine
 10
4.0
 20
-3.7
 30
0.0
 11
29.3
 21
-3.7
 31
0.0
  0
ENDBLK
  5
A9
100
AcDbEntity
  8
0
100
AcDbBlockEnd
  0
ENDSEC
  0
SECTION
  2
ENTITIES
  0
CIRCLE
  5
AA
100
AcDbEntity
  8
LAY-1
  6
CONTINUOUS
 62
     3
100
AcDbCircle
 10
409.721344
 20
514.428711
 30
0.0
 40
14.0
  0
CIRCLE
  5
AB
100
AcDbEntity
  8
LAY-1
  6
CONTINUOUS
 62
     3
100
AcDbCircle
 10
409.721344
 20
514.428711
 30
0.0
 40
9.0
  0
LINE
  5
AC
100
AcDbEntity
  8
LAY-1
  6
CONTINUOUS
 62
     3
100
AcDbLine
 10
423.539368
 20
516.67865
 30
0.0
 11
521.721344
 21
516.67865
 31
0.0
  0
LINE
  5
AD
100
AcDbEntity
  8
LAY-1
  6
CONTINUOUS
 62
     3
100
AcDbLine
 10
423.539368
 20
512.17865
 30
0.0
 11
521.721344
 21
512.17865
 31
0.0
  0
LINE
  5
AE
100
AcDbEntity
  8
LAY-1
  6
CONTINUOUS
 62
     3
100
AcDbLine
 10
521.721344
 20
516.67865
 30
0.0
 11
521.721344
 21
512.17865
 31
0.0
  0
LINE
  5
AF
100
AcDbEntity
  8
LAY-1
  6
CONTINUOUS
 62
     3
100
AcDbLine
 10
495.720521
 20
511.928711
 30
0.0
 11
483.722168
 21
511.92865
 31
0.0
  0
LINE
  5
B0
100
AcDbEntity
  8
LAY-1
  6
CONTINUOUS
 62
     3
100
AcDbLine
 10
495.72049
 20
516.92865
 30
0.0
 11
483.722168
 21
516.92865
 31
0.0
  0
LINE
  5
B1
100
AcDbEntity
  8
LAY-1
  6
CONTINUOUS
 62
     3
100
AcDbLine
 10
495.720521
 20
508.728638
 30
0.0
 11
483.722168
 21
508.728638
 31
0.0
  0
LINE
  5
B2
100
AcDbEntity
  8
LAY-1
  6
CONTINUOUS
 62
     3
100
AcDbLine
 10
495.72049
 20
520.128662
 30
0.0
 11
483.722168
 21
520.128662
 31
0.0
  0
LINE
  5
B3
100
AcDbEntity
  8
LAY-1
  6
CONTINUOUS
 62
     3
100
AcDbLine
 10
483.722168
 20
508.728638
 30
0.0
 11
483.722168
 21
511.92865
 31
0.0
  0
LINE
  5
B4
100
AcDbEntity
  8
LAY-1
  6
CONTINUOUS
 62
     3
100
AcDbLine
 10
483.722168
 20
516.92865
 30
0.0
 11
483.722168
 21
520.128662
 31
0.0
  0
LINE
  5
B5
100
AcDbEntity
  8
LAY-1
  6
CONTINUOUS
 62
     3
100
AcDbLine
 10
495.720521
 20
508.728638
 30
0.0
 11
495.720521
 21
511.92865
 31
0.0
  0
LINE
  5
B6
100
AcDbEntity
  8
LAY-1
  6
CONTINUOUS
 62
     3
100
AcDbLine
 10
495.720521
 20
516.92865
 30
0.0
 11
495.720521
 21
520.128662
 31
0.0
  0
LINE
  5
B7
100
AcDbEntity
  8
LAY-1
  6
CONTINUOUS
 62
     3
100
AcDbLine
 10
485.221375
 20
506.728638
 30
0.0
 11
494.221375
 21
506.728638
 31
0.0
  0
LINE
  5
B8
100
AcDbEntity
  8
LAY-1
  6
CONTINUOUS
 62
     3
100
AcDbLine
 10
494.221375
 20
508.728638
 30
0.0
 11
485.221375
 21
508.728638
 31
0.0
  0
LINE
  5
B9
100
AcDbEntity
  8
LAY-1
  6
CONTINUOUS
 62
     3
100
AcDbLine
 10
485.221375
 20
506.728638
 30
0.0
 11
485.221375
 21
508.728638
 31
0.0
  0
LINE
  5
BA
100
AcDbEntity
  8
LAY-1
  6
CONTINUOUS
 62
     3
100
AcDbLine
 10
494.221375
 20
506.728638
 30
0.0
 11
494.221375
 21
508.728638
 31
0.0
  0
LINE
  5
BB
100
AcDbEntity
  8
LAY-1
  6
CONTINUOUS
 62
     3
100
AcDbLine
 10
487.221375
 20
523.728638
 30
0.0
 11
492.221375
 21
523.728638
 31
0.0
  0
LINE
  5
BC
100
AcDbEntity
  8
LAY-1
  6
CONTINUOUS
 62
     3
100
AcDbLine
 10
492.221375
 20
523.728638
 30
0.0
 11
492.221375
 21
520.128662
 31
0.0
  0
LINE
  5
BD
100
AcDbEntity
  8
LAY-1
  6
CONTINUOUS
 62
     3
100
AcDbLine
 10
487.221375
 20
523.728638
 30
0.0
 11
487.221375
 21
520.128662
 31
0.0
  0
ARC
  5
BE
100
AcDbEntity
  8
LAY-1
  6
CONTINUOUS
 62
     3
100
AcDbCircle
 10
510.721344
 20
514.42865
 30
0.0
 40
6.0
100
AcDbArc
 50
22.024326
 51
156.695248
  0
ARC
  5
BF
100
AcDbEntity
  8
LAY-1
  6
CONTINUOUS
 62
     3
100
AcDbCircle
 10
510.721344
 20
514.42865
 30
0.0
 40
6.0
100
AcDbArc
 50
202.346692
 51
338.735456
  0
ARC
  5
C0
100
AcDbEntity
  8
LAY-1
  6
DASHED2
 62
     3
100
AcDbCircle
 10
510.721344
 20
514.42865
 30
0.0
 40
6.0
100
AcDbArc
 50
156.695363
 51
202.346577
  0
ARC
  5
C1
100
AcDbEntity
  8
LAY-1
  6
DASHED2
 62
     3
100
AcDbCircle
 10
510.721344
 20
514.42865
 30
0.0
 40
6.0
100
AcDbArc
 50
337.653425
 51
23.30464
  0
ARC
  5
C2
100
AcDbEntity
  8
LAY-1
  6
CONTINUOUS
 62
     3
100
AcDbCircle
 10
469.721344
 20
514.428711
 30
0.0
 40
5.0
100
AcDbArc
 50
26.742862
 51
153.2571
  0
ARC
  5
C3
100
AcDbEntity
  8
LAY-1
  6
DASHED2
 62
     3
100
AcDbCircle
 10
469.721344
 20
514.428711
 30
0.0
 40
5.0
100
AcDbArc
 50
153.2571
 51
206.744429
  0
ARC
  5
C4
100
AcDbEntity
  8
LAY-1
  6
CONTINUOUS
 62
     3
100
AcDbCircle
 10
469.721344
 20
514.428711
 30
0.0
 40
5.0
100
AcDbArc
 50
206.744429
 51
333.255573
  0
ARC
  5
C5
100
AcDbEntity
  8
LAY-1
  6
DASHED2
 62
     3
100
AcDbCircle
 10
469.721344
 20
514.428711
 30
0.0
 40
5.0
100
AcDbArc
 50
333.255573
 51
26.742902
  0
LINE
  5
C6
100
AcDbEntity
  8
LAY-1
  6
CONTINUOUS
 62
     3
100
AcDbLine
 10
80.221344
 20
457.948181
 30
0.0
 11
80.221344
 21
460.148193
 31
0.0
  0
LINE
  5
C7
100
AcDbEntity
  8
LAY-1
  6
CONTINUOUS
 62
     3
100
AcDbLine
 10
99.221344
 20
457.948181
 30
0.0
 11
99.221344
 21
460.148193
 31
0.0
  0
LINE
  5
C8
100
AcDbEntity
  8
LAY-1
  6
CONTINUOUS
 62
     3
100
AcDbLine
 10
72.721344
 20
460.948181
 30
0.0
 11
224.721344
 21
460.948181
 31
0.0
  0
LINE
  5
C9
100
AcDbEntity
  8
LAY-1
  6
CONTINUOUS
 62
     3
100
AcDbLine
 10
103.721375
 20
467.348175
 30
0.0
 11
103.721375
 21
500.998169
 31
0.0
  0
LINE
  5
CA
100
AcDbEntity
  8
LAY-1
  6
CONTINUOUS
 62
     3
100
AcDbLine
 10
103.721375
 20
500.998169
 30
0.0
 11
75.721375
 21
500.998169
 31
0.0
  0
LINE
  5
CB
100
AcDbEntity
  8
LAY-1
  6
CONTINUOUS
 62
     3
100
AcDbLine
 10
75.721375
 20
500.998169
 30
0.0
 11
75.721375
 21
467.348175
 31
0.0
  0
LINE
  5
CC
100
AcDbEntity
  8
LAY-1
  6
CONTINUOUS
 62
     3
100
AcDbLine
 10
185.721375
 20
467.348175
 30
0.0
 11
185.721375
 21
473.148193
 31
0.0
  0
LINE
  5
CD
100
AcDbEntity
  8
LAY-1
  6
CONTINUOUS
 62
     3
100
AcDbLine
 10
195.72136
 20
467.348175
 30
0.0
 11
195.721375
 21
473.148193
 31
0.0
  0
LINE
  5
CE
100
AcDbEntity
  8
LAY-1
  6
CONTINUOUS
 62
     3
100
AcDbLine
 10
185.721375
 20
473.148193
 30
0.0
 11
195.721375
 21
473.148193
 31
0.0
  0
LINE
  5
CF
100
AcDbEntity
  8
LAY-1
  6
CONTINUOUS
 62
     3
100
AcDbLine
 10
187.221375
 20
477.774811
 30
0.0
 11
187.221375
 21
473.148193
 31
0.0
  0
LINE
  5
D0
100
AcDbEntity
  8
LAY-1
  6
CONTINUOUS
 62
     3
100
AcDbLine
 10
194.221375
 20
477.774811
 30
0.0
 11
194.221375
 21
473.148193
 31
0.0
  0
ARC
  5
D1
100
AcDbEntity
  8
LAY-1
  6
CONTINUOUS
 62
     3
100
AcDbCircle
 10
190.72139
 20
482.648193
 30
0.0
 40
6.0
100
AcDbArc
 50
305.685302
 51
234.314568
  0
LINE
  5
D2
100
AcDbEntity
  8
LAY-1
  6
CONTINUOUS
 62
     3
100
AcDbLine
 10
187.221375
 20
477.774811
 30
0.0
 11
194.221375
 21
477.774811
 31
0.0
  0
ARC
  5
D3
100
AcDbEntity
  8
LAY-1
  6
CONTINUOUS
 62
     3
100
AcDbCircle
 10
190.72136
 20
482.648193
 30
0.0
 40
11.0
100
AcDbArc
 50
333.214091
 51
359.999982
  0
ARC
  5
D4
100
AcDbEntity
  8
LAY-1
  6
CONTINUOUS
 62
     3
100
AcDbCircle
 10
189.72136
 20
485.148193
 30
0.0
 40
12.0
100
AcDbArc
 50
0.0
 51
98.022021
  0
LINE
  5
D5
100
AcDbEntity
  8
LAY-1
  6
CONTINUOUS
 62
     3
100
AcDbLine
 10
201.72136
 20
485.148193
 30
0.0
 11
201.72136
 21
482.648193
 31
0.0
  0
ARC
  5
D6
100
AcDbEntity
  8
LAY-1
  6
CONTINUOUS
 62
     3
100
AcDbCircle
 10
198.328019
 20
479.044769
 30
0.0
 40
2.5
100
AcDbArc
 50
180.00002
 51
328.367269
  0
LINE
  5
D7
100
AcDbEntity
  8
LAY-1
  6
CONTINUOUS
 62
     3
100
AcDbLine
 10
103.721375
 20
475.165436
 30
0.0
 11
188.060547
 21
496.977325
 31
0.0
  0
LINE
  5
D8
100
AcDbEntity
  8
LAY-1
  6
CONTINUOUS
 62
     3
100
AcDbLine
 10
186.721375
 20
478.176056
 30
0.0
 11
186.721375
 21
475.440247
 31
0.0
  0
ARC
  5
D9
100
AcDbEntity
  8
LAY-1
  6
CONTINUOUS
 62
     3
100
AcDbCircle
 10
185.721375
 20
475.440247
 30
0.0
 40
1.0
100
AcDbArc
 50
283.240597
 51
359.999982
  0
ARC
  5
DA
100
AcDbEntity
  8
LAY-1
  6
CONTINUOUS
 62
     3
100
AcDbCircle
 10
190.72136
 20
482.648193
 30
0.0
 40
6.25
100
AcDbArc
 50
324.791955
 51
228.189706
  0
LINE
  5
DB
100
AcDbEntity
  8
LAY-1
  6
CONTINUOUS
 62
     3
100
AcDbLine
 10
144.448899
 20
469.904846
 30
0.0
 11
103.721375
 21
468.707031
 31
0.0
  0
LINE
  5
DC
100
AcDbEntity
  8
LAY-1
  6
CONTINUOUS
 62
     3
100
AcDbLine
 10
153.991959
 20
470.185547
 30
0.0
 11
163.721375
 21
470.47168
 31
0.0
  0
LINE
  5
DD
100
AcDbEntity
  8
LAY-1
  6
DASHED2
 62
     3
100
AcDbLine
 10
217.721344
 20
461.348175
 30
0.0
 11
205.721344
 21
461.348175
 31
0.0
  0
LINE
  5
DE
100
AcDbEntity
  8
LAY-1
  6
DASHED2
 62
     3
100
AcDbLine
 10
215.071351
 20
464.348175
 30
0.0
 11
208.371308
 21
464.348175
 31
0.0
  0
LINE
  5
DF
100
AcDbEntity
  8
LAY-1
  6
DASHED2
 62
     3
100
AcDbLine
 10
208.371308
 20
464.348175
 30
0.0
 11
205.721344
 21
461.348175
 31
0.0
  0
LINE
  5
E0
100
AcDbEntity
  8
LAY-1
  6
DASHED2
 62
     3
100
AcDbLine
 10
215.071351
 20
464.348175
 30
0.0
 11
217.721344
 21
461.348175
 31
0.0
  0
LINE
  5
E1
100
AcDbEntity
  8
LAY-1
  6
DASHED2
 62
     3
100
AcDbLine
 10
205.721344
 20
461.348175
 30
0.0
 11
205.721344
 21
460.948181
 31
0.0
  0
LINE
  5
E2
100
AcDbEntity
  8
LAY-1
  6
DASHED2
 62
     3
100
AcDbLine
 10
217.721344
 20
461.348175
 30
0.0
 11
217.721344
 21
460.948181
 31
0.0
  0
LINE
  5
E3
100
AcDbEntity
  8
LAY-1
  6
CONTINUOUS
 62
     3
100
AcDbLine
 10
208.371338
 20
476.948181
 30
0.0
 11
215.071351
 21
476.948181
 31
0.0
  0
LINE
  5
E4
100
AcDbEntity
  8
LAY-1
  6
CONTINUOUS
 62
     3
100
AcDbLine
 10
208.371338
 20
471.848175
 30
0.0
 11
208.371338
 21
476.948181
 31
0.0
  0
LINE
  5
E5
100
AcDbEntity
  8
LAY-1
  6
CONTINUOUS
 62
     3
100
AcDbLine
 10
215.071351
 20
476.948181
 30
0.0
 11
215.071351
 21
471.848175
 31
0.0
  0
LINE
  5
E6
100
AcDbEntity
  8
LAY-1
  6
CONTINUOUS
 62
     1
100
AcDbLine
 10
209.121322
 20
471.848175
 30
0.0
 11
209.121338
 21
476.948181
 31
0.0
  0
LINE
  5
E7
100
AcDbEntity
  8
LAY-1
  6
CONTINUOUS
 62
     1
100
AcDbLine
 10
214.321335
 20
471.848175
 30
0.0
 11
214.321351
 21
476.948181
 31
0.0
  0
LINE
  5
E8
100
AcDbEntity
  8
LAY-1
  6
DASHED2
 62
     3
100
AcDbLine
 10
208.371338
 20
464.348175
 30
0.0
 11
208.371338
 21
471.848175
 31
0.0
  0
LINE
  5
E9
100
AcDbEntity
  8
LAY-1
  6
DASHED2
 62
     3
100
AcDbLine
 10
215.071351
 20
471.848175
 30
0.0
 11
215.071351
 21
464.348175
 31
0.0
  0
LINE
  5
EA
100
AcDbEntity
  8
LAY-1
  6
DASHED2
 62
     1
100
AcDbLine
 10
209.121308
 20
464.348175
 30
0.0
 11
209.121308
 21
471.848175
 31
0.0
  0
LINE
  5
EB
100
AcDbEntity
  8
LAY-1
  6
DASHED2
 62
     1
100
AcDbLine
 10
214.32132
 20
464.348175
 30
0.0
 11
214.32132
 21
471.848175
 31
0.0
  0
LINE
  5
EC
100
AcDbEntity
  8
LAY-1
  6
CONTINUOUS
 62
     3
100
AcDbLine
 10
163.721375
 20
467.348175
 30
0.0
 11
163.721375
 21
478.448151
 31
0.0
  0
LINE
  5
ED
100
AcDbEntity
  8
LAY-1
  6
CONTINUOUS
 62
     3
100
AcDbLine
 10
175.721375
 20
467.348175
 30
0.0
 11
175.721375
 21
478.448151
 31
0.0
  0
ARC
  5
EE
100
AcDbEntity
  8
LAY-1
  6
CONTINUOUS
 62
     3
100
AcDbCircle
 10
169.721375
 20
478.448151
 30
0.0
 40
6.0
100
AcDbArc
 50
0.0
 51
180.00002
  0
CIRCLE
  5
EF
100
AcDbEntity
  8
LAY-1
  6
CONTINUOUS
 62
     3
100
AcDbCircle
 10
169.721375
 20
478.448151
 30
0.0
 40
4.5
  0
LINE
  5
F0
100
AcDbEntity
  8
LAY-1
  6
CONTINUOUS
 62
     3
100
AcDbLine
 10
175.721375
 20
472.060028
 30
0.0
 11
185.950379
 21
474.466827
 31
0.0
  0
LINE
  5
F1
100
AcDbEntity
  8
LAY-1
  6
CONTINUOUS
 62
     3
100
AcDbLine
 10
230.721344
 20
460.948151
 30
0.0
 11
230.721344
 21
460.148163
 31
0.0
  0
LINE
  5
F2
100
AcDbEntity
  8
LAY-1
  6
CONTINUOUS
 62
     3
100
AcDbLine
 10
43.721344
 20
460.948151
 30
0.0
 11
43.721344
 21
460.148163
 31
0.0
  0
LINE
  5
F3
100
AcDbEntity
  8
LAY-1
  6
CONTINUOUS
 62
     3
100
AcDbLine
 10
224.721329
 20
467.348175
 30
0.0
 11
224.721329
 21
460.948181
 31
0.0
  0
LINE
  5
F4
100
AcDbEntity
  8
LAY-1
  6
CONTINUOUS
 62
     3
100
AcDbLine
 10
49.721344
 20
467.348175
 30
0.0
 11
49.721344
 21
460.948181
 31
0.0
  0
LINE
  5
F5
100
AcDbEntity
  8
LAY-1
  6
CONTINUOUS
 62
     3
100
AcDbLine
 10
230.721344
 20
460.948151
 30
0.0
 11
43.721344
 21
460.948151
 31
0.0
  0
LINE
  5
F6
100
AcDbEntity
  8
LAY-1
  6
CONTINUOUS
 62
     3
100
AcDbLine
 10
230.721344
 20
460.148163
 30
0.0
 11
43.721344
 21
460.148163
 31
0.0
  0
LINE
  5
F7
100
AcDbEntity
  8
LAY-1
  6
CONTINUOUS
 62
     3
100
AcDbLine
 10
230.721344
 20
460.948151
 30
0.0
 11
230.721344
 21
460.148163
 31
0.0
  0
LINE
  5
F8
100
AcDbEntity
  8
LAY-1
  6
CONTINUOUS
 62
     3
100
AcDbLine
 10
43.721344
 20
460.948151
 30
0.0
 11
43.721344
 21
460.148163
 31
0.0
  0
LINE
  5
F9
100
AcDbEntity
  8
LAY-1
  6
CONTINUOUS
 62
     3
100
AcDbLine
 10
49.721337
 20
467.348175
 30
0.0
 11
224.721314
 21
467.348175
 31
0.0
  0
LINE
  5
FA
100
AcDbEntity
  8
LAY-1
  6
CONTINUOUS
 62
     3
100
AcDbLine
 10
49.721337
 20
460.948181
 30
0.0
 11
224.721314
 21
460.948181
 31
0.0
  0
LINE
  5
FB
100
AcDbEntity
  8
LAY-1
  6
CONTINUOUS
 62
     3
100
AcDbLine
 10
224.721314
 20
467.348175
 30
0.0
 11
224.721314
 21
460.948181
 31
0.0
  0
LINE
  5
FC
100
AcDbEntity
  8
LAY-1
  6
CONTINUOUS
 62
     3
100
AcDbLine
 10
49.721337
 20
467.348175
 30
0.0
 11
49.721337
 21
460.948181
 31
0.0
  0
LINE
  5
FD
100
AcDbEntity
  8
LAY-1
  6
DASHED2
 62
     3
100
AcDbLine
 10
53.721344
 20
460.948181
 30
0.0
 11
65.721344
 21
460.948181
 31
0.0
  0
LINE
  5
FE
100
AcDbEntity
  8
LAY-1
  6
DASHED2
 62
     3
100
AcDbLine
 10
65.721344
 20
461.348175
 30
0.0
 11
53.721344
 21
461.348175
 31
0.0
  0
LINE
  5
FF
100
AcDbEntity
  8
LAY-1
  6
DASHED2
 62
     3
100
AcDbLine
 10
63.071351
 20
464.348175
 30
0.0
 11
56.371308
 21
464.348175
 31
0.0
  0
LINE
  5
100
100
AcDbEntity
  8
LAY-1
  6
DASHED2
 62
     3
100
AcDbLine
 10
56.371308
 20
464.348175
 30
0.0
 11
53.721344
 21
461.348175
 31
0.0
  0
LINE
  5
101
100
AcDbEntity
  8
LAY-1
  6
DASHED2
 62
     3
100
AcDbLine
 10
63.071351
 20
464.348175
 30
0.0
 11
65.721344
 21
461.348175
 31
0.0
  0
LINE
  5
102
100
AcDbEntity
  8
LAY-1
  6
DASHED2
 62
     3
100
AcDbLine
 10
53.721344
 20
461.348175
 30
0.0
 11
53.721344
 21
460.948181
 31
0.0
  0
LINE
  5
103
100
AcDbEntity
  8
LAY-1
  6
DASHED2
 62
     3
100
AcDbLine
 10
65.721344
 20
461.348175
 30
0.0
 11
65.721344
 21
460.948181
 31
0.0
  0
LINE
  5
104
100
AcDbEntity
  8
LAY-1
  6
CONTINUOUS
 62
     3
100
AcDbLine
 10
56.371338
 20
476.948181
 30
0.0
 11
63.071351
 21
476.948181
 31
0.0
  0
LINE
  5
105
100
AcDbEntity
  8
LAY-1
  6
CONTINUOUS
 62
     3
100
AcDbLine
 10
56.371338
 20
471.848175
 30
0.0
 11
56.371338
 21
476.948181
 31
0.0
  0
LINE
  5
106
100
AcDbEntity
  8
LAY-1
  6
CONTINUOUS
 62
     3
100
AcDbLine
 10
63.071351
 20
476.948181
 30
0.0
 11
63.071351
 21
471.848175
 31
0.0
  0
LINE
  5
107
100
AcDbEntity
  8
LAY-1
  6
CONTINUOUS
 62
     1
100
AcDbLine
 10
57.121322
 20
471.848175
 30
0.0
 11
57.121338
 21
476.948181
 31
0.0
  0
LINE
  5
108
100
AcDbEntity
  8
LAY-1
  6
CONTINUOUS
 62
     1
100
AcDbLine
 10
62.321335
 20
471.848175
 30
0.0
 11
62.321351
 21
476.948181
 31
0.0
  0
LINE
  5
109
100
AcDbEntity
  8
LAY-1
  6
DASHED2
 62
     3
100
AcDbLine
 10
56.371338
 20
464.348175
 30
0.0
 11
56.371338
 21
471.848175
 31
0.0
  0
LINE
  5
10A
100
AcDbEntity
  8
LAY-1
  6
DASHED2
 62
     3
100
AcDbLine
 10
63.071351
 20
471.848175
 30
0.0
 11
63.071351
 21
464.348175
 31
0.0
  0
LINE
  5
10B
100
AcDbEntity
  8
LAY-1
  6
DASHED2
 62
     1
100
AcDbLine
 10
57.121308
 20
464.348175
 30
0.0
 11
57.121308
 21
471.848175
 31
0.0
  0
LINE
  5
10C
100
AcDbEntity
  8
LAY-1
  6
DASHED2
 62
     1
100
AcDbLine
 10
62.32132
 20
464.348175
 30
0.0
 11
62.32132
 21
471.848175
 31
0.0
  0
ARC
  5
10D
100
AcDbEntity
  8
LAY-1
  6
CONTINUOUS
 62
     3
100
AcDbCircle
 10
144.478302
 20
468.905273
 30
0.0
 40
1.0
100
AcDbArc
 50
32.083058
 51
91.684649
  0
ARC
  5
10E
100
AcDbEntity
  8
LAY-1
  6
CONTINUOUS
 62
     3
100
AcDbCircle
 10
154.021363
 20
469.185974
 30
0.0
 40
1.0
100
AcDbArc
 50
91.684764
 51
180.00002
  0
LINE
  5
10F
100
AcDbEntity
  8
LAY-1
  6
CONTINUOUS
 62
     3
100
AcDbLine
 10
153.021363
 20
469.185974
 30
0.0
 11
153.021363
 21
467.148193
 31
0.0
  0
LINE
  5
110
100
AcDbEntity
  8
LAY-1
  6
CONTINUOUS
 62
     3
100
AcDbLine
 10
145.325577
 20
469.436432
 30
0.0
 11
146.760041
 21
467.148193
 31
0.0
  0
CIRCLE
  5
111
100
AcDbEntity
  8
LAY-1
  6
CONTINUOUS
 62
     3
100
AcDbCircle
 10
531.721375
 20
524.428711
 30
0.0
 40
3.3
  0
CIRCLE
  5
112
100
AcDbEntity
  8
LAY-1
  6
DASHED2
 62
     3
100
AcDbCircle
 10
531.721375
 20
524.428711
 30
0.0
 40
6.1
  0
CIRCLE
  5
113
100
AcDbEntity
  8
LAY-1
  6
CONTINUOUS
 62
     3
100
AcDbCircle
 10
531.721375
 20
504.428711
 30
0.0
 40
3.3
  0
CIRCLE
  5
114
100
AcDbEntity
  8
LAY-1
  6
DASHED2
 62
     3
100
AcDbCircle
 10
531.721375
 20
504.428711
 30
0.0
 40
6.1
  0
LINE
  5
115
100
AcDbEntity
  8
LAY-1
  6
CONTINUOUS
 62
     3
100
AcDbLine
 10
369.721344
 20
497.428711
 30
0.0
 11
544.721344
 21
497.428711
 31
0.0
  0
LINE
  5
116
100
AcDbEntity
  8
LAY-1
  6
CONTINUOUS
 62
     3
100
AcDbLine
 10
544.721344
 20
497.428711
 30
0.0
 11
544.721344
 21
531.428711
 31
0.0
  0
LINE
  5
117
100
AcDbEntity
  8
LAY-1
  6
CONTINUOUS
 62
     3
100
AcDbLine
 10
544.721344
 20
531.428711
 30
0.0
 11
369.721344
 21
531.428711
 31
0.0
  0
LINE
  5
118
100
AcDbEntity
  8
LAY-1
  6
CONTINUOUS
 62
     3
100
AcDbLine
 10
369.721344
 20
531.428711
 30
0.0
 11
369.721344
 21
497.428711
 31
0.0
  0
CIRCLE
  5
119
100
AcDbEntity
  8
LAY-1
  6
DASHED2
 62
     3
100
AcDbCircle
 10
379.721344
 20
524.428711
 30
0.0
 40
6.1
  0
CIRCLE
  5
11A
100
AcDbEntity
  8
LAY-1
  6
CONTINUOUS
 62
     3
100
AcDbCircle
 10
379.721344
 20
524.428711
 30
0.0
 40
3.3
  0
CIRCLE
  5
11B
100
AcDbEntity
  8
LAY-1
  6
DASHED2
 62
     3
100
AcDbCircle
 10
379.721344
 20
504.428711
 30
0.0
 40
6.1
  0
CIRCLE
  5
11C
100
AcDbEntity
  8
LAY-1
  6
CONTINUOUS
 62
     3
100
AcDbCircle
 10
379.721344
 20
504.428711
 30
0.0
 40
3.3
  0
LINE
  5
11D
100
AcDbEntity
  8
LAY-1
  6
DIVIDE
 62
     3
100
AcDbLine
 10
363.721344
 20
494.428711
 30
0.0
 11
550.721344
 21
494.428711
 31
0.0
  0
LINE
  5
11E
100
AcDbEntity
  8
LAY-1
  6
DIVIDE
 62
     3
100
AcDbLine
 10
550.721344
 20
494.428711
 30
0.0
 11
550.721344
 21
534.428711
 31
0.0
  0
LINE
  5
11F
100
AcDbEntity
  8
LAY-1
  6
DIVIDE
 62
     3
100
AcDbLine
 10
550.721344
 20
534.428711
 30
0.0
 11
363.721344
 21
534.428711
 31
0.0
  0
LINE
  5
120
100
AcDbEntity
  8
LAY-1
  6
DIVIDE
 62
     3
100
AcDbLine
 10
363.721344
 20
534.428711
 30
0.0
 11
363.721344
 21
494.428711
 31
0.0
  0
LINE
  5
121
100
AcDbEntity
  8
LAY-1
  6
CONTINUOUS
 62
     3
100
AcDbLine
 10
685.578522
 20
510.312347
 30
0.0
 11
685.578522
 21
512.512347
 31
0.0
  0
LINE
  5
122
100
AcDbEntity
  8
LAY-1
  6
CONTINUOUS
 62
     3
100
AcDbLine
 10
704.578522
 20
510.312347
 30
0.0
 11
704.578522
 21
512.512347
 31
0.0
  0
LINE
  5
123
100
AcDbEntity
  8
LAY-1
  6
CONTINUOUS
 62
     3
100
AcDbLine
 10
715.078461
 20
512.512347
 30
0.0
 11
675.078461
 21
512.512347
 31
0.0
  0
LINE
  5
124
100
AcDbEntity
  8
LAY-1
  6
CONTINUOUS
 62
     3
100
AcDbLine
 10
715.078461
 20
513.312335
 30
0.0
 11
675.078461
 21
513.312335
 31
0.0
  0
LINE
  5
125
100
AcDbEntity
  8
LAY-1
  6
CONTINUOUS
 62
     3
100
AcDbLine
 10
715.078461
 20
513.312335
 30
0.0
 11
715.078461
 21
512.512347
 31
0.0
  0
LINE
  5
126
100
AcDbEntity
  8
LAY-1
  6
CONTINUOUS
 62
     3
100
AcDbLine
 10
675.078461
 20
513.312335
 30
0.0
 11
675.078461
 21
512.512347
 31
0.0
  0
LINE
  5
127
100
AcDbEntity
  8
LAY-1
  6
CONTINUOUS
 62
     3
100
AcDbLine
 10
678.078461
 20
513.312335
 30
0.0
 11
678.078461
 21
519.712329
 31
0.0
  0
LINE
  5
128
100
AcDbEntity
  8
LAY-1
  6
CONTINUOUS
 62
     3
100
AcDbLine
 10
712.078461
 20
513.312335
 30
0.0
 11
712.078461
 21
519.712329
 31
0.0
  0
LINE
  5
129
100
AcDbEntity
  8
LAY-1
  6
CONTINUOUS
 62
     3
100
AcDbLine
 10
678.078461
 20
519.712329
 30
0.0
 11
712.078461
 21
519.712329
 31
0.0
  0
LINE
  5
12A
100
AcDbEntity
  8
LAY-1
  6
CONTINUOUS
 62
     3
100
AcDbLine
 10
709.078522
 20
553.262378
 30
0.0
 11
681.078522
 21
553.262378
 31
0.0
  0
LINE
  5
12B
100
AcDbEntity
  8
LAY-1
  6
CONTINUOUS
 62
     3
100
AcDbLine
 10
709.078522
 20
519.712329
 30
0.0
 11
709.078522
 21
553.262378
 31
0.0
  0
LINE
  5
12C
100
AcDbEntity
  8
LAY-1
  6
CONTINUOUS
 62
     3
100
AcDbLine
 10
681.078522
 20
553.262378
 30
0.0
 11
681.078522
 21
519.712329
 31
0.0
  0
LINE
  5
12D
100
AcDbEntity
  8
LAY-2
  6
CONTINUOUS
 62
     3
100
AcDbLine
 10
712.078461
 20
503.812347
 30
0.0
 11
678.078461
 21
503.812347
 31
0.0
  0
LINE
  5
12E
100
AcDbEntity
  8
LAY-2
  6
CONTINUOUS
 62
     3
100
AcDbLine
 10
712.078461
 20
510.312347
 30
0.0
 11
678.078461
 21
510.312347
 31
0.0
  0
LINE
  5
12F
100
AcDbEntity
  8
LAY-2
  6
CONTINUOUS
 62
     3
100
AcDbLine
 10
712.078461
 20
510.312347
 30
0.0
 11
712.078461
 21
503.812347
 31
0.0
  0
LINE
  5
130
100
AcDbEntity
  8
LAY-2
  6
CONTINUOUS
 62
     3
100
AcDbLine
 10
678.078461
 20
510.312347
 30
0.0
 11
678.078461
 21
503.812347
 31
0.0
  0
LINE
  5
131
100
AcDbEntity
  8
LAY-2
  6
CONTINUOUS
 62
     3
100
AcDbLine
 10
683.078461
 20
488.312347
 30
0.0
 11
707.078461
 21
488.312347
 31
0.0
  0
ARC
  5
132
100
AcDbEntity
  8
LAY-2
  6
CONTINUOUS
 62
     3
100
AcDbCircle
 10
683.078461
 20
491.312347
 30
0.0
 40
3.0
100
AcDbArc
 50
180.00002
 51
270.000001
  0
ARC
  5
133
100
AcDbEntity
  8
LAY-2
  6
CONTINUOUS
 62
     3
100
AcDbCircle
 10
707.078461
 20
491.312347
 30
0.0
 40
3.0
100
AcDbArc
 50
270.000001
 51
359.999982
  0
LINE
  5
134
100
AcDbEntity
  8
LAY-2
  6
CONTINUOUS
 62
     3
100
AcDbLine
 10
710.078461
 20
503.812347
 30
0.0
 11
710.078461
 21
491.312347
 31
0.0
  0
LINE
  5
135
100
AcDbEntity
  8
LAY-2
  6
CONTINUOUS
 62
     3
100
AcDbLine
 10
680.078461
 20
503.812347
 30
0.0
 11
680.078461
 21
491.312347
 31
0.0
  0
LINE
  5
136
100
AcDbEntity
  8
LAY-2
  6
CONTINUOUS
 62
     3
100
AcDbLine
 10
544.721344
 20
391.161377
 30
0.0
 11
544.721344
 21
425.161377
 31
0.0
  0
CIRCLE
  5
137
100
AcDbEntity
  8
LAY-2
  6
CONTINUOUS
 62
     3
100
AcDbCircle
 10
409.721344
 20
408.161377
 30
0.0
 40
9.5
  0
CIRCLE
  5
138
100
AcDbEntity
  8
LAY-2
  6
CONTINUOUS
 62
     3
100
AcDbCircle
 10
409.721344
 20
408.161377
 30
0.0
 40
12.7
  0
CIRCLE
  5
139
100
AcDbEntity
  8
LAY-2
  6
CONTINUOUS
 62
     3
100
AcDbCircle
 10
531.721344
 20
398.161377
 30
0.0
 40
6.0
  0
CIRCLE
  5
13A
100
AcDbEntity
  8
LAY-2
  6
CONTINUOUS
 62
     3
100
AcDbCircle
 10
531.721344
 20
418.161377
 30
0.0
 40
6.0
  0
LINE
  5
13B
100
AcDbEntity
  8
LAY-2
  6
CONTINUOUS
 62
     3
100
AcDbLine
 10
369.721344
 20
425.161377
 30
0.0
 11
369.721344
 21
391.161377
 31
0.0
  0
LINE
  5
13C
100
AcDbEntity
  8
LAY-2
  6
CONTINUOUS
 62
     3
100
AcDbLine
 10
369.721344
 20
391.161377
 30
0.0
 11
544.721344
 21
391.161377
 31
0.0
  0
LINE
  5
13D
100
AcDbEntity
  8
LAY-2
  6
CONTINUOUS
 62
     3
100
AcDbLine
 10
544.721344
 20
425.161377
 30
0.0
 11
369.721344
 21
425.161377
 31
0.0
  0
CIRCLE
  5
13E
100
AcDbEntity
  8
LAY-2
  6
CONTINUOUS
 62
     3
100
AcDbCircle
 10
379.721314
 20
418.161316
 30
0.0
 40
6.0
  0
CIRCLE
  5
13F
100
AcDbEntity
  8
LAY-2
  6
CONTINUOUS
 62
     3
100
AcDbCircle
 10
379.721314
 20
398.161316
 30
0.0
 40
6.0
  0
LINE
  5
140
100
AcDbEntity
  8
LAY-2
  6
CONTINUOUS
 62
     3
100
AcDbLine
 10
224.721375
 20
451.548157
 30
0.0
 11
224.721375
 21
457.948181
 31
0.0
  0
LINE
  5
141
100
AcDbEntity
  8
LAY-2
  6
CONTINUOUS
 62
     3
100
AcDbLine
 10
77.721344
 20
435.94812
 30
0.0
 11
101.721344
 21
435.94812
 31
0.0
  0
ARC
  5
142
100
AcDbEntity
  8
LAY-2
  6
CONTINUOUS
 62
     3
100
AcDbCircle
 10
77.721344
 20
438.94812
 30
0.0
 40
3.0
100
AcDbArc
 50
180.00002
 51
270.000001
  0
ARC
  5
143
100
AcDbEntity
  8
LAY-2
  6
CONTINUOUS
 62
     3
100
AcDbCircle
 10
101.721344
 20
438.94812
 30
0.0
 40
3.0
100
AcDbArc
 50
270.000001
 51
359.999982
  0
LINE
  5
144
100
AcDbEntity
  8
LAY-2
  6
CONTINUOUS
 62
     3
100
AcDbLine
 10
104.721337
 20
451.548126
 30
0.0
 11
104.721344
 21
438.94812
 31
0.0
  0
LINE
  5
145
100
AcDbEntity
  8
LAY-2
  6
CONTINUOUS
 62
     3
100
AcDbLine
 10
74.721344
 20
451.548126
 30
0.0
 11
74.721344
 21
438.94812
 31
0.0
  0
LINE
  5
146
100
AcDbEntity
  8
LAY-2
  6
CONTINUOUS
 62
     3
100
AcDbLine
 10
49.721344
 20
457.948181
 30
0.0
 11
49.721344
 21
451.548157
 31
0.0
  0
LINE
  5
147
100
AcDbEntity
  8
LAY-2
  6
CONTINUOUS
 62
     3
100
AcDbLine
 10
49.721344
 20
451.548157
 30
0.0
 11
224.721375
 21
451.548157
 31
0.0
  0
LINE
  5
148
100
AcDbEntity
  8
LAY-2
  6
CONTINUOUS
 62
     3
100
AcDbLine
 10
224.721375
 20
457.948181
 30
0.0
 11
49.721344
 21
457.948181
 31
0.0
  0
LINE
  5
149
100
AcDbEntity
  8
LAY-2
  6
DASHED2
 62
     3
100
AcDbLine
 10
217.721344
 20
457.548187
 30
0.0
 11
205.721344
 21
457.548187
 31
0.0
  0
LINE
  5
14A
100
AcDbEntity
  8
LAY-2
  6
DASHED2
 62
     3
100
AcDbLine
 10
215.071351
 20
454.548187
 30
0.0
 11
208.371308
 21
454.548187
 31
0.0
  0
LINE
  5
14B
100
AcDbEntity
  8
LAY-2
  6
DASHED2
 62
     3
100
AcDbLine
 10
208.371308
 20
454.548187
 30
0.0
 11
205.721344
 21
457.548187
 31
0.0
  0
LINE
  5
14C
100
AcDbEntity
  8
LAY-2
  6
DASHED2
 62
     3
100
AcDbLine
 10
215.071351
 20
454.548187
 30
0.0
 11
217.721344
 21
457.548187
 31
0.0
  0
LINE
  5
14D
100
AcDbEntity
  8
LAY-2
  6
DASHED2
 62
     3
100
AcDbLine
 10
205.721344
 20
457.548187
 30
0.0
 11
205.721344
 21
457.948181
 31
0.0
  0
LINE
  5
14E
100
AcDbEntity
  8
LAY-2
  6
DASHED2
 62
     3
100
AcDbLine
 10
217.721344
 20
457.548187
 30
0.0
 11
217.721344
 21
457.948181
 31
0.0
  0
LINE
  5
14F
100
AcDbEntity
  8
LAY-2
  6
CONTINUOUS
 62
     3
100
AcDbLine
 10
208.371338
 20
441.948181
 30
0.0
 11
215.071351
 21
441.948181
 31
0.0
  0
LINE
  5
150
100
AcDbEntity
  8
LAY-2
  6
CONTINUOUS
 62
     3
100
AcDbLine
 10
208.371338
 20
447.048157
 30
0.0
 11
208.371338
 21
441.948181
 31
0.0
  0
LINE
  5
151
100
AcDbEntity
  8
LAY-2
  6
CONTINUOUS
 62
     3
100
AcDbLine
 10
215.071351
 20
441.948181
 30
0.0
 11
215.071351
 21
447.048157
 31
0.0
  0
LINE
  5
152
100
AcDbEntity
  8
LAY-2
  6
CONTINUOUS
 62
     1
100
AcDbLine
 10
209.121322
 20
447.048157
 30
0.0
 11
209.121338
 21
441.948181
 31
0.0
  0
LINE
  5
153
100
AcDbEntity
  8
LAY-2
  6
CONTINUOUS
 62
     1
100
AcDbLine
 10
214.321335
 20
447.048157
 30
0.0
 11
214.321351
 21
441.948181
 31
0.0
  0
LINE
  5
154
100
AcDbEntity
  8
LAY-2
  6
DASHED2
 62
     3
100
AcDbLine
 10
208.371338
 20
454.548187
 30
0.0
 11
208.371338
 21
447.048157
 31
0.0
  0
LINE
  5
155
100
AcDbEntity
  8
LAY-2
  6
DASHED2
 62
     3
100
AcDbLine
 10
215.071382
 20
451.148133
 30
0.0
 11
215.071382
 21
446.648133
 31
0.0
  0
LINE
  5
156
100
AcDbEntity
  8
LAY-2
  6
DASHED2
 62
     1
100
AcDbLine
 10
209.121308
 20
454.548187
 30
0.0
 11
209.121308
 21
447.048157
 31
0.0
  0
LINE
  5
157
100
AcDbEntity
  8
LAY-2
  6
DASHED2
 62
     1
100
AcDbLine
 10
214.32132
 20
454.548187
 30
0.0
 11
214.32132
 21
447.048157
 31
0.0
  0
LINE
  5
158
100
AcDbEntity
  8
LAY-2
  6
DASHED2
 62
     3
100
AcDbLine
 10
53.721344
 20
457.948181
 30
0.0
 11
65.721344
 21
457.948181
 31
0.0
  0
LINE
  5
159
100
AcDbEntity
  8
LAY-2
  6
DASHED2
 62
     3
100
AcDbLine
 10
65.721344
 20
457.548187
 30
0.0
 11
53.721344
 21
457.548187
 31
0.0
  0
LINE
  5
15A
100
AcDbEntity
  8
LAY-2
  6
DASHED2
 62
     3
100
AcDbLine
 10
63.071351
 20
454.548187
 30
0.0
 11
56.371308
 21
454.548187
 31
0.0
  0
LINE
  5
15B
100
AcDbEntity
  8
LAY-2
  6
DASHED2
 62
     3
100
AcDbLine
 10
56.371308
 20
454.548187
 30
0.0
 11
53.721344
 21
457.548187
 31
0.0
  0
LINE
  5
15C
100
AcDbEntity
  8
LAY-2
  6
DASHED2
 62
     3
100
AcDbLine
 10
63.071351
 20
454.548187
 30
0.0
 11
65.721344
 21
457.548187
 31
0.0
  0
LINE
  5
15D
100
AcDbEntity
  8
LAY-2
  6
DASHED2
 62
     3
100
AcDbLine
 10
53.721344
 20
457.548187
 30
0.0
 11
53.721344
 21
457.948181
 31
0.0
  0
LINE
  5
15E
100
AcDbEntity
  8
LAY-2
  6
DASHED2
 62
     3
100
AcDbLine
 10
65.721344
 20
457.548187
 30
0.0
 11
65.721344
 21
457.948181
 31
0.0
  0
LINE
  5
15F
100
AcDbEntity
  8
LAY-2
  6
CONTINUOUS
 62
     3
100
AcDbLine
 10
56.371338
 20
441.948181
 30
0.0
 11
63.071351
 21
441.948181
 31
0.0
  0
LINE
  5
160
100
AcDbEntity
  8
LAY-2
  6
CONTINUOUS
 62
     3
100
AcDbLine
 10
56.371338
 20
447.048157
 30
0.0
 11
56.371338
 21
441.948181
 31
0.0
  0
LINE
  5
161
100
AcDbEntity
  8
LAY-2
  6
CONTINUOUS
 62
     3
100
AcDbLine
 10
63.071351
 20
441.948181
 30
0.0
 11
63.071351
 21
447.048157
 31
0.0
  0
LINE
  5
162
100
AcDbEntity
  8
LAY-2
  6
CONTINUOUS
 62
     1
100
AcDbLine
 10
57.121322
 20
447.048157
 30
0.0
 11
57.121338
 21
441.948181
 31
0.0
  0
LINE
  5
163
100
AcDbEntity
  8
LAY-2
  6
CONTINUOUS
 62
     1
100
AcDbLine
 10
62.321335
 20
447.048157
 30
0.0
 11
62.321351
 21
441.948181
 31
0.0
  0
LINE
  5
164
100
AcDbEntity
  8
LAY-2
  6
DASHED2
 62
     3
100
AcDbLine
 10
56.371338
 20
454.548187
 30
0.0
 11
56.371338
 21
447.048157
 31
0.0
  0
LINE
  5
165
100
AcDbEntity
  8
LAY-2
  6
DASHED2
 62
     3
100
AcDbLine
 10
63.071351
 20
447.048157
 30
0.0
 11
63.071351
 21
454.548187
 31
0.0
  0
LINE
  5
166
100
AcDbEntity
  8
LAY-2
  6
DASHED2
 62
     1
100
AcDbLine
 10
57.121308
 20
454.548187
 30
0.0
 11
57.121308
 21
447.048157
 31
0.0
  0
LINE
  5
167
100
AcDbEntity
  8
LAY-2
  6
DASHED2
 62
     1
100
AcDbLine
 10
62.32132
 20
454.548187
 30
0.0
 11
62.32132
 21
447.048157
 31
0.0
  0
LINE
  5
168
100
AcDbEntity
  8
LAY-2
  6
DASHED2
 62
     3
100
AcDbLine
 10
125.721344
 20
457.548187
 30
0.0
 11
113.721344
 21
457.548187
 31
0.0
  0
LINE
  5
169
100
AcDbEntity
  8
LAY-2
  6
DASHED2
 62
     3
100
AcDbLine
 10
123.071351
 20
454.548187
 30
0.0
 11
116.371308
 21
454.548187
 31
0.0
  0
LINE
  5
16A
100
AcDbEntity
  8
LAY-2
  6
DASHED2
 62
     3
100
AcDbLine
 10
116.371308
 20
454.548187
 30
0.0
 11
113.721344
 21
457.548187
 31
0.0
  0
LINE
  5
16B
100
AcDbEntity
  8
LAY-2
  6
DASHED2
 62
     3
100
AcDbLine
 10
123.071351
 20
454.548187
 30
0.0
 11
125.721344
 21
457.548187
 31
0.0
  0
LINE
  5
16C
100
AcDbEntity
  8
LAY-2
  6
DASHED2
 62
     3
100
AcDbLine
 10
113.721344
 20
457.548187
 30
0.0
 11
113.721344
 21
457.948181
 31
0.0
  0
LINE
  5
16D
100
AcDbEntity
  8
LAY-2
  6
DASHED2
 62
     3
100
AcDbLine
 10
125.721344
 20
457.548187
 30
0.0
 11
125.721344
 21
457.948181
 31
0.0
  0
LINE
  5
16E
100
AcDbEntity
  8
LAY-2
  6
CONTINUOUS
 62
     3
100
AcDbLine
 10
116.371338
 20
441.948181
 30
0.0
 11
123.071351
 21
441.948181
 31
0.0
  0
LINE
  5
16F
100
AcDbEntity
  8
LAY-2
  6
CONTINUOUS
 62
     3
100
AcDbLine
 10
116.371338
 20
447.048157
 30
0.0
 11
116.371338
 21
441.948181
 31
0.0
  0
LINE
  5
170
100
AcDbEntity
  8
LAY-2
  6
CONTINUOUS
 62
     3
100
AcDbLine
 10
123.071351
 20
441.948181
 30
0.0
 11
123.071351
 21
447.048157
 31
0.0
  0
LINE
  5
171
100
AcDbEntity
  8
LAY-2
  6
CONTINUOUS
 62
     1
100
AcDbLine
 10
117.121322
 20
447.048157
 30
0.0
 11
117.121338
 21
441.948181
 31
0.0
  0
LINE
  5
172
100
AcDbEntity
  8
LAY-2
  6
CONTINUOUS
 62
     1
100
AcDbLine
 10
122.321335
 20
447.048157
 30
0.0
 11
122.321351
 21
441.948181
 31
0.0
  0
LINE
  5
173
100
AcDbEntity
  8
LAY-2
  6
DASHED2
 62
     3
100
AcDbLine
 10
116.371338
 20
454.548187
 30
0.0
 11
116.371338
 21
447.048157
 31
0.0
  0
LINE
  5
174
100
AcDbEntity
  8
LAY-2
  6
DASHED2
 62
     3
100
AcDbLine
 10
123.071351
 20
447.048157
 30
0.0
 11
123.071351
 21
454.548187
 31
0.0
  0
LINE
  5
175
100
AcDbEntity
  8
LAY-2
  6
DASHED2
 62
     1
100
AcDbLine
 10
117.121308
 20
454.548187
 30
0.0
 11
117.121308
 21
447.048157
 31
0.0
  0
LINE
  5
176
100
AcDbEntity
  8
LAY-2
  6
DASHED2
 62
     1
100
AcDbLine
 10
122.32132
 20
454.548187
 30
0.0
 11
122.32132
 21
447.048157
 31
0.0
  0
CIRCLE
  5
177
100
AcDbEntity
  8
LAY-2
  6
CONTINUOUS
 62
     3
100
AcDbCircle
 10
439.721375
 20
408.161377
 30
0.0
 40
3.0
  0
CIRCLE
  5
178
100
AcDbEntity
  8
LAY-2
  6
CONTINUOUS
 62
     3
100
AcDbCircle
 10
439.721375
 20
408.161377
 30
0.0
 40
6.0
  0
CIRCLE
  5
179
100
AcDbEntity
  8
LAY-2
  6
CONTINUOUS
 62
     3
100
AcDbCircle
 10
531.721375
 20
418.161377
 30
0.0
 40
3.0
  0
CIRCLE
  5
17A
100
AcDbEntity
  8
LAY-2
  6
CONTINUOUS
 62
     3
100
AcDbCircle
 10
531.721375
 20
398.161377
 30
0.0
 40
3.0
  0
CIRCLE
  5
17B
100
AcDbEntity
  8
LAY-2
  6
CONTINUOUS
 62
     3
100
AcDbCircle
 10
379.721314
 20
418.161316
 30
0.0
 40
3.0
  0
CIRCLE
  5
17C
100
AcDbEntity
  8
LAY-2
  6
CONTINUOUS
 62
     3
100
AcDbCircle
 10
379.721314
 20
398.161316
 30
0.0
 40
3.0
  0
LINE
  5
17D
100
AcDbEntity
  8
LAY-3
  6
CONTINUOUS
 62
     3
100
AcDbLine
 10
75.43386
 20
293.052078
 30
0.0
 11
75.43386
 21
309.052078
 31
0.0
  0
LINE
  5
17E
100
AcDbEntity
  8
LAY-3
  6
CONTINUOUS
 62
     3
100
AcDbLine
 10
104.00886
 20
293.052078
 30
0.0
 11
104.00886
 21
309.052078
 31
0.0
  0
LINE
  5
17F
100
AcDbEntity
  8
LAY-3
  6
DASHED2
 62
     3
100
AcDbLine
 10
104.00886
 20
309.052078
 30
0.0
 11
75.43386
 21
309.052078
 31
0.0
  0
LINE
  5
180
100
AcDbEntity
  8
LAY-3
  6
DASHED2
 62
     3
100
AcDbLine
 10
104.00886
 20
293.052078
 30
0.0
 11
75.43386
 21
293.052078
 31
0.0
  0
LINE
  5
181
100
AcDbEntity
  8
LAY-3
  6
CONTINUOUS
 62
     3
100
AcDbLine
 10
104.00886
 20
306.852081
 30
0.0
 11
75.43386
 21
306.852081
 31
0.0
  0
LINE
  5
182
100
AcDbEntity
  8
LAY-3
  6
CONTINUOUS
 62
     3
100
AcDbLine
 10
104.00886
 20
295.252075
 30
0.0
 11
75.43386
 21
295.252075
 31
0.0
  0
ARC
  5
183
100
AcDbEntity
  8
LAY-3
  6
CONTINUOUS
 62
     3
100
AcDbCircle
 10
89.72136
 20
301.052078
 30
0.0
 40
30.0
100
AcDbArc
 50
145.481891
 51
214.646778
  0
ARC
  5
184
100
AcDbEntity
  8
LAY-3
  6
CONTINUOUS
 62
     3
100
AcDbCircle
 10
437.721344
 20
316.052078
 30
0.0
 40
2.0
100
AcDbArc
 50
0.0
 51
89.999981
  0
LINE
  5
185
100
AcDbEntity
  8
LAY-3
  6
CONTINUOUS
 62
     3
100
AcDbLine
 10
439.721344
 20
316.052078
 30
0.0
 11
439.721344
 21
286.052078
 31
0.0
  0
LINE
  5
186
100
AcDbEntity
  8
LAY-3
  6
CONTINUOUS
 62
     3
100
AcDbLine
 10
65.041214
 20
284.052078
 30
0.0
 11
437.721344
 21
284.052078
 31
0.0
  0
ARC
  5
187
100
AcDbEntity
  8
LAY-3
  6
CONTINUOUS
 62
     3
100
AcDbCircle
 10
437.721344
 20
286.052078
 30
0.0
 40
2.0
100
AcDbArc
 50
270.000001
 51
359.999982
  0
LINE
  5
188
100
AcDbEntity
  8
LAY-3
  6
CONTINUOUS
 62
     3
100
AcDbLine
 10
65.002945
 20
318.052078
 30
0.0
 11
437.721344
 21
318.052078
 31
0.0
  0
CIRCLE
  5
189
100
AcDbEntity
  8
LAY-3
  6
DASHED2
 62
     3
100
AcDbCircle
 10
129.72136
 20
309.052078
 30
0.0
 40
6.0
  0
CIRCLE
  5
18A
100
AcDbEntity
  8
LAY-3
  6
CONTINUOUS
 62
     3
100
AcDbCircle
 10
129.72136
 20
309.052078
 30
0.0
 40
3.35
  0
CIRCLE
  5
18B
100
AcDbEntity
  8
LAY-3
  6
DASHED2
 62
     3
100
AcDbCircle
 10
159.72136
 20
293.052078
 30
0.0
 40
6.0
  0
CIRCLE
  5
18C
100
AcDbEntity
  8
LAY-3
  6
CONTINUOUS
 62
     3
100
AcDbCircle
 10
159.72136
 20
293.052078
 30
0.0
 40
3.35
  0
CIRCLE
  5
18D
100
AcDbEntity
  8
LAY-3
  6
DASHED2
 62
     3
100
AcDbCircle
 10
262.721344
 20
309.052078
 30
0.0
 40
6.0
  0
CIRCLE
  5
18E
100
AcDbEntity
  8
LAY-3
  6
CONTINUOUS
 62
     3
100
AcDbCircle
 10
262.721344
 20
309.052078
 30
0.0
 40
3.35
  0
CIRCLE
  5
18F
100
AcDbEntity
  8
LAY-3
  6
DASHED2
 62
     3
100
AcDbCircle
 10
292.721344
 20
293.052078
 30
0.0
 40
6.0
  0
CIRCLE
  5
190
100
AcDbEntity
  8
LAY-3
  6
CONTINUOUS
 62
     3
100
AcDbCircle
 10
292.721344
 20
293.052078
 30
0.0
 40
3.35
  0
CIRCLE
  5
191
100
AcDbEntity
  8
LAY-3
  6
DASHED2
 62
     3
100
AcDbCircle
 10
395.721344
 20
309.052078
 30
0.0
 40
6.0
  0
CIRCLE
  5
192
100
AcDbEntity
  8
LAY-3
  6
CONTINUOUS
 62
     3
100
AcDbCircle
 10
395.721344
 20
309.052078
 30
0.0
 40
3.35
  0
CIRCLE
  5
193
100
AcDbEntity
  8
LAY-3
  6
DASHED2
 62
     3
100
AcDbCircle
 10
425.721344
 20
293.052078
 30
0.0
 40
6.0
  0
CIRCLE
  5
194
100
AcDbEntity
  8
LAY-3
  6
CONTINUOUS
 62
     3
100
AcDbCircle
 10
425.721344
 20
293.052078
 30
0.0
 40
3.35
  0
LINE
  5
195
100
AcDbEntity
  8
LAY-3
  6
CONTINUOUS
 62
     3
100
AcDbLine
 10
680.078461
 20
351.947876
 30
0.0
 11
710.078461
 21
351.947876
 31
0.0
  0
LINE
  5
196
100
AcDbEntity
  8
LAY-3
  6
CONTINUOUS
 62
     3
100
AcDbLine
 10
712.078461
 20
349.947876
 30
0.0
 11
712.078461
 21
327.947876
 31
0.0
  0
LINE
  5
197
100
AcDbEntity
  8
LAY-3
  6
CONTINUOUS
 62
     3
100
AcDbLine
 10
678.078461
 20
349.947876
 30
0.0
 11
678.078461
 21
327.947876
 31
0.0
  0
ARC
  5
198
100
AcDbEntity
  8
LAY-3
  6
CONTINUOUS
 62
     3
100
AcDbCircle
 10
680.078461
 20
349.947876
 30
0.0
 40
2.0
100
AcDbArc
 50
89.999981
 51
180.00002
  0
ARC
  5
199
100
AcDbEntity
  8
LAY-3
  6
CONTINUOUS
 62
     3
100
AcDbCircle
 10
710.078461
 20
349.947876
 30
0.0
 40
2.0
100
AcDbArc
 50
0.0
 51
89.999981
  0
ARC
  5
19A
100
AcDbEntity
  8
LAY-3
  6
CONTINUOUS
 62
     3
100
AcDbCircle
 10
680.078461
 20
327.947876
 30
0.0
 40
2.0
100
AcDbArc
 50
180.00002
 51
270.000001
  0
ARC
  5
19B
100
AcDbEntity
  8
LAY-3
  6
CONTINUOUS
 62
     3
100
AcDbCircle
 10
710.078461
 20
327.947876
 30
0.0
 40
2.0
100
AcDbArc
 50
270.000001
 51
359.999982
  0
LINE
  5
19C
100
AcDbEntity
  8
LAY-3
  6
CONTINUOUS
 62
     3
100
AcDbLine
 10
687.428315
 20
325.947845
 30
0.0
 11
680.078461
 21
325.947876
 31
0.0
  0
LINE
  5
19D
100
AcDbEntity
  8
LAY-3
  6
CONTINUOUS
 62
     3
100
AcDbLine
 10
702.728425
 20
325.947845
 30
0.0
 11
710.078461
 21
325.947876
 31
0.0
  0
LINE
  5
19E
100
AcDbEntity
  8
LAY-3
  6
CONTINUOUS
 62
     3
100
AcDbLine
 10
439.721344
 20
176.947876
 30
0.0
 11
59.72136
 21
176.947876
 31
0.0
  0
LINE
  5
19F
100
AcDbEntity
  8
LAY-3
  6
CONTINUOUS
 62
     3
100
AcDbLine
 10
59.72136
 20
176.947876
 30
0.0
 11
59.72136
 21
151.947876
 31
0.0
  0
LINE
  5
1A0
100
AcDbEntity
  8
LAY-3
  6
CONTINUOUS
 62
     3
100
AcDbLine
 10
439.721344
 20
162.947876
 30
0.0
 11
439.721344
 21
176.947876
 31
0.0
  0
LINE
  5
1A1
100
AcDbEntity
  8
LAY-3
  6
CONTINUOUS
 62
     3
100
AcDbLine
 10
118.72139
 20
150.947907
 30
0.0
 11
104.008866
 21
150.947876
 31
0.0
  0
LINE
  5
1A2
100
AcDbEntity
  8
LAY-3
  6
CONTINUOUS
 62
     3
100
AcDbLine
 10
104.008866
 20
150.947876
 30
0.0
 11
60.72136
 21
150.947876
 31
0.0
  0
LINE
  5
1A3
100
AcDbEntity
  8
LAY-3
  6
CONTINUOUS
 62
     3
100
AcDbLine
 10
121.72139
 20
161.947876
 30
0.0
 11
438.721344
 21
161.947876
 31
0.0
  0
ARC
  5
1A4
100
AcDbEntity
  8
LAY-3
  6
CONTINUOUS
 62
     3
100
AcDbCircle
 10
121.72139
 20
159.947876
 30
0.0
 40
2.0
100
AcDbArc
 50
89.999981
 51
180.00002
  0
LINE
  5
1A5
100
AcDbEntity
  8
LAY-3
  6
CONTINUOUS
 62
     3
100
AcDbLine
 10
119.72139
 20
159.947876
 30
0.0
 11
119.72139
 21
151.947907
 31
0.0
  0
ARC
  5
1A6
100
AcDbEntity
  8
LAY-3
  6
CONTINUOUS
 62
     3
100
AcDbCircle
 10
118.72139
 20
151.947907
 30
0.0
 40
1.0
100
AcDbArc
 50
270.000116
 51
359.999982
  0
ARC
  5
1A7
100
AcDbEntity
  8
LAY-3
  6
CONTINUOUS
 62
     3
100
AcDbCircle
 10
60.72136
 20
151.947876
 30
0.0
 40
1.0
100
AcDbArc
 50
180.00002
 51
270.000001
  0
LINE
  5
1A8
100
AcDbEntity
  8
LAY-3
  6
DASHED2
 62
     3
100
AcDbLine
 10
135.721344
 20
161.947845
 30
0.0
 11
123.721344
 21
161.947845
 31
0.0
  0
LINE
  5
1A9
100
AcDbEntity
  8
LAY-3
  6
DASHED2
 62
     3
100
AcDbLine
 10
123.721344
 20
162.347839
 30
0.0
 11
135.721344
 21
162.347839
 31
0.0
  0
LINE
  5
1AA
100
AcDbEntity
  8
LAY-3
  6
DASHED2
 62
     3
100
AcDbLine
 10
126.371338
 20
165.347839
 30
0.0
 11
133.071381
 21
165.347839
 31
0.0
  0
LINE
  5
1AB
100
AcDbEntity
  8
LAY-3
  6
DASHED2
 62
     3
100
AcDbLine
 10
133.071381
 20
165.347839
 30
0.0
 11
135.721344
 21
162.347839
 31
0.0
  0
LINE
  5
1AC
100
AcDbEntity
  8
LAY-3
  6
DASHED2
 62
     3
100
AcDbLine
 10
126.371338
 20
165.347839
 30
0.0
 11
123.721344
 21
162.347839
 31
0.0
  0
LINE
  5
1AD
100
AcDbEntity
  8
LAY-3
  6
DASHED2
 62
     3
100
AcDbLine
 10
135.721344
 20
162.347839
 30
0.0
 11
135.721344
 21
161.947845
 31
0.0
  0
LINE
  5
1AE
100
AcDbEntity
  8
LAY-3
  6
DASHED2
 62
     3
100
AcDbLine
 10
123.721344
 20
162.347839
 30
0.0
 11
123.721344
 21
161.947845
 31
0.0
  0
LINE
  5
1AF
100
AcDbEntity
  8
LAY-3
  6
CONTINUOUS
 62
     3
100
AcDbLine
 10
133.071351
 20
186.947845
 30
0.0
 11
126.371338
 21
186.947845
 31
0.0
  0
LINE
  5
1B0
100
AcDbEntity
  8
LAY-3
  6
DASHED2
 62
     3
100
AcDbLine
 10
133.071351
 20
165.347839
 30
0.0
 11
133.071351
 21
166.947845
 31
0.0
  0
LINE
  5
1B1
100
AcDbEntity
  8
LAY-3
  6
DASHED2
 62
     3
100
AcDbLine
 10
126.371338
 20
166.947845
 30
0.0
 11
126.371338
 21
165.347839
 31
0.0
  0
LINE
  5
1B2
100
AcDbEntity
  8
LAY-3
  6
DASHED2
 62
     1
100
AcDbLine
 10
132.321381
 20
165.347839
 30
0.0
 11
132.321381
 21
166.947845
 31
0.0
  0
LINE
  5
1B3
100
AcDbEntity
  8
LAY-3
  6
DASHED2
 62
     1
100
AcDbLine
 10
127.121369
 20
165.347839
 30
0.0
 11
127.121369
 21
166.947845
 31
0.0
  0
LINE
  5
1B4
100
AcDbEntity
  8
LAY-3
  6
DASHED2
 62
     3
100
AcDbLine
 10
165.72136
 20
161.947845
 30
0.0
 11
153.72136
 21
161.947845
 31
0.0
  0
LINE
  5
1B5
100
AcDbEntity
  8
LAY-3
  6
DASHED2
 62
     3
100
AcDbLine
 10
153.72136
 20
162.347839
 30
0.0
 11
165.72136
 21
162.347839
 31
0.0
  0
LINE
  5
1B6
100
AcDbEntity
  8
LAY-3
  6
DASHED2
 62
     3
100
AcDbLine
 10
156.371354
 20
165.347839
 30
0.0
 11
163.071396
 21
165.347839
 31
0.0
  0
LINE
  5
1B7
100
AcDbEntity
  8
LAY-3
  6
DASHED2
 62
     3
100
AcDbLine
 10
163.071396
 20
165.347839
 30
0.0
 11
165.72136
 21
162.347839
 31
0.0
  0
LINE
  5
1B8
100
AcDbEntity
  8
LAY-3
  6
DASHED2
 62
     3
100
AcDbLine
 10
156.371354
 20
165.347839
 30
0.0
 11
153.72136
 21
162.347839
 31
0.0
  0
LINE
  5
1B9
100
AcDbEntity
  8
LAY-3
  6
DASHED2
 62
     3
100
AcDbLine
 10
165.72136
 20
162.347839
 30
0.0
 11
165.72136
 21
161.947845
 31
0.0
  0
LINE
  5
1BA
100
AcDbEntity
  8
LAY-3
  6
DASHED2
 62
     3
100
AcDbLine
 10
153.72136
 20
162.347839
 30
0.0
 11
153.72136
 21
161.947845
 31
0.0
  0
LINE
  5
1BB
100
AcDbEntity
  8
LAY-3
  6
CONTINUOUS
 62
     3
100
AcDbLine
 10
163.071366
 20
186.947845
 30
0.0
 11
156.371354
 21
186.947845
 31
0.0
  0
LINE
  5
1BC
100
AcDbEntity
  8
LAY-3
  6
DASHED2
 62
     3
100
AcDbLine
 10
163.071366
 20
165.347839
 30
0.0
 11
163.071366
 21
166.947845
 31
0.0
  0
LINE
  5
1BD
100
AcDbEntity
  8
LAY-3
  6
DASHED2
 62
     3
100
AcDbLine
 10
156.371354
 20
166.947845
 30
0.0
 11
156.371354
 21
165.347839
 31
0.0
  0
LINE
  5
1BE
100
AcDbEntity
  8
LAY-3
  6
DASHED2
 62
     1
100
AcDbLine
 10
162.321396
 20
165.347839
 30
0.0
 11
162.321396
 21
166.947845
 31
0.0
  0
LINE
  5
1BF
100
AcDbEntity
  8
LAY-3
  6
DASHED2
 62
     1
100
AcDbLine
 10
157.121384
 20
165.347839
 30
0.0
 11
157.121384
 21
166.947845
 31
0.0
  0
LINE
  5
1C0
100
AcDbEntity
  8
LAY-3
  6
DASHED2
 62
     3
100
AcDbLine
 10
268.721344
 20
161.947845
 30
0.0
 11
256.721344
 21
161.947845
 31
0.0
  0
LINE
  5
1C1
100
AcDbEntity
  8
LAY-3
  6
DASHED2
 62
     3
100
AcDbLine
 10
256.721344
 20
162.347839
 30
0.0
 11
268.721344
 21
162.347839
 31
0.0
  0
LINE
  5
1C2
100
AcDbEntity
  8
LAY-3
  6
DASHED2
 62
     3
100
AcDbLine
 10
259.371369
 20
165.347839
 30
0.0
 11
266.071381
 21
165.347839
 31
0.0
  0
LINE
  5
1C3
100
AcDbEntity
  8
LAY-3
  6
DASHED2
 62
     3
100
AcDbLine
 10
266.071381
 20
165.347839
 30
0.0
 11
268.721344
 21
162.347839
 31
0.0
  0
LINE
  5
1C4
100
AcDbEntity
  8
LAY-3
  6
DASHED2
 62
     3
100
AcDbLine
 10
259.371369
 20
165.347839
 30
0.0
 11
256.721344
 21
162.347839
 31
0.0
  0
LINE
  5
1C5
100
AcDbEntity
  8
LAY-3
  6
DASHED2
 62
     3
100
AcDbLine
 10
268.721344
 20
162.347839
 30
0.0
 11
268.721344
 21
161.947845
 31
0.0
  0
LINE
  5
1C6
100
AcDbEntity
  8
LAY-3
  6
DASHED2
 62
     3
100
AcDbLine
 10
256.721344
 20
162.347839
 30
0.0
 11
256.721344
 21
161.947845
 31
0.0
  0
LINE
  5
1C7
100
AcDbEntity
  8
LAY-3
  6
CONTINUOUS
 62
     3
100
AcDbLine
 10
266.071381
 20
186.947845
 30
0.0
 11
259.371369
 21
186.947845
 31
0.0
  0
LINE
  5
1C8
100
AcDbEntity
  8
LAY-3
  6
DASHED2
 62
     3
100
AcDbLine
 10
266.071381
 20
165.347839
 30
0.0
 11
266.071381
 21
166.947845
 31
0.0
  0
LINE
  5
1C9
100
AcDbEntity
  8
LAY-3
  6
DASHED2
 62
     3
100
AcDbLine
 10
259.371369
 20
166.947845
 30
0.0
 11
259.371369
 21
165.347839
 31
0.0
  0
LINE
  5
1CA
100
AcDbEntity
  8
LAY-3
  6
DASHED2
 62
     1
100
AcDbLine
 10
265.321381
 20
165.347839
 30
0.0
 11
265.321381
 21
166.947845
 31
0.0
  0
LINE
  5
1CB
100
AcDbEntity
  8
LAY-3
  6
DASHED2
 62
     1
100
AcDbLine
 10
260.121369
 20
165.347839
 30
0.0
 11
260.121369
 21
166.947845
 31
0.0
  0
LINE
  5
1CC
100
AcDbEntity
  8
LAY-3
  6
DASHED2
 62
     3
100
AcDbLine
 10
298.721344
 20
161.947845
 30
0.0
 11
286.721344
 21
161.947845
 31
0.0
  0
LINE
  5
1CD
100
AcDbEntity
  8
LAY-3
  6
DASHED2
 62
     3
100
AcDbLine
 10
286.721344
 20
162.347839
 30
0.0
 11
298.721344
 21
162.347839
 31
0.0
  0
LINE
  5
1CE
100
AcDbEntity
  8
LAY-3
  6
DASHED2
 62
     3
100
AcDbLine
 10
289.371369
 20
165.347839
 30
0.0
 11
296.071381
 21
165.347839
 31
0.0
  0
LINE
  5
1CF
100
AcDbEntity
  8
LAY-3
  6
DASHED2
 62
     3
100
AcDbLine
 10
296.071381
 20
165.347839
 30
0.0
 11
298.721344
 21
162.347839
 31
0.0
  0
LINE
  5
1D0
100
AcDbEntity
  8
LAY-3
  6
DASHED2
 62
     3
100
AcDbLine
 10
289.371369
 20
165.347839
 30
0.0
 11
286.721344
 21
162.347839
 31
0.0
  0
LINE
  5
1D1
100
AcDbEntity
  8
LAY-3
  6
DASHED2
 62
     3
100
AcDbLine
 10
298.721344
 20
162.347839
 30
0.0
 11
298.721344
 21
161.947845
 31
0.0
  0
LINE
  5
1D2
100
AcDbEntity
  8
LAY-3
  6
DASHED2
 62
     3
100
AcDbLine
 10
286.721344
 20
162.347839
 30
0.0
 11
286.721344
 21
161.947845
 31
0.0
  0
LINE
  5
1D3
100
AcDbEntity
  8
LAY-3
  6
CONTINUOUS
 62
     3
100
AcDbLine
 10
296.071381
 20
186.947845
 30
0.0
 11
289.371369
 21
186.947845
 31
0.0
  0
LINE
  5
1D4
100
AcDbEntity
  8
LAY-3
  6
DASHED2
 62
     3
100
AcDbLine
 10
296.071381
 20
165.347839
 30
0.0
 11
296.071381
 21
166.947845
 31
0.0
  0
LINE
  5
1D5
100
AcDbEntity
  8
LAY-3
  6
DASHED2
 62
     3
100
AcDbLine
 10
289.371369
 20
166.947845
 30
0.0
 11
289.371369
 21
165.347839
 31
0.0
  0
LINE
  5
1D6
100
AcDbEntity
  8
LAY-3
  6
DASHED2
 62
     1
100
AcDbLine
 10
295.321381
 20
165.347839
 30
0.0
 11
295.321381
 21
166.947845
 31
0.0
  0
LINE
  5
1D7
100
AcDbEntity
  8
LAY-3
  6
DASHED2
 62
     1
100
AcDbLine
 10
290.121369
 20
165.347839
 30
0.0
 11
290.121369
 21
166.947845
 31
0.0
  0
LINE
  5
1D8
100
AcDbEntity
  8
LAY-3
  6
DASHED2
 62
     3
100
AcDbLine
 10
401.721344
 20
161.947845
 30
0.0
 11
389.721344
 21
161.947845
 31
0.0
  0
LINE
  5
1D9
100
AcDbEntity
  8
LAY-3
  6
DASHED2
 62
     3
100
AcDbLine
 10
389.721344
 20
162.347839
 30
0.0
 11
401.721344
 21
162.347839
 31
0.0
  0
LINE
  5
1DA
100
AcDbEntity
  8
LAY-3
  6
DASHED2
 62
     3
100
AcDbLine
 10
392.371369
 20
165.347839
 30
0.0
 11
399.071381
 21
165.347839
 31
0.0
  0
LINE
  5
1DB
100
AcDbEntity
  8
LAY-3
  6
DASHED2
 62
     3
100
AcDbLine
 10
399.071381
 20
165.347839
 30
0.0
 11
401.721344
 21
162.347839
 31
0.0
  0
LINE
  5
1DC
100
AcDbEntity
  8
LAY-3
  6
DASHED2
 62
     3
100
AcDbLine
 10
392.371369
 20
165.347839
 30
0.0
 11
389.721344
 21
162.347839
 31
0.0
  0
LINE
  5
1DD
100
AcDbEntity
  8
LAY-3
  6
DASHED2
 62
     3
100
AcDbLine
 10
401.721344
 20
162.347839
 30
0.0
 11
401.721344
 21
161.947845
 31
0.0
  0
LINE
  5
1DE
100
AcDbEntity
  8
LAY-3
  6
DASHED2
 62
     3
100
AcDbLine
 10
389.721344
 20
162.347839
 30
0.0
 11
389.721344
 21
161.947845
 31
0.0
  0
LINE
  5
1DF
100
AcDbEntity
  8
LAY-3
  6
CONTINUOUS
 62
     3
100
AcDbLine
 10
399.071381
 20
186.947845
 30
0.0
 11
392.371369
 21
186.947845
 31
0.0
  0
LINE
  5
1E0
100
AcDbEntity
  8
LAY-3
  6
DASHED2
 62
     3
100
AcDbLine
 10
399.071381
 20
165.347839
 30
0.0
 11
399.071381
 21
166.947845
 31
0.0
  0
LINE
  5
1E1
100
AcDbEntity
  8
LAY-3
  6
DASHED2
 62
     3
100
AcDbLine
 10
392.371369
 20
166.947845
 30
0.0
 11
392.371369
 21
165.347839
 31
0.0
  0
LINE
  5
1E2
100
AcDbEntity
  8
LAY-3
  6
DASHED2
 62
     1
100
AcDbLine
 10
398.321381
 20
165.347839
 30
0.0
 11
398.321381
 21
166.947845
 31
0.0
  0
LINE
  5
1E3
100
AcDbEntity
  8
LAY-3
  6
DASHED2
 62
     1
100
AcDbLine
 10
393.121369
 20
165.347839
 30
0.0
 11
393.121369
 21
166.947845
 31
0.0
  0
LINE
  5
1E4
100
AcDbEntity
  8
LAY-3
  6
DASHED2
 62
     3
100
AcDbLine
 10
431.721344
 20
161.947845
 30
0.0
 11
419.721344
 21
161.947845
 31
0.0
  0
LINE
  5
1E5
100
AcDbEntity
  8
LAY-3
  6
DASHED2
 62
     3
100
AcDbLine
 10
419.721344
 20
162.347839
 30
0.0
 11
431.721344
 21
162.347839
 31
0.0
  0
LINE
  5
1E6
100
AcDbEntity
  8
LAY-3
  6
DASHED2
 62
     3
100
AcDbLine
 10
422.371369
 20
165.347839
 30
0.0
 11
429.071381
 21
165.347839
 31
0.0
  0
LINE
  5
1E7
100
AcDbEntity
  8
LAY-3
  6
DASHED2
 62
     3
100
AcDbLine
 10
429.071381
 20
165.347839
 30
0.0
 11
431.721344
 21
162.347839
 31
0.0
  0
LINE
  5
1E8
100
AcDbEntity
  8
LAY-3
  6
DASHED2
 62
     3
100
AcDbLine
 10
422.371369
 20
165.347839
 30
0.0
 11
419.721344
 21
162.347839
 31
0.0
  0
LINE
  5
1E9
100
AcDbEntity
  8
LAY-3
  6
DASHED2
 62
     3
100
AcDbLine
 10
431.721344
 20
162.347839
 30
0.0
 11
431.721344
 21
161.947845
 31
0.0
  0
LINE
  5
1EA
100
AcDbEntity
  8
LAY-3
  6
DASHED2
 62
     3
100
AcDbLine
 10
419.721344
 20
162.347839
 30
0.0
 11
419.721344
 21
161.947845
 31
0.0
  0
LINE
  5
1EB
100
AcDbEntity
  8
LAY-3
  6
CONTINUOUS
 62
     3
100
AcDbLine
 10
429.071381
 20
186.947845
 30
0.0
 11
422.371369
 21
186.947845
 31
0.0
  0
LINE
  5
1EC
100
AcDbEntity
  8
LAY-3
  6
DASHED2
 62
     3
100
AcDbLine
 10
429.071381
 20
165.347839
 30
0.0
 11
429.071381
 21
166.947845
 31
0.0
  0
LINE
  5
1ED
100
AcDbEntity
  8
LAY-3
  6
DASHED2
 62
     3
100
AcDbLine
 10
422.371369
 20
166.947845
 30
0.0
 11
422.371369
 21
165.347839
 31
0.0
  0
LINE
  5
1EE
100
AcDbEntity
  8
LAY-3
  6
DASHED2
 62
     1
100
AcDbLine
 10
428.321381
 20
165.347839
 30
0.0
 11
428.321381
 21
166.947845
 31
0.0
  0
LINE
  5
1EF
100
AcDbEntity
  8
LAY-3
  6
DASHED2
 62
     1
100
AcDbLine
 10
423.121369
 20
165.347839
 30
0.0
 11
423.121369
 21
166.947845
 31
0.0
  0
ARC
  5
1F0
100
AcDbEntity
  8
LAY-3
  6
CONTINUOUS
 62
     3
100
AcDbCircle
 10
438.721344
 20
162.947876
 30
0.0
 40
1.0
100
AcDbArc
 50
270.000001
 51
359.999982
  0
LINE
  5
1F1
100
AcDbEntity
  8
LAY-3
  6
CONTINUOUS
 62
     3
100
AcDbLine
 10
126.371338
 20
186.947845
 30
0.0
 11
126.371338
 21
183.747876
 31
0.0
  0
LINE
  5
1F2
100
AcDbEntity
  8
LAY-3
  6
DASHED2
 62
     3
100
AcDbLine
 10
126.371338
 20
183.747876
 30
0.0
 11
126.371338
 21
166.947845
 31
0.0
  0
LINE
  5
1F3
100
AcDbEntity
  8
LAY-3
  6
DASHED2
 62
     1
100
AcDbLine
 10
127.121369
 20
166.947845
 30
0.0
 11
127.121343
 21
183.747876
 31
0.0
  0
LINE
  5
1F4
100
AcDbEntity
  8
LAY-3
  6
CONTINUOUS
 62
     1
100
AcDbLine
 10
127.121343
 20
183.747876
 30
0.0
 11
127.121338
 21
186.947845
 31
0.0
  0
LINE
  5
1F5
100
AcDbEntity
  8
LAY-3
  6
DASHED2
 62
     1
100
AcDbLine
 10
132.321381
 20
166.947845
 30
0.0
 11
132.321356
 21
183.747876
 31
0.0
  0
LINE
  5
1F6
100
AcDbEntity
  8
LAY-3
  6
CONTINUOUS
 62
     1
100
AcDbLine
 10
132.321356
 20
183.747876
 30
0.0
 11
132.321351
 21
186.947845
 31
0.0
  0
LINE
  5
1F7
100
AcDbEntity
  8
LAY-3
  6
DASHED2
 62
     3
100
AcDbLine
 10
133.071351
 20
166.947845
 30
0.0
 11
133.071351
 21
183.747876
 31
0.0
  0
LINE
  5
1F8
100
AcDbEntity
  8
LAY-3
  6
CONTINUOUS
 62
     3
100
AcDbLine
 10
133.071351
 20
183.747876
 30
0.0
 11
133.071351
 21
186.947845
 31
0.0
  0
LINE
  5
1F9
100
AcDbEntity
  8
LAY-3
  6
CONTINUOUS
 62
     3
100
AcDbLine
 10
156.371354
 20
186.947845
 30
0.0
 11
156.371354
 21
183.747876
 31
0.0
  0
LINE
  5
1FA
100
AcDbEntity
  8
LAY-3
  6
DASHED2
 62
     3
100
AcDbLine
 10
156.371354
 20
183.747876
 30
0.0
 11
156.371354
 21
166.947845
 31
0.0
  0
LINE
  5
1FB
100
AcDbEntity
  8
LAY-3
  6
DASHED2
 62
     1
100
AcDbLine
 10
157.121384
 20
166.947845
 30
0.0
 11
157.121359
 21
183.747876
 31
0.0
  0
LINE
  5
1FC
100
AcDbEntity
  8
LAY-3
  6
CONTINUOUS
 62
     1
100
AcDbLine
 10
157.121359
 20
183.747876
 30
0.0
 11
157.121354
 21
186.947845
 31
0.0
  0
LINE
  5
1FD
100
AcDbEntity
  8
LAY-3
  6
DASHED2
 62
     1
100
AcDbLine
 10
162.321396
 20
166.947845
 30
0.0
 11
162.321371
 21
183.747876
 31
0.0
  0
LINE
  5
1FE
100
AcDbEntity
  8
LAY-3
  6
CONTINUOUS
 62
     1
100
AcDbLine
 10
162.321371
 20
183.747876
 30
0.0
 11
162.321366
 21
186.947845
 31
0.0
  0
LINE
  5
1FF
100
AcDbEntity
  8
LAY-3
  6
DASHED2
 62
     3
100
AcDbLine
 10
163.071366
 20
166.947845
 30
0.0
 11
163.071366
 21
183.747876
 31
0.0
  0
LINE
  5
200
100
AcDbEntity
  8
LAY-3
  6
CONTINUOUS
 62
     3
100
AcDbLine
 10
163.071366
 20
183.747876
 30
0.0
 11
163.071366
 21
186.947845
 31
0.0
  0
LINE
  5
201
100
AcDbEntity
  8
LAY-3
  6
CONTINUOUS
 62
     3
100
AcDbLine
 10
259.371369
 20
186.947845
 30
0.0
 11
259.371369
 21
183.747876
 31
0.0
  0
LINE
  5
202
100
AcDbEntity
  8
LAY-3
  6
DASHED2
 62
     3
100
AcDbLine
 10
259.371369
 20
183.747876
 30
0.0
 11
259.371369
 21
166.947845
 31
0.0
  0
LINE
  5
203
100
AcDbEntity
  8
LAY-3
  6
DASHED2
 62
     1
100
AcDbLine
 10
260.121369
 20
166.947845
 30
0.0
 11
260.121369
 21
183.747876
 31
0.0
  0
LINE
  5
204
100
AcDbEntity
  8
LAY-3
  6
CONTINUOUS
 62
     1
100
AcDbLine
 10
260.121369
 20
183.747876
 30
0.0
 11
260.121369
 21
186.947845
 31
0.0
  0
LINE
  5
205
100
AcDbEntity
  8
LAY-3
  6
DASHED2
 62
     1
100
AcDbLine
 10
265.321381
 20
166.947845
 30
0.0
 11
265.321381
 21
183.747876
 31
0.0
  0
LINE
  5
206
100
AcDbEntity
  8
LAY-3
  6
CONTINUOUS
 62
     1
100
AcDbLine
 10
265.321381
 20
183.747876
 30
0.0
 11
265.321381
 21
186.947845
 31
0.0
  0
LINE
  5
207
100
AcDbEntity
  8
LAY-3
  6
DASHED2
 62
     3
100
AcDbLine
 10
266.071381
 20
166.947845
 30
0.0
 11
266.071381
 21
183.747876
 31
0.0
  0
LINE
  5
208
100
AcDbEntity
  8
LAY-3
  6
CONTINUOUS
 62
     3
100
AcDbLine
 10
266.071381
 20
183.747876
 30
0.0
 11
266.071381
 21
186.947845
 31
0.0
  0
LINE
  5
209
100
AcDbEntity
  8
LAY-3
  6
CONTINUOUS
 62
     3
100
AcDbLine
 10
289.371369
 20
186.947845
 30
0.0
 11
289.371369
 21
183.747876
 31
0.0
  0
LINE
  5
20A
100
AcDbEntity
  8
LAY-3
  6
DASHED2
 62
     3
100
AcDbLine
 10
289.371369
 20
183.747876
 30
0.0
 11
289.371369
 21
166.947845
 31
0.0
  0
LINE
  5
20B
100
AcDbEntity
  8
LAY-3
  6
DASHED2
 62
     1
100
AcDbLine
 10
290.121369
 20
166.947845
 30
0.0
 11
290.121369
 21
183.747876
 31
0.0
  0
LINE
  5
20C
100
AcDbEntity
  8
LAY-3
  6
CONTINUOUS
 62
     1
100
AcDbLine
 10
290.121369
 20
183.747876
 30
0.0
 11
290.121369
 21
186.947845
 31
0.0
  0
LINE
  5
20D
100
AcDbEntity
  8
LAY-3
  6
DASHED2
 62
     3
100
AcDbLine
 10
296.071381
 20
166.947845
 30
0.0
 11
296.071381
 21
183.747876
 31
0.0
  0
LINE
  5
20E
100
AcDbEntity
  8
LAY-3
  6
CONTINUOUS
 62
     3
100
AcDbLine
 10
296.071381
 20
183.747876
 30
0.0
 11
296.071381
 21
186.947845
 31
0.0
  0
LINE
  5
20F
100
AcDbEntity
  8
LAY-3
  6
DASHED2
 62
     1
100
AcDbLine
 10
295.321381
 20
166.947845
 30
0.0
 11
295.321381
 21
183.747876
 31
0.0
  0
LINE
  5
210
100
AcDbEntity
  8
LAY-3
  6
CONTINUOUS
 62
     1
100
AcDbLine
 10
295.321381
 20
183.747876
 30
0.0
 11
295.321381
 21
186.947845
 31
0.0
  0
LINE
  5
211
100
AcDbEntity
  8
LAY-3
  6
CONTINUOUS
 62
     3
100
AcDbLine
 10
392.371369
 20
186.947845
 30
0.0
 11
392.371369
 21
183.747876
 31
0.0
  0
LINE
  5
212
100
AcDbEntity
  8
LAY-3
  6
DASHED2
 62
     3
100
AcDbLine
 10
392.371369
 20
183.747876
 30
0.0
 11
392.371369
 21
166.947845
 31
0.0
  0
LINE
  5
213
100
AcDbEntity
  8
LAY-3
  6
DASHED2
 62
     1
100
AcDbLine
 10
393.121369
 20
166.947845
 30
0.0
 11
393.121369
 21
183.747876
 31
0.0
  0
LINE
  5
214
100
AcDbEntity
  8
LAY-3
  6
CONTINUOUS
 62
     1
100
AcDbLine
 10
393.121369
 20
183.747876
 30
0.0
 11
393.121369
 21
186.947845
 31
0.0
  0
LINE
  5
215
100
AcDbEntity
  8
LAY-3
  6
DASHED2
 62
     1
100
AcDbLine
 10
398.321381
 20
166.947845
 30
0.0
 11
398.321381
 21
183.747876
 31
0.0
  0
LINE
  5
216
100
AcDbEntity
  8
LAY-3
  6
CONTINUOUS
 62
     1
100
AcDbLine
 10
398.321381
 20
183.747876
 30
0.0
 11
398.321381
 21
186.947845
 31
0.0
  0
LINE
  5
217
100
AcDbEntity
  8
LAY-3
  6
DASHED2
 62
     3
100
AcDbLine
 10
399.071381
 20
166.947845
 30
0.0
 11
399.071381
 21
183.747876
 31
0.0
  0
LINE
  5
218
100
AcDbEntity
  8
LAY-3
  6
CONTINUOUS
 62
     3
100
AcDbLine
 10
399.071381
 20
183.747876
 30
0.0
 11
399.071381
 21
186.947845
 31
0.0
  0
LINE
  5
219
100
AcDbEntity
  8
LAY-3
  6
CONTINUOUS
 62
     3
100
AcDbLine
 10
422.371369
 20
186.947845
 30
0.0
 11
422.371369
 21
183.747876
 31
0.0
  0
LINE
  5
21A
100
AcDbEntity
  8
LAY-3
  6
DASHED2
 62
     3
100
AcDbLine
 10
422.371369
 20
183.747876
 30
0.0
 11
422.371369
 21
166.947845
 31
0.0
  0
LINE
  5
21B
100
AcDbEntity
  8
LAY-3
  6
DASHED2
 62
     1
100
AcDbLine
 10
423.121369
 20
166.947845
 30
0.0
 11
423.121369
 21
183.747876
 31
0.0
  0
LINE
  5
21C
100
AcDbEntity
  8
LAY-3
  6
CONTINUOUS
 62
     1
100
AcDbLine
 10
423.121369
 20
183.747876
 30
0.0
 11
423.121369
 21
186.947845
 31
0.0
  0
LINE
  5
21D
100
AcDbEntity
  8
LAY-3
  6
DASHED2
 62
     1
100
AcDbLine
 10
428.321381
 20
166.947845
 30
0.0
 11
428.321381
 21
183.747876
 31
0.0
  0
LINE
  5
21E
100
AcDbEntity
  8
LAY-3
  6
CONTINUOUS
 62
     1
100
AcDbLine
 10
428.321381
 20
183.747876
 30
0.0
 11
428.321381
 21
186.947845
 31
0.0
  0
LINE
  5
21F
100
AcDbEntity
  8
LAY-3
  6
DASHED2
 62
     3
100
AcDbLine
 10
429.071381
 20
166.947845
 30
0.0
 11
429.071381
 21
183.747876
 31
0.0
  0
LINE
  5
220
100
AcDbEntity
  8
LAY-3
  6
CONTINUOUS
 62
     3
100
AcDbLine
 10
429.071381
 20
183.747876
 30
0.0
 11
429.071381
 21
186.947845
 31
0.0
  0
LINE
  5
221
100
AcDbEntity
  8
LAY-4
  6
CONTINUOUS
 62
     3
100
AcDbLine
 10
650.078461
 20
176.052078
 30
0.0
 11
650.078461
 21
86.052078
 31
0.0
  0
LINE
  5
222
100
AcDbEntity
  8
LAY-4
  6
CONTINUOUS
 62
     3
100
AcDbLine
 10
760.078461
 20
176.052078
 30
0.0
 11
760.078461
 21
86.052078
 31
0.0
  0
LINE
  5
223
100
AcDbEntity
  8
LAY-4
  6
CONTINUOUS
 62
     3
100
AcDbLine
 10
650.078461
 20
86.052078
 30
0.0
 11
760.078461
 21
86.052078
 31
0.0
  0
LINE
  5
224
100
AcDbEntity
  8
LAY-4
  6
CONTINUOUS
 62
     3
100
AcDbLine
 10
650.078461
 20
176.052078
 30
0.0
 11
760.078461
 21
176.052078
 31
0.0
  0
LINE
  5
225
100
AcDbEntity
  8
LAY-4
  6
DASHED2
 62
     3
100
AcDbLine
 10
670.974519
 20
169.052078
 30
0.0
 11
719.182403
 21
169.052078
 31
0.0
  0
LINE
  5
226
100
AcDbEntity
  8
LAY-4
  6
DASHED2
 62
     3
100
AcDbLine
 10
670.974519
 20
93.052078
 30
0.0
 11
719.182403
 21
93.052078
 31
0.0
  0
LINE
  5
227
100
AcDbEntity
  8
LAY-4
  6
DASHED2
 62
     3
100
AcDbLine
 10
657.078461
 20
155.15602
 30
0.0
 11
657.078461
 21
106.948136
 31
0.0
  0
LINE
  5
228
100
AcDbEntity
  8
LAY-4
  6
DASHED2
 62
     3
100
AcDbLine
 10
733.078461
 20
155.15602
 30
0.0
 11
733.078461
 21
106.948136
 31
0.0
  0
ARC
  5
229
100
AcDbEntity
  8
LAY-4
  6
DASHED2
 62
     3
100
AcDbCircle
 10
695.078461
 20
131.052078
 30
0.0
 40
45.0
100
AcDbArc
 50
122.387539
 51
147.612461
  0
ARC
  5
22A
100
AcDbEntity
  8
LAY-4
  6
DASHED2
 62
     3
100
AcDbCircle
 10
695.078461
 20
131.052078
 30
0.0
 40
45.0
100
AcDbArc
 50
212.387539
 51
237.612461
  0
ARC
  5
22B
100
AcDbEntity
  8
LAY-4
  6
DASHED2
 62
     3
100
AcDbCircle
 10
695.078461
 20
131.052078
 30
0.0
 40
45.0
100
AcDbArc
 50
302.387539
 51
327.612461
  0
ARC
  5
22C
100
AcDbEntity
  8
LAY-4
  6
DASHED2
 62
     3
100
AcDbCircle
 10
695.078461
 20
131.052078
 30
0.0
 40
45.0
100
AcDbArc
 50
32.387539
 51
57.612461
  0
LINE
  5
22D
100
AcDbEntity
  8
LAY-4
  6
CONTINUOUS
 62
     3
100
AcDbLine
 10
650.078461
 20
311.947623
 30
0.0
 11
740.078461
 21
311.948003
 31
0.0
  0
LINE
  5
22E
100
AcDbEntity
  8
LAY-4
  6
CONTINUOUS
 62
     3
100
AcDbLine
 10
650.078461
 20
310.447813
 30
0.0
 11
740.078461
 21
310.447813
 31
0.0
  0
LINE
  5
22F
100
AcDbEntity
  8
LAY-4
  6
CONTINUOUS
 62
     3
100
AcDbLine
 10
650.078461
 20
311.947634
 30
0.0
 11
650.078461
 21
310.447813
 31
0.0
  0
LINE
  5
230
100
AcDbEntity
  8
LAY-4
  6
CONTINUOUS
 62
     3
100
AcDbLine
 10
740.078461
 20
311.947996
 30
0.0
 11
740.078461
 21
310.447813
 31
0.0
  0
CIRCLE
  5
231
100
AcDbEntity
  8
LAY-4
  6
CONTINUOUS
 62
     3
100
AcDbCircle
 10
668.561936
 20
157.568582
 30
0.0
 40
3.96
  0
LINE
  5
232
100
AcDbEntity
  8
LAY-4
  6
CONTINUOUS
 62
     3
100
AcDbLine
 10
668.165932
 20
159.84555
 30
0.0
 11
668.957941
 21
159.84555
 31
0.0
  0
LINE
  5
233
100
AcDbEntity
  8
LAY-4
  6
CONTINUOUS
 62
     3
100
AcDbLine
 10
668.165932
 20
155.291574
 30
0.0
 11
668.957941
 21
155.291574
 31
0.0
  0
LINE
  5
234
100
AcDbEntity
  8
LAY-4
  6
CONTINUOUS
 62
     3
100
AcDbLine
 10
666.284949
 20
157.172558
 30
0.0
 11
666.284949
 21
157.964566
 31
0.0
  0
LINE
  5
235
100
AcDbEntity
  8
LAY-4
  6
CONTINUOUS
 62
     3
100
AcDbLine
 10
670.838945
 20
157.172558
 30
0.0
 11
670.838945
 21
157.964566
 31
0.0
  0
LINE
  5
236
100
AcDbEntity
  8
LAY-4
  6
CONTINUOUS
 62
     3
100
AcDbLine
 10
668.165932
 20
158.954566
 30
0.0
 11
668.165932
 21
159.84555
 31
0.0
  0
LINE
  5
237
100
AcDbEntity
  8
LAY-4
  6
CONTINUOUS
 62
     3
100
AcDbLine
 10
666.284928
 20
157.964566
 30
0.0
 11
667.175932
 21
157.964566
 31
0.0
  0
ARC
  5
238
100
AcDbEntity
  8
LAY-4
  6
CONTINUOUS
 62
     3
100
AcDbCircle
 10
667.175932
 20
158.954566
 30
0.0
 40
0.99
100
AcDbArc
 50
270.0
 51
359.999982
  0
LINE
  5
239
100
AcDbEntity
  8
LAY-4
  6
CONTINUOUS
 62
     3
100
AcDbLine
 10
669.947941
 20
157.964566
 30
0.0
 11
670.838924
 21
157.964566
 31
0.0
  0
LINE
  5
23A
100
AcDbEntity
  8
LAY-4
  6
CONTINUOUS
 62
     3
100
AcDbLine
 10
668.957941
 20
159.84559
 30
0.0
 11
668.957941
 21
158.954566
 31
0.0
  0
ARC
  5
23B
100
AcDbEntity
  8
LAY-4
  6
CONTINUOUS
 62
     3
100
AcDbCircle
 10
669.947941
 20
158.954566
 30
0.0
 40
0.99
100
AcDbArc
 50
180.00002
 51
270.0
  0
LINE
  5
23C
100
AcDbEntity
  8
LAY-4
  6
CONTINUOUS
 62
     3
100
AcDbLine
 10
670.838945
 20
157.172558
 30
0.0
 11
669.947941
 21
157.172558
 31
0.0
  0
LINE
  5
23D
100
AcDbEntity
  8
LAY-4
  6
CONTINUOUS
 62
     3
100
AcDbLine
 10
668.957941
 20
156.182558
 30
0.0
 11
668.957941
 21
155.291574
 31
0.0
  0
ARC
  5
23E
100
AcDbEntity
  8
LAY-4
  6
CONTINUOUS
 62
     3
100
AcDbCircle
 10
669.947941
 20
156.182558
 30
0.0
 40
0.99
100
AcDbArc
 50
89.999981
 51
180.00002
  0
LINE
  5
23F
100
AcDbEntity
  8
LAY-4
  6
CONTINUOUS
 62
     3
100
AcDbLine
 10
668.165932
 20
155.291574
 30
0.0
 11
668.165932
 21
156.182558
 31
0.0
  0
LINE
  5
240
100
AcDbEntity
  8
LAY-4
  6
CONTINUOUS
 62
     3
100
AcDbLine
 10
667.175932
 20
157.172558
 30
0.0
 11
666.284949
 21
157.172558
 31
0.0
  0
ARC
  5
241
100
AcDbEntity
  8
LAY-4
  6
CONTINUOUS
 62
     3
100
AcDbCircle
 10
667.175932
 20
156.182558
 30
0.0
 40
0.99
100
AcDbArc
 50
0.0
 51
89.999981
  0
ARC
  5
242
100
AcDbEntity
  8
LAY-4
  6
CONTINUOUS
 62
     3
100
AcDbCircle
 10
669.947941
 20
158.954566
 30
0.0
 40
0.99
100
AcDbArc
 50
180.00002
 51
270.0
  0
ARC
  5
243
100
AcDbEntity
  8
LAY-4
  6
CONTINUOUS
 62
     3
100
AcDbCircle
 10
669.947941
 20
156.182558
 30
0.0
 40
0.99
100
AcDbArc
 50
89.999981
 51
180.00002
  0
CIRCLE
  5
244
100
AcDbEntity
  8
LAY-4
  6
CONTINUOUS
 62
     3
100
AcDbCircle
 10
721.594945
 20
157.568582
 30
0.0
 40
3.96
  0
LINE
  5
245
100
AcDbEntity
  8
LAY-4
  6
CONTINUOUS
 62
     3
100
AcDbLine
 10
721.198941
 20
159.84555
 30
0.0
 11
721.990949
 21
159.84555
 31
0.0
  0
LINE
  5
246
100
AcDbEntity
  8
LAY-4
  6
CONTINUOUS
 62
     3
100
AcDbLine
 10
721.198941
 20
155.291574
 30
0.0
 11
721.990949
 21
155.291574
 31
0.0
  0
LINE
  5
247
100
AcDbEntity
  8
LAY-4
  6
CONTINUOUS
 62
     3
100
AcDbLine
 10
719.317957
 20
157.172558
 30
0.0
 11
719.317957
 21
157.964566
 31
0.0
  0
LINE
  5
248
100
AcDbEntity
  8
LAY-4
  6
CONTINUOUS
 62
     3
100
AcDbLine
 10
723.871953
 20
157.172558
 30
0.0
 11
723.871953
 21
157.964566
 31
0.0
  0
LINE
  5
249
100
AcDbEntity
  8
LAY-4
  6
CONTINUOUS
 62
     3
100
AcDbLine
 10
721.198941
 20
158.954566
 30
0.0
 11
721.198941
 21
159.84555
 31
0.0
  0
LINE
  5
24A
100
AcDbEntity
  8
LAY-4
  6
CONTINUOUS
 62
     3
100
AcDbLine
 10
719.317937
 20
157.964566
 30
0.0
 11
720.208941
 21
157.964566
 31
0.0
  0
ARC
  5
24B
100
AcDbEntity
  8
LAY-4
  6
CONTINUOUS
 62
     3
100
AcDbCircle
 10
720.208941
 20
158.954566
 30
0.0
 40
0.99
100
AcDbArc
 50
270.0
 51
359.999982
  0
LINE
  5
24C
100
AcDbEntity
  8
LAY-4
  6
CONTINUOUS
 62
     3
100
AcDbLine
 10
722.980949
 20
157.964566
 30
0.0
 11
723.871933
 21
157.964566
 31
0.0
  0
LINE
  5
24D
100
AcDbEntity
  8
LAY-4
  6
CONTINUOUS
 62
     3
100
AcDbLine
 10
721.990949
 20
159.84559
 30
0.0
 11
721.990949
 21
158.954566
 31
0.0
  0
ARC
  5
24E
100
AcDbEntity
  8
LAY-4
  6
CONTINUOUS
 62
     3
100
AcDbCircle
 10
722.980949
 20
158.954566
 30
0.0
 40
0.99
100
AcDbArc
 50
180.00002
 51
270.0
  0
LINE
  5
24F
100
AcDbEntity
  8
LAY-4
  6
CONTINUOUS
 62
     3
100
AcDbLine
 10
723.871953
 20
157.172558
 30
0.0
 11
722.980949
 21
157.172558
 31
0.0
  0
LINE
  5
250
100
AcDbEntity
  8
LAY-4
  6
CONTINUOUS
 62
     3
100
AcDbLine
 10
721.990949
 20
156.182558
 30
0.0
 11
721.990949
 21
155.291574
 31
0.0
  0
ARC
  5
251
100
AcDbEntity
  8
LAY-4
  6
CONTINUOUS
 62
     3
100
AcDbCircle
 10
722.980949
 20
156.182558
 30
0.0
 40
0.99
100
AcDbArc
 50
89.999981
 51
180.00002
  0
LINE
  5
252
100
AcDbEntity
  8
LAY-4
  6
CONTINUOUS
 62
     3
100
AcDbLine
 10
721.198941
 20
155.291574
 30
0.0
 11
721.198941
 21
156.182558
 31
0.0
  0
LINE
  5
253
100
AcDbEntity
  8
LAY-4
  6
CONTINUOUS
 62
     3
100
AcDbLine
 10
720.208941
 20
157.172558
 30
0.0
 11
719.317957
 21
157.172558
 31
0.0
  0
ARC
  5
254
100
AcDbEntity
  8
LAY-4
  6
CONTINUOUS
 62
     3
100
AcDbCircle
 10
720.208941
 20
156.182558
 30
0.0
 40
0.99
100
AcDbArc
 50
0.0
 51
89.999981
  0
ARC
  5
255
100
AcDbEntity
  8
LAY-4
  6
CONTINUOUS
 62
     3
100
AcDbCircle
 10
722.980949
 20
158.954566
 30
0.0
 40
0.99
100
AcDbArc
 50
180.00002
 51
270.0
  0
ARC
  5
256
100
AcDbEntity
  8
LAY-4
  6
CONTINUOUS
 62
     3
100
AcDbCircle
 10
722.980949
 20
156.182558
 30
0.0
 40
0.99
100
AcDbArc
 50
89.999981
 51
180.00002
  0
CIRCLE
  5
257
100
AcDbEntity
  8
LAY-4
  6
CONTINUOUS
 62
     3
100
AcDbCircle
 10
668.561936
 20
104.535574
 30
0.0
 40
3.96
  0
LINE
  5
258
100
AcDbEntity
  8
LAY-4
  6
CONTINUOUS
 62
     3
100
AcDbLine
 10
668.165932
 20
106.812541
 30
0.0
 11
668.957941
 21
106.812541
 31
0.0
  0
LINE
  5
259
100
AcDbEntity
  8
LAY-4
  6
CONTINUOUS
 62
     3
100
AcDbLine
 10
668.165932
 20
102.258566
 30
0.0
 11
668.957941
 21
102.258566
 31
0.0
  0
LINE
  5
25A
100
AcDbEntity
  8
LAY-4
  6
CONTINUOUS
 62
     3
100
AcDbLine
 10
666.284949
 20
104.139549
 30
0.0
 11
666.284949
 21
104.931558
 31
0.0
  0
LINE
  5
25B
100
AcDbEntity
  8
LAY-4
  6
CONTINUOUS
 62
     3
100
AcDbLine
 10
670.838945
 20
104.139549
 30
0.0
 11
670.838945
 21
104.931558
 31
0.0
  0
LINE
  5
25C
100
AcDbEntity
  8
LAY-4
  6
CONTINUOUS
 62
     3
100
AcDbLine
 10
668.165932
 20
105.921558
 30
0.0
 11
668.165932
 21
106.812541
 31
0.0
  0
LINE
  5
25D
100
AcDbEntity
  8
LAY-4
  6
CONTINUOUS
 62
     3
100
AcDbLine
 10
666.284928
 20
104.931558
 30
0.0
 11
667.175932
 21
104.931558
 31
0.0
  0
ARC
  5
25E
100
AcDbEntity
  8
LAY-4
  6
CONTINUOUS
 62
     3
100
AcDbCircle
 10
667.175932
 20
105.921558
 30
0.0
 40
0.99
100
AcDbArc
 50
270.0
 51
359.999982
  0
LINE
  5
25F
100
AcDbEntity
  8
LAY-4
  6
CONTINUOUS
 62
     3
100
AcDbLine
 10
669.947941
 20
104.931558
 30
0.0
 11
670.838924
 21
104.931558
 31
0.0
  0
LINE
  5
260
100
AcDbEntity
  8
LAY-4
  6
CONTINUOUS
 62
     3
100
AcDbLine
 10
668.957941
 20
106.812582
 30
0.0
 11
668.957941
 21
105.921558
 31
0.0
  0
ARC
  5
261
100
AcDbEntity
  8
LAY-4
  6
CONTINUOUS
 62
     3
100
AcDbCircle
 10
669.947941
 20
105.921558
 30
0.0
 40
0.99
100
AcDbArc
 50
180.00002
 51
270.0
  0
LINE
  5
262
100
AcDbEntity
  8
LAY-4
  6
CONTINUOUS
 62
     3
100
AcDbLine
 10
670.838945
 20
104.139549
 30
0.0
 11
669.947941
 21
104.139549
 31
0.0
  0
LINE
  5
263
100
AcDbEntity
  8
LAY-4
  6
CONTINUOUS
 62
     3
100
AcDbLine
 10
668.957941
 20
103.149549
 30
0.0
 11
668.957941
 21
102.258566
 31
0.0
  0
ARC
  5
264
100
AcDbEntity
  8
LAY-4
  6
CONTINUOUS
 62
     3
100
AcDbCircle
 10
669.947941
 20
103.149549
 30
0.0
 40
0.99
100
AcDbArc
 50
89.999981
 51
180.00002
  0
LINE
  5
265
100
AcDbEntity
  8
LAY-4
  6
CONTINUOUS
 62
     3
100
AcDbLine
 10
668.165932
 20
102.258566
 30
0.0
 11
668.165932
 21
103.149549
 31
0.0
  0
LINE
  5
266
100
AcDbEntity
  8
LAY-4
  6
CONTINUOUS
 62
     3
100
AcDbLine
 10
667.175932
 20
104.139549
 30
0.0
 11
666.284949
 21
104.139549
 31
0.0
  0
ARC
  5
267
100
AcDbEntity
  8
LAY-4
  6
CONTINUOUS
 62
     3
100
AcDbCircle
 10
667.175932
 20
103.149549
 30
0.0
 40
0.99
100
AcDbArc
 50
0.0
 51
89.999981
  0
ARC
  5
268
100
AcDbEntity
  8
LAY-4
  6
CONTINUOUS
 62
     3
100
AcDbCircle
 10
669.947941
 20
105.921558
 30
0.0
 40
0.99
100
AcDbArc
 50
180.00002
 51
270.0
  0
ARC
  5
269
100
AcDbEntity
  8
LAY-4
  6
CONTINUOUS
 62
     3
100
AcDbCircle
 10
669.947941
 20
103.149549
 30
0.0
 40
0.99
100
AcDbArc
 50
89.999981
 51
180.00002
  0
CIRCLE
  5
26A
100
AcDbEntity
  8
LAY-4
  6
CONTINUOUS
 62
     3
100
AcDbCircle
 10
721.594945
 20
104.535574
 30
0.0
 40
3.96
  0
LINE
  5
26B
100
AcDbEntity
  8
LAY-4
  6
CONTINUOUS
 62
     3
100
AcDbLine
 10
721.198941
 20
106.812541
 30
0.0
 11
721.990949
 21
106.812541
 31
0.0
  0
LINE
  5
26C
100
AcDbEntity
  8
LAY-4
  6
CONTINUOUS
 62
     3
100
AcDbLine
 10
721.198941
 20
102.258566
 30
0.0
 11
721.990949
 21
102.258566
 31
0.0
  0
LINE
  5
26D
100
AcDbEntity
  8
LAY-4
  6
CONTINUOUS
 62
     3
100
AcDbLine
 10
719.317957
 20
104.139549
 30
0.0
 11
719.317957
 21
104.931558
 31
0.0
  0
LINE
  5
26E
100
AcDbEntity
  8
LAY-4
  6
CONTINUOUS
 62
     3
100
AcDbLine
 10
723.871953
 20
104.139549
 30
0.0
 11
723.871953
 21
104.931558
 31
0.0
  0
LINE
  5
26F
100
AcDbEntity
  8
LAY-4
  6
CONTINUOUS
 62
     3
100
AcDbLine
 10
721.198941
 20
105.921558
 30
0.0
 11
721.198941
 21
106.812541
 31
0.0
  0
LINE
  5
270
100
AcDbEntity
  8
LAY-4
  6
CONTINUOUS
 62
     3
100
AcDbLine
 10
719.317937
 20
104.931558
 30
0.0
 11
720.208941
 21
104.931558
 31
0.0
  0
ARC
  5
271
100
AcDbEntity
  8
LAY-4
  6
CONTINUOUS
 62
     3
100
AcDbCircle
 10
720.208941
 20
105.921558
 30
0.0
 40
0.99
100
AcDbArc
 50
270.0
 51
359.999982
  0
LINE
  5
272
100
AcDbEntity
  8
LAY-4
  6
CONTINUOUS
 62
     3
100
AcDbLine
 10
722.980949
 20
104.931558
 30
0.0
 11
723.871933
 21
104.931558
 31
0.0
  0
LINE
  5
273
100
AcDbEntity
  8
LAY-4
  6
CONTINUOUS
 62
     3
100
AcDbLine
 10
721.990949
 20
106.812582
 30
0.0
 11
721.990949
 21
105.921558
 31
0.0
  0
ARC
  5
274
100
AcDbEntity
  8
LAY-4
  6
CONTINUOUS
 62
     3
100
AcDbCircle
 10
722.980949
 20
105.921558
 30
0.0
 40
0.99
100
AcDbArc
 50
180.00002
 51
270.0
  0
LINE
  5
275
100
AcDbEntity
  8
LAY-4
  6
CONTINUOUS
 62
     3
100
AcDbLine
 10
723.871953
 20
104.139549
 30
0.0
 11
722.980949
 21
104.139549
 31
0.0
  0
LINE
  5
276
100
AcDbEntity
  8
LAY-4
  6
CONTINUOUS
 62
     3
100
AcDbLine
 10
721.990949
 20
103.149549
 30
0.0
 11
721.990949
 21
102.258566
 31
0.0
  0
ARC
  5
277
100
AcDbEntity
  8
LAY-4
  6
CONTINUOUS
 62
     3
100
AcDbCircle
 10
722.980949
 20
103.149549
 30
0.0
 40
0.99
100
AcDbArc
 50
89.999981
 51
180.00002
  0
LINE
  5
278
100
AcDbEntity
  8
LAY-4
  6
CONTINUOUS
 62
     3
100
AcDbLine
 10
721.198941
 20
102.258566
 30
0.0
 11
721.198941
 21
103.149549
 31
0.0
  0
LINE
  5
279
100
AcDbEntity
  8
LAY-4
  6
CONTINUOUS
 62
     3
100
AcDbLine
 10
720.208941
 20
104.139549
 30
0.0
 11
719.317957
 21
104.139549
 31
0.0
  0
ARC
  5
27A
100
AcDbEntity
  8
LAY-4
  6
CONTINUOUS
 62
     3
100
AcDbCircle
 10
720.208941
 20
103.149549
 30
0.0
 40
0.99
100
AcDbArc
 50
0.0
 51
89.999981
  0
ARC
  5
27B
100
AcDbEntity
  8
LAY-4
  6
CONTINUOUS
 62
     3
100
AcDbCircle
 10
722.980949
 20
105.921558
 30
0.0
 40
0.99
100
AcDbArc
 50
180.00002
 51
270.0
  0
ARC
  5
27C
100
AcDbEntity
  8
LAY-4
  6
CONTINUOUS
 62
     3
100
AcDbCircle
 10
722.980949
 20
103.149549
 30
0.0
 40
0.99
100
AcDbArc
 50
89.999981
 51
180.00002
  0
LINE
  5
27D
100
AcDbEntity
  8
LAY-4
  6
CONTINUOUS
 62
     3
100
AcDbLine
 10
44.72136
 20
136.947876
 30
0.0
 11
154.72136
 21
136.947876
 31
0.0
  0
LINE
  5
27E
100
AcDbEntity
  8
LAY-4
  6
CONTINUOUS
 62
     3
100
AcDbLine
 10
44.72136
 20
135.447876
 30
0.0
 11
154.72136
 21
135.447876
 31
0.0
  0
LINE
  5
27F
100
AcDbEntity
  8
LAY-4
  6
CONTINUOUS
 62
     3
100
AcDbLine
 10
44.72136
 20
136.947876
 30
0.0
 11
44.72136
 21
135.447876
 31
0.0
  0
LINE
  5
280
100
AcDbEntity
  8
LAY-4
  6
CONTINUOUS
 62
     3
100
AcDbLine
 10
154.72136
 20
136.947876
 30
0.0
 11
154.72136
 21
135.447876
 31
0.0
  0
CIRCLE
  5
281
100
AcDbEntity
  8
LAY-4
  6
CONTINUOUS
 62
     3
100
AcDbCircle
 10
695.078461
 20
131.052078
 30
0.0
 40
14.25
  0
LINE
  5
282
100
AcDbEntity
  8
LAY-4
  6
CONTINUOUS
 62
     3
100
AcDbLine
 10
682.062221
 20
136.852078
 30
0.0
 11
708.094701
 21
136.852078
 31
0.0
  0
LINE
  5
283
100
AcDbEntity
  8
LAY-4
  6
CONTINUOUS
 62
     3
100
AcDbLine
 10
683.285985
 20
139.052078
 30
0.0
 11
706.870937
 21
139.052078
 31
0.0
  0
LINE
  5
284
100
AcDbEntity
  8
LAY-4
  6
CONTINUOUS
 62
     3
100
AcDbLine
 10
683.285985
 20
123.052078
 30
0.0
 11
706.870937
 21
123.052078
 31
0.0
  0
LINE
  5
285
100
AcDbEntity
  8
LAY-4
  6
CONTINUOUS
 62
     3
100
AcDbLine
 10
682.062221
 20
125.252078
 30
0.0
 11
708.094701
 21
125.252078
 31
0.0
  0
LINE
  5
286
100
AcDbEntity
  8
LAY-4
  6
CONTINUOUS
 62
     3
100
AcDbLine
 10
709.365998
 20
311.947873
 30
0.0
 11
709.365876
 21
321.947845
 31
0.0
  0
LINE
  5
287
100
AcDbEntity
  8
LAY-4
  6
CONTINUOUS
 62
     3
100
AcDbLine
 10
680.790925
 20
311.947752
 30
0.0
 11
680.790925
 21
321.947845
 31
0.0
  0
LINE
  5
288
100
AcDbEntity
  8
LAY-4
  6
CONTINUOUS
 62
     3
100
AcDbLine
 10
687.0784
 20
321.947845
 30
0.0
 11
680.790925
 21
321.947845
 31
0.0
  0
LINE
  5
289
100
AcDbEntity
  8
LAY-4
  6
CONTINUOUS
 62
     3
100
AcDbLine
 10
703.0784
 20
321.947845
 30
0.0
 11
709.365876
 21
321.947845
 31
0.0
  0
LINE
  5
28A
100
AcDbEntity
  8
LAY-4
  6
CONTINUOUS
 62
     3
100
AcDbLine
 10
687.0784
 20
321.947845
 30
0.0
 11
689.703107
 21
351.947876
 31
0.0
  0
LINE
  5
28B
100
AcDbEntity
  8
LAY-4
  6
CONTINUOUS
 62
     3
100
AcDbLine
 10
703.0784
 20
321.947845
 30
0.0
 11
700.45384
 21
351.947876
 31
0.0
  0
LINE
  5
28C
100
AcDbEntity
  8
LAY-4
  6
CONTINUOUS
 62
     3
100
AcDbLine
 10
700.891266
 20
346.947876
 30
0.0
 11
689.265656
 21
346.947876
 31
0.0
  0
LINE
  5
28D
100
AcDbEntity
  8
LAY-4
  6
CONTINUOUS
 62
     3
100
AcDbLine
 10
689.204412
 20
346.247864
 30
0.0
 11
700.952507
 21
346.247864
 31
0.0
  0
LINE
  5
28E
100
AcDbEntity
  8
LAY-4
  6
CONTINUOUS
 62
     3
100
AcDbLine
 10
100.47136
 20
146.947876
 30
0.0
 11
78.97136
 21
146.947876
 31
0.0
  0
LINE
  5
28F
100
AcDbEntity
  8
LAY-4
  6
CONTINUOUS
 62
     3
100
AcDbLine
 10
75.433854
 20
136.947876
 30
0.0
 11
75.433854
 21
150.947876
 31
0.0
  0
LINE
  5
290
100
AcDbEntity
  8
LAY-4
  6
CONTINUOUS
 62
     3
100
AcDbLine
 10
78.518494
 20
150.947876
 30
0.0
 11
78.97136
 21
146.947876
 31
0.0
  0
LINE
  5
291
100
AcDbEntity
  8
LAY-4
  6
CONTINUOUS
 62
     3
100
AcDbLine
 10
100.924226
 20
150.947876
 30
0.0
 11
100.47136
 21
146.947876
 31
0.0
  0
LINE
  5
292
100
AcDbEntity
  8
LAY-4
  6
CONTINUOUS
 62
     3
100
AcDbLine
 10
104.008866
 20
136.947876
 30
0.0
 11
104.008866
 21
150.947876
 31
0.0
  0
LINE
  5
293
100
AcDbEntity
  8
LAY-4
  6
DASHED2
 62
     3
100
AcDbLine
 10
76.140946
 20
171.947876
 30
0.0
 11
103.301774
 21
171.947876
 31
0.0
  0
LINE
  5
294
100
AcDbEntity
  8
LAY-4
  6
DASHED2
 62
     3
100
AcDbLine
 10
103.301774
 20
171.947876
 30
0.0
 11
104.008866
 21
171.240753
 31
0.0
  0
LINE
  5
295
100
AcDbEntity
  8
LAY-4
  6
DASHED2
 62
     3
100
AcDbLine
 10
76.140946
 20
171.947876
 30
0.0
 11
75.433854
 21
171.240753
 31
0.0
  0
LINE
  5
296
100
AcDbEntity
  8
LAY-4
  6
DASHED2
 62
     3
100
AcDbLine
 10
75.433854
 20
150.947876
 30
0.0
 11
75.433854
 21
176.947845
 31
0.0
  0
LINE
  5
297
100
AcDbEntity
  8
LAY-4
  6
DASHED2
 62
     3
100
AcDbLine
 10
76.140946
 20
171.947876
 30
0.0
 11
78.518494
 21
150.947876
 31
0.0
  0
LINE
  5
298
100
AcDbEntity
  8
LAY-4
  6
DASHED2
 62
     3
100
AcDbLine
 10
103.301774
 20
171.947876
 30
0.0
 11
100.924226
 21
150.947876
 31
0.0
  0
LINE
  5
299
100
AcDbEntity
  8
LAY-4
  6
DASHED2
 62
     3
100
AcDbLine
 10
104.008866
 20
150.947876
 30
0.0
 11
104.008866
 21
176.947845
 31
0.0
  0
LINE
  5
29A
100
AcDbEntity
  8
LAY-4
  6
CONTINUOUS
 62
     3
100
AcDbLine
 10
29.72136
 20
85.447876
 30
0.0
 11
149.72136
 21
85.447876
 31
0.0
  0
LINE
  5
29B
100
AcDbEntity
  8
LAY-4
  6
CONTINUOUS
 62
     3
100
AcDbLine
 10
29.72136
 20
80.447876
 30
0.0
 11
149.72136
 21
80.447876
 31
0.0
  0
LINE
  5
29C
100
AcDbEntity
  8
LAY-4
  6
CONTINUOUS
 62
     3
100
AcDbLine
 10
51.72136
 20
135.447876
 30
0.0
 11
51.72136
 21
85.447876
 31
0.0
  0
LINE
  5
29D
100
AcDbEntity
  8
LAY-4
  6
CONTINUOUS
 62
     3
100
AcDbLine
 10
29.72136
 20
85.447876
 30
0.0
 11
29.72136
 21
80.447876
 31
0.0
  0
LINE
  5
29E
100
AcDbEntity
  8
LAY-4
  6
CONTINUOUS
 62
     3
100
AcDbLine
 10
127.72136
 20
135.447876
 30
0.0
 11
127.72136
 21
85.447876
 31
0.0
  0
LINE
  5
29F
100
AcDbEntity
  8
LAY-4
  6
CONTINUOUS
 62
     3
100
AcDbLine
 10
149.72136
 20
85.447876
 30
0.0
 11
149.72136
 21
80.447876
 31
0.0
  0
LINE
  5
2A0
100
AcDbEntity
  8
LAY-4
  6
CONTINUOUS
 62
     3
100
AcDbLine
 10
65.72136
 20
135.447876
 30
0.0
 11
65.72136
 21
85.447876
 31
0.0
  0
LINE
  5
2A1
100
AcDbEntity
  8
LAY-4
  6
CONTINUOUS
 62
     3
100
AcDbLine
 10
113.72136
 20
135.447876
 30
0.0
 11
113.72136
 21
85.447876
 31
0.0
  0
LINE
  5
2A2
100
AcDbEntity
  8
LAY-4
  6
CONTINUOUS
 62
     3
100
AcDbLine
 10
635.078461
 20
260.447813
 30
0.0
 11
755.078461
 21
260.447813
 31
0.0
  0
LINE
  5
2A3
100
AcDbEntity
  8
LAY-4
  6
CONTINUOUS
 62
     3
100
AcDbLine
 10
635.078461
 20
255.447813
 30
0.0
 11
755.078461
 21
255.447813
 31
0.0
  0
LINE
  5
2A4
100
AcDbEntity
  8
LAY-4
  6
CONTINUOUS
 62
     3
100
AcDbLine
 10
657.078461
 20
310.447813
 30
0.0
 11
657.078461
 21
260.447813
 31
0.0
  0
LINE
  5
2A5
100
AcDbEntity
  8
LAY-4
  6
CONTINUOUS
 62
     3
100
AcDbLine
 10
635.078461
 20
260.447813
 30
0.0
 11
635.078461
 21
255.447813
 31
0.0
  0
LINE
  5
2A6
100
AcDbEntity
  8
LAY-4
  6
CONTINUOUS
 62
     3
100
AcDbLine
 10
733.078461
 20
310.447813
 30
0.0
 11
733.078461
 21
260.447813
 31
0.0
  0
LINE
  5
2A7
100
AcDbEntity
  8
LAY-4
  6
CONTINUOUS
 62
     3
100
AcDbLine
 10
755.078461
 20
260.447813
 30
0.0
 11
755.078461
 21
255.447813
 31
0.0
  0
LINE
  5
2A8
100
AcDbEntity
  8
LAY-4
  6
CONTINUOUS
 62
     3
100
AcDbLine
 10
671.078461
 20
310.447813
 30
0.0
 11
671.078461
 21
260.447813
 31
0.0
  0
LINE
  5
2A9
100
AcDbEntity
  8
LAY-4
  6
CONTINUOUS
 62
     3
100
AcDbLine
 10
719.078461
 20
310.447813
 30
0.0
 11
719.078461
 21
260.447813
 31
0.0
  0
LINE
  5
2AA
100
AcDbEntity
  8
LAY-5
  6
DASHDOT
 62
     1
100
AcDbLine
 10
89.72136
 20
330.2
 30
0.0
 11
89.72136
 21
272.5
 31
0.0
  0
LINE
  5
2AB
100
AcDbEntity
  8
LAY-5
  6
DASHDOT
 62
     1
100
AcDbLine
 10
137.72136
 20
309.052078
 30
0.0
 11
121.72136
 21
309.052078
 31
0.0
  0
LINE
  5
2AC
100
AcDbEntity
  8
LAY-5
  6
DASHDOT
 62
     1
100
AcDbLine
 10
129.72136
 20
317.052078
 30
0.0
 11
129.72136
 21
301.052078
 31
0.0
  0
LINE
  5
2AD
100
AcDbEntity
  8
LAY-5
  6
DASHDOT
 62
     1
100
AcDbLine
 10
167.72136
 20
293.052078
 30
0.0
 11
151.72136
 21
293.052078
 31
0.0
  0
LINE
  5
2AE
100
AcDbEntity
  8
LAY-5
  6
DASHDOT
 62
     1
100
AcDbLine
 10
159.72136
 20
301.052078
 30
0.0
 11
159.72136
 21
285.052078
 31
0.0
  0
LINE
  5
2AF
100
AcDbEntity
  8
LAY-5
  6
DASHDOT
 62
     1
100
AcDbLine
 10
270.721344
 20
309.052078
 30
0.0
 11
254.721344
 21
309.052078
 31
0.0
  0
LINE
  5
2B0
100
AcDbEntity
  8
LAY-5
  6
DASHDOT
 62
     1
100
AcDbLine
 10
262.721344
 20
317.052078
 30
0.0
 11
262.721344
 21
301.052078
 31
0.0
  0
LINE
  5
2B1
100
AcDbEntity
  8
LAY-5
  6
DASHDOT
 62
     1
100
AcDbLine
 10
300.721344
 20
293.052078
 30
0.0
 11
284.721344
 21
293.052078
 31
0.0
  0
LINE
  5
2B2
100
AcDbEntity
  8
LAY-5
  6
DASHDOT
 62
     1
100
AcDbLine
 10
292.721344
 20
301.052078
 30
0.0
 11
292.721344
 21
285.052078
 31
0.0
  0
LINE
  5
2B3
100
AcDbEntity
  8
LAY-5
  6
DASHDOT
 62
     1
100
AcDbLine
 10
403.721344
 20
309.052078
 30
0.0
 11
387.721344
 21
309.052078
 31
0.0
  0
LINE
  5
2B4
100
AcDbEntity
  8
LAY-5
  6
DASHDOT
 62
     1
100
AcDbLine
 10
395.721344
 20
317.052078
 30
0.0
 11
395.721344
 21
301.052078
 31
0.0
  0
LINE
  5
2B5
100
AcDbEntity
  8
LAY-5
  6
DASHDOT
 62
     1
100
AcDbLine
 10
433.721344
 20
293.052078
 30
0.0
 11
417.721344
 21
293.052078
 31
0.0
  0
LINE
  5
2B6
100
AcDbEntity
  8
LAY-5
  6
DASHDOT
 62
     1
100
AcDbLine
 10
425.721344
 20
301.052078
 30
0.0
 11
425.721344
 21
285.052078
 31
0.0
  0
LINE
  5
2B7
100
AcDbEntity
  8
LAY-5
  6
DASHDOT
 62
     1
100
AcDbLine
 10
89.721344
 20
431.644196
 30
0.0
 11
89.721344
 21
506.654755
 31
0.0
  0
LINE
  5
2B8
100
AcDbEntity
  8
LAY-5
  6
DASHDOT
 62
     1
100
AcDbLine
 10
169.721406
 20
465.312378
 30
0.0
 11
169.721406
 21
487.8
 31
0.0
  0
LINE
  5
2B9
100
AcDbEntity
  8
LAY-5
  6
DASHDOT
 62
     1
100
AcDbLine
 10
190.72136
 20
464.919556
 30
0.0
 11
190.72136
 21
499.7
 31
0.0
  0
LINE
  5
2BA
100
AcDbEntity
  8
LAY-5
  6
DASHDOT
 62
     1
100
AcDbLine
 10
211.721344
 20
459.498352
 30
0.0
 11
211.721344
 21
478.82608
 31
0.0
  0
LINE
  5
2BB
100
AcDbEntity
  8
LAY-5
  6
DASHDOT
 62
     1
100
AcDbLine
 10
211.721344
 20
459.041229
 30
0.0
 11
211.721344
 21
439.634918
 31
0.0
  0
LINE
  5
2BC
100
AcDbEntity
  8
LAY-5
  6
DASHDOT
 62
     1
100
AcDbLine
 10
198.72136
 20
482.648193
 30
0.0
 11
182.72136
 21
482.648193
 31
0.0
  0
LINE
  5
2BD
100
AcDbEntity
  8
LAY-5
  6
DASHDOT
 62
     1
100
AcDbLine
 10
177.721406
 20
478.648193
 30
0.0
 11
161.721406
 21
478.648193
 31
0.0
  0
LINE
  5
2BE
100
AcDbEntity
  8
LAY-5
  6
DASHDOT
 62
     1
100
AcDbLine
 10
59.721344
 20
459.498352
 30
0.0
 11
59.721344
 21
478.82608
 31
0.0
  0
LINE
  5
2BF
100
AcDbEntity
  8
LAY-5
  6
DASHDOT
 62
     1
100
AcDbLine
 10
59.721344
 20
458.598022
 30
0.0
 11
59.721344
 21
440.070282
 31
0.0
  0
LINE
  5
2C0
100
AcDbEntity
  8
LAY-5
  6
DASHDOT
 62
     1
100
AcDbLine
 10
539.721375
 20
418.161377
 30
0.0
 11
523.721375
 21
418.161377
 31
0.0
  0
LINE
  5
2C1
100
AcDbEntity
  8
LAY-5
  6
DASHDOT
 62
     1
100
AcDbLine
 10
531.721375
 20
426.161377
 30
0.0
 11
531.721375
 21
410.161377
 31
0.0
  0
LINE
  5
2C2
100
AcDbEntity
  8
LAY-5
  6
DASHDOT
 62
     1
100
AcDbLine
 10
539.721375
 20
398.161377
 30
0.0
 11
523.721375
 21
398.161377
 31
0.0
  0
LINE
  5
2C3
100
AcDbEntity
  8
LAY-5
  6
DASHDOT
 62
     1
100
AcDbLine
 10
531.721375
 20
383.161377
 30
0.0
 11
531.721375
 21
406.161377
 31
0.0
  0
LINE
  5
2C4
100
AcDbEntity
  8
LAY-5
  6
DASHDOT
 62
     1
100
AcDbLine
 10
409.721344
 20
426.857605
 30
0.0
 11
409.721344
 21
377.690796
 31
0.0
  0
LINE
  5
2C5
100
AcDbEntity
  8
LAY-5
  6
DASHDOT
 62
     1
100
AcDbLine
 10
362.726655
 20
408.161377
 30
0.0
 11
549.7
 21
408.161377
 31
0.0
  0
LINE
  5
2C6
100
AcDbEntity
  8
LAY-5
  6
DASHDOT
 62
     1
100
AcDbLine
 10
371.721314
 20
398.161316
 30
0.0
 11
387.721314
 21
398.161316
 31
0.0
  0
LINE
  5
2C7
100
AcDbEntity
  8
LAY-5
  6
DASHDOT
 62
     1
100
AcDbLine
 10
379.721314
 20
390.161316
 30
0.0
 11
379.721314
 21
406.161316
 31
0.0
  0
LINE
  5
2C8
100
AcDbEntity
  8
LAY-5
  6
DASHDOT
 62
     1
100
AcDbLine
 10
371.721314
 20
418.161316
 30
0.0
 11
387.721314
 21
418.161316
 31
0.0
  0
LINE
  5
2C9
100
AcDbEntity
  8
LAY-5
  6
DASHDOT
 62
     1
100
AcDbLine
 10
379.721314
 20
427.161316
 30
0.0
 11
379.721314
 21
410.161316
 31
0.0
  0
LINE
  5
2CA
100
AcDbEntity
  8
LAY-5
  6
DASHDOT
 62
     1
100
AcDbLine
 10
409.721344
 20
539.786316
 30
0.0
 11
409.721344
 21
479.984436
 31
0.0
  0
LINE
  5
2CB
100
AcDbEntity
  8
LAY-5
  6
DASHDOT
 62
     1
100
AcDbLine
 10
361.0
 20
514.428711
 30
0.0
 11
556.560029
 21
514.428711
 31
0.0
  0
LINE
  5
2CC
100
AcDbEntity
  8
LAY-5
  6
DASHDOT
 62
     1
100
AcDbLine
 10
539.721344
 20
524.428711
 30
0.0
 11
523.721344
 21
524.428711
 31
0.0
  0
LINE
  5
2CD
100
AcDbEntity
  8
LAY-5
  6
DASHDOT
 62
     1
100
AcDbLine
 10
531.721344
 20
532.428711
 30
0.0
 11
531.721344
 21
516.428711
 31
0.0
  0
LINE
  5
2CE
100
AcDbEntity
  8
LAY-5
  6
DASHDOT
 62
     1
100
AcDbLine
 10
539.721344
 20
504.428711
 30
0.0
 11
523.721344
 21
504.428711
 31
0.0
  0
LINE
  5
2CF
100
AcDbEntity
  8
LAY-5
  6
DASHDOT
 62
     1
100
AcDbLine
 10
531.721344
 20
512.428711
 30
0.0
 11
531.721344
 21
496.428711
 31
0.0
  0
LINE
  5
2D0
100
AcDbEntity
  8
LAY-5
  6
DASHDOT
 62
     1
100
AcDbLine
 10
387.721344
 20
524.42865
 30
0.0
 11
371.721344
 21
524.42865
 31
0.0
  0
LINE
  5
2D1
100
AcDbEntity
  8
LAY-5
  6
DASHDOT
 62
     1
100
AcDbLine
 10
379.721344
 20
532.42865
 30
0.0
 11
379.721344
 21
516.42865
 31
0.0
  0
LINE
  5
2D2
100
AcDbEntity
  8
LAY-5
  6
DASHDOT
 62
     1
100
AcDbLine
 10
387.721344
 20
504.42865
 30
0.0
 11
371.721344
 21
504.42865
 31
0.0
  0
LINE
  5
2D3
100
AcDbEntity
  8
LAY-5
  6
DASHDOT
 62
     1
100
AcDbLine
 10
379.721344
 20
512.42865
 30
0.0
 11
379.721344
 21
496.42865
 31
0.0
  0
LINE
  5
2D4
100
AcDbEntity
  8
LAY-5
  6
DASHDOT
 62
     1
100
AcDbLine
 10
451.200031
 20
301.052078
 30
0.0
 11
51.400031
 21
301.052078
 31
0.0
  0
LINE
  5
2D5
100
AcDbEntity
  8
LAY-5
  6
DASHDOT
 62
     1
100
AcDbLine
 10
119.721344
 20
459.041229
 30
0.0
 11
119.721344
 21
439.634918
 31
0.0
  0
LINE
  5
2D6
100
AcDbEntity
  8
LAY-5
  6
DASHDOT
 62
     1
100
AcDbLine
 10
717.865285
 20
108.265254
 30
0.0
 11
725.715285
 21
100.415254
 31
0.0
  0
LINE
  5
2D7
100
AcDbEntity
  8
LAY-5
  6
DASHDOT
 62
     1
100
AcDbLine
 10
672.365285
 20
153.765254
 30
0.0
 11
664.815285
 21
161.315254
 31
0.0
  0
LINE
  5
2D8
100
AcDbEntity
  8
LAY-5
  6
DASHDOT
 62
     1
100
AcDbLine
 10
717.663207
 20
153.636824
 30
0.0
 11
725.613207
 21
161.586824
 31
0.0
  0
LINE
  5
2D9
100
AcDbEntity
  8
LAY-5
  6
DASHDOT
 62
     1
100
AcDbLine
 10
664.813207
 20
100.786824
 30
0.0
 11
673.013207
 21
108.986824
 31
0.0
  0
ARC
  5
2DA
100
AcDbEntity
  8
LAY-5
  6
DASHDOT
 62
     1
100
AcDbCircle
 10
695.078461
 20
131.052078
 30
0.0
 40
37.5
100
AcDbArc
 50
216.953296
 51
233.051897
  0
ARC
  5
2DB
100
AcDbEntity
  8
LAY-5
  6
DASHDOT
 62
     1
100
AcDbCircle
 10
695.078461
 20
131.052078
 30
0.0
 40
37.5
100
AcDbArc
 50
306.421852
 51
328.677089
  0
ARC
  5
2DC
100
AcDbEntity
  8
LAY-5
  6
DASHDOT
 62
     1
100
AcDbCircle
 10
695.078461
 20
131.052078
 30
0.0
 40
37.5
100
AcDbArc
 50
37.307505
 51
53.025748
  0
ARC
  5
2DD
100
AcDbEntity
  8
LAY-5
  6
DASHDOT
 62
     1
100
AcDbCircle
 10
695.078461
 20
131.052078
 30
0.0
 40
37.5
100
AcDbArc
 50
126.891595
 51
149.060869
  0
LINE
  5
2DE
100
AcDbEntity
  8
LAY-5
  6
DASHDOT
 62
     1
100
AcDbLine
 10
695.078461
 20
483.7
 30
0.0
 11
695.078461
 21
560.714648
 31
0.0
  0
LINE
  5
2DF
100
AcDbEntity
  8
LAY-5
  6
DASHDOT
 62
     1
100
AcDbLine
 10
439.721375
 20
416.161377
 30
0.0
 11
439.721375
 21
400.161377
 31
0.0
  0
LINE
  5
2E0
100
AcDbEntity
  8
LAY-5
  6
DASHDOT
 62
     1
100
AcDbLine
 10
510.721344
 20
524.272888
 30
0.0
 11
510.721344
 21
505.006165
 31
0.0
  0
LINE
  5
2E1
100
AcDbEntity
  8
LAY-5
  6
DASHDOT
 62
     1
100
AcDbLine
 10
489.720521
 20
504.630798
 30
0.0
 11
489.720521
 21
525.649048
 31
0.0
  0
LINE
  5
2E2
100
AcDbEntity
  8
LAY-5
  6
DASHDOT
 62
     1
100
AcDbLine
 10
469.721344
 20
524.272888
 30
0.0
 11
469.721344
 21
505.006165
 31
0.0
  0
LINE
  5
2E3
100
AcDbEntity
  8
LAY-5
  6
DASHDOT
 62
     1
100
AcDbLine
 10
639.500031
 20
131.052078
 30
0.0
 11
768.500031
 21
131.052078
 31
0.0
  0
LINE
  5
2E4
100
AcDbEntity
  8
LAY-5
  6
DASHDOT
 62
     1
100
AcDbLine
 10
695.078461
 20
185.7
 30
0.0
 11
695.078461
 21
74.0
 31
0.0
  0
LINE
  5
2E5
100
AcDbEntity
  8
LAY-5
  6
DASHDOT
 62
     1
100
AcDbLine
 10
262.721344
 20
190.7
 30
0.0
 11
262.721344
 21
159.199646
 31
0.0
  0
LINE
  5
2E6
100
AcDbEntity
  8
LAY-5
  6
DASHDOT
 62
     1
100
AcDbLine
 10
292.721344
 20
190.7
 30
0.0
 11
292.721344
 21
159.199646
 31
0.0
  0
LINE
  5
2E7
100
AcDbEntity
  8
LAY-5
  6
DASHDOT
 62
     1
100
AcDbLine
 10
395.721344
 20
190.7
 30
0.0
 11
395.721344
 21
159.199646
 31
0.0
  0
LINE
  5
2E8
100
AcDbEntity
  8
LAY-5
  6
DASHDOT
 62
     1
100
AcDbLine
 10
425.721344
 20
190.7
 30
0.0
 11
425.721344
 21
159.199646
 31
0.0
  0
LINE
  5
2E9
100
AcDbEntity
  8
LAY-5
  6
DASHDOT
 62
     1
100
AcDbLine
 10
129.721344
 20
191.9
 30
0.0
 11
129.721344
 21
159.199646
 31
0.0
  0
LINE
  5
2EA
100
AcDbEntity
  8
LAY-5
  6
DASHDOT
 62
     1
100
AcDbLine
 10
159.721347
 20
191.9
 30
0.0
 11
159.72136
 21
159.199646
 31
0.0
  0
LINE
  5
2EB
100
AcDbEntity
  8
LAY-5
  6
DASHDOT
 62
     1
100
AcDbLine
 10
89.72136
 20
75.1
 30
0.0
 11
89.72136
 21
192.069122
 31
0.0
  0
LINE
  5
2EC
100
AcDbEntity
  8
LAY-5
  6
DASHDOT
 62
     1
100
AcDbLine
 10
695.078461
 20
251.8
 30
0.0
 11
695.078461
 21
365.0
 31
0.0
  0
LINE
  5
2ED
100
AcDbEntity
  8
LAY-6
  6
CONTINUOUS
 62
     1
100
AcDbLine
 10
49.721337
 20
471.848175
 30
0.0
 11
49.721337
 21
512.7
 31
0.0
  0
LINE
  5
2EE
100
AcDbEntity
  8
LAY-6
  6
CONTINUOUS
 62
     1
100
AcDbLine
 10
69.721337
 20
471.848175
 30
0.0
 11
69.721337
 21
512.7
 31
0.0
  0
TEXT
  5
2EF
100
AcDbEntity
  8
LAY-6
  6
CONTINUOUS
 62
     2
100
AcDbText
 10
55.721337
 20
511.7
 30
0.0
 40
5.0
  1
２０
 41
0.672
  7
EXCADSTD
 72
     5
 11
63.054137
 21
511.7
 31
0.0
100
AcDbText
  0
LINE
  5
2F0
100
AcDbEntity
  8
LAY-6
  6
CONTINUOUS
 62
     1
100
AcDbLine
 10
49.721337
 20
511.2
 30
0.0
 11
69.721337
 21
511.2
 31
0.0
  0
LINE
  5
2F1
100
AcDbEntity
  8
LAY-6
  6
CONTINUOUS
 62
     1
100
AcDbLine
 10
52.721337
 20
511.7
 30
0.0
 11
49.721337
 21
511.2
 31
0.0
  0
LINE
  5
2F2
100
AcDbEntity
  8
LAY-6
  6
CONTINUOUS
 62
     1
100
AcDbLine
 10
49.721337
 20
511.2
 30
0.0
 11
52.721337
 21
510.7
 31
0.0
  0
LINE
  5
2F3
100
AcDbEntity
  8
LAY-6
  6
CONTINUOUS
 62
     1
100
AcDbLine
 10
66.721337
 20
510.7
 30
0.0
 11
69.721337
 21
511.2
 31
0.0
  0
LINE
  5
2F4
100
AcDbEntity
  8
LAY-6
  6
CONTINUOUS
 62
     1
100
AcDbLine
 10
69.721337
 20
511.2
 30
0.0
 11
66.721337
 21
511.7
 31
0.0
  0
LINE
  5
2F5
100
AcDbEntity
  8
LAY-6
  6
CONTINUOUS
 62
     1
100
AcDbLine
 10
89.721344
 20
506.654755
 30
0.0
 11
89.721344
 21
512.7
 31
0.0
  0
TEXT
  5
2F6
100
AcDbEntity
  8
LAY-6
  6
CONTINUOUS
 62
     2
100
AcDbText
 10
75.721341
 20
511.7
 30
0.0
 40
5.0
  1
２０
 41
0.672
  7
EXCADSTD
 72
     5
 11
83.054141
 21
511.7
 31
0.0
100
AcDbText
  0
LINE
  5
2F7
100
AcDbEntity
  8
LAY-6
  6
CONTINUOUS
 62
     1
100
AcDbLine
 10
69.721337
 20
511.2
 30
0.0
 11
89.721344
 21
511.2
 31
0.0
  0
LINE
  5
2F8
100
AcDbEntity
  8
LAY-6
  6
CONTINUOUS
 62
     1
100
AcDbLine
 10
72.721337
 20
511.7
 30
0.0
 11
69.721337
 21
511.2
 31
0.0
  0
LINE
  5
2F9
100
AcDbEntity
  8
LAY-6
  6
CONTINUOUS
 62
     1
100
AcDbLine
 10
69.721337
 20
511.2
 30
0.0
 11
72.721337
 21
510.7
 31
0.0
  0
LINE
  5
2FA
100
AcDbEntity
  8
LAY-6
  6
CONTINUOUS
 62
     1
100
AcDbLine
 10
86.721344
 20
510.7
 30
0.0
 11
89.721344
 21
511.2
 31
0.0
  0
LINE
  5
2FB
100
AcDbEntity
  8
LAY-6
  6
CONTINUOUS
 62
     1
100
AcDbLine
 10
89.721344
 20
511.2
 30
0.0
 11
86.721344
 21
511.7
 31
0.0
  0
LINE
  5
2FC
100
AcDbEntity
  8
LAY-6
  6
CONTINUOUS
 62
     1
100
AcDbLine
 10
49.721344
 20
447.048157
 30
0.0
 11
49.721344
 21
421.699988
 31
0.0
  0
LINE
  5
2FD
100
AcDbEntity
  8
LAY-6
  6
CONTINUOUS
 62
     1
100
AcDbLine
 10
69.721344
 20
447.048157
 30
0.0
 11
69.721344
 21
421.699988
 31
0.0
  0
TEXT
  5
2FE
100
AcDbEntity
  8
LAY-6
  6
CONTINUOUS
 62
     2
100
AcDbText
 10
55.721344
 20
423.699988
 30
0.0
 40
5.0
  1
２０
 41
0.672
  7
EXCADSTD
 72
     5
 11
63.054144
 21
423.699988
 31
0.0
100
AcDbText
  0
LINE
  5
2FF
100
AcDbEntity
  8
LAY-6
  6
CONTINUOUS
 62
     1
100
AcDbLine
 10
49.721344
 20
423.199988
 30
0.0
 11
69.721344
 21
423.199988
 31
0.0
  0
LINE
  5
300
100
AcDbEntity
  8
LAY-6
  6
CONTINUOUS
 62
     1
100
AcDbLine
 10
52.721344
 20
423.699988
 30
0.0
 11
49.721344
 21
423.199988
 31
0.0
  0
LINE
  5
301
100
AcDbEntity
  8
LAY-6
  6
CONTINUOUS
 62
     1
100
AcDbLine
 10
49.721344
 20
423.199988
 30
0.0
 11
52.721344
 21
422.699988
 31
0.0
  0
LINE
  5
302
100
AcDbEntity
  8
LAY-6
  6
CONTINUOUS
 62
     1
100
AcDbLine
 10
66.721344
 20
422.699988
 30
0.0
 11
69.721344
 21
423.199988
 31
0.0
  0
LINE
  5
303
100
AcDbEntity
  8
LAY-6
  6
CONTINUOUS
 62
     1
100
AcDbLine
 10
69.721344
 20
423.199988
 30
0.0
 11
66.721344
 21
423.699988
 31
0.0
  0
LINE
  5
304
100
AcDbEntity
  8
LAY-6
  6
CONTINUOUS
 62
     1
100
AcDbLine
 10
89.721344
 20
431.644196
 30
0.0
 11
89.721344
 21
421.699988
 31
0.0
  0
TEXT
  5
305
100
AcDbEntity
  8
LAY-6
  6
CONTINUOUS
 62
     2
100
AcDbText
 10
75.721344
 20
423.699988
 30
0.0
 40
5.0
  1
２０
 41
0.672
  7
EXCADSTD
 72
     5
 11
83.054144
 21
423.699988
 31
0.0
100
AcDbText
  0
LINE
  5
306
100
AcDbEntity
  8
LAY-6
  6
CONTINUOUS
 62
     1
100
AcDbLine
 10
69.721344
 20
423.199988
 30
0.0
 11
89.721344
 21
423.199988
 31
0.0
  0
LINE
  5
307
100
AcDbEntity
  8
LAY-6
  6
CONTINUOUS
 62
     1
100
AcDbLine
 10
72.721344
 20
423.699988
 30
0.0
 11
69.721344
 21
423.199988
 31
0.0
  0
LINE
  5
308
100
AcDbEntity
  8
LAY-6
  6
CONTINUOUS
 62
     1
100
AcDbLine
 10
69.721344
 20
423.199988
 30
0.0
 11
72.721344
 21
422.699988
 31
0.0
  0
LINE
  5
309
100
AcDbEntity
  8
LAY-6
  6
CONTINUOUS
 62
     1
100
AcDbLine
 10
86.721344
 20
422.699988
 30
0.0
 11
89.721344
 21
423.199988
 31
0.0
  0
LINE
  5
30A
100
AcDbEntity
  8
LAY-6
  6
CONTINUOUS
 62
     1
100
AcDbLine
 10
89.721344
 20
423.199988
 30
0.0
 11
86.721344
 21
423.699988
 31
0.0
  0
LINE
  5
30B
100
AcDbEntity
  8
LAY-6
  6
CONTINUOUS
 62
     1
100
AcDbLine
 10
109.721375
 20
447.048157
 30
0.0
 11
109.721375
 21
421.699988
 31
0.0
  0
TEXT
  5
30C
100
AcDbEntity
  8
LAY-6
  6
CONTINUOUS
 62
     2
100
AcDbText
 10
95.72136
 20
423.699988
 30
0.0
 40
5.0
  1
２０
 41
0.672
  7
EXCADSTD
 72
     5
 11
103.05416
 21
423.699988
 31
0.0
100
AcDbText
  0
LINE
  5
30D
100
AcDbEntity
  8
LAY-6
  6
CONTINUOUS
 62
     1
100
AcDbLine
 10
89.721344
 20
423.199988
 30
0.0
 11
109.721375
 21
423.199988
 31
0.0
  0
LINE
  5
30E
100
AcDbEntity
  8
LAY-6
  6
CONTINUOUS
 62
     1
100
AcDbLine
 10
92.721344
 20
423.699988
 30
0.0
 11
89.721344
 21
423.199988
 31
0.0
  0
LINE
  5
30F
100
AcDbEntity
  8
LAY-6
  6
CONTINUOUS
 62
     1
100
AcDbLine
 10
89.721344
 20
423.199988
 30
0.0
 11
92.721344
 21
422.699988
 31
0.0
  0
LINE
  5
310
100
AcDbEntity
  8
LAY-6
  6
CONTINUOUS
 62
     1
100
AcDbLine
 10
106.721375
 20
422.699988
 30
0.0
 11
109.721375
 21
423.199988
 31
0.0
  0
LINE
  5
311
100
AcDbEntity
  8
LAY-6
  6
CONTINUOUS
 62
     1
100
AcDbLine
 10
109.721375
 20
423.199988
 30
0.0
 11
106.721375
 21
423.699988
 31
0.0
  0
LINE
  5
312
100
AcDbEntity
  8
LAY-6
  6
CONTINUOUS
 62
     1
100
AcDbLine
 10
224.721375
 20
447.048157
 30
0.0
 11
224.721375
 21
421.699988
 31
0.0
  0
TEXT
  5
313
100
AcDbEntity
  8
LAY-6
  6
CONTINUOUS
 62
     2
100
AcDbText
 10
161.221375
 20
423.699988
 30
0.0
 40
5.0
  1
１１５
 41
0.672
  7
EXCADSTD
 72
     5
 11
173.221375
 21
423.699988
 31
0.0
100
AcDbText
  0
LINE
  5
314
100
AcDbEntity
  8
LAY-6
  6
CONTINUOUS
 62
     1
100
AcDbLine
 10
109.721375
 20
423.199988
 30
0.0
 11
224.721375
 21
423.199988
 31
0.0
  0
LINE
  5
315
100
AcDbEntity
  8
LAY-6
  6
CONTINUOUS
 62
     1
100
AcDbLine
 10
112.721375
 20
423.699988
 30
0.0
 11
109.721375
 21
423.199988
 31
0.0
  0
LINE
  5
316
100
AcDbEntity
  8
LAY-6
  6
CONTINUOUS
 62
     1
100
AcDbLine
 10
109.721375
 20
423.199988
 30
0.0
 11
112.721375
 21
422.699988
 31
0.0
  0
LINE
  5
317
100
AcDbEntity
  8
LAY-6
  6
CONTINUOUS
 62
     1
100
AcDbLine
 10
221.721375
 20
422.699988
 30
0.0
 11
224.721375
 21
423.199988
 31
0.0
  0
LINE
  5
318
100
AcDbEntity
  8
LAY-6
  6
CONTINUOUS
 62
     1
100
AcDbLine
 10
224.721375
 20
423.199988
 30
0.0
 11
221.721375
 21
423.699988
 31
0.0
  0
POLYLINE
  5
319
100
AcDbEntity
  8
LAY-6
  6
CONTINUOUS
 62
     1
100
AcDb2dPolyline
 66
     1
 10
0.0
 20
0.0
 30
0.0
 70
   128
  0
VERTEX
  5
31A
100
AcDbEntity
  8
LAY-6
  6
CONTINUOUS
 62
     1
100
AcDbVertex
100
AcDb2dVertex
 10
211.721344
 20
441.948181
 30
0.0
  0
VERTEX
  5
31B
100
AcDbEntity
  8
LAY-6
  6
CONTINUOUS
 62
     1
100
AcDbVertex
100
AcDb2dVertex
 10
236.1
 20
423.299988
 30
0.0
  0
VERTEX
  5
31C
100
AcDbEntity
  8
LAY-6
  6
CONTINUOUS
 62
     1
100
AcDbVertex
100
AcDb2dVertex
 10
283.0
 20
422.5
 30
0.0
  0
SEQEND
  5
31D
100
AcDbEntity
  8
LAY-6
  6
CONTINUOUS
 62
     1
  0
LINE
  5
31E
100
AcDbEntity
  8
LAY-6
  6
CONTINUOUS
 62
     1
100
AcDbLine
 10
214.407933
 20
440.522614
 30
0.0
 11
211.721344
 21
441.948181
 31
0.0
  0
LINE
  5
31F
100
AcDbEntity
  8
LAY-6
  6
CONTINUOUS
 62
     1
100
AcDbLine
 10
211.721344
 20
441.948181
 30
0.0
 11
213.800365
 21
439.728346
 31
0.0
  0
TEXT
  5
320
100
AcDbEntity
  8
LAY-6
  6
CONTINUOUS
 62
     2
100
AcDbText
 10
390.721329
 20
373.0
 30
0.0
 40
5.0
  1
３０
 41
0.672
  7
EXCADSTD
 72
     5
 11
398.054129
 21
373.0
 31
0.0
100
AcDbText
  0
LINE
  5
321
100
AcDbEntity
  8
LAY-6
  6
CONTINUOUS
 62
     1
100
AcDbLine
 10
379.721314
 20
389.661316
 30
0.0
 11
379.721314
 21
371.0
 31
0.0
  0
LINE
  5
322
100
AcDbEntity
  8
LAY-6
  6
CONTINUOUS
 62
     1
100
AcDbLine
 10
409.721344
 20
377.690796
 30
0.0
 11
409.721344
 21
371.0
 31
0.0
  0
LINE
  5
323
100
AcDbEntity
  8
LAY-6
  6
CONTINUOUS
 62
     1
100
AcDbLine
 10
379.721314
 20
372.5
 30
0.0
 11
409.721344
 21
372.5
 31
0.0
  0
LINE
  5
324
100
AcDbEntity
  8
LAY-6
  6
CONTINUOUS
 62
     1
100
AcDbLine
 10
382.721314
 20
373.0
 30
0.0
 11
379.721314
 21
372.5
 31
0.0
  0
LINE
  5
325
100
AcDbEntity
  8
LAY-6
  6
CONTINUOUS
 62
     1
100
AcDbLine
 10
379.721314
 20
372.5
 30
0.0
 11
382.721314
 21
372.0
 31
0.0
  0
LINE
  5
326
100
AcDbEntity
  8
LAY-6
  6
CONTINUOUS
 62
     1
100
AcDbLine
 10
406.721344
 20
372.0
 30
0.0
 11
409.721344
 21
372.5
 31
0.0
  0
LINE
  5
327
100
AcDbEntity
  8
LAY-6
  6
CONTINUOUS
 62
     1
100
AcDbLine
 10
409.721344
 20
372.5
 30
0.0
 11
406.721344
 21
373.0
 31
0.0
  0
LINE
  5
328
100
AcDbEntity
  8
LAY-6
  6
CONTINUOUS
 62
     1
100
AcDbLine
 10
439.721375
 20
400.161377
 30
0.0
 11
439.721375
 21
371.0
 31
0.0
  0
TEXT
  5
329
100
AcDbEntity
  8
LAY-6
  6
CONTINUOUS
 62
     2
100
AcDbText
 10
420.72136
 20
373.0
 30
0.0
 40
5.0
  1
３０
 41
0.672
  7
EXCADSTD
 72
     5
 11
428.05416
 21
373.0
 31
0.0
100
AcDbText
  0
LINE
  5
32A
100
AcDbEntity
  8
LAY-6
  6
CONTINUOUS
 62
     1
100
AcDbLine
 10
409.721344
 20
372.5
 30
0.0
 11
439.721375
 21
372.5
 31
0.0
  0
LINE
  5
32B
100
AcDbEntity
  8
LAY-6
  6
CONTINUOUS
 62
     1
100
AcDbLine
 10
412.721344
 20
373.0
 30
0.0
 11
409.721344
 21
372.5
 31
0.0
  0
LINE
  5
32C
100
AcDbEntity
  8
LAY-6
  6
CONTINUOUS
 62
     1
100
AcDbLine
 10
409.721344
 20
372.5
 30
0.0
 11
412.721344
 21
372.0
 31
0.0
  0
LINE
  5
32D
100
AcDbEntity
  8
LAY-6
  6
CONTINUOUS
 62
     1
100
AcDbLine
 10
436.721375
 20
372.0
 30
0.0
 11
439.721375
 21
372.5
 31
0.0
  0
LINE
  5
32E
100
AcDbEntity
  8
LAY-6
  6
CONTINUOUS
 62
     1
100
AcDbLine
 10
439.721375
 20
372.5
 30
0.0
 11
436.721375
 21
373.0
 31
0.0
  0
LINE
  5
32F
100
AcDbEntity
  8
LAY-6
  6
CONTINUOUS
 62
     1
100
AcDbLine
 10
531.721375
 20
383.161377
 30
0.0
 11
531.721375
 21
371.0
 31
0.0
  0
TEXT
  5
330
100
AcDbEntity
  8
LAY-6
  6
CONTINUOUS
 62
     2
100
AcDbText
 10
481.721375
 20
373.0
 30
0.0
 40
5.0
  1
９２
 41
0.672
  7
EXCADSTD
 72
     5
 11
489.054175
 21
373.0
 31
0.0
100
AcDbText
  0
LINE
  5
331
100
AcDbEntity
  8
LAY-6
  6
CONTINUOUS
 62
     1
100
AcDbLine
 10
439.721375
 20
372.5
 30
0.0
 11
531.721375
 21
372.5
 31
0.0
  0
LINE
  5
332
100
AcDbEntity
  8
LAY-6
  6
CONTINUOUS
 62
     1
100
AcDbLine
 10
442.721375
 20
373.0
 30
0.0
 11
439.721375
 21
372.5
 31
0.0
  0
LINE
  5
333
100
AcDbEntity
  8
LAY-6
  6
CONTINUOUS
 62
     1
100
AcDbLine
 10
439.721375
 20
372.5
 30
0.0
 11
442.721375
 21
372.0
 31
0.0
  0
LINE
  5
334
100
AcDbEntity
  8
LAY-6
  6
CONTINUOUS
 62
     1
100
AcDbLine
 10
528.721375
 20
372.0
 30
0.0
 11
531.721375
 21
372.5
 31
0.0
  0
LINE
  5
335
100
AcDbEntity
  8
LAY-6
  6
CONTINUOUS
 62
     1
100
AcDbLine
 10
531.721375
 20
372.5
 30
0.0
 11
528.721375
 21
373.0
 31
0.0
  0
LINE
  5
336
100
AcDbEntity
  8
LAY-6
  6
CONTINUOUS
 62
     1
100
AcDbLine
 10
369.721344
 20
391.161377
 30
0.0
 11
369.721344
 21
358.8
 31
0.0
  0
LINE
  5
337
100
AcDbEntity
  8
LAY-6
  6
CONTINUOUS
 62
     1
100
AcDbLine
 10
409.721344
 20
377.690796
 30
0.0
 11
409.721344
 21
358.8
 31
0.0
  0
TEXT
  5
338
100
AcDbEntity
  8
LAY-6
  6
CONTINUOUS
 62
     2
100
AcDbText
 10
385.721344
 20
360.8
 30
0.0
 40
5.0
  1
４０
 41
0.672
  7
EXCADSTD
 72
     5
 11
393.054144
 21
360.8
 31
0.0
100
AcDbText
  0
LINE
  5
339
100
AcDbEntity
  8
LAY-6
  6
CONTINUOUS
 62
     1
100
AcDbLine
 10
369.721344
 20
360.3
 30
0.0
 11
409.721344
 21
360.3
 31
0.0
  0
LINE
  5
33A
100
AcDbEntity
  8
LAY-6
  6
CONTINUOUS
 62
     1
100
AcDbLine
 10
372.721344
 20
360.8
 30
0.0
 11
369.721344
 21
360.3
 31
0.0
  0
LINE
  5
33B
100
AcDbEntity
  8
LAY-6
  6
CONTINUOUS
 62
     1
100
AcDbLine
 10
369.721344
 20
360.3
 30
0.0
 11
372.721344
 21
359.8
 31
0.0
  0
LINE
  5
33C
100
AcDbEntity
  8
LAY-6
  6
CONTINUOUS
 62
     1
100
AcDbLine
 10
406.721344
 20
359.8
 30
0.0
 11
409.721344
 21
360.3
 31
0.0
  0
LINE
  5
33D
100
AcDbEntity
  8
LAY-6
  6
CONTINUOUS
 62
     1
100
AcDbLine
 10
409.721344
 20
360.3
 30
0.0
 11
406.721344
 21
360.8
 31
0.0
  0
LINE
  5
33E
100
AcDbEntity
  8
LAY-6
  6
CONTINUOUS
 62
     1
100
AcDbLine
 10
544.721344
 20
391.161377
 30
0.0
 11
544.721344
 21
358.8
 31
0.0
  0
TEXT
  5
33F
100
AcDbEntity
  8
LAY-6
  6
CONTINUOUS
 62
     2
100
AcDbText
 10
471.221344
 20
360.8
 30
0.0
 40
5.0
  1
１３５
 41
0.672
  7
EXCADSTD
 72
     5
 11
483.221344
 21
360.8
 31
0.0
100
AcDbText
  0
LINE
  5
340
100
AcDbEntity
  8
LAY-6
  6
CONTINUOUS
 62
     1
100
AcDbLine
 10
409.721344
 20
360.3
 30
0.0
 11
544.721344
 21
360.3
 31
0.0
  0
LINE
  5
341
100
AcDbEntity
  8
LAY-6
  6
CONTINUOUS
 62
     1
100
AcDbLine
 10
412.721344
 20
360.8
 30
0.0
 11
409.721344
 21
360.3
 31
0.0
  0
LINE
  5
342
100
AcDbEntity
  8
LAY-6
  6
CONTINUOUS
 62
     1
100
AcDbLine
 10
409.721344
 20
360.3
 30
0.0
 11
412.721344
 21
359.8
 31
0.0
  0
LINE
  5
343
100
AcDbEntity
  8
LAY-6
  6
CONTINUOUS
 62
     1
100
AcDbLine
 10
541.721344
 20
359.8
 30
0.0
 11
544.721344
 21
360.3
 31
0.0
  0
LINE
  5
344
100
AcDbEntity
  8
LAY-6
  6
CONTINUOUS
 62
     1
100
AcDbLine
 10
544.721344
 20
360.3
 30
0.0
 11
541.721344
 21
360.8
 31
0.0
  0
LINE
  5
345
100
AcDbEntity
  8
LAY-6
  6
CONTINUOUS
 62
     1
100
AcDbLine
 10
539.721375
 20
418.161377
 30
0.0
 11
560.8
 21
418.161377
 31
0.0
  0
LINE
  5
346
100
AcDbEntity
  8
LAY-6
  6
CONTINUOUS
 62
     1
100
AcDbLine
 10
539.721375
 20
398.161377
 30
0.0
 11
560.8
 21
398.161377
 31
0.0
  0
TEXT
  5
347
100
AcDbEntity
  8
LAY-6
  6
CONTINUOUS
 62
     2
100
AcDbText
 10
558.8
 20
404.161377
 30
0.0
 40
5.0
  1
２０
 50
90.0
 41
0.672
  7
EXCADSTD
 72
     5
 11
558.8
 21
411.494177
 31
0.0
100
AcDbText
  0
LINE
  5
348
100
AcDbEntity
  8
LAY-6
  6
CONTINUOUS
 62
     1
100
AcDbLine
 10
559.3
 20
418.161377
 30
0.0
 11
559.3
 21
398.161377
 31
0.0
  0
LINE
  5
349
100
AcDbEntity
  8
LAY-6
  6
CONTINUOUS
 62
     1
100
AcDbLine
 10
559.8
 20
415.161377
 30
0.0
 11
559.3
 21
418.161377
 31
0.0
  0
LINE
  5
34A
100
AcDbEntity
  8
LAY-6
  6
CONTINUOUS
 62
     1
100
AcDbLine
 10
559.3
 20
418.161377
 30
0.0
 11
558.8
 21
415.161377
 31
0.0
  0
LINE
  5
34B
100
AcDbEntity
  8
LAY-6
  6
CONTINUOUS
 62
     1
100
AcDbLine
 10
558.8
 20
401.161377
 30
0.0
 11
559.3
 21
398.161377
 31
0.0
  0
LINE
  5
34C
100
AcDbEntity
  8
LAY-6
  6
CONTINUOUS
 62
     1
100
AcDbLine
 10
559.3
 20
398.161377
 30
0.0
 11
559.8
 21
401.161377
 31
0.0
  0
LINE
  5
34D
100
AcDbEntity
  8
LAY-6
  6
CONTINUOUS
 62
     1
100
AcDbLine
 10
544.721344
 20
425.161377
 30
0.0
 11
572.7
 21
425.161377
 31
0.0
  0
LINE
  5
34E
100
AcDbEntity
  8
LAY-6
  6
CONTINUOUS
 62
     1
100
AcDbLine
 10
544.721344
 20
391.161377
 30
0.0
 11
572.7
 21
391.161377
 31
0.0
  0
TEXT
  5
34F
100
AcDbEntity
  8
LAY-6
  6
CONTINUOUS
 62
     2
100
AcDbText
 10
570.7
 20
404.161377
 30
0.0
 40
5.0
  1
３４
 50
90.0
 41
0.672
  7
EXCADSTD
 72
     5
 11
570.7
 21
411.494177
 31
0.0
100
AcDbText
  0
LINE
  5
350
100
AcDbEntity
  8
LAY-6
  6
CONTINUOUS
 62
     1
100
AcDbLine
 10
571.2
 20
425.161377
 30
0.0
 11
571.2
 21
391.161377
 31
0.0
  0
LINE
  5
351
100
AcDbEntity
  8
LAY-6
  6
CONTINUOUS
 62
     1
100
AcDbLine
 10
571.7
 20
422.161377
 30
0.0
 11
571.2
 21
425.161377
 31
0.0
  0
LINE
  5
352
100
AcDbEntity
  8
LAY-6
  6
CONTINUOUS
 62
     1
100
AcDbLine
 10
571.2
 20
425.161377
 30
0.0
 11
570.7
 21
422.161377
 31
0.0
  0
LINE
  5
353
100
AcDbEntity
  8
LAY-6
  6
CONTINUOUS
 62
     1
100
AcDbLine
 10
570.7
 20
394.161377
 30
0.0
 11
571.2
 21
391.161377
 31
0.0
  0
LINE
  5
354
100
AcDbEntity
  8
LAY-6
  6
CONTINUOUS
 62
     1
100
AcDbLine
 10
571.2
 20
391.161377
 30
0.0
 11
571.7
 21
394.161377
 31
0.0
  0
TEXT
  5
355
100
AcDbEntity
  8
LAY-6
  6
CONTINUOUS
 62
     2
100
AcDbText
 10
590.9
 20
404.7
 30
0.0
 40
6.0
  1
ドア
 41
0.672
  7
EXCADSTD
 72
     5
 11
599.69936
 21
404.7
 31
0.0
100
AcDbText
  0
LINE
  5
356
100
AcDbEntity
  8
LAY-6
  6
CONTINUOUS
 62
     1
100
AcDbLine
 10
635.078461
 20
255.447813
 30
0.0
 11
635.078461
 21
241.0
 31
0.0
  0
LINE
  5
357
100
AcDbEntity
  8
LAY-6
  6
CONTINUOUS
 62
     1
100
AcDbLine
 10
755.078461
 20
255.447813
 30
0.0
 11
755.078461
 21
241.0
 31
0.0
  0
TEXT
  5
358
100
AcDbEntity
  8
LAY-6
  6
CONTINUOUS
 62
     2
100
AcDbText
 10
687.078461
 20
243.0
 30
0.0
 40
5.0
  1
^J□１２０
 41
0.55808
  7
EXCADSTD
 72
     5
 11
703.078461
 21
243.0
 31
0.0
100
AcDbText
  0
TEXT
  5
359
100
AcDbEntity
  8
LAY-6
  6
CONTINUOUS
 62
     2
100
AcDbText
 10
703.078461
 20
243.0
 30
0.0
 40
5.0
  1
^J
  7
EXCADSTD
 72
     5
 11
703.078461
 21
243.0
 31
0.0
100
AcDbText
  0
LINE
  5
35A
100
AcDbEntity
  8
LAY-6
  6
CONTINUOUS
 62
     1
100
AcDbLine
 10
635.078461
 20
242.5
 30
0.0
 11
755.078461
 21
242.5
 31
0.0
  0
LINE
  5
35B
100
AcDbEntity
  8
LAY-6
  6
CONTINUOUS
 62
     1
100
AcDbLine
 10
638.078461
 20
243.0
 30
0.0
 11
635.078461
 21
242.5
 31
0.0
  0
LINE
  5
35C
100
AcDbEntity
  8
LAY-6
  6
CONTINUOUS
 62
     1
100
AcDbLine
 10
635.078461
 20
242.5
 30
0.0
 11
638.078461
 21
242.0
 31
0.0
  0
LINE
  5
35D
100
AcDbEntity
  8
LAY-6
  6
CONTINUOUS
 62
     1
100
AcDbLine
 10
752.078461
 20
242.0
 30
0.0
 11
755.078461
 21
242.5
 31
0.0
  0
LINE
  5
35E
100
AcDbEntity
  8
LAY-6
  6
CONTINUOUS
 62
     1
100
AcDbLine
 10
755.078461
 20
242.5
 30
0.0
 11
752.078461
 21
243.0
 31
0.0
  0
TEXT
  5
35F
100
AcDbEntity
  8
LAY-6
  6
CONTINUOUS
 62
     2
100
AcDbText
 10
451.5
 20
123.8
 30
0.0
 40
6.0
  1
床面
 41
0.672
  7
EXCADSTD
 72
     5
 11
460.29936
 21
123.8
 31
0.0
100
AcDbText
  0
LINE
  5
360
100
AcDbEntity
  8
LAY-6
  6
CONTINUOUS
 62
     1
100
AcDbLine
 10
194.000031
 20
176.947876
 30
0.0
 11
206.600031
 21
176.947876
 31
0.0
  0
TEXT
  5
361
100
AcDbEntity
  8
LAY-6
  6
CONTINUOUS
 62
     2
100
AcDbText
 10
204.600031
 20
165.447876
 30
0.0
 40
5.0
  1
１５
 50
90.0
 41
0.672
  7
EXCADSTD
 72
     5
 11
204.600031
 21
172.780676
 31
0.0
100
AcDbText
  0
LINE
  5
362
100
AcDbEntity
  8
LAY-6
  6
CONTINUOUS
 62
     1
100
AcDbLine
 10
205.100031
 20
161.947876
 30
0.0
 11
205.100031
 21
176.947876
 31
0.0
  0
LINE
  5
363
100
AcDbEntity
  8
LAY-6
  6
CONTINUOUS
 62
     1
100
AcDbLine
 10
204.600031
 20
164.947876
 30
0.0
 11
205.100031
 21
161.947876
 31
0.0
  0
LINE
  5
364
100
AcDbEntity
  8
LAY-6
  6
CONTINUOUS
 62
     1
100
AcDbLine
 10
205.100031
 20
161.947876
 30
0.0
 11
205.600031
 21
164.947876
 31
0.0
  0
LINE
  5
365
100
AcDbEntity
  8
LAY-6
  6
CONTINUOUS
 62
     1
100
AcDbLine
 10
205.600031
 20
173.947876
 30
0.0
 11
205.100031
 21
176.947876
 31
0.0
  0
LINE
  5
366
100
AcDbEntity
  8
LAY-6
  6
CONTINUOUS
 62
     1
100
AcDbLine
 10
205.100031
 20
176.947876
 30
0.0
 11
204.600031
 21
173.947876
 31
0.0
  0
POLYLINE
  5
367
100
AcDbEntity
  8
LAY-6
  6
CONTINUOUS
 62
     1
100
AcDb2dPolyline
 66
     1
 10
0.0
 20
0.0
 30
0.0
 70
   128
  0
VERTEX
  5
368
100
AcDbEntity
  8
LAY-6
  6
CONTINUOUS
 62
     1
100
AcDbVertex
100
AcDb2dVertex
 10
159.721349
 20
186.947845
 30
0.0
  0
VERTEX
  5
369
100
AcDbEntity
  8
LAY-6
  6
CONTINUOUS
 62
     1
100
AcDbVertex
100
AcDb2dVertex
 10
179.3
 20
206.1
 30
0.0
  0
VERTEX
  5
36A
100
AcDbEntity
  8
LAY-6
  6
CONTINUOUS
 62
     1
100
AcDbVertex
100
AcDb2dVertex
 10
223.2
 20
206.0
 30
0.0
  0
SEQEND
  5
36B
100
AcDbEntity
  8
LAY-6
  6
CONTINUOUS
 62
     1
  0
LINE
  5
36C
100
AcDbEntity
  8
LAY-6
  6
CONTINUOUS
 62
     1
100
AcDbLine
 10
161.51626
 20
189.403104
 30
0.0
 11
159.721349
 21
186.947845
 31
0.0
  0
LINE
  5
36D
100
AcDbEntity
  8
LAY-6
  6
CONTINUOUS
 62
     1
100
AcDbLine
 10
159.721349
 20
186.947845
 30
0.0
 11
162.215538
 21
188.688254
 31
0.0
  0
TEXT
  5
36E
100
AcDbEntity
  8
LAY-6
  6
CONTINUOUS
 62
     2
100
AcDbText
 10
179.8
 20
206.4
 30
0.0
 40
5.0
  1
６－Ｍ６×２５皿小ネジ
 41
0.672
  7
EXCADSTD
 72
     5
 11
223.8
 21
206.4
 31
0.0
100
AcDbText
  0
LINE
  5
36F
100
AcDbEntity
  8
LAY-6
  6
CONTINUOUS
 62
     1
100
AcDbLine
 10
193.400031
 20
318.052078
 30
0.0
 11
195.700031
 21
318.052078
 31
0.0
  0
LINE
  5
370
100
AcDbEntity
  8
LAY-6
  6
CONTINUOUS
 62
     1
100
AcDbLine
 10
192.200031
 20
284.052078
 30
0.0
 11
195.700031
 21
284.052078
 31
0.0
  0
TEXT
  5
371
100
AcDbEntity
  8
LAY-6
  6
CONTINUOUS
 62
     2
100
AcDbText
 10
193.700031
 20
297.052078
 30
0.0
 40
5.0
  1
３４
 50
90.0
 41
0.672
  7
EXCADSTD
 72
     5
 11
193.700031
 21
304.384878
 31
0.0
100
AcDbText
  0
LINE
  5
372
100
AcDbEntity
  8
LAY-6
  6
CONTINUOUS
 62
     1
100
AcDbLine
 10
194.200031
 20
318.052078
 30
0.0
 11
194.200031
 21
284.052078
 31
0.0
  0
LINE
  5
373
100
AcDbEntity
  8
LAY-6
  6
CONTINUOUS
 62
     1
100
AcDbLine
 10
194.700031
 20
315.052078
 30
0.0
 11
194.200031
 21
318.052078
 31
0.0
  0
LINE
  5
374
100
AcDbEntity
  8
LAY-6
  6
CONTINUOUS
 62
     1
100
AcDbLine
 10
194.200031
 20
318.052078
 30
0.0
 11
193.700031
 21
315.052078
 31
0.0
  0
LINE
  5
375
100
AcDbEntity
  8
LAY-6
  6
CONTINUOUS
 62
     1
100
AcDbLine
 10
193.700031
 20
287.052078
 30
0.0
 11
194.200031
 21
284.052078
 31
0.0
  0
LINE
  5
376
100
AcDbEntity
  8
LAY-6
  6
CONTINUOUS
 62
     1
100
AcDbLine
 10
194.200031
 20
284.052078
 30
0.0
 11
194.700031
 21
287.052078
 31
0.0
  0
LINE
  5
377
100
AcDbEntity
  8
LAY-6
  6
CONTINUOUS
 62
     1
100
AcDbLine
 10
59.72136
 20
301.052078
 30
0.0
 11
59.72136
 21
260.4
 31
0.0
  0
LINE
  5
378
100
AcDbEntity
  8
LAY-6
  6
CONTINUOUS
 62
     1
100
AcDbLine
 10
89.72136
 20
272.5
 30
0.0
 11
89.72136
 21
260.4
 31
0.0
  0
TEXT
  5
379
100
AcDbEntity
  8
LAY-6
  6
CONTINUOUS
 62
     2
100
AcDbText
 10
70.72136
 20
262.4
 30
0.0
 40
5.0
  1
３０
 41
0.672
  7
EXCADSTD
 72
     5
 11
78.05416
 21
262.4
 31
0.0
100
AcDbText
  0
LINE
  5
37A
100
AcDbEntity
  8
LAY-6
  6
CONTINUOUS
 62
     1
100
AcDbLine
 10
59.72136
 20
261.9
 30
0.0
 11
89.72136
 21
261.9
 31
0.0
  0
LINE
  5
37B
100
AcDbEntity
  8
LAY-6
  6
CONTINUOUS
 62
     1
100
AcDbLine
 10
62.72136
 20
262.4
 30
0.0
 11
59.72136
 21
261.9
 31
0.0
  0
LINE
  5
37C
100
AcDbEntity
  8
LAY-6
  6
CONTINUOUS
 62
     1
100
AcDbLine
 10
59.72136
 20
261.9
 30
0.0
 11
62.72136
 21
261.4
 31
0.0
  0
LINE
  5
37D
100
AcDbEntity
  8
LAY-6
  6
CONTINUOUS
 62
     1
100
AcDbLine
 10
86.72136
 20
261.4
 30
0.0
 11
89.72136
 21
261.9
 31
0.0
  0
LINE
  5
37E
100
AcDbEntity
  8
LAY-6
  6
CONTINUOUS
 62
     1
100
AcDbLine
 10
89.72136
 20
261.9
 30
0.0
 11
86.72136
 21
262.4
 31
0.0
  0
LINE
  5
37F
100
AcDbEntity
  8
LAY-6
  6
CONTINUOUS
 62
     1
100
AcDbLine
 10
129.72136
 20
301.052078
 30
0.0
 11
129.72136
 21
260.4
 31
0.0
  0
TEXT
  5
380
100
AcDbEntity
  8
LAY-6
  6
CONTINUOUS
 62
     2
100
AcDbText
 10
105.72136
 20
262.4
 30
0.0
 40
5.0
  1
４０
 41
0.672
  7
EXCADSTD
 72
     5
 11
113.05416
 21
262.4
 31
0.0
100
AcDbText
  0
LINE
  5
381
100
AcDbEntity
  8
LAY-6
  6
CONTINUOUS
 62
     1
100
AcDbLine
 10
89.72136
 20
261.9
 30
0.0
 11
129.72136
 21
261.9
 31
0.0
  0
LINE
  5
382
100
AcDbEntity
  8
LAY-6
  6
CONTINUOUS
 62
     1
100
AcDbLine
 10
92.72136
 20
262.4
 30
0.0
 11
89.72136
 21
261.9
 31
0.0
  0
LINE
  5
383
100
AcDbEntity
  8
LAY-6
  6
CONTINUOUS
 62
     1
100
AcDbLine
 10
89.72136
 20
261.9
 30
0.0
 11
92.72136
 21
261.4
 31
0.0
  0
LINE
  5
384
100
AcDbEntity
  8
LAY-6
  6
CONTINUOUS
 62
     1
100
AcDbLine
 10
126.72136
 20
261.4
 30
0.0
 11
129.72136
 21
261.9
 31
0.0
  0
LINE
  5
385
100
AcDbEntity
  8
LAY-6
  6
CONTINUOUS
 62
     1
100
AcDbLine
 10
129.72136
 20
261.9
 30
0.0
 11
126.72136
 21
262.4
 31
0.0
  0
LINE
  5
386
100
AcDbEntity
  8
LAY-6
  6
CONTINUOUS
 62
     1
100
AcDbLine
 10
159.72136
 20
293.052078
 30
0.0
 11
159.72136
 21
260.4
 31
0.0
  0
TEXT
  5
387
100
AcDbEntity
  8
LAY-6
  6
CONTINUOUS
 62
     2
100
AcDbText
 10
140.72136
 20
262.4
 30
0.0
 40
5.0
  1
３０
 41
0.672
  7
EXCADSTD
 72
     5
 11
148.05416
 21
262.4
 31
0.0
100
AcDbText
  0
LINE
  5
388
100
AcDbEntity
  8
LAY-6
  6
CONTINUOUS
 62
     1
100
AcDbLine
 10
129.72136
 20
261.9
 30
0.0
 11
159.72136
 21
261.9
 31
0.0
  0
LINE
  5
389
100
AcDbEntity
  8
LAY-6
  6
CONTINUOUS
 62
     1
100
AcDbLine
 10
132.72136
 20
262.4
 30
0.0
 11
129.72136
 21
261.9
 31
0.0
  0
LINE
  5
38A
100
AcDbEntity
  8
LAY-6
  6
CONTINUOUS
 62
     1
100
AcDbLine
 10
129.72136
 20
261.9
 30
0.0
 11
132.72136
 21
261.4
 31
0.0
  0
LINE
  5
38B
100
AcDbEntity
  8
LAY-6
  6
CONTINUOUS
 62
     1
100
AcDbLine
 10
156.72136
 20
261.4
 30
0.0
 11
159.72136
 21
261.9
 31
0.0
  0
LINE
  5
38C
100
AcDbEntity
  8
LAY-6
  6
CONTINUOUS
 62
     1
100
AcDbLine
 10
159.72136
 20
261.9
 30
0.0
 11
156.72136
 21
262.4
 31
0.0
  0
LINE
  5
38D
100
AcDbEntity
  8
LAY-6
  6
CONTINUOUS
 62
     1
100
AcDbLine
 10
262.721344
 20
309.052078
 30
0.0
 11
262.721344
 21
260.4
 31
0.0
  0
TEXT
  5
38E
100
AcDbEntity
  8
LAY-6
  6
CONTINUOUS
 62
     2
100
AcDbText
 10
205.221352
 20
262.4
 30
0.0
 40
5.0
  1
１０３
 41
0.672
  7
EXCADSTD
 72
     5
 11
217.221352
 21
262.4
 31
0.0
100
AcDbText
  0
LINE
  5
38F
100
AcDbEntity
  8
LAY-6
  6
CONTINUOUS
 62
     1
100
AcDbLine
 10
159.72136
 20
261.9
 30
0.0
 11
262.721344
 21
261.9
 31
0.0
  0
LINE
  5
390
100
AcDbEntity
  8
LAY-6
  6
CONTINUOUS
 62
     1
100
AcDbLine
 10
162.72136
 20
262.4
 30
0.0
 11
159.72136
 21
261.9
 31
0.0
  0
LINE
  5
391
100
AcDbEntity
  8
LAY-6
  6
CONTINUOUS
 62
     1
100
AcDbLine
 10
159.72136
 20
261.9
 30
0.0
 11
162.72136
 21
261.4
 31
0.0
  0
LINE
  5
392
100
AcDbEntity
  8
LAY-6
  6
CONTINUOUS
 62
     1
100
AcDbLine
 10
259.721344
 20
261.4
 30
0.0
 11
262.721344
 21
261.9
 31
0.0
  0
LINE
  5
393
100
AcDbEntity
  8
LAY-6
  6
CONTINUOUS
 62
     1
100
AcDbLine
 10
262.721344
 20
261.9
 30
0.0
 11
259.721344
 21
262.4
 31
0.0
  0
LINE
  5
394
100
AcDbEntity
  8
LAY-6
  6
CONTINUOUS
 62
     1
100
AcDbLine
 10
292.721344
 20
293.052078
 30
0.0
 11
292.721344
 21
260.4
 31
0.0
  0
TEXT
  5
395
100
AcDbEntity
  8
LAY-6
  6
CONTINUOUS
 62
     2
100
AcDbText
 10
273.721344
 20
262.4
 30
0.0
 40
5.0
  1
３０
 41
0.672
  7
EXCADSTD
 72
     5
 11
281.054144
 21
262.4
 31
0.0
100
AcDbText
  0
LINE
  5
396
100
AcDbEntity
  8
LAY-6
  6
CONTINUOUS
 62
     1
100
AcDbLine
 10
262.721344
 20
261.9
 30
0.0
 11
292.721344
 21
261.9
 31
0.0
  0
LINE
  5
397
100
AcDbEntity
  8
LAY-6
  6
CONTINUOUS
 62
     1
100
AcDbLine
 10
265.721344
 20
262.4
 30
0.0
 11
262.721344
 21
261.9
 31
0.0
  0
LINE
  5
398
100
AcDbEntity
  8
LAY-6
  6
CONTINUOUS
 62
     1
100
AcDbLine
 10
262.721344
 20
261.9
 30
0.0
 11
265.721344
 21
261.4
 31
0.0
  0
LINE
  5
399
100
AcDbEntity
  8
LAY-6
  6
CONTINUOUS
 62
     1
100
AcDbLine
 10
289.721344
 20
261.4
 30
0.0
 11
292.721344
 21
261.9
 31
0.0
  0
LINE
  5
39A
100
AcDbEntity
  8
LAY-6
  6
CONTINUOUS
 62
     1
100
AcDbLine
 10
292.721344
 20
261.9
 30
0.0
 11
289.721344
 21
262.4
 31
0.0
  0
LINE
  5
39B
100
AcDbEntity
  8
LAY-6
  6
CONTINUOUS
 62
     1
100
AcDbLine
 10
395.721344
 20
309.052078
 30
0.0
 11
395.721344
 21
260.4
 31
0.0
  0
TEXT
  5
39C
100
AcDbEntity
  8
LAY-6
  6
CONTINUOUS
 62
     2
100
AcDbText
 10
338.221344
 20
262.4
 30
0.0
 40
5.0
  1
１０３
 41
0.672
  7
EXCADSTD
 72
     5
 11
350.221344
 21
262.4
 31
0.0
100
AcDbText
  0
LINE
  5
39D
100
AcDbEntity
  8
LAY-6
  6
CONTINUOUS
 62
     1
100
AcDbLine
 10
292.721344
 20
261.9
 30
0.0
 11
395.721344
 21
261.9
 31
0.0
  0
LINE
  5
39E
100
AcDbEntity
  8
LAY-6
  6
CONTINUOUS
 62
     1
100
AcDbLine
 10
295.721344
 20
262.4
 30
0.0
 11
292.721344
 21
261.9
 31
0.0
  0
LINE
  5
39F
100
AcDbEntity
  8
LAY-6
  6
CONTINUOUS
 62
     1
100
AcDbLine
 10
292.721344
 20
261.9
 30
0.0
 11
295.721344
 21
261.4
 31
0.0
  0
LINE
  5
3A0
100
AcDbEntity
  8
LAY-6
  6
CONTINUOUS
 62
     1
100
AcDbLine
 10
392.721344
 20
261.4
 30
0.0
 11
395.721344
 21
261.9
 31
0.0
  0
LINE
  5
3A1
100
AcDbEntity
  8
LAY-6
  6
CONTINUOUS
 62
     1
100
AcDbLine
 10
395.721344
 20
261.9
 30
0.0
 11
392.721344
 21
262.4
 31
0.0
  0
LINE
  5
3A2
100
AcDbEntity
  8
LAY-6
  6
CONTINUOUS
 62
     1
100
AcDbLine
 10
425.721344
 20
293.052078
 30
0.0
 11
425.721344
 21
260.4
 31
0.0
  0
TEXT
  5
3A3
100
AcDbEntity
  8
LAY-6
  6
CONTINUOUS
 62
     2
100
AcDbText
 10
406.721344
 20
262.4
 30
0.0
 40
5.0
  1
３０
 41
0.672
  7
EXCADSTD
 72
     5
 11
414.054144
 21
262.4
 31
0.0
100
AcDbText
  0
LINE
  5
3A4
100
AcDbEntity
  8
LAY-6
  6
CONTINUOUS
 62
     1
100
AcDbLine
 10
395.721344
 20
261.9
 30
0.0
 11
425.721344
 21
261.9
 31
0.0
  0
LINE
  5
3A5
100
AcDbEntity
  8
LAY-6
  6
CONTINUOUS
 62
     1
100
AcDbLine
 10
398.721344
 20
262.4
 30
0.0
 11
395.721344
 21
261.9
 31
0.0
  0
LINE
  5
3A6
100
AcDbEntity
  8
LAY-6
  6
CONTINUOUS
 62
     1
100
AcDbLine
 10
395.721344
 20
261.9
 30
0.0
 11
398.721344
 21
261.4
 31
0.0
  0
LINE
  5
3A7
100
AcDbEntity
  8
LAY-6
  6
CONTINUOUS
 62
     1
100
AcDbLine
 10
422.721344
 20
261.4
 30
0.0
 11
425.721344
 21
261.9
 31
0.0
  0
LINE
  5
3A8
100
AcDbEntity
  8
LAY-6
  6
CONTINUOUS
 62
     1
100
AcDbLine
 10
425.721344
 20
261.9
 30
0.0
 11
422.721344
 21
262.4
 31
0.0
  0
LINE
  5
3A9
100
AcDbEntity
  8
LAY-6
  6
CONTINUOUS
 62
     1
100
AcDbLine
 10
59.72136
 20
260.4
 30
0.0
 11
59.72136
 21
243.7
 31
0.0
  0
TEXT
  5
3AA
100
AcDbEntity
  8
LAY-6
  6
CONTINUOUS
 62
     2
100
AcDbText
 10
243.721352
 20
245.7
 30
0.0
 40
5.0
  1
３８０
 41
0.672
  7
EXCADSTD
 72
     5
 11
255.721352
 21
245.7
 31
0.0
100
AcDbText
  0
LINE
  5
3AB
100
AcDbEntity
  8
LAY-6
  6
CONTINUOUS
 62
     1
100
AcDbLine
 10
439.721344
 20
245.2
 30
0.0
 11
59.72136
 21
245.2
 31
0.0
  0
LINE
  5
3AC
100
AcDbEntity
  8
LAY-6
  6
CONTINUOUS
 62
     1
100
AcDbLine
 10
436.721344
 20
244.7
 30
0.0
 11
439.721344
 21
245.2
 31
0.0
  0
LINE
  5
3AD
100
AcDbEntity
  8
LAY-6
  6
CONTINUOUS
 62
     1
100
AcDbLine
 10
439.721344
 20
245.2
 30
0.0
 11
436.721344
 21
245.7
 31
0.0
  0
LINE
  5
3AE
100
AcDbEntity
  8
LAY-6
  6
CONTINUOUS
 62
     1
100
AcDbLine
 10
62.72136
 20
245.7
 30
0.0
 11
59.72136
 21
245.2
 31
0.0
  0
LINE
  5
3AF
100
AcDbEntity
  8
LAY-6
  6
CONTINUOUS
 62
     1
100
AcDbLine
 10
59.72136
 20
245.2
 30
0.0
 11
62.72136
 21
244.7
 31
0.0
  0
LINE
  5
3B0
100
AcDbEntity
  8
LAY-6
  6
CONTINUOUS
 62
     1
100
AcDbLine
 10
439.721344
 20
286.052077
 30
0.0
 11
439.721344
 21
243.7
 31
0.0
  0
LINE
  5
3B1
100
AcDbEntity
  8
LAY-6
  6
CONTINUOUS
 62
     1
100
AcDbLine
 10
224.721375
 20
457.948181
 30
0.0
 11
251.952424
 21
457.948181
 31
0.0
  0
LINE
  5
3B2
100
AcDbEntity
  8
LAY-6
  6
CONTINUOUS
 62
     1
100
AcDbLine
 10
224.721375
 20
451.548157
 30
0.0
 11
251.952424
 21
451.548157
 31
0.0
  0
TEXT
  5
3B3
100
AcDbEntity
  8
LAY-6
  6
CONTINUOUS
 62
     2
100
AcDbText
 10
251.452424
 20
438.948169
 30
0.0
 40
5.0
  1
６.４
 50
90.0
 41
0.595556
  7
EXCADSTD
 72
     5
 11
251.452424
 21
448.948169
 31
0.0
100
AcDbText
  0
LINE
  5
3B4
100
AcDbEntity
  8
LAY-6
  6
CONTINUOUS
 62
     1
100
AcDbLine
 10
251.952424
 20
457.948181
 30
0.0
 11
251.952424
 21
451.548157
 31
0.0
  0
LINE
  5
3B5
100
AcDbEntity
  8
LAY-6
  6
CONTINUOUS
 62
     1
100
AcDbLine
 10
252.369091
 20
455.448181
 30
0.0
 11
251.952424
 21
457.948181
 31
0.0
  0
LINE
  5
3B6
100
AcDbEntity
  8
LAY-6
  6
CONTINUOUS
 62
     1
100
AcDbLine
 10
251.952424
 20
457.948181
 30
0.0
 11
251.535757
 21
455.448181
 31
0.0
  0
LINE
  5
3B7
100
AcDbEntity
  8
LAY-6
  6
CONTINUOUS
 62
     1
100
AcDbLine
 10
251.535757
 20
454.048157
 30
0.0
 11
251.952424
 21
451.548157
 31
0.0
  0
LINE
  5
3B8
100
AcDbEntity
  8
LAY-6
  6
CONTINUOUS
 62
     1
100
AcDbLine
 10
251.952424
 20
451.548157
 30
0.0
 11
252.369091
 21
454.048157
 31
0.0
  0
LINE
  5
3B9
100
AcDbEntity
  8
LAY-6
  6
CONTINUOUS
 62
     1
100
AcDbLine
 10
224.721344
 20
467.348206
 30
0.0
 11
253.1
 21
467.348206
 31
0.0
  0
TEXT
  5
3BA
100
AcDbEntity
  8
LAY-6
  6
CONTINUOUS
 62
     2
100
AcDbText
 10
251.252424
 20
467.948193
 30
0.0
 40
5.0
  1
６.４
 50
90.0
 41
0.595556
  7
EXCADSTD
 72
     5
 11
251.252424
 21
477.948193
 31
0.0
100
AcDbText
  0
LINE
  5
3BB
100
AcDbEntity
  8
LAY-6
  6
CONTINUOUS
 62
     1
100
AcDbLine
 10
251.952424
 20
460.948181
 30
0.0
 11
251.952424
 21
467.348206
 31
0.0
  0
LINE
  5
3BC
100
AcDbEntity
  8
LAY-6
  6
CONTINUOUS
 62
     1
100
AcDbLine
 10
251.535757
 20
463.448181
 30
0.0
 11
251.952424
 21
460.948181
 31
0.0
  0
LINE
  5
3BD
100
AcDbEntity
  8
LAY-6
  6
CONTINUOUS
 62
     1
100
AcDbLine
 10
251.952424
 20
460.948181
 30
0.0
 11
252.369091
 21
463.448181
 31
0.0
  0
LINE
  5
3BE
100
AcDbEntity
  8
LAY-6
  6
CONTINUOUS
 62
     1
100
AcDbLine
 10
252.369091
 20
464.848206
 30
0.0
 11
251.952424
 21
467.348206
 31
0.0
  0
LINE
  5
3BF
100
AcDbEntity
  8
LAY-6
  6
CONTINUOUS
 62
     1
100
AcDbLine
 10
251.952424
 20
467.348206
 30
0.0
 11
251.535757
 21
464.848206
 31
0.0
  0
LINE
  5
3C0
100
AcDbEntity
  8
LAY-6
  6
CONTINUOUS
 62
     1
100
AcDbLine
 10
103.721375
 20
500.998169
 30
0.0
 11
133.871644
 21
500.998169
 31
0.0
  0
TEXT
  5
3C1
100
AcDbEntity
  8
LAY-6
  6
CONTINUOUS
 62
     2
100
AcDbText
 10
133.371644
 20
482.873175
 30
0.0
 40
5.0
  1
４０
 50
90.0
 41
0.672
  7
EXCADSTD
 72
     5
 11
133.371644
 21
490.205975
 31
0.0
100
AcDbText
  0
LINE
  5
3C2
100
AcDbEntity
  8
LAY-6
  6
CONTINUOUS
 62
     1
100
AcDbLine
 10
133.871644
 20
500.998169
 30
0.0
 11
133.871644
 21
460.948181
 31
0.0
  0
LINE
  5
3C3
100
AcDbEntity
  8
LAY-6
  6
CONTINUOUS
 62
     1
100
AcDbLine
 10
134.204977
 20
498.998169
 30
0.0
 11
133.871644
 21
500.998169
 31
0.0
  0
LINE
  5
3C4
100
AcDbEntity
  8
LAY-6
  6
CONTINUOUS
 62
     1
100
AcDbLine
 10
133.871644
 20
500.998169
 30
0.0
 11
133.538311
 21
498.998169
 31
0.0
  0
LINE
  5
3C5
100
AcDbEntity
  8
LAY-6
  6
CONTINUOUS
 62
     1
100
AcDbLine
 10
133.538311
 20
462.948181
 30
0.0
 11
133.871644
 21
460.948181
 31
0.0
  0
LINE
  5
3C6
100
AcDbEntity
  8
LAY-6
  6
CONTINUOUS
 62
     1
100
AcDbLine
 10
133.871644
 20
460.948181
 30
0.0
 11
134.204977
 21
462.948181
 31
0.0
  0
LINE
  5
3C7
100
AcDbEntity
  8
LAY-6
  6
CONTINUOUS
 62
     1
100
AcDbLine
 10
101.721344
 20
435.94812
 30
0.0
 11
133.871644
 21
435.94812
 31
0.0
  0
TEXT
  5
3C8
100
AcDbEntity
  8
LAY-6
  6
CONTINUOUS
 62
     2
100
AcDbText
 10
133.671644
 20
438.648151
 30
0.0
 40
5.0
  1
２２
 50
90.0
 41
0.672
  7
EXCADSTD
 72
     5
 11
133.671644
 21
445.980951
 31
0.0
100
AcDbText
  0
LINE
  5
3C9
100
AcDbEntity
  8
LAY-6
  6
CONTINUOUS
 62
     1
100
AcDbLine
 10
133.871644
 20
435.94812
 30
0.0
 11
133.871644
 21
457.948181
 31
0.0
  0
LINE
  5
3CA
100
AcDbEntity
  8
LAY-6
  6
CONTINUOUS
 62
     1
100
AcDbLine
 10
133.538311
 20
437.94812
 30
0.0
 11
133.871644
 21
435.94812
 31
0.0
  0
LINE
  5
3CB
100
AcDbEntity
  8
LAY-6
  6
CONTINUOUS
 62
     1
100
AcDbLine
 10
133.871644
 20
435.94812
 30
0.0
 11
134.204977
 21
437.94812
 31
0.0
  0
LINE
  5
3CC
100
AcDbEntity
  8
LAY-6
  6
CONTINUOUS
 62
     1
100
AcDbLine
 10
134.204977
 20
455.948181
 30
0.0
 11
133.871644
 21
457.948181
 31
0.0
  0
LINE
  5
3CD
100
AcDbEntity
  8
LAY-6
  6
CONTINUOUS
 62
     1
100
AcDbLine
 10
133.871644
 20
457.948181
 30
0.0
 11
133.538311
 21
455.948181
 31
0.0
  0
TEXT
  5
3CE
100
AcDbEntity
  8
LAY-6
  6
CONTINUOUS
 62
     2
100
AcDbText
 10
236.387928
 20
423.595459
 30
0.0
 40
5.0
  1
５－Ｍ６×１６皿小ネジ
 41
0.672
  7
EXCADSTD
 72
     5
 11
280.387928
 21
423.595459
 31
0.0
100
AcDbText
  0
LINE
  5
3CF
100
AcDbEntity
  8
LAY-6
  6
CONTINUOUS
 62
     1
100
AcDbLine
 10
251.952424
 20
467.348206
 30
0.0
 11
251.952424
 21
479.1
 31
0.0
  0
LINE
  5
3D0
100
AcDbEntity
  8
LAY-6
  6
CONTINUOUS
 62
     1
100
AcDbLine
 10
251.952424
 20
451.548157
 30
0.0
 11
251.952424
 21
438.699988
 31
0.0
  0
LINE
  5
3D1
100
AcDbEntity
  8
LAY-6
  6
CONTINUOUS
 62
     1
100
AcDbLine
 10
224.721375
 20
457.948181
 30
0.0
 11
251.952424
 21
457.948181
 31
0.0
  0
TEXT
  5
3D2
100
AcDbEntity
  8
LAY-6
  6
CONTINUOUS
 62
     2
100
AcDbText
 10
632.600031
 20
125.052078
 30
0.0
 40
5.0
  1
□
 50
90.0
 41
0.672
  7
EXCADSTD
 72
     5
 11
632.600031
 21
128.252078
 31
0.0
100
AcDbText
  0
TEXT
  5
3D3
100
AcDbEntity
  8
LAY-6
  6
CONTINUOUS
 62
     2
100
AcDbText
 10
632.600031
 20
129.052078
 30
0.0
 40
5.0
  1
７６
 50
90.0
 41
0.672
  7
EXCADSTD
 72
     5
 11
632.600031
 21
136.384878
 31
0.0
100
AcDbText
  0
LINE
  5
3D4
100
AcDbEntity
  8
LAY-6
  6
CONTINUOUS
 62
     1
100
AcDbLine
 10
670.974519
 20
169.052078
 30
0.0
 11
631.600031
 21
169.052078
 31
0.0
  0
LINE
  5
3D5
100
AcDbEntity
  8
LAY-6
  6
CONTINUOUS
 62
     1
100
AcDbLine
 10
670.974519
 20
93.052078
 30
0.0
 11
631.600031
 21
93.052078
 31
0.0
  0
LINE
  5
3D6
100
AcDbEntity
  8
LAY-6
  6
CONTINUOUS
 62
     1
100
AcDbLine
 10
633.100031
 20
169.052078
 30
0.0
 11
633.100031
 21
93.052078
 31
0.0
  0
LINE
  5
3D7
100
AcDbEntity
  8
LAY-6
  6
CONTINUOUS
 62
     1
100
AcDbLine
 10
633.600031
 20
166.052078
 30
0.0
 11
633.100031
 21
169.052078
 31
0.0
  0
LINE
  5
3D8
100
AcDbEntity
  8
LAY-6
  6
CONTINUOUS
 62
     1
100
AcDbLine
 10
633.100031
 20
169.052078
 30
0.0
 11
632.600031
 21
166.052078
 31
0.0
  0
LINE
  5
3D9
100
AcDbEntity
  8
LAY-6
  6
CONTINUOUS
 62
     1
100
AcDbLine
 10
632.600031
 20
96.052078
 30
0.0
 11
633.100031
 21
93.052078
 31
0.0
  0
LINE
  5
3DA
100
AcDbEntity
  8
LAY-6
  6
CONTINUOUS
 62
     1
100
AcDbLine
 10
633.100031
 20
93.052078
 30
0.0
 11
633.600031
 21
96.052078
 31
0.0
  0
LINE
  5
3DB
100
AcDbEntity
  8
LAY-6
  6
CONTINUOUS
 62
     1
100
AcDbLine
 10
760.078461
 20
176.052078
 30
0.0
 11
783.100031
 21
176.052078
 31
0.0
  0
LINE
  5
3DC
100
AcDbEntity
  8
LAY-6
  6
CONTINUOUS
 62
     1
100
AcDbLine
 10
760.078461
 20
86.052078
 30
0.0
 11
783.100031
 21
86.052078
 31
0.0
  0
TEXT
  5
3DD
100
AcDbEntity
  8
LAY-6
  6
CONTINUOUS
 62
     2
100
AcDbText
 10
781.100031
 20
129.252078
 30
0.0
 40
5.0
  1
９０
 50
90.0
 41
0.672
  7
EXCADSTD
 72
     5
 11
781.100031
 21
136.584878
 31
0.0
100
AcDbText
  0
LINE
  5
3DE
100
AcDbEntity
  8
LAY-6
  6
CONTINUOUS
 62
     1
100
AcDbLine
 10
781.600031
 20
176.052078
 30
0.0
 11
781.600031
 21
86.052078
 31
0.0
  0
LINE
  5
3DF
100
AcDbEntity
  8
LAY-6
  6
CONTINUOUS
 62
     1
100
AcDbLine
 10
782.100031
 20
173.052078
 30
0.0
 11
781.600031
 21
176.052078
 31
0.0
  0
LINE
  5
3E0
100
AcDbEntity
  8
LAY-6
  6
CONTINUOUS
 62
     1
100
AcDbLine
 10
781.600031
 20
176.052078
 30
0.0
 11
781.100031
 21
173.052078
 31
0.0
  0
LINE
  5
3E1
100
AcDbEntity
  8
LAY-6
  6
CONTINUOUS
 62
     1
100
AcDbLine
 10
781.100031
 20
89.052078
 30
0.0
 11
781.600031
 21
86.052078
 31
0.0
  0
LINE
  5
3E2
100
AcDbEntity
  8
LAY-6
  6
CONTINUOUS
 62
     1
100
AcDbLine
 10
781.600031
 20
86.052078
 30
0.0
 11
782.100031
 21
89.052078
 31
0.0
  0
LINE
  5
3E3
100
AcDbEntity
  8
LAY-6
  6
CONTINUOUS
 62
     1
100
AcDbLine
 10
650.078461
 20
86.052078
 30
0.0
 11
650.078461
 21
68.7
 31
0.0
  0
LINE
  5
3E4
100
AcDbEntity
  8
LAY-6
  6
CONTINUOUS
 62
     1
100
AcDbLine
 10
695.078461
 20
74.0
 30
0.0
 11
695.078461
 21
68.7
 31
0.0
  0
TEXT
  5
3E5
100
AcDbEntity
  8
LAY-6
  6
CONTINUOUS
 62
     2
100
AcDbText
 10
668.578461
 20
70.7
 30
0.0
 40
5.0
  1
４５
 41
0.672
  7
EXCADSTD
 72
     5
 11
675.911261
 21
70.7
 31
0.0
100
AcDbText
  0
LINE
  5
3E6
100
AcDbEntity
  8
LAY-6
  6
CONTINUOUS
 62
     1
100
AcDbLine
 10
650.078461
 20
70.2
 30
0.0
 11
695.078461
 21
70.2
 31
0.0
  0
LINE
  5
3E7
100
AcDbEntity
  8
LAY-6
  6
CONTINUOUS
 62
     1
100
AcDbLine
 10
653.078461
 20
70.7
 30
0.0
 11
650.078461
 21
70.2
 31
0.0
  0
LINE
  5
3E8
100
AcDbEntity
  8
LAY-6
  6
CONTINUOUS
 62
     1
100
AcDbLine
 10
650.078461
 20
70.2
 30
0.0
 11
653.078461
 21
69.7
 31
0.0
  0
LINE
  5
3E9
100
AcDbEntity
  8
LAY-6
  6
CONTINUOUS
 62
     1
100
AcDbLine
 10
692.078461
 20
69.7
 30
0.0
 11
695.078461
 21
70.2
 31
0.0
  0
LINE
  5
3EA
100
AcDbEntity
  8
LAY-6
  6
CONTINUOUS
 62
     1
100
AcDbLine
 10
695.078461
 20
70.2
 30
0.0
 11
692.078461
 21
70.7
 31
0.0
  0
LINE
  5
3EB
100
AcDbEntity
  8
LAY-6
  6
CONTINUOUS
 62
     1
100
AcDbLine
 10
760.078461
 20
86.052078
 30
0.0
 11
760.078461
 21
68.7
 31
0.0
  0
TEXT
  5
3EC
100
AcDbEntity
  8
LAY-6
  6
CONTINUOUS
 62
     2
100
AcDbText
 10
723.578461
 20
70.7
 30
0.0
 40
5.0
  1
６５
 41
0.672
  7
EXCADSTD
 72
     5
 11
730.911261
 21
70.7
 31
0.0
100
AcDbText
  0
LINE
  5
3ED
100
AcDbEntity
  8
LAY-6
  6
CONTINUOUS
 62
     1
100
AcDbLine
 10
695.078461
 20
70.2
 30
0.0
 11
760.078461
 21
70.2
 31
0.0
  0
LINE
  5
3EE
100
AcDbEntity
  8
LAY-6
  6
CONTINUOUS
 62
     1
100
AcDbLine
 10
698.078461
 20
70.7
 30
0.0
 11
695.078461
 21
70.2
 31
0.0
  0
LINE
  5
3EF
100
AcDbEntity
  8
LAY-6
  6
CONTINUOUS
 62
     1
100
AcDbLine
 10
695.078461
 20
70.2
 30
0.0
 11
698.078461
 21
69.7
 31
0.0
  0
LINE
  5
3F0
100
AcDbEntity
  8
LAY-6
  6
CONTINUOUS
 62
     1
100
AcDbLine
 10
757.078461
 20
69.7
 30
0.0
 11
760.078461
 21
70.2
 31
0.0
  0
LINE
  5
3F1
100
AcDbEntity
  8
LAY-6
  6
CONTINUOUS
 62
     1
100
AcDbLine
 10
760.078461
 20
70.2
 30
0.0
 11
757.078461
 21
70.7
 31
0.0
  0
LINE
  5
3F2
100
AcDbEntity
  8
LAY-6
  6
CONTINUOUS
 62
     1
100
AcDbLine
 10
650.078461
 20
86.052078
 30
0.0
 11
650.078461
 21
54.1
 31
0.0
  0
LINE
  5
3F3
100
AcDbEntity
  8
LAY-6
  6
CONTINUOUS
 62
     1
100
AcDbLine
 10
760.078461
 20
86.052078
 30
0.0
 11
760.078461
 21
54.1
 31
0.0
  0
TEXT
  5
3F4
100
AcDbEntity
  8
LAY-6
  6
CONTINUOUS
 62
     2
100
AcDbText
 10
699.078461
 20
56.1
 30
0.0
 40
5.0
  1
１１０
 41
0.672
  7
EXCADSTD
 72
     5
 11
711.078461
 21
56.1
 31
0.0
100
AcDbText
  0
LINE
  5
3F5
100
AcDbEntity
  8
LAY-6
  6
CONTINUOUS
 62
     1
100
AcDbLine
 10
650.078461
 20
55.6
 30
0.0
 11
760.078461
 21
55.6
 31
0.0
  0
LINE
  5
3F6
100
AcDbEntity
  8
LAY-6
  6
CONTINUOUS
 62
     1
100
AcDbLine
 10
653.078461
 20
56.1
 30
0.0
 11
650.078461
 21
55.6
 31
0.0
  0
LINE
  5
3F7
100
AcDbEntity
  8
LAY-6
  6
CONTINUOUS
 62
     1
100
AcDbLine
 10
650.078461
 20
55.6
 30
0.0
 11
653.078461
 21
55.1
 31
0.0
  0
LINE
  5
3F8
100
AcDbEntity
  8
LAY-6
  6
CONTINUOUS
 62
     1
100
AcDbLine
 10
757.078461
 20
55.1
 30
0.0
 11
760.078461
 21
55.6
 31
0.0
  0
LINE
  5
3F9
100
AcDbEntity
  8
LAY-6
  6
CONTINUOUS
 62
     1
100
AcDbLine
 10
760.078461
 20
55.6
 30
0.0
 11
757.078461
 21
56.1
 31
0.0
  0
TEXT
  5
3FA
100
AcDbEntity
  8
LAY-6
  6
CONTINUOUS
 62
     2
100
AcDbText
 10
671.439694
 20
115.584701
 30
0.0
 40
5.0
  1
φ
 50
34.292012
 41
0.672
  7
EXCADSTD
 72
     5
 11
674.08346
 21
117.387616
 31
0.0
100
AcDbText
  0
TEXT
  5
3FB
100
AcDbEntity
  8
LAY-6
  6
CONTINUOUS
 62
     2
100
AcDbText
 10
674.744402
 20
117.838345
 30
0.0
 40
5.0
  1
９０
 50
34.292012
 41
0.672
  7
EXCADSTD
 72
     5
 11
680.802591
 21
121.969724
 31
0.0
100
AcDbText
  0
LINE
  5
3FC
100
AcDbEntity
  8
LAY-6
  6
CONTINUOUS
 62
     1
100
AcDbLine
 10
657.900503
 20
105.698589
 30
0.0
 11
732.256419
 21
156.405567
 31
0.0
  0
LINE
  5
3FD
100
AcDbEntity
  8
LAY-6
  6
CONTINUOUS
 62
     1
100
AcDbLine
 10
660.097328
 20
107.80191
 30
0.0
 11
657.900503
 21
105.698589
 31
0.0
  0
LINE
  5
3FE
100
AcDbEntity
  8
LAY-6
  6
CONTINUOUS
 62
     1
100
AcDbLine
 10
657.900503
 20
105.698589
 30
0.0
 11
660.660739
 21
106.975733
 31
0.0
  0
LINE
  5
3FF
100
AcDbEntity
  8
LAY-6
  6
CONTINUOUS
 62
     1
100
AcDbLine
 10
730.059594
 20
154.302246
 30
0.0
 11
732.256419
 21
156.405567
 31
0.0
  0
LINE
  5
400
100
AcDbEntity
  8
LAY-6
  6
CONTINUOUS
 62
     1
100
AcDbLine
 10
732.256419
 20
156.405567
 30
0.0
 11
729.496183
 21
155.128423
 31
0.0
  0
TEXT
  5
401
100
AcDbEntity
  8
LAY-6
  6
CONTINUOUS
 62
     2
100
AcDbText
 10
754.400031
 20
189.1
 30
0.0
 40
5.0
  1
フロアプレート　１．５ｔ
 41
0.672
  7
EXCADSTD
 72
     5
 11
802.400031
 21
189.1
 31
0.0
100
AcDbText
  0
POLYLINE
  5
402
100
AcDbEntity
  8
LAY-6
  6
CONTINUOUS
 62
     1
100
AcDb2dPolyline
 66
     1
 10
0.0
 20
0.0
 30
0.0
 70
   128
  0
VERTEX
  5
403
100
AcDbEntity
  8
LAY-6
  6
CONTINUOUS
 62
     1
100
AcDbVertex
100
AcDb2dVertex
 10
740.900031
 20
176.052078
 30
0.0
  0
VERTEX
  5
404
100
AcDbEntity
  8
LAY-6
  6
CONTINUOUS
 62
     1
100
AcDbVertex
100
AcDb2dVertex
 10
754.000031
 20
189.1
 30
0.0
  0
VERTEX
  5
405
100
AcDbEntity
  8
LAY-6
  6
CONTINUOUS
 62
     1
100
AcDbVertex
100
AcDb2dVertex
 10
802.400031
 20
189.1
 30
0.0
  0
SEQEND
  5
406
100
AcDbEntity
  8
LAY-6
  6
CONTINUOUS
 62
     1
  0
LINE
  5
407
100
AcDbEntity
  8
LAY-6
  6
CONTINUOUS
 62
     1
100
AcDbLine
 10
742.672724
 20
178.523426
 30
0.0
 11
740.900031
 21
176.052078
 31
0.0
  0
LINE
  5
408
100
AcDbEntity
  8
LAY-6
  6
CONTINUOUS
 62
     1
100
AcDbLine
 10
740.900031
 20
176.052078
 30
0.0
 11
743.378421
 21
177.814912
 31
0.0
  0
LINE
  5
409
100
AcDbEntity
  8
LAY-6
  6
CONTINUOUS
 62
     1
100
AcDbLine
 10
51.72136
 20
111.3
 30
0.0
 11
51.72136
 21
108.3
 31
0.0
  0
LINE
  5
40A
100
AcDbEntity
  8
LAY-6
  6
CONTINUOUS
 62
     1
100
AcDbLine
 10
127.72136
 20
110.9
 30
0.0
 11
127.72136
 21
108.3
 31
0.0
  0
TEXT
  5
40B
100
AcDbEntity
  8
LAY-6
  6
CONTINUOUS
 62
     2
100
AcDbText
 10
90.82136
 20
110.4
 30
0.0
 40
5.0
  1
７６
 41
0.672
  7
EXCADSTD
 72
     5
 11
98.15416
 21
110.4
 31
0.0
100
AcDbText
  0
LINE
  5
40C
100
AcDbEntity
  8
LAY-6
  6
CONTINUOUS
 62
     1
100
AcDbLine
 10
51.72136
 20
109.8
 30
0.0
 11
127.72136
 21
109.8
 31
0.0
  0
LINE
  5
40D
100
AcDbEntity
  8
LAY-6
  6
CONTINUOUS
 62
     1
100
AcDbLine
 10
54.72136
 20
110.3
 30
0.0
 11
51.72136
 21
109.8
 31
0.0
  0
LINE
  5
40E
100
AcDbEntity
  8
LAY-6
  6
CONTINUOUS
 62
     1
100
AcDbLine
 10
51.72136
 20
109.8
 30
0.0
 11
54.72136
 21
109.3
 31
0.0
  0
LINE
  5
40F
100
AcDbEntity
  8
LAY-6
  6
CONTINUOUS
 62
     1
100
AcDbLine
 10
124.72136
 20
109.3
 30
0.0
 11
127.72136
 21
109.8
 31
0.0
  0
LINE
  5
410
100
AcDbEntity
  8
LAY-6
  6
CONTINUOUS
 62
     1
100
AcDbLine
 10
127.72136
 20
109.8
 30
0.0
 11
124.72136
 21
110.3
 31
0.0
  0
TEXT
  5
411
100
AcDbEntity
  8
LAY-6
  6
CONTINUOUS
 62
     2
100
AcDbText
 10
84.700031
 20
110.6
 30
0.0
 40
5.0
  1
□
 41
0.672
  7
EXCADSTD
 72
     5
 11
87.900031
 21
110.6
 31
0.0
100
AcDbText
  0
LINE
  5
412
100
AcDbEntity
  8
LAY-6
  6
CONTINUOUS
 62
     1
100
AcDbLine
 10
657.078461
 20
286.299937
 30
0.0
 11
657.078461
 21
283.299937
 31
0.0
  0
LINE
  5
413
100
AcDbEntity
  8
LAY-6
  6
CONTINUOUS
 62
     1
100
AcDbLine
 10
733.078461
 20
285.899937
 30
0.0
 11
733.078461
 21
283.299937
 31
0.0
  0
LINE
  5
414
100
AcDbEntity
  8
LAY-6
  6
CONTINUOUS
 62
     1
100
AcDbLine
 10
657.078461
 20
284.799937
 30
0.0
 11
733.078461
 21
284.799937
 31
0.0
  0
LINE
  5
415
100
AcDbEntity
  8
LAY-6
  6
CONTINUOUS
 62
     1
100
AcDbLine
 10
660.078461
 20
285.299937
 30
0.0
 11
657.078461
 21
284.799937
 31
0.0
  0
LINE
  5
416
100
AcDbEntity
  8
LAY-6
  6
CONTINUOUS
 62
     1
100
AcDbLine
 10
657.078461
 20
284.799937
 30
0.0
 11
660.078461
 21
284.299937
 31
0.0
  0
LINE
  5
417
100
AcDbEntity
  8
LAY-6
  6
CONTINUOUS
 62
     1
100
AcDbLine
 10
730.078461
 20
284.299937
 30
0.0
 11
733.078461
 21
284.799937
 31
0.0
  0
LINE
  5
418
100
AcDbEntity
  8
LAY-6
  6
CONTINUOUS
 62
     1
100
AcDbLine
 10
733.078461
 20
284.799937
 30
0.0
 11
730.078461
 21
285.299937
 31
0.0
  0
TEXT
  5
419
100
AcDbEntity
  8
LAY-6
  6
CONTINUOUS
 62
     2
100
AcDbText
 10
696.178461
 20
285.399937
 30
0.0
 40
5.0
  1
７６
 41
0.672
  7
EXCADSTD
 72
     5
 11
703.511261
 21
285.399937
 31
0.0
100
AcDbText
  0
TEXT
  5
41A
100
AcDbEntity
  8
LAY-6
  6
CONTINUOUS
 62
     2
100
AcDbText
 10
690.057132
 20
285.599937
 30
0.0
 40
5.0
  1
□
 41
0.672
  7
EXCADSTD
 72
     5
 11
693.257132
 21
285.599937
 31
0.0
100
AcDbText
  0
POLYLINE
  5
41B
100
AcDbEntity
  8
LAY-6
  6
CONTINUOUS
 62
     1
100
AcDb2dPolyline
 66
     1
 10
0.0
 20
0.0
 30
0.0
 70
   128
  0
VERTEX
  5
41C
100
AcDbEntity
  8
LAY-6
  6
CONTINUOUS
 62
     1
100
AcDbVertex
100
AcDb2dVertex
 10
652.7
 20
255.447813
 30
0.0
  0
VERTEX
  5
41D
100
AcDbEntity
  8
LAY-6
  6
CONTINUOUS
 62
     1
100
AcDbVertex
100
AcDb2dVertex
 10
639.1
 20
228.3
 30
0.0
  0
VERTEX
  5
41E
100
AcDbEntity
  8
LAY-6
  6
CONTINUOUS
 62
     1
100
AcDbVertex
100
AcDb2dVertex
 10
630.2
 20
228.3
 30
0.0
  0
SEQEND
  5
41F
100
AcDbEntity
  8
LAY-6
  6
CONTINUOUS
 62
     1
  0
LINE
  5
420
100
AcDbEntity
  8
LAY-6
  6
CONTINUOUS
 62
     1
100
AcDbLine
 10
651.803339
 20
252.541613
 30
0.0
 11
652.7
 21
255.447813
 31
0.0
  0
LINE
  5
421
100
AcDbEntity
  8
LAY-6
  6
CONTINUOUS
 62
     1
100
AcDbLine
 10
652.7
 20
255.447813
 30
0.0
 11
650.909256
 21
252.989514
 31
0.0
  0
TEXT
  5
422
100
AcDbEntity
  8
LAY-6
  6
CONTINUOUS
 62
     2
100
AcDbText
 10
630.2
 20
228.3
 30
0.0
 40
5.0
  1
底板
 41
0.672
  7
EXCADSTD
 72
     5
 11
637.5328
 21
228.3
 31
0.0
100
AcDbText
  0
TEXT
  5
423
100
AcDbEntity
  8
LAY-6
  6
CONTINUOUS
 62
     2
100
AcDbText
 10
593.1
 20
302.1
 30
0.0
 40
6.0
  1
床面
 41
0.672
  7
EXCADSTD
 72
     5
 11
601.89936
 21
302.1
 31
0.0
100
AcDbText
  0
TEXT
  5
424
100
AcDbEntity
  8
LAY-6
  6
CONTINUOUS
 62
     2
100
AcDbText
 10
691.078461
 20
368.6
 30
0.0
 40
5.0
  1
３４
 41
0.672
  7
EXCADSTD
 72
     5
 11
698.411261
 21
368.6
 31
0.0
100
AcDbText
  0
LINE
  5
425
100
AcDbEntity
  8
LAY-6
  6
CONTINUOUS
 62
     1
100
AcDbLine
 10
678.078461
 20
368.1
 30
0.0
 11
712.078461
 21
368.1
 31
0.0
  0
LINE
  5
426
100
AcDbEntity
  8
LAY-6
  6
CONTINUOUS
 62
     1
100
AcDbLine
 10
681.078461
 20
368.6
 30
0.0
 11
678.078461
 21
368.1
 31
0.0
  0
LINE
  5
427
100
AcDbEntity
  8
LAY-6
  6
CONTINUOUS
 62
     1
100
AcDbLine
 10
678.078461
 20
368.1
 30
0.0
 11
681.078461
 21
367.6
 31
0.0
  0
LINE
  5
428
100
AcDbEntity
  8
LAY-6
  6
CONTINUOUS
 62
     1
100
AcDbLine
 10
709.078461
 20
367.6
 30
0.0
 11
712.078461
 21
368.1
 31
0.0
  0
LINE
  5
429
100
AcDbEntity
  8
LAY-6
  6
CONTINUOUS
 62
     1
100
AcDbLine
 10
712.078461
 20
368.1
 30
0.0
 11
709.078461
 21
368.6
 31
0.0
  0
LINE
  5
42A
100
AcDbEntity
  8
LAY-6
  6
CONTINUOUS
 62
     1
100
AcDbLine
 10
678.078461
 20
349.947876
 30
0.0
 11
678.078461
 21
369.6
 31
0.0
  0
LINE
  5
42B
100
AcDbEntity
  8
LAY-6
  6
CONTINUOUS
 62
     1
100
AcDbLine
 10
712.078461
 20
349.947876
 30
0.0
 11
712.078461
 21
369.6
 31
0.0
  0
LINE
  5
42C
100
AcDbEntity
  8
LAY-6
  6
CONTINUOUS
 62
     1
100
AcDbLine
 10
717.578461
 20
321.947876
 30
0.0
 11
735.6
 21
321.947876
 31
0.0
  0
TEXT
  5
42D
100
AcDbEntity
  8
LAY-6
  6
CONTINUOUS
 62
     2
100
AcDbText
 10
733.8
 20
495.312347
 30
0.0
 40
5.0
  1
２２
 50
90.0
 41
0.672
  7
EXCADSTD
 72
     5
 11
733.8
 21
502.645147
 31
0.0
100
AcDbText
  0
LINE
  5
42E
100
AcDbEntity
  8
LAY-6
  6
CONTINUOUS
 62
     1
100
AcDbLine
 10
734.3
 20
488.312347
 30
0.0
 11
734.3
 21
510.312347
 31
0.0
  0
LINE
  5
42F
100
AcDbEntity
  8
LAY-6
  6
CONTINUOUS
 62
     1
100
AcDbLine
 10
733.8
 20
491.312347
 30
0.0
 11
734.3
 21
488.312347
 31
0.0
  0
LINE
  5
430
100
AcDbEntity
  8
LAY-6
  6
CONTINUOUS
 62
     1
100
AcDbLine
 10
734.3
 20
488.312347
 30
0.0
 11
734.8
 21
491.312347
 31
0.0
  0
LINE
  5
431
100
AcDbEntity
  8
LAY-6
  6
CONTINUOUS
 62
     1
100
AcDbLine
 10
734.8
 20
507.312347
 30
0.0
 11
734.3
 21
510.312347
 31
0.0
  0
LINE
  5
432
100
AcDbEntity
  8
LAY-6
  6
CONTINUOUS
 62
     1
100
AcDbLine
 10
734.3
 20
510.312347
 30
0.0
 11
733.8
 21
507.312347
 31
0.0
  0
LINE
  5
433
100
AcDbEntity
  8
LAY-6
  6
CONTINUOUS
 62
     1
100
AcDbLine
 10
734.3
 20
513.312335
 30
0.0
 11
734.3
 21
553.262378
 31
0.0
  0
LINE
  5
434
100
AcDbEntity
  8
LAY-6
  6
CONTINUOUS
 62
     1
100
AcDbLine
 10
733.8
 20
516.312335
 30
0.0
 11
734.3
 21
513.312335
 31
0.0
  0
LINE
  5
435
100
AcDbEntity
  8
LAY-6
  6
CONTINUOUS
 62
     1
100
AcDbLine
 10
734.3
 20
513.312335
 30
0.0
 11
734.8
 21
516.312335
 31
0.0
  0
LINE
  5
436
100
AcDbEntity
  8
LAY-6
  6
CONTINUOUS
 62
     1
100
AcDbLine
 10
734.8
 20
550.262378
 30
0.0
 11
734.3
 21
553.262378
 31
0.0
  0
LINE
  5
437
100
AcDbEntity
  8
LAY-6
  6
CONTINUOUS
 62
     1
100
AcDbLine
 10
734.3
 20
553.262378
 30
0.0
 11
733.8
 21
550.262378
 31
0.0
  0
TEXT
  5
438
100
AcDbEntity
  8
LAY-6
  6
CONTINUOUS
 62
     2
100
AcDbText
 10
733.8
 20
529.287356
 30
0.0
 40
5.0
  1
４０
 50
90.0
 41
0.672
  7
EXCADSTD
 72
     5
 11
733.8
 21
536.620157
 31
0.0
100
AcDbText
  0
LINE
  5
439
100
AcDbEntity
  8
LAY-6
  6
CONTINUOUS
 62
     1
100
AcDbLine
 10
735.8
 20
510.312347
 30
0.0
 11
750.2
 21
510.312347
 31
0.0
  0
LINE
  5
43A
100
AcDbEntity
  8
LAY-6
  6
CONTINUOUS
 62
     1
100
AcDbLine
 10
709.078522
 20
553.262378
 30
0.0
 11
735.8
 21
553.262378
 31
0.0
  0
LINE
  5
43B
100
AcDbEntity
  8
LAY-6
  6
CONTINUOUS
 62
     1
100
AcDbLine
 10
707.078461
 20
488.312347
 30
0.0
 11
735.8
 21
488.312347
 31
0.0
  0
LINE
  5
43C
100
AcDbEntity
  8
LAY-6
  6
CONTINUOUS
 62
     1
100
AcDbLine
 10
678.078461
 20
567.5
 30
0.0
 11
712.078461
 21
567.5
 31
0.0
  0
LINE
  5
43D
100
AcDbEntity
  8
LAY-6
  6
CONTINUOUS
 62
     1
100
AcDbLine
 10
681.078461
 20
568.0
 30
0.0
 11
678.078461
 21
567.5
 31
0.0
  0
LINE
  5
43E
100
AcDbEntity
  8
LAY-6
  6
CONTINUOUS
 62
     1
100
AcDbLine
 10
678.078461
 20
567.5
 30
0.0
 11
681.078461
 21
567.0
 31
0.0
  0
LINE
  5
43F
100
AcDbEntity
  8
LAY-6
  6
CONTINUOUS
 62
     1
100
AcDbLine
 10
709.078461
 20
567.0
 30
0.0
 11
712.078461
 21
567.5
 31
0.0
  0
LINE
  5
440
100
AcDbEntity
  8
LAY-6
  6
CONTINUOUS
 62
     1
100
AcDbLine
 10
712.078461
 20
567.5
 30
0.0
 11
709.078461
 21
568.0
 31
0.0
  0
TEXT
  5
441
100
AcDbEntity
  8
LAY-6
  6
CONTINUOUS
 62
     2
100
AcDbText
 10
691.078461
 20
568.0
 30
0.0
 40
5.0
  1
３４
 41
0.672
  7
EXCADSTD
 72
     5
 11
698.411261
 21
568.0
 31
0.0
100
AcDbText
  0
LINE
  5
442
100
AcDbEntity
  8
LAY-6
  6
CONTINUOUS
 62
     1
100
AcDbLine
 10
678.078461
 20
519.712329
 30
0.0
 11
678.078461
 21
569.0
 31
0.0
  0
LINE
  5
443
100
AcDbEntity
  8
LAY-6
  6
CONTINUOUS
 62
     1
100
AcDbLine
 10
712.078461
 20
519.712329
 30
0.0
 11
712.078461
 21
569.0
 31
0.0
  0
LINE
  5
444
100
AcDbEntity
  8
LAY-6
  6
CONTINUOUS
 62
     1
100
AcDbLine
 10
678.078461
 20
473.0
 30
0.0
 11
712.078461
 21
473.0
 31
0.0
  0
LINE
  5
445
100
AcDbEntity
  8
LAY-6
  6
CONTINUOUS
 62
     1
100
AcDbLine
 10
681.078461
 20
473.5
 30
0.0
 11
678.078461
 21
473.0
 31
0.0
  0
LINE
  5
446
100
AcDbEntity
  8
LAY-6
  6
CONTINUOUS
 62
     1
100
AcDbLine
 10
678.078461
 20
473.0
 30
0.0
 11
681.078461
 21
472.5
 31
0.0
  0
LINE
  5
447
100
AcDbEntity
  8
LAY-6
  6
CONTINUOUS
 62
     1
100
AcDbLine
 10
709.078461
 20
472.5
 30
0.0
 11
712.078461
 21
473.0
 31
0.0
  0
LINE
  5
448
100
AcDbEntity
  8
LAY-6
  6
CONTINUOUS
 62
     1
100
AcDbLine
 10
712.078461
 20
473.0
 30
0.0
 11
709.078461
 21
473.5
 31
0.0
  0
TEXT
  5
449
100
AcDbEntity
  8
LAY-6
  6
CONTINUOUS
 62
     2
100
AcDbText
 10
691.078461
 20
473.5
 30
0.0
 40
5.0
  1
３４
 41
0.672
  7
EXCADSTD
 72
     5
 11
698.411261
 21
473.5
 31
0.0
100
AcDbText
  0
LINE
  5
44A
100
AcDbEntity
  8
LAY-6
  6
CONTINUOUS
 62
     1
100
AcDbLine
 10
678.078461
 20
503.812347
 30
0.0
 11
678.078461
 21
471.5
 31
0.0
  0
LINE
  5
44B
100
AcDbEntity
  8
LAY-6
  6
CONTINUOUS
 62
     1
100
AcDbLine
 10
712.078461
 20
503.812347
 30
0.0
 11
712.078461
 21
471.5
 31
0.0
  0
LINE
  5
44C
100
AcDbEntity
  8
LAY-6
  6
CONTINUOUS
 62
     1
100
AcDbLine
 10
672.578461
 20
375.902536
 30
0.0
 11
672.578461
 21
393.3
 31
0.0
  0
LINE
  5
44D
100
AcDbEntity
  8
LAY-6
  6
CONTINUOUS
 62
     1
100
AcDbLine
 10
717.578461
 20
375.902536
 30
0.0
 11
717.578461
 21
393.3
 31
0.0
  0
TEXT
  5
44E
100
AcDbEntity
  8
LAY-6
  6
CONTINUOUS
 62
     2
100
AcDbText
 10
687.078461
 20
392.3
 30
0.0
 40
5.0
  1
４５以上
 41
0.672
  7
EXCADSTD
 72
     5
 11
703.078461
 21
392.3
 31
0.0
100
AcDbText
  0
LINE
  5
44F
100
AcDbEntity
  8
LAY-6
  6
CONTINUOUS
 62
     1
100
AcDbLine
 10
672.578461
 20
391.8
 30
0.0
 11
717.578461
 21
391.8
 31
0.0
  0
LINE
  5
450
100
AcDbEntity
  8
LAY-6
  6
CONTINUOUS
 62
     1
100
AcDbLine
 10
675.578461
 20
392.3
 30
0.0
 11
672.578461
 21
391.8
 31
0.0
  0
LINE
  5
451
100
AcDbEntity
  8
LAY-6
  6
CONTINUOUS
 62
     1
100
AcDbLine
 10
672.578461
 20
391.8
 30
0.0
 11
675.578461
 21
391.3
 31
0.0
  0
LINE
  5
452
100
AcDbEntity
  8
LAY-6
  6
CONTINUOUS
 62
     1
100
AcDbLine
 10
714.578461
 20
391.3
 30
0.0
 11
717.578461
 21
391.8
 31
0.0
  0
LINE
  5
453
100
AcDbEntity
  8
LAY-6
  6
CONTINUOUS
 62
     1
100
AcDbLine
 10
717.578461
 20
391.8
 30
0.0
 11
714.578461
 21
392.3
 31
0.0
  0
TEXT
  5
454
100
AcDbEntity
  8
LAY-6
  6
CONTINUOUS
 62
     2
100
AcDbText
 10
748.0
 20
534.5
 30
0.0
 40
6.0
  1
上枠
 41
0.672
  7
EXCADSTD
 72
     5
 11
756.79936
 21
534.5
 31
0.0
100
AcDbText
  0
TEXT
  5
455
100
AcDbEntity
  8
LAY-6
  6
CONTINUOUS
 62
     2
100
AcDbText
 10
690.9
 20
415.5
 30
0.0
 40
6.0
  1
ドア
 41
0.672
  7
EXCADSTD
 72
     5
 11
699.69936
 21
415.5
 31
0.0
100
AcDbText
  0
TEXT
  5
456
100
AcDbEntity
  8
LAY-6
  6
CONTINUOUS
 62
     2
100
AcDbText
 10
463.1
 20
297.8
 30
0.0
 40
6.0
  1
ドア
 41
0.672
  7
EXCADSTD
 72
     5
 11
471.89936
 21
297.8
 31
0.0
100
AcDbText
  0
LINE
  5
457
100
AcDbEntity
  8
LAY-6
  6
CONTINUOUS
 62
     1
100
AcDbLine
 10
539.721344
 20
524.428711
 30
0.0
 11
567.9
 21
524.428711
 31
0.0
  0
LINE
  5
458
100
AcDbEntity
  8
LAY-6
  6
CONTINUOUS
 62
     1
100
AcDbLine
 10
539.721344
 20
504.428711
 30
0.0
 11
567.9
 21
504.428711
 31
0.0
  0
TEXT
  5
459
100
AcDbEntity
  8
LAY-6
  6
CONTINUOUS
 62
     2
100
AcDbText
 10
565.9
 20
510.428711
 30
0.0
 40
5.0
  1
２０
 50
90.0
 41
0.672
  7
EXCADSTD
 72
     5
 11
565.9
 21
517.761511
 31
0.0
100
AcDbText
  0
LINE
  5
45A
100
AcDbEntity
  8
LAY-6
  6
CONTINUOUS
 62
     1
100
AcDbLine
 10
566.4
 20
524.428711
 30
0.0
 11
566.4
 21
504.428711
 31
0.0
  0
LINE
  5
45B
100
AcDbEntity
  8
LAY-6
  6
CONTINUOUS
 62
     1
100
AcDbLine
 10
566.9
 20
521.428711
 30
0.0
 11
566.4
 21
524.428711
 31
0.0
  0
LINE
  5
45C
100
AcDbEntity
  8
LAY-6
  6
CONTINUOUS
 62
     1
100
AcDbLine
 10
566.4
 20
524.428711
 30
0.0
 11
565.9
 21
521.428711
 31
0.0
  0
LINE
  5
45D
100
AcDbEntity
  8
LAY-6
  6
CONTINUOUS
 62
     1
100
AcDbLine
 10
565.9
 20
507.428711
 30
0.0
 11
566.4
 21
504.428711
 31
0.0
  0
LINE
  5
45E
100
AcDbEntity
  8
LAY-6
  6
CONTINUOUS
 62
     1
100
AcDbLine
 10
566.4
 20
504.428711
 30
0.0
 11
566.9
 21
507.428711
 31
0.0
  0
LINE
  5
45F
100
AcDbEntity
  8
LAY-6
  6
CONTINUOUS
 62
     1
100
AcDbLine
 10
544.721344
 20
531.428711
 30
0.0
 11
580.1
 21
531.428711
 31
0.0
  0
LINE
  5
460
100
AcDbEntity
  8
LAY-6
  6
CONTINUOUS
 62
     1
100
AcDbLine
 10
544.721344
 20
497.428711
 30
0.0
 11
580.1
 21
497.428711
 31
0.0
  0
TEXT
  5
461
100
AcDbEntity
  8
LAY-6
  6
CONTINUOUS
 62
     2
100
AcDbText
 10
578.1
 20
510.428711
 30
0.0
 40
5.0
  1
３４
 50
90.0
 41
0.672
  7
EXCADSTD
 72
     5
 11
578.1
 21
517.761511
 31
0.0
100
AcDbText
  0
LINE
  5
462
100
AcDbEntity
  8
LAY-6
  6
CONTINUOUS
 62
     1
100
AcDbLine
 10
578.6
 20
531.428711
 30
0.0
 11
578.6
 21
497.428711
 31
0.0
  0
LINE
  5
463
100
AcDbEntity
  8
LAY-6
  6
CONTINUOUS
 62
     1
100
AcDbLine
 10
579.1
 20
528.428711
 30
0.0
 11
578.6
 21
531.428711
 31
0.0
  0
LINE
  5
464
100
AcDbEntity
  8
LAY-6
  6
CONTINUOUS
 62
     1
100
AcDbLine
 10
578.6
 20
531.428711
 30
0.0
 11
578.1
 21
528.428711
 31
0.0
  0
LINE
  5
465
100
AcDbEntity
  8
LAY-6
  6
CONTINUOUS
 62
     1
100
AcDbLine
 10
578.1
 20
500.428711
 30
0.0
 11
578.6
 21
497.428711
 31
0.0
  0
LINE
  5
466
100
AcDbEntity
  8
LAY-6
  6
CONTINUOUS
 62
     1
100
AcDbLine
 10
578.6
 20
497.428711
 30
0.0
 11
579.1
 21
500.428711
 31
0.0
  0
LINE
  5
467
100
AcDbEntity
  8
LAY-6
  6
CONTINUOUS
 62
     1
100
AcDbLine
 10
363.721344
 20
534.428711
 30
0.0
 11
348.7
 21
534.428711
 31
0.0
  0
LINE
  5
468
100
AcDbEntity
  8
LAY-6
  6
CONTINUOUS
 62
     1
100
AcDbLine
 10
363.721344
 20
494.428711
 30
0.0
 11
348.7
 21
494.428711
 31
0.0
  0
TEXT
  5
469
100
AcDbEntity
  8
LAY-6
  6
CONTINUOUS
 62
     2
100
AcDbText
 10
349.1
 20
514.728711
 30
0.0
 40
5.0
  1
４０
 50
90.0
 41
0.672
  7
EXCADSTD
 72
     5
 11
349.1
 21
522.061511
 31
0.0
100
AcDbText
  0
LINE
  5
46A
100
AcDbEntity
  8
LAY-6
  6
CONTINUOUS
 62
     1
100
AcDbLine
 10
350.2
 20
534.428711
 30
0.0
 11
350.2
 21
494.428711
 31
0.0
  0
LINE
  5
46B
100
AcDbEntity
  8
LAY-6
  6
CONTINUOUS
 62
     1
100
AcDbLine
 10
350.7
 20
531.428711
 30
0.0
 11
350.2
 21
534.428711
 31
0.0
  0
LINE
  5
46C
100
AcDbEntity
  8
LAY-6
  6
CONTINUOUS
 62
     1
100
AcDbLine
 10
350.2
 20
534.428711
 30
0.0
 11
349.7
 21
531.428711
 31
0.0
  0
LINE
  5
46D
100
AcDbEntity
  8
LAY-6
  6
CONTINUOUS
 62
     1
100
AcDbLine
 10
349.7
 20
497.428711
 30
0.0
 11
350.2
 21
494.428711
 31
0.0
  0
LINE
  5
46E
100
AcDbEntity
  8
LAY-6
  6
CONTINUOUS
 62
     1
100
AcDbLine
 10
350.2
 20
494.428711
 30
0.0
 11
350.7
 21
497.428711
 31
0.0
  0
TEXT
  5
46F
100
AcDbEntity
  8
LAY-6
  6
CONTINUOUS
 62
     2
100
AcDbText
 10
385.821344
 20
543.3
 30
0.0
 40
5.0
  1
４６
 41
0.672
  7
EXCADSTD
 72
     5
 11
393.154144
 21
543.3
 31
0.0
100
AcDbText
  0
LINE
  5
470
100
AcDbEntity
  8
LAY-6
  6
CONTINUOUS
 62
     1
100
AcDbLine
 10
409.721344
 20
539.786316
 30
0.0
 11
409.721344
 21
544.3
 31
0.0
  0
LINE
  5
471
100
AcDbEntity
  8
LAY-6
  6
CONTINUOUS
 62
     1
100
AcDbLine
 10
363.721344
 20
542.8
 30
0.0
 11
409.721344
 21
542.8
 31
0.0
  0
LINE
  5
472
100
AcDbEntity
  8
LAY-6
  6
CONTINUOUS
 62
     1
100
AcDbLine
 10
366.721344
 20
543.3
 30
0.0
 11
363.721344
 21
542.8
 31
0.0
  0
LINE
  5
473
100
AcDbEntity
  8
LAY-6
  6
CONTINUOUS
 62
     1
100
AcDbLine
 10
363.721344
 20
542.8
 30
0.0
 11
366.721344
 21
542.3
 31
0.0
  0
LINE
  5
474
100
AcDbEntity
  8
LAY-6
  6
CONTINUOUS
 62
     1
100
AcDbLine
 10
406.721344
 20
542.3
 30
0.0
 11
409.721344
 21
542.8
 31
0.0
  0
LINE
  5
475
100
AcDbEntity
  8
LAY-6
  6
CONTINUOUS
 62
     1
100
AcDbLine
 10
409.721344
 20
542.8
 30
0.0
 11
406.721344
 21
543.3
 31
0.0
  0
TEXT
  5
476
100
AcDbEntity
  8
LAY-6
  6
CONTINUOUS
 62
     2
100
AcDbText
 10
474.221344
 20
543.3
 30
0.0
 40
5.0
  1
１４１
 41
0.672
  7
EXCADSTD
 72
     5
 11
486.221344
 21
543.3
 31
0.0
100
AcDbText
  0
LINE
  5
477
100
AcDbEntity
  8
LAY-6
  6
CONTINUOUS
 62
     1
100
AcDbLine
 10
409.721344
 20
542.8
 30
0.0
 11
550.721344
 21
542.8
 31
0.0
  0
LINE
  5
478
100
AcDbEntity
  8
LAY-6
  6
CONTINUOUS
 62
     1
100
AcDbLine
 10
412.721344
 20
543.3
 30
0.0
 11
409.721344
 21
542.8
 31
0.0
  0
LINE
  5
479
100
AcDbEntity
  8
LAY-6
  6
CONTINUOUS
 62
     1
100
AcDbLine
 10
409.721344
 20
542.8
 30
0.0
 11
412.721344
 21
542.3
 31
0.0
  0
LINE
  5
47A
100
AcDbEntity
  8
LAY-6
  6
CONTINUOUS
 62
     1
100
AcDbLine
 10
547.721344
 20
542.3
 30
0.0
 11
550.721344
 21
542.8
 31
0.0
  0
LINE
  5
47B
100
AcDbEntity
  8
LAY-6
  6
CONTINUOUS
 62
     1
100
AcDbLine
 10
550.721344
 20
542.8
 30
0.0
 11
547.721344
 21
543.3
 31
0.0
  0
TEXT
  5
47C
100
AcDbEntity
  8
LAY-6
  6
CONTINUOUS
 62
     2
100
AcDbText
 10
390.721344
 20
483.3
 30
0.0
 40
5.0
  1
３０
 41
0.672
  7
EXCADSTD
 72
     5
 11
398.054144
 21
483.3
 31
0.0
100
AcDbText
  0
LINE
  5
47D
100
AcDbEntity
  8
LAY-6
  6
CONTINUOUS
 62
     1
100
AcDbLine
 10
379.721344
 20
495.92865
 30
0.0
 11
379.721344
 21
481.3
 31
0.0
  0
LINE
  5
47E
100
AcDbEntity
  8
LAY-6
  6
CONTINUOUS
 62
     1
100
AcDbLine
 10
409.721344
 20
479.984436
 30
0.0
 11
409.721344
 21
484.3
 31
0.0
  0
LINE
  5
47F
100
AcDbEntity
  8
LAY-6
  6
CONTINUOUS
 62
     1
100
AcDbLine
 10
379.721344
 20
482.8
 30
0.0
 11
409.721344
 21
482.8
 31
0.0
  0
LINE
  5
480
100
AcDbEntity
  8
LAY-6
  6
CONTINUOUS
 62
     1
100
AcDbLine
 10
382.721344
 20
483.3
 30
0.0
 11
379.721344
 21
482.8
 31
0.0
  0
LINE
  5
481
100
AcDbEntity
  8
LAY-6
  6
CONTINUOUS
 62
     1
100
AcDbLine
 10
379.721344
 20
482.8
 30
0.0
 11
382.721344
 21
482.3
 31
0.0
  0
LINE
  5
482
100
AcDbEntity
  8
LAY-6
  6
CONTINUOUS
 62
     1
100
AcDbLine
 10
406.721344
 20
482.3
 30
0.0
 11
409.721344
 21
482.8
 31
0.0
  0
LINE
  5
483
100
AcDbEntity
  8
LAY-6
  6
CONTINUOUS
 62
     1
100
AcDbLine
 10
409.721344
 20
482.8
 30
0.0
 11
406.721344
 21
483.3
 31
0.0
  0
LINE
  5
484
100
AcDbEntity
  8
LAY-6
  6
CONTINUOUS
 62
     1
100
AcDbLine
 10
531.721375
 20
504.428711
 30
0.0
 11
531.721375
 21
481.3
 31
0.0
  0
TEXT
  5
485
100
AcDbEntity
  8
LAY-6
  6
CONTINUOUS
 62
     2
100
AcDbText
 10
464.72136
 20
483.3
 30
0.0
 40
5.0
  1
１２２
 41
0.672
  7
EXCADSTD
 72
     5
 11
476.72136
 21
483.3
 31
0.0
100
AcDbText
  0
LINE
  5
486
100
AcDbEntity
  8
LAY-6
  6
CONTINUOUS
 62
     1
100
AcDbLine
 10
409.721344
 20
482.8
 30
0.0
 11
531.721375
 21
482.8
 31
0.0
  0
LINE
  5
487
100
AcDbEntity
  8
LAY-6
  6
CONTINUOUS
 62
     1
100
AcDbLine
 10
412.721344
 20
483.3
 30
0.0
 11
409.721344
 21
482.8
 31
0.0
  0
LINE
  5
488
100
AcDbEntity
  8
LAY-6
  6
CONTINUOUS
 62
     1
100
AcDbLine
 10
409.721344
 20
482.8
 30
0.0
 11
412.721344
 21
482.3
 31
0.0
  0
LINE
  5
489
100
AcDbEntity
  8
LAY-6
  6
CONTINUOUS
 62
     1
100
AcDbLine
 10
528.721375
 20
482.3
 30
0.0
 11
531.721375
 21
482.8
 31
0.0
  0
LINE
  5
48A
100
AcDbEntity
  8
LAY-6
  6
CONTINUOUS
 62
     1
100
AcDbLine
 10
531.721375
 20
482.8
 30
0.0
 11
528.721375
 21
483.3
 31
0.0
  0
LINE
  5
48B
100
AcDbEntity
  8
LAY-6
  6
CONTINUOUS
 62
     1
100
AcDbLine
 10
369.721344
 20
497.428711
 30
0.0
 11
369.721344
 21
470.6
 31
0.0
  0
LINE
  5
48C
100
AcDbEntity
  8
LAY-6
  6
CONTINUOUS
 62
     1
100
AcDbLine
 10
409.721344
 20
479.984436
 30
0.0
 11
409.721344
 21
470.6
 31
0.0
  0
TEXT
  5
48D
100
AcDbEntity
  8
LAY-6
  6
CONTINUOUS
 62
     2
100
AcDbText
 10
385.721344
 20
472.6
 30
0.0
 40
5.0
  1
４０
 41
0.672
  7
EXCADSTD
 72
     5
 11
393.054144
 21
472.6
 31
0.0
100
AcDbText
  0
LINE
  5
48E
100
AcDbEntity
  8
LAY-6
  6
CONTINUOUS
 62
     1
100
AcDbLine
 10
369.721344
 20
472.1
 30
0.0
 11
409.721344
 21
472.1
 31
0.0
  0
LINE
  5
48F
100
AcDbEntity
  8
LAY-6
  6
CONTINUOUS
 62
     1
100
AcDbLine
 10
372.721344
 20
472.6
 30
0.0
 11
369.721344
 21
472.1
 31
0.0
  0
LINE
  5
490
100
AcDbEntity
  8
LAY-6
  6
CONTINUOUS
 62
     1
100
AcDbLine
 10
369.721344
 20
472.1
 30
0.0
 11
372.721344
 21
471.6
 31
0.0
  0
LINE
  5
491
100
AcDbEntity
  8
LAY-6
  6
CONTINUOUS
 62
     1
100
AcDbLine
 10
406.721344
 20
471.6
 30
0.0
 11
409.721344
 21
472.1
 31
0.0
  0
LINE
  5
492
100
AcDbEntity
  8
LAY-6
  6
CONTINUOUS
 62
     1
100
AcDbLine
 10
409.721344
 20
472.1
 30
0.0
 11
406.721344
 21
472.6
 31
0.0
  0
TEXT
  5
493
100
AcDbEntity
  8
LAY-6
  6
CONTINUOUS
 62
     2
100
AcDbText
 10
471.221344
 20
472.6
 30
0.0
 40
5.0
  1
１３５
 41
0.672
  7
EXCADSTD
 72
     5
 11
483.221344
 21
472.6
 31
0.0
100
AcDbText
  0
LINE
  5
494
100
AcDbEntity
  8
LAY-6
  6
CONTINUOUS
 62
     1
100
AcDbLine
 10
409.721344
 20
472.1
 30
0.0
 11
544.721344
 21
472.1
 31
0.0
  0
LINE
  5
495
100
AcDbEntity
  8
LAY-6
  6
CONTINUOUS
 62
     1
100
AcDbLine
 10
412.721344
 20
472.6
 30
0.0
 11
409.721344
 21
472.1
 31
0.0
  0
LINE
  5
496
100
AcDbEntity
  8
LAY-6
  6
CONTINUOUS
 62
     1
100
AcDbLine
 10
409.721344
 20
472.1
 30
0.0
 11
412.721344
 21
471.6
 31
0.0
  0
LINE
  5
497
100
AcDbEntity
  8
LAY-6
  6
CONTINUOUS
 62
     1
100
AcDbLine
 10
541.721344
 20
471.6
 30
0.0
 11
544.721344
 21
472.1
 31
0.0
  0
LINE
  5
498
100
AcDbEntity
  8
LAY-6
  6
CONTINUOUS
 62
     1
100
AcDbLine
 10
544.721344
 20
472.1
 30
0.0
 11
541.721344
 21
472.6
 31
0.0
  0
LINE
  5
499
100
AcDbEntity
  8
LAY-6
  6
CONTINUOUS
 62
     1
100
AcDbLine
 10
544.721344
 20
497.428711
 30
0.0
 11
544.721344
 21
470.6
 31
0.0
  0
TEXT
  5
49A
100
AcDbEntity
  8
LAY-6
  6
CONTINUOUS
 62
     2
100
AcDbText
 10
506.8
 20
554.2
 30
0.0
 40
5.0
  1
トッププレート　０.８ｔ
 41
0.654222
  7
EXCADSTD
 72
     5
 11
552.8
 21
554.2
 31
0.0
100
AcDbText
  0
POLYLINE
  5
49B
100
AcDbEntity
  8
LAY-6
  6
CONTINUOUS
 62
     1
100
AcDb2dPolyline
 66
     1
 10
0.0
 20
0.0
 30
0.0
 70
   128
  0
VERTEX
  5
49C
100
AcDbEntity
  8
LAY-6
  6
CONTINUOUS
 62
     1
100
AcDbVertex
100
AcDb2dVertex
 10
494.5
 20
534.428711
 30
0.0
  0
VERTEX
  5
49D
100
AcDbEntity
  8
LAY-6
  6
CONTINUOUS
 62
     1
100
AcDbVertex
100
AcDb2dVertex
 10
506.4
 20
554.2
 30
0.0
  0
VERTEX
  5
49E
100
AcDbEntity
  8
LAY-6
  6
CONTINUOUS
 62
     1
100
AcDbVertex
100
AcDb2dVertex
 10
553.0
 20
554.2
 30
0.0
  0
SEQEND
  5
49F
100
AcDbEntity
  8
LAY-6
  6
CONTINUOUS
 62
     1
  0
LINE
  5
4A0
100
AcDbEntity
  8
LAY-6
  6
CONTINUOUS
 62
     1
100
AcDbLine
 10
495.618654
 20
537.256893
 30
0.0
 11
494.5
 21
534.428711
 31
0.0
  0
LINE
  5
4A1
100
AcDbEntity
  8
LAY-6
  6
CONTINUOUS
 62
     1
100
AcDbLine
 10
494.5
 20
534.428711
 30
0.0
 11
496.475435
 21
536.741211
 31
0.0
  0
INSERT
  5
4A2
100
AcDbEntity
  8
LAY-6
  6
CONTINUOUS
 62
     0
100
AcDbBlockReference
  2
SYM-1
 10
347.6
 20
511.0
 30
0.0
 50
90.0
  0
INSERT
  5
4A3
100
AcDbEntity
  8
LAY-6
  6
CONTINUOUS
 62
     0
100
AcDbBlockReference
  2
SYM-2
 10
328.0
 20
447.0
 30
0.0
  0
INSERT
  5
4A4
100
AcDbEntity
  8
LAY-6
  6
CONTINUOUS
 62
     0
100
AcDbBlockReference
  2
SYM-3
 10
29.0
 20
343.0
 30
0.0
  0
CIRCLE
  5
4A5
100
AcDbEntity
  8
LAY-6
  6
CONTINUOUS
 62
     1
100
AcDbCircle
 10
660.6
 20
550.1
 30
0.0
 40
4.0
  0
POLYLINE
  5
4A6
100
AcDbEntity
  8
LAY-6
  6
CONTINUOUS
 62
     1
100
AcDb2dPolyline
 66
     1
 10
0.0
 20
0.0
 30
0.0
 70
   128
  0
VERTEX
  5
4A7
100
AcDbEntity
  8
LAY-6
  6
CONTINUOUS
 62
     1
100
AcDbVertex
100
AcDb2dVertex
 10
681.078522
 20
541.7
 30
0.0
  0
VERTEX
  5
4A8
100
AcDbEntity
  8
LAY-6
  6
CONTINUOUS
 62
     1
100
AcDbVertex
100
AcDb2dVertex
 10
664.300766
 20
548.581998
 30
0.0
  0
SEQEND
  5
4A9
100
AcDbEntity
  8
LAY-6
  6
CONTINUOUS
 62
     1
  0
LINE
  5
4AA
100
AcDbEntity
  8
LAY-6
  6
CONTINUOUS
 62
     1
100
AcDbLine
 10
678.113197
 20
542.375906
 30
0.0
 11
681.078522
 21
541.7
 31
0.0
  0
LINE
  5
4AB
100
AcDbEntity
  8
LAY-6
  6
CONTINUOUS
 62
     1
100
AcDbLine
 10
681.078522
 20
541.7
 30
0.0
 11
678.492698
 21
543.301097
 31
0.0
  0
TEXT
  5
4AC
100
AcDbEntity
  8
LAY-6
  6
CONTINUOUS
 62
     2
100
AcDbText
 10
657.771573
 20
547.271573
 30
0.0
 40
5.656854
  1
１
 41
0.84
  7
EXCADSTD
 72
     5
 11
662.297056
 21
547.271573
 31
0.0
100
AcDbText
  0
CIRCLE
  5
4AD
100
AcDbEntity
  8
LAY-6
  6
CONTINUOUS
 62
     1
100
AcDbCircle
 10
660.6
 20
491.7
 30
0.0
 40
4.0
  0
POLYLINE
  5
4AE
100
AcDbEntity
  8
LAY-6
  6
CONTINUOUS
 62
     1
100
AcDb2dPolyline
 66
     1
 10
0.0
 20
0.0
 30
0.0
 70
   128
  0
VERTEX
  5
4AF
100
AcDbEntity
  8
LAY-6
  6
CONTINUOUS
 62
     1
100
AcDbVertex
100
AcDb2dVertex
 10
680.078461
 20
499.1
 30
0.0
  0
VERTEX
  5
4B0
100
AcDbEntity
  8
LAY-6
  6
CONTINUOUS
 62
     1
100
AcDbVertex
100
AcDb2dVertex
 10
664.33925
 20
493.120567
 30
0.0
  0
SEQEND
  5
4B1
100
AcDbEntity
  8
LAY-6
  6
CONTINUOUS
 62
     1
  0
LINE
  5
4B2
100
AcDbEntity
  8
LAY-6
  6
CONTINUOUS
 62
     1
100
AcDbLine
 10
677.451594
 20
497.567169
 30
0.0
 11
680.078461
 21
499.1
 31
0.0
  0
LINE
  5
4B3
100
AcDbEntity
  8
LAY-6
  6
CONTINUOUS
 62
     1
100
AcDbLine
 10
680.078461
 20
499.1
 30
0.0
 11
677.096453
 21
498.501981
 31
0.0
  0
TEXT
  5
4B4
100
AcDbEntity
  8
LAY-6
  6
CONTINUOUS
 62
     2
100
AcDbText
 10
657.771573
 20
488.871573
 30
0.0
 40
5.656854
  1
２
 41
0.84
  7
EXCADSTD
 72
     5
 11
662.297056
 21
488.871573
 31
0.0
100
AcDbText
  0
CIRCLE
  5
4B5
100
AcDbEntity
  8
LAY-6
  6
CONTINUOUS
 62
     1
100
AcDbCircle
 10
658.6
 20
344.1
 30
0.0
 40
4.0
  0
POLYLINE
  5
4B6
100
AcDbEntity
  8
LAY-6
  6
CONTINUOUS
 62
     1
100
AcDb2dPolyline
 66
     1
 10
0.0
 20
0.0
 30
0.0
 70
   128
  0
VERTEX
  5
4B7
100
AcDbEntity
  8
LAY-6
  6
CONTINUOUS
 62
     1
100
AcDbVertex
100
AcDb2dVertex
 10
678.078461
 20
335.0
 30
0.0
  0
VERTEX
  5
4B8
100
AcDbEntity
  8
LAY-6
  6
CONTINUOUS
 62
     1
100
AcDbVertex
100
AcDb2dVertex
 10
662.224016
 20
342.406923
 30
0.0
  0
SEQEND
  5
4B9
100
AcDbEntity
  8
LAY-6
  6
CONTINUOUS
 62
     1
  0
LINE
  5
4BA
100
AcDbEntity
  8
LAY-6
  6
CONTINUOUS
 62
     1
100
AcDbLine
 10
675.148815
 20
335.816806
 30
0.0
 11
678.078461
 21
335.0
 31
0.0
  0
LINE
  5
4BB
100
AcDbEntity
  8
LAY-6
  6
CONTINUOUS
 62
     1
100
AcDbLine
 10
678.078461
 20
335.0
 30
0.0
 11
675.572084
 21
336.72281
 31
0.0
  0
TEXT
  5
4BC
100
AcDbEntity
  8
LAY-6
  6
CONTINUOUS
 62
     2
100
AcDbText
 10
655.771573
 20
341.271573
 30
0.0
 40
5.656854
  1
３
 41
0.84
  7
EXCADSTD
 72
     5
 11
660.297056
 21
341.271573
 31
0.0
100
AcDbText
  0
CIRCLE
  5
4BD
100
AcDbEntity
  8
LAY-6
  6
CONTINUOUS
 62
     1
100
AcDbCircle
 10
627.6
 20
281.0
 30
0.0
 40
4.0
  0
POLYLINE
  5
4BE
100
AcDbEntity
  8
LAY-6
  6
CONTINUOUS
 62
     1
100
AcDb2dPolyline
 66
     1
 10
0.0
 20
0.0
 30
0.0
 70
   128
  0
VERTEX
  5
4BF
100
AcDbEntity
  8
LAY-6
  6
CONTINUOUS
 62
     1
100
AcDbVertex
100
AcDb2dVertex
 10
657.078461
 20
274.5
 30
0.0
  0
VERTEX
  5
4C0
100
AcDbEntity
  8
LAY-6
  6
CONTINUOUS
 62
     1
100
AcDbVertex
100
AcDb2dVertex
 10
631.506168
 20
280.13869
 30
0.0
  0
SEQEND
  5
4C1
100
AcDbEntity
  8
LAY-6
  6
CONTINUOUS
 62
     1
  0
LINE
  5
4C2
100
AcDbEntity
  8
LAY-6
  6
CONTINUOUS
 62
     1
100
AcDbLine
 10
654.041172
 20
274.657711
 30
0.0
 11
657.078461
 21
274.5
 31
0.0
  0
LINE
  5
4C3
100
AcDbEntity
  8
LAY-6
  6
CONTINUOUS
 62
     1
100
AcDbLine
 10
657.078461
 20
274.5
 30
0.0
 11
654.256499
 21
275.634253
 31
0.0
  0
TEXT
  5
4C4
100
AcDbEntity
  8
LAY-6
  6
CONTINUOUS
 62
     2
100
AcDbText
 10
624.771573
 20
278.171573
 30
0.0
 40
5.656854
  1
４
 41
0.84
  7
EXCADSTD
 72
     5
 11
629.297056
 21
278.171573
 31
0.0
100
AcDbText
  0
INSERT
  5
4C5
100
AcDbEntity
  8
LAY-6
  6
CONTINUOUS
 62
     0
100
AcDbBlockReference
  2
SYM-4
 10
328.0
 20
564.0
 30
0.0
  0
LINE
  5
4C6
100
AcDbEntity
  8
LAY-6
  6
CONTINUOUS
 62
     1
100
AcDbLine
 10
743.9
 20
513.31235
 30
0.0
 11
750.2
 21
513.31235
 31
0.0
  0
LINE
  5
4C7
100
AcDbEntity
  8
LAY-6
  6
CONTINUOUS
 62
     1
100
AcDbLine
 10
750.2
 20
510.312347
 30
0.0
 11
747.2
 21
510.312347
 31
0.0
  0
LINE
  5
4C8
100
AcDbEntity
  8
LAY-6
  6
CONTINUOUS
 62
     1
100
AcDbLine
 10
748.7
 20
518.31235
 30
0.0
 11
748.7
 21
505.312347
 31
0.0
  0
LINE
  5
4C9
100
AcDbEntity
  8
LAY-6
  6
CONTINUOUS
 62
     1
100
AcDbLine
 10
748.2
 20
516.31235
 30
0.0
 11
748.7
 21
513.31235
 31
0.0
  0
LINE
  5
4CA
100
AcDbEntity
  8
LAY-6
  6
CONTINUOUS
 62
     1
100
AcDbLine
 10
748.7
 20
513.31235
 30
0.0
 11
749.2
 21
516.31235
 31
0.0
  0
LINE
  5
4CB
100
AcDbEntity
  8
LAY-6
  6
CONTINUOUS
 62
     1
100
AcDbLine
 10
749.2
 20
507.312347
 30
0.0
 11
748.7
 21
510.312347
 31
0.0
  0
LINE
  5
4CC
100
AcDbEntity
  8
LAY-6
  6
CONTINUOUS
 62
     1
100
AcDbLine
 10
748.7
 20
510.312347
 30
0.0
 11
748.2
 21
507.312347
 31
0.0
  0
TEXT
  5
4CD
100
AcDbEntity
  8
LAY-6
  6
CONTINUOUS
 62
     2
100
AcDbText
 10
748.2
 20
509.812348
 30
0.0
 40
5.0
  1
３
 50
90.0
 41
0.672
  7
EXCADSTD
 72
     5
 11
748.2
 21
513.012349
 31
0.0
100
AcDbText
  0
LINE
  5
4CE
100
AcDbEntity
  8
LAY-6
  6
CONTINUOUS
 62
     1
100
AcDbLine
 10
635.078461
 20
255.447813
 30
0.0
 11
616.5
 21
255.447813
 31
0.0
  0
LINE
  5
4CF
100
AcDbEntity
  8
LAY-6
  6
CONTINUOUS
 62
     1
100
AcDbLine
 10
635.078461
 20
260.447813
 30
0.0
 11
616.5
 21
260.447813
 31
0.0
  0
TEXT
  5
4D0
100
AcDbEntity
  8
LAY-6
  6
CONTINUOUS
 62
     2
100
AcDbText
 10
617.5
 20
255.947813
 30
0.0
 40
5.0
  1
５
 50
90.0
 41
0.672
  7
EXCADSTD
 72
     5
 11
617.5
 21
259.147813
 31
0.0
100
AcDbText
  0
LINE
  5
4D1
100
AcDbEntity
  8
LAY-6
  6
CONTINUOUS
 62
     1
100
AcDbLine
 10
618.0
 20
250.447813
 30
0.0
 11
618.0
 21
265.447813
 31
0.0
  0
LINE
  5
4D2
100
AcDbEntity
  8
LAY-6
  6
CONTINUOUS
 62
     1
100
AcDbLine
 10
618.5
 20
252.447813
 30
0.0
 11
618.0
 21
255.447813
 31
0.0
  0
LINE
  5
4D3
100
AcDbEntity
  8
LAY-6
  6
CONTINUOUS
 62
     1
100
AcDbLine
 10
618.0
 20
255.447813
 30
0.0
 11
617.5
 21
252.447813
 31
0.0
  0
LINE
  5
4D4
100
AcDbEntity
  8
LAY-6
  6
CONTINUOUS
 62
     1
100
AcDbLine
 10
617.5
 20
263.447813
 30
0.0
 11
618.0
 21
260.447813
 31
0.0
  0
LINE
  5
4D5
100
AcDbEntity
  8
LAY-6
  6
CONTINUOUS
 62
     1
100
AcDbLine
 10
618.0
 20
260.447813
 30
0.0
 11
618.5
 21
263.447813
 31
0.0
  0
LINE
  5
4D6
100
AcDbEntity
  8
LAY-6
  6
CONTINUOUS
 62
     1
100
AcDbLine
 10
650.078461
 20
310.447813
 30
0.0
 11
616.5
 21
310.447813
 31
0.0
  0
TEXT
  5
4D7
100
AcDbEntity
  8
LAY-6
  6
CONTINUOUS
 62
     2
100
AcDbText
 10
617.5
 20
281.447813
 30
0.0
 40
5.0
  1
５０
 50
90.0
 41
0.672
  7
EXCADSTD
 72
     5
 11
617.5
 21
288.780613
 31
0.0
100
AcDbText
  0
LINE
  5
4D8
100
AcDbEntity
  8
LAY-6
  6
CONTINUOUS
 62
     1
100
AcDbLine
 10
618.0
 20
260.447813
 30
0.0
 11
618.0
 21
310.447813
 31
0.0
  0
LINE
  5
4D9
100
AcDbEntity
  8
LAY-6
  6
CONTINUOUS
 62
     1
100
AcDbLine
 10
617.5
 20
263.447813
 30
0.0
 11
618.0
 21
260.447813
 31
0.0
  0
LINE
  5
4DA
100
AcDbEntity
  8
LAY-6
  6
CONTINUOUS
 62
     1
100
AcDbLine
 10
618.0
 20
260.447813
 30
0.0
 11
618.5
 21
263.447813
 31
0.0
  0
LINE
  5
4DB
100
AcDbEntity
  8
LAY-6
  6
CONTINUOUS
 62
     1
100
AcDbLine
 10
618.5
 20
307.447813
 30
0.0
 11
618.0
 21
310.447813
 31
0.0
  0
LINE
  5
4DC
100
AcDbEntity
  8
LAY-6
  6
CONTINUOUS
 62
     1
100
AcDbLine
 10
618.0
 20
310.447813
 30
0.0
 11
617.5
 21
307.447813
 31
0.0
  0
LINE
  5
4DD
100
AcDbEntity
  8
LAY-6
  6
CONTINUOUS
 62
     1
100
AcDbLine
 10
740.078461
 20
311.948003
 30
0.0
 11
750.2
 21
311.948003
 31
0.0
  0
LINE
  5
4DE
100
AcDbEntity
  8
LAY-6
  6
CONTINUOUS
 62
     1
100
AcDbLine
 10
735.6
 20
321.947876
 30
0.0
 11
750.2
 21
321.947876
 31
0.0
  0
TEXT
  5
4DF
100
AcDbEntity
  8
LAY-6
  6
CONTINUOUS
 62
     2
100
AcDbText
 10
748.2
 20
312.947939
 30
0.0
 40
5.0
  1
１０
 50
90.0
 41
0.672
  7
EXCADSTD
 72
     5
 11
748.2
 21
320.280739
 31
0.0
100
AcDbText
  0
LINE
  5
4E0
100
AcDbEntity
  8
LAY-6
  6
CONTINUOUS
 62
     1
100
AcDbLine
 10
748.7
 20
311.948003
 30
0.0
 11
748.7
 21
321.947876
 31
0.0
  0
LINE
  5
4E1
100
AcDbEntity
  8
LAY-6
  6
CONTINUOUS
 62
     1
100
AcDbLine
 10
748.2
 20
314.948003
 30
0.0
 11
748.7
 21
311.948003
 31
0.0
  0
LINE
  5
4E2
100
AcDbEntity
  8
LAY-6
  6
CONTINUOUS
 62
     1
100
AcDbLine
 10
748.7
 20
311.948003
 30
0.0
 11
749.2
 21
314.948003
 31
0.0
  0
LINE
  5
4E3
100
AcDbEntity
  8
LAY-6
  6
CONTINUOUS
 62
     1
100
AcDbLine
 10
749.2
 20
318.947876
 30
0.0
 11
748.7
 21
321.947876
 31
0.0
  0
LINE
  5
4E4
100
AcDbEntity
  8
LAY-6
  6
CONTINUOUS
 62
     1
100
AcDbLine
 10
748.7
 20
321.947876
 30
0.0
 11
748.2
 21
318.947876
 31
0.0
  0
LINE
  5
4E5
100
AcDbEntity
  8
LAY-6
  6
CONTINUOUS
 62
     1
100
AcDbLine
 10
735.8
 20
510.312347
 30
0.0
 11
750.2
 21
510.312347
 31
0.0
  0
TEXT
  5
4E6
100
AcDbEntity
  8
LAY-6
  6
CONTINUOUS
 62
     2
100
AcDbText
 10
748.2
 20
412.130112
 30
0.0
 40
5.0
  1
ＤＨ
 50
90.0
 41
0.672
  7
EXCADSTD
 72
     5
 11
748.2
 21
419.462912
 31
0.0
100
AcDbText
  0
LINE
  5
4E7
100
AcDbEntity
  8
LAY-6
  6
CONTINUOUS
 62
     1
100
AcDbLine
 10
748.7
 20
321.947876
 30
0.0
 11
748.7
 21
510.312347
 31
0.0
  0
LINE
  5
4E8
100
AcDbEntity
  8
LAY-6
  6
CONTINUOUS
 62
     1
100
AcDbLine
 10
748.2
 20
324.947876
 30
0.0
 11
748.7
 21
321.947876
 31
0.0
  0
LINE
  5
4E9
100
AcDbEntity
  8
LAY-6
  6
CONTINUOUS
 62
     1
100
AcDbLine
 10
748.7
 20
321.947876
 30
0.0
 11
749.2
 21
324.947876
 31
0.0
  0
LINE
  5
4EA
100
AcDbEntity
  8
LAY-6
  6
CONTINUOUS
 62
     1
100
AcDbLine
 10
749.2
 20
507.312347
 30
0.0
 11
748.7
 21
510.312347
 31
0.0
  0
LINE
  5
4EB
100
AcDbEntity
  8
LAY-6
  6
CONTINUOUS
 62
     1
100
AcDbLine
 10
748.7
 20
510.312347
 30
0.0
 11
748.2
 21
507.312347
 31
0.0
  0
INSERT
  5
4EC
100
AcDbEntity
  8
LAY-6
  6
CONTINUOUS
 62
     0
100
AcDbBlockReference
  2
SYM-1
 10
695.200031
 20
57.1
 30
0.0
  0
INSERT
  5
4ED
100
AcDbEntity
  8
LAY-6
  6
CONTINUOUS
 62
     0
100
AcDbBlockReference
  2
SYM-1
 10
779.900031
 20
126.2
 30
0.0
 50
90.0
  0
INSERT
  5
4EE
100
AcDbEntity
  8
LAY-6
  6
CONTINUOUS
 62
     0
100
AcDbBlockReference
  2
SYM-1
 10
784.2
 20
190.3
 30
0.0
  0
INSERT
  5
4EF
100
AcDbEntity
  8
LAY-6
  6
CONTINUOUS
 62
     0
100
AcDbBlockReference
  2
SYM-5
 10
594.0
 20
179.0
 30
0.0
  0
LINE
  5
4F0
100
AcDbEntity
  8
LAY-6
  6
CONTINUOUS
 62
     1
100
AcDbLine
 10
205.721314
 20
472.348175
 30
0.0
 11
205.721314
 21
512.2
 31
0.0
  0
TEXT
  5
4F1
100
AcDbEntity
  8
LAY-6
  6
CONTINUOUS
 62
     2
100
AcDbText
 10
141.721329
 20
511.7
 30
0.0
 40
5.0
  1
１１６
 41
0.672
  7
EXCADSTD
 72
     5
 11
153.721329
 21
511.7
 31
0.0
100
AcDbText
  0
LINE
  5
4F2
100
AcDbEntity
  8
LAY-6
  6
CONTINUOUS
 62
     1
100
AcDbLine
 10
89.721344
 20
511.2
 30
0.0
 11
205.721314
 21
511.2
 31
0.0
  0
LINE
  5
4F3
100
AcDbEntity
  8
LAY-6
  6
CONTINUOUS
 62
     1
100
AcDbLine
 10
91.721344
 20
511.533333
 30
0.0
 11
89.721344
 21
511.2
 31
0.0
  0
LINE
  5
4F4
100
AcDbEntity
  8
LAY-6
  6
CONTINUOUS
 62
     1
100
AcDbLine
 10
89.721344
 20
511.2
 30
0.0
 11
91.721344
 21
510.866667
 31
0.0
  0
LINE
  5
4F5
100
AcDbEntity
  8
LAY-6
  6
CONTINUOUS
 62
     1
100
AcDbLine
 10
203.721314
 20
510.866667
 30
0.0
 11
205.721314
 21
511.2
 31
0.0
  0
LINE
  5
4F6
100
AcDbEntity
  8
LAY-6
  6
CONTINUOUS
 62
     1
100
AcDbLine
 10
205.721314
 20
511.2
 30
0.0
 11
203.721314
 21
511.533333
 31
0.0
  0
LINE
  5
4F7
100
AcDbEntity
  8
LAY-6
  6
CONTINUOUS
 62
     1
100
AcDbLine
 10
224.721314
 20
472.348175
 30
0.0
 11
224.721314
 21
512.2
 31
0.0
  0
TEXT
  5
4F8
100
AcDbEntity
  8
LAY-6
  6
CONTINUOUS
 62
     2
100
AcDbText
 10
211.221314
 20
511.7
 30
0.0
 40
5.0
  1
１９
 41
0.672
  7
EXCADSTD
 72
     5
 11
218.554114
 21
511.7
 31
0.0
100
AcDbText
  0
LINE
  5
4F9
100
AcDbEntity
  8
LAY-6
  6
CONTINUOUS
 62
     1
100
AcDbLine
 10
205.721314
 20
511.2
 30
0.0
 11
224.721314
 21
511.2
 31
0.0
  0
LINE
  5
4FA
100
AcDbEntity
  8
LAY-6
  6
CONTINUOUS
 62
     1
100
AcDbLine
 10
207.721314
 20
511.533333
 30
0.0
 11
205.721314
 21
511.2
 31
0.0
  0
LINE
  5
4FB
100
AcDbEntity
  8
LAY-6
  6
CONTINUOUS
 62
     1
100
AcDbLine
 10
205.721314
 20
511.2
 30
0.0
 11
207.721314
 21
510.866667
 31
0.0
  0
LINE
  5
4FC
100
AcDbEntity
  8
LAY-6
  6
CONTINUOUS
 62
     1
100
AcDbLine
 10
222.721314
 20
510.866667
 30
0.0
 11
224.721314
 21
511.2
 31
0.0
  0
LINE
  5
4FD
100
AcDbEntity
  8
LAY-6
  6
CONTINUOUS
 62
     1
100
AcDbLine
 10
224.721314
 20
511.2
 30
0.0
 11
222.721314
 21
511.533333
 31
0.0
  0
LINE
  5
4FE
100
AcDbEntity
  8
LAY-6
  6
CONTINUOUS
 62
     1
100
AcDbLine
 10
712.078461
 20
510.312347
 30
0.0
 11
735.8
 21
510.312347
 31
0.0
  0
LINE
  5
4FF
100
AcDbEntity
  8
LAY-6
  6
CONTINUOUS
 62
     1
100
AcDbLine
 10
715.1
 20
513.312335
 30
0.0
 11
736.0
 21
513.312335
 31
0.0
  0
LINE
  5
500
100
AcDbEntity
  8
LAY-6
  6
CONTINUOUS
 62
     1
100
AcDbLine
 10
650.1
 20
311.947623
 30
0.0
 11
616.5
 21
311.947623
 31
0.0
  0
LINE
  5
501
100
AcDbEntity
  8
LAY-6
  6
CONTINUOUS
 62
     1
100
AcDbLine
 10
150.22136
 20
80.447876
 30
0.0
 11
175.0
 21
80.447876
 31
0.0
  0
LINE
  5
502
100
AcDbEntity
  8
LAY-6
  6
CONTINUOUS
 62
     1
100
AcDbLine
 10
150.22136
 20
85.447876
 30
0.0
 11
175.0
 21
85.447876
 31
0.0
  0
TEXT
  5
503
100
AcDbEntity
  8
LAY-6
  6
CONTINUOUS
 62
     2
100
AcDbText
 10
173.0
 20
80.947876
 30
0.0
 40
5.0
  1
５
 50
90.0
 41
0.672
  7
EXCADSTD
 72
     5
 11
173.0
 21
84.147876
 31
0.0
100
AcDbText
  0
LINE
  5
504
100
AcDbEntity
  8
LAY-6
  6
CONTINUOUS
 62
     1
100
AcDbLine
 10
173.5
 20
77.447876
 30
0.0
 11
173.5
 21
85.447876
 31
0.0
  0
LINE
  5
505
100
AcDbEntity
  8
LAY-6
  6
CONTINUOUS
 62
     1
100
AcDbLine
 10
173.833333
 20
78.447876
 30
0.0
 11
173.5
 21
80.447876
 31
0.0
  0
LINE
  5
506
100
AcDbEntity
  8
LAY-6
  6
CONTINUOUS
 62
     1
100
AcDbLine
 10
173.5
 20
80.447876
 30
0.0
 11
173.166667
 21
78.447876
 31
0.0
  0
LINE
  5
507
100
AcDbEntity
  8
LAY-6
  6
CONTINUOUS
 62
     1
100
AcDbLine
 10
155.22136
 20
135.447876
 30
0.0
 11
175.0
 21
135.447876
 31
0.0
  0
TEXT
  5
508
100
AcDbEntity
  8
LAY-6
  6
CONTINUOUS
 62
     2
100
AcDbText
 10
173.0
 20
106.447876
 30
0.0
 40
5.0
  1
５０
 50
90.0
 41
0.672
  7
EXCADSTD
 72
     5
 11
173.0
 21
113.780676
 31
0.0
100
AcDbText
  0
LINE
  5
509
100
AcDbEntity
  8
LAY-6
  6
CONTINUOUS
 62
     1
100
AcDbLine
 10
173.5
 20
85.447876
 30
0.0
 11
173.5
 21
135.447876
 31
0.0
  0
LINE
  5
50A
100
AcDbEntity
  8
LAY-6
  6
CONTINUOUS
 62
     1
100
AcDbLine
 10
173.166667
 20
87.447876
 30
0.0
 11
173.5
 21
85.447876
 31
0.0
  0
LINE
  5
50B
100
AcDbEntity
  8
LAY-6
  6
CONTINUOUS
 62
     1
100
AcDbLine
 10
173.5
 20
85.447876
 30
0.0
 11
173.833333
 21
87.447876
 31
0.0
  0
LINE
  5
50C
100
AcDbEntity
  8
LAY-6
  6
CONTINUOUS
 62
     1
100
AcDbLine
 10
173.833333
 20
133.447876
 30
0.0
 11
173.5
 21
135.447876
 31
0.0
  0
LINE
  5
50D
100
AcDbEntity
  8
LAY-6
  6
CONTINUOUS
 62
     1
100
AcDbLine
 10
173.5
 20
135.447876
 30
0.0
 11
173.166667
 21
133.447876
 31
0.0
  0
LINE
  5
50E
100
AcDbEntity
  8
LAY-6
  6
CONTINUOUS
 62
     1
100
AcDbLine
 10
155.22136
 20
136.947876
 30
0.0
 11
175.0
 21
136.947876
 31
0.0
  0
LINE
  5
50F
100
AcDbEntity
  8
LAY-6
  6
CONTINUOUS
 62
     1
100
AcDbLine
 10
173.5
 20
135.447876
 30
0.0
 11
173.5
 21
151.9
 31
0.0
  0
LINE
  5
510
100
AcDbEntity
  8
LAY-6
  6
CONTINUOUS
 62
     1
100
AcDbLine
 10
173.166667
 20
138.947876
 30
0.0
 11
173.5
 21
136.947876
 31
0.0
  0
LINE
  5
511
100
AcDbEntity
  8
LAY-6
  6
CONTINUOUS
 62
     1
100
AcDbLine
 10
173.5
 20
136.947876
 30
0.0
 11
173.833333
 21
138.947876
 31
0.0
  0
TEXT
  5
512
100
AcDbEntity
  8
LAY-6
  6
CONTINUOUS
 62
     2
100
AcDbText
 10
173.0
 20
140.947876
 30
0.0
 40
5.0
  1
１.５
 50
90.0
 41
0.595556
  7
EXCADSTD
 72
     5
 11
173.0
 21
150.947876
 31
0.0
100
AcDbText
  0
LINE
  5
513
100
AcDbEntity
  8
LAY-6
  6
CONTINUOUS
 62
     1
100
AcDbLine
 10
736.4
 20
351.947876
 30
0.0
 11
736.4
 21
321.947933
 31
0.0
  0
LINE
  5
514
100
AcDbEntity
  8
LAY-6
  6
CONTINUOUS
 62
     1
100
AcDbLine
 10
736.733333
 20
349.947876
 30
0.0
 11
736.4
 21
351.947876
 31
0.0
  0
LINE
  5
515
100
AcDbEntity
  8
LAY-6
  6
CONTINUOUS
 62
     1
100
AcDbLine
 10
736.4
 20
351.947876
 30
0.0
 11
736.066667
 21
349.947876
 31
0.0
  0
LINE
  5
516
100
AcDbEntity
  8
LAY-6
  6
CONTINUOUS
 62
     1
100
AcDbLine
 10
736.066667
 20
323.947933
 30
0.0
 11
736.4
 21
321.947933
 31
0.0
  0
LINE
  5
517
100
AcDbEntity
  8
LAY-6
  6
CONTINUOUS
 62
     1
100
AcDbLine
 10
736.4
 20
321.947933
 30
0.0
 11
736.733333
 21
323.947933
 31
0.0
  0
TEXT
  5
518
100
AcDbEntity
  8
LAY-6
  6
CONTINUOUS
 62
     2
100
AcDbText
 10
735.9
 20
332.947904
 30
0.0
 40
5.0
  1
３０
 50
90.0
 41
0.672
  7
EXCADSTD
 72
     5
 11
735.9
 21
340.280704
 31
0.0
100
AcDbText
  0
LINE
  5
519
100
AcDbEntity
  8
LAY-6
  6
CONTINUOUS
 62
     1
100
AcDbLine
 10
714.178461
 20
351.947876
 30
0.0
 11
737.9
 21
351.947876
 31
0.0
  0
LINE
  5
51A
100
AcDbEntity
  8
LAY-6
  6
CONTINUOUS
 62
     1
100
AcDbLine
 10
618.0
 20
351.947876
 30
0.0
 11
618.0
 21
325.947876
 31
0.0
  0
LINE
  5
51B
100
AcDbEntity
  8
LAY-6
  6
CONTINUOUS
 62
     1
100
AcDbLine
 10
618.333333
 20
349.947876
 30
0.0
 11
618.0
 21
351.947876
 31
0.0
  0
LINE
  5
51C
100
AcDbEntity
  8
LAY-6
  6
CONTINUOUS
 62
     1
100
AcDbLine
 10
618.0
 20
351.947876
 30
0.0
 11
617.666667
 21
349.947876
 31
0.0
  0
LINE
  5
51D
100
AcDbEntity
  8
LAY-6
  6
CONTINUOUS
 62
     1
100
AcDbLine
 10
617.666667
 20
327.947876
 30
0.0
 11
618.0
 21
325.947876
 31
0.0
  0
LINE
  5
51E
100
AcDbEntity
  8
LAY-6
  6
CONTINUOUS
 62
     1
100
AcDbLine
 10
618.0
 20
325.947876
 30
0.0
 11
618.333333
 21
327.947876
 31
0.0
  0
TEXT
  5
51F
100
AcDbEntity
  8
LAY-6
  6
CONTINUOUS
 62
     2
100
AcDbText
 10
617.5
 20
334.947876
 30
0.0
 40
5.0
  1
２６
 50
90.0
 41
0.672
  7
EXCADSTD
 72
     5
 11
617.5
 21
342.280676
 31
0.0
100
AcDbText
  0
LINE
  5
520
100
AcDbEntity
  8
LAY-6
  6
CONTINUOUS
 62
     1
100
AcDbLine
 10
675.978461
 20
351.947876
 30
0.0
 11
616.5
 21
351.947876
 31
0.0
  0
LINE
  5
521
100
AcDbEntity
  8
LAY-6
  6
CONTINUOUS
 62
     1
100
AcDbLine
 10
679.578461
 20
325.947876
 30
0.0
 11
616.5
 21
325.947876
 31
0.0
  0
INSERT
  5
522
100
AcDbEntity
  8
LAY-6
  6
CONTINUOUS
 62
     0
100
AcDbBlockReference
  2
SYM-1
 10
171.98
 20
140.43
 30
0.0
 50
90.0
  0
TEXT
  5
523
100
AcDbEntity
  8
LAY-6
  6
CONTINUOUS
 62
     2
100
AcDbText
 10
332.6
 20
20.2
 30
0.0
 40
6.0
  1
Ｈ１４.１２.　９
 41
0.622617
  7
EXCADSTD
 72
     5
 11
371.000002
 21
20.2
 31
0.0
100
AcDbText
  0
TEXT
  5
524
100
AcDbEntity
  8
LAY-6
  6
CONTINUOUS
 62
     2
100
AcDbText
 10
229.985888
 20
508.366037
 30
0.0
 40
5.0
  1
４－Ｍ６×１６皿小ネジ
 41
0.672
  7
EXCADSTD
 72
     5
 11
273.985888
 21
508.366037
 31
0.0
100
AcDbText
  0
POLYLINE
  5
525
100
AcDbEntity
  8
LAY-6
  6
CONTINUOUS
 62
     1
100
AcDb2dPolyline
 66
     1
 10
0.0
 20
0.0
 30
0.0
 70
   128
  0
VERTEX
  5
526
100
AcDbEntity
  8
LAY-6
  6
CONTINUOUS
 62
     1
100
AcDbVertex
100
AcDb2dVertex
 10
211.721344
 20
476.948181
 30
0.0
  0
VERTEX
  5
527
100
AcDbEntity
  8
LAY-6
  6
CONTINUOUS
 62
     1
100
AcDbVertex
100
AcDb2dVertex
 10
229.571777
 20
507.866037
 30
0.0
  0
VERTEX
  5
528
100
AcDbEntity
  8
LAY-6
  6
CONTINUOUS
 62
     1
100
AcDbVertex
100
AcDb2dVertex
 10
274.4
 20
507.866037
 30
0.0
  0
SEQEND
  5
529
100
AcDbEntity
  8
LAY-6
  6
CONTINUOUS
 62
     1
  0
LINE
  5
52A
100
AcDbEntity
  8
LAY-6
  6
CONTINUOUS
 62
     1
100
AcDbLine
 10
212.432669
 20
478.846898
 30
0.0
 11
211.721344
 21
476.948181
 31
0.0
  0
LINE
  5
52B
100
AcDbEntity
  8
LAY-6
  6
CONTINUOUS
 62
     1
100
AcDbLine
 10
211.721344
 20
476.948181
 30
0.0
 11
213.010019
 21
478.513565
 31
0.0
  0
TEXT
  5
52C
100
AcDbEntity
  8
LAY-6
  6
CONTINUOUS
 62
     2
100
AcDbText
 10
234.188479
 20
491.014414
 30
0.0
 40
5.0
  1
裏板４.５ｔ以上(別途)
 41
0.616
  7
EXCADSTD
 72
     5
 11
276.188479
 21
491.014414
 31
0.0
100
AcDbText
  0
POLYLINE
  5
52D
100
AcDbEntity
  8
LAY-6
  6
CONTINUOUS
 62
     1
100
AcDb2dPolyline
 66
     1
 10
0.0
 20
0.0
 30
0.0
 70
   128
  0
VERTEX
  5
52E
100
AcDbEntity
  8
LAY-6
  6
CONTINUOUS
 62
     1
100
AcDbVertex
100
AcDb2dVertex
 10
222.2
 20
471.848175
 30
0.0
  0
VERTEX
  5
52F
100
AcDbEntity
  8
LAY-6
  6
CONTINUOUS
 62
     1
100
AcDbVertex
100
AcDb2dVertex
 10
232.976958
 20
490.514414
 30
0.0
  0
VERTEX
  5
530
100
AcDbEntity
  8
LAY-6
  6
CONTINUOUS
 62
     1
100
AcDbVertex
100
AcDb2dVertex
 10
277.4
 20
490.514414
 30
0.0
  0
SEQEND
  5
531
100
AcDbEntity
  8
LAY-6
  6
CONTINUOUS
 62
     1
  0
LINE
  5
532
100
AcDbEntity
  8
LAY-6
  6
CONTINUOUS
 62
     1
100
AcDbLine
 10
222.911325
 20
473.746892
 30
0.0
 11
222.2
 21
471.848175
 31
0.0
  0
LINE
  5
533
100
AcDbEntity
  8
LAY-6
  6
CONTINUOUS
 62
     1
100
AcDbLine
 10
222.2
 20
471.848175
 30
0.0
 11
223.488675
 21
473.413559
 31
0.0
  0
TEXT
  5
534
100
AcDbEntity
  8
LAY-6
  6
CONTINUOUS
 62
     2
100
AcDbText
 10
214.297475
 20
403.389607
 30
0.0
 40
5.0
  1
裏板４.５ｔ以上(別途)
 41
0.616
  7
EXCADSTD
 72
     5
 11
256.297475
 21
403.389607
 31
0.0
100
AcDbText
  0
POLYLINE
  5
535
100
AcDbEntity
  8
LAY-6
  6
CONTINUOUS
 62
     1
100
AcDb2dPolyline
 66
     1
 10
0.0
 20
0.0
 30
0.0
 70
   128
  0
VERTEX
  5
536
100
AcDbEntity
  8
LAY-6
  6
CONTINUOUS
 62
     1
100
AcDbVertex
100
AcDb2dVertex
 10
188.0
 20
447.048157
 30
0.0
  0
VERTEX
  5
537
100
AcDbEntity
  8
LAY-6
  6
CONTINUOUS
 62
     1
100
AcDbVertex
100
AcDb2dVertex
 10
213.494951
 20
402.889607
 30
0.0
  0
VERTEX
  5
538
100
AcDbEntity
  8
LAY-6
  6
CONTINUOUS
 62
     1
100
AcDbVertex
100
AcDb2dVertex
 10
257.1
 20
402.889607
 30
0.0
  0
SEQEND
  5
539
100
AcDbEntity
  8
LAY-6
  6
CONTINUOUS
 62
     1
  0
LINE
  5
53A
100
AcDbEntity
  8
LAY-6
  6
CONTINUOUS
 62
     1
100
AcDbLine
 10
189.288675
 20
445.482773
 30
0.0
 11
188.0
 21
447.048157
 31
0.0
  0
LINE
  5
53B
100
AcDbEntity
  8
LAY-6
  6
CONTINUOUS
 62
     1
100
AcDbLine
 10
188.0
 20
447.048157
 30
0.0
 11
188.711325
 21
445.14944
 31
0.0
  0
TEXT
  5
53C
100
AcDbEntity
  8
LAY-6
  6
CONTINUOUS
 62
     2
100
AcDbText
 10
456.440931
 20
206.338377
 30
0.0
 40
5.0
  1
裏板４.５ｔ以上(別途)
 41
0.616
  7
EXCADSTD
 72
     5
 11
498.440931
 21
206.338377
 31
0.0
100
AcDbText
  0
POLYLINE
  5
53D
100
AcDbEntity
  8
LAY-6
  6
CONTINUOUS
 62
     1
100
AcDb2dPolyline
 66
     1
 10
0.0
 20
0.0
 30
0.0
 70
   128
  0
VERTEX
  5
53E
100
AcDbEntity
  8
LAY-6
  6
CONTINUOUS
 62
     1
100
AcDbVertex
100
AcDb2dVertex
 10
442.3
 20
181.447876
 30
0.0
  0
VERTEX
  5
53F
100
AcDbEntity
  8
LAY-6
  6
CONTINUOUS
 62
     1
100
AcDbVertex
100
AcDb2dVertex
 10
456.381862
 20
205.838377
 30
0.0
  0
VERTEX
  5
540
100
AcDbEntity
  8
LAY-6
  6
CONTINUOUS
 62
     1
100
AcDbVertex
100
AcDb2dVertex
 10
498.5
 20
205.838377
 30
0.0
  0
SEQEND
  5
541
100
AcDbEntity
  8
LAY-6
  6
CONTINUOUS
 62
     1
  0
LINE
  5
542
100
AcDbEntity
  8
LAY-6
  6
CONTINUOUS
 62
     1
100
AcDbLine
 10
443.011325
 20
183.346593
 30
0.0
 11
442.3
 21
181.447876
 31
0.0
  0
LINE
  5
543
100
AcDbEntity
  8
LAY-6
  6
CONTINUOUS
 62
     1
100
AcDbLine
 10
442.3
 20
181.447876
 30
0.0
 11
443.588675
 21
183.01326
 31
0.0
  0
INSERT
  5
544
100
AcDbEntity
  8
LAY-6
  6
CONTINUOUS
 62
     0
100
AcDbBlockReference
  2
SYM-1
 10
537.4
 20
555.2
 30
0.0
  0
LINE
  5
545
100
AcDbEntity
  8
LAY-6
  6
CONTINUOUS
 62
     1
100
AcDbLine
 10
709.078522
 20
553.762378
 30
0.0
 11
709.078522
 21
561.5
 31
0.0
  0
LINE
  5
546
100
AcDbEntity
  8
LAY-6
  6
CONTINUOUS
 62
     1
100
AcDbLine
 10
681.078522
 20
553.762378
 30
0.0
 11
681.078522
 21
561.5
 31
0.0
  0
LINE
  5
547
100
AcDbEntity
  8
LAY-6
  6
CONTINUOUS
 62
     1
100
AcDbLine
 10
709.078522
 20
560.0
 30
0.0
 11
681.078522
 21
560.0
 31
0.0
  0
LINE
  5
548
100
AcDbEntity
  8
LAY-6
  6
CONTINUOUS
 62
     1
100
AcDbLine
 10
707.078522
 20
559.666667
 30
0.0
 11
709.078522
 21
560.0
 31
0.0
  0
LINE
  5
549
100
AcDbEntity
  8
LAY-6
  6
CONTINUOUS
 62
     1
100
AcDbLine
 10
709.078522
 20
560.0
 30
0.0
 11
707.078522
 21
560.333333
 31
0.0
  0
LINE
  5
54A
100
AcDbEntity
  8
LAY-6
  6
CONTINUOUS
 62
     1
100
AcDbLine
 10
683.078522
 20
560.333333
 30
0.0
 11
681.078522
 21
560.0
 31
0.0
  0
LINE
  5
54B
100
AcDbEntity
  8
LAY-6
  6
CONTINUOUS
 62
     1
100
AcDbLine
 10
681.078522
 20
560.0
 30
0.0
 11
683.078522
 21
559.666667
 31
0.0
  0
TEXT
  5
54C
100
AcDbEntity
  8
LAY-6
  6
CONTINUOUS
 62
     2
100
AcDbText
 10
689.078522
 20
560.5
 30
0.0
 40
5.0
  1
φ
 41
0.672
  7
EXCADSTD
 72
     5
 11
692.278522
 21
560.5
 31
0.0
100
AcDbText
  0
TEXT
  5
54D
100
AcDbEntity
  8
LAY-6
  6
CONTINUOUS
 62
     2
100
AcDbText
 10
693.078522
 20
560.5
 30
0.0
 40
5.0
  1
２８
 41
0.672
  7
EXCADSTD
 72
     5
 11
700.411322
 21
560.5
 31
0.0
100
AcDbText
  0
LINE
  5
54E
100
AcDbEntity
  8
LAY-6
  6
CONTINUOUS
 62
     1
100
AcDbLine
 10
685.578522
 20
509.812347
 30
0.0
 11
685.578522
 21
504.6
 31
0.0
  0
LINE
  5
54F
100
AcDbEntity
  8
LAY-6
  6
CONTINUOUS
 62
     1
100
AcDbLine
 10
704.578522
 20
509.812347
 30
0.0
 11
704.578522
 21
504.6
 31
0.0
  0
LINE
  5
550
100
AcDbEntity
  8
LAY-6
  6
CONTINUOUS
 62
     1
100
AcDbLine
 10
685.578522
 20
506.1
 30
0.0
 11
704.578522
 21
506.1
 31
0.0
  0
LINE
  5
551
100
AcDbEntity
  8
LAY-6
  6
CONTINUOUS
 62
     1
100
AcDbLine
 10
687.578522
 20
506.433333
 30
0.0
 11
685.578522
 21
506.1
 31
0.0
  0
LINE
  5
552
100
AcDbEntity
  8
LAY-6
  6
CONTINUOUS
 62
     1
100
AcDbLine
 10
685.578522
 20
506.1
 30
0.0
 11
687.578522
 21
505.766667
 31
0.0
  0
LINE
  5
553
100
AcDbEntity
  8
LAY-6
  6
CONTINUOUS
 62
     1
100
AcDbLine
 10
702.578522
 20
505.766667
 30
0.0
 11
704.578522
 21
506.1
 31
0.0
  0
LINE
  5
554
100
AcDbEntity
  8
LAY-6
  6
CONTINUOUS
 62
     1
100
AcDbLine
 10
704.578522
 20
506.1
 30
0.0
 11
702.578522
 21
506.433333
 31
0.0
  0
TEXT
  5
555
100
AcDbEntity
  8
LAY-6
  6
CONTINUOUS
 62
     2
100
AcDbText
 10
723.55
 20
470.4
 30
0.0
 40
5.0
  1
φ
 41
0.672
  7
EXCADSTD
 72
     5
 11
726.75
 21
470.4
 31
0.0
100
AcDbText
  0
TEXT
  5
556
100
AcDbEntity
  8
LAY-6
  6
CONTINUOUS
 62
     2
100
AcDbText
 10
727.55
 20
470.4
 30
0.0
 40
5.0
  1
１９
 41
0.672
  7
EXCADSTD
 72
     5
 11
734.8828
 21
470.4
 31
0.0
100
AcDbText
  0
POLYLINE
  5
557
100
AcDbEntity
  8
LAY-6
  6
CONTINUOUS
 62
     1
100
AcDb2dPolyline
 66
     1
 10
0.0
 20
0.0
 30
0.0
 70
   128
  0
VERTEX
  5
558
100
AcDbEntity
  8
LAY-6
  6
CONTINUOUS
 62
     1
100
AcDbVertex
100
AcDb2dVertex
 10
695.078522
 20
506.1
 30
0.0
  0
VERTEX
  5
559
100
AcDbEntity
  8
LAY-6
  6
CONTINUOUS
 62
     1
100
AcDbVertex
100
AcDb2dVertex
 10
722.7
 20
469.9
 30
0.0
  0
VERTEX
  5
55A
100
AcDbEntity
  8
LAY-6
  6
CONTINUOUS
 62
     1
100
AcDbVertex
100
AcDb2dVertex
 10
736.4
 20
469.9
 30
0.0
  0
SEQEND
  5
55B
100
AcDbEntity
  8
LAY-6
  6
CONTINUOUS
 62
     1
  0
TEXT
  5
55C
100
AcDbEntity
  8
LAY-6
  6
CONTINUOUS
 62
     2
100
AcDbText
 10
617.5
 20
314.947749
 30
0.0
 40
5.0
  1
１４
 50
90.0
 41
0.672
  7
EXCADSTD
 72
     5
 11
617.5
 21
322.280549
 31
0.0
100
AcDbText
  0
LINE
  5
55D
100
AcDbEntity
  8
LAY-6
  6
CONTINUOUS
 62
     1
100
AcDbLine
 10
618.0
 20
325.947876
 30
0.0
 11
618.0
 21
311.947623
 31
0.0
  0
LINE
  5
55E
100
AcDbEntity
  8
LAY-6
  6
CONTINUOUS
 62
     1
100
AcDbLine
 10
618.333333
 20
323.947876
 30
0.0
 11
618.0
 21
325.947876
 31
0.0
  0
LINE
  5
55F
100
AcDbEntity
  8
LAY-6
  6
CONTINUOUS
 62
     1
100
AcDbLine
 10
618.0
 20
325.947876
 30
0.0
 11
617.666667
 21
323.947876
 31
0.0
  0
LINE
  5
560
100
AcDbEntity
  8
LAY-6
  6
CONTINUOUS
 62
     1
100
AcDbLine
 10
617.666667
 20
313.947623
 30
0.0
 11
618.0
 21
311.947623
 31
0.0
  0
LINE
  5
561
100
AcDbEntity
  8
LAY-6
  6
CONTINUOUS
 62
     1
100
AcDbLine
 10
618.0
 20
311.947623
 30
0.0
 11
618.333333
 21
313.947623
 31
0.0
  0
LINE
  5
562
100
AcDbEntity
  8
LAY-6
  6
CONTINUOUS
 62
     1
100
AcDbLine
 10
649.578461
 20
310.447813
 30
0.0
 11
605.0
 21
310.447813
 31
0.0
  0
TEXT
  5
563
100
AcDbEntity
  8
LAY-6
  6
CONTINUOUS
 62
     2
100
AcDbText
 10
606.0
 20
322.047623
 30
0.0
 40
5.0
  1
１.５
 50
90.0
 41
0.595556
  7
EXCADSTD
 72
     5
 11
606.0
 21
332.047623
 31
0.0
100
AcDbText
  0
LINE
  5
564
100
AcDbEntity
  8
LAY-6
  6
CONTINUOUS
 62
     1
100
AcDbLine
 10
606.5
 20
331.7
 30
0.0
 11
606.5
 21
307.447813
 31
0.0
  0
LINE
  5
565
100
AcDbEntity
  8
LAY-6
  6
CONTINUOUS
 62
     1
100
AcDbLine
 10
606.166667
 20
313.947623
 30
0.0
 11
606.5
 21
311.947623
 31
0.0
  0
LINE
  5
566
100
AcDbEntity
  8
LAY-6
  6
CONTINUOUS
 62
     1
100
AcDbLine
 10
606.5
 20
311.947623
 30
0.0
 11
606.833333
 21
313.947623
 31
0.0
  0
LINE
  5
567
100
AcDbEntity
  8
LAY-6
  6
CONTINUOUS
 62
     1
100
AcDbLine
 10
606.833333
 20
308.447813
 30
0.0
 11
606.5
 21
310.447813
 31
0.0
  0
LINE
  5
568
100
AcDbEntity
  8
LAY-6
  6
CONTINUOUS
 62
     1
100
AcDbLine
 10
606.5
 20
310.447813
 30
0.0
 11
606.166667
 21
308.447813
 31
0.0
  0
INSERT
  5
569
100
AcDbEntity
  8
LAY-6
  6
CONTINUOUS
 62
     0
100
AcDbBlockReference
  2
SYM-1
 10
605.0
 20
319.3
 30
0.0
 50
90.0
  0
LINE
  5
56A
100
AcDbEntity
  8
LAY-6
  6
CONTINUOUS
 62
     1
100
AcDbLine
 10
680.078461
 20
480.0
 30
0.0
 11
710.078461
 21
480.0
 31
0.0
  0
LINE
  5
56B
100
AcDbEntity
  8
LAY-6
  6
CONTINUOUS
 62
     1
100
AcDbLine
 10
682.078461
 20
480.333333
 30
0.0
 11
680.078461
 21
480.0
 31
0.0
  0
LINE
  5
56C
100
AcDbEntity
  8
LAY-6
  6
CONTINUOUS
 62
     1
100
AcDbLine
 10
680.078461
 20
480.0
 30
0.0
 11
682.078461
 21
479.666667
 31
0.0
  0
LINE
  5
56D
100
AcDbEntity
  8
LAY-6
  6
CONTINUOUS
 62
     1
100
AcDbLine
 10
708.078461
 20
479.666667
 30
0.0
 11
710.078461
 21
480.0
 31
0.0
  0
LINE
  5
56E
100
AcDbEntity
  8
LAY-6
  6
CONTINUOUS
 62
     1
100
AcDbLine
 10
710.078461
 20
480.0
 30
0.0
 11
708.078461
 21
480.333333
 31
0.0
  0
TEXT
  5
56F
100
AcDbEntity
  8
LAY-6
  6
CONTINUOUS
 62
     2
100
AcDbText
 10
689.078461
 20
480.5
 30
0.0
 40
5.0
  1
φ
 41
0.672
  7
EXCADSTD
 72
     5
 11
692.278461
 21
480.5
 31
0.0
100
AcDbText
  0
TEXT
  5
570
100
AcDbEntity
  8
LAY-6
  6
CONTINUOUS
 62
     2
100
AcDbText
 10
693.078461
 20
480.5
 30
0.0
 40
5.0
  1
３０
 41
0.672
  7
EXCADSTD
 72
     5
 11
700.411261
 21
480.5
 31
0.0
100
AcDbText
  0
LINE
  5
571
100
AcDbEntity
  8
LAY-6
  6
CONTINUOUS
 62
     1
100
AcDbLine
 10
680.078461
 20
490.812346
 30
0.0
 11
680.078461
 21
478.5
 31
0.0
  0
LINE
  5
572
100
AcDbEntity
  8
LAY-6
  6
CONTINUOUS
 62
     1
100
AcDbLine
 10
710.078461
 20
490.812346
 30
0.0
 11
710.078461
 21
478.5
 31
0.0
  0
TEXT
  5
573
100
AcDbEntity
  8
LAY-6
  6
CONTINUOUS
 62
     2
100
AcDbText
 10
451.221344
 20
550.7
 30
0.0
 40
5.0
  1
１８７
 41
0.672
  7
EXCADSTD
 72
     5
 11
463.221344
 21
550.7
 31
0.0
100
AcDbText
  0
LINE
  5
574
100
AcDbEntity
  8
LAY-6
  6
CONTINUOUS
 62
     1
100
AcDbLine
 10
363.721344
 20
534.928711
 30
0.0
 11
363.721344
 21
551.7
 31
0.0
  0
LINE
  5
575
100
AcDbEntity
  8
LAY-6
  6
CONTINUOUS
 62
     1
100
AcDbLine
 10
550.721344
 20
534.928711
 30
0.0
 11
550.721344
 21
551.7
 31
0.0
  0
LINE
  5
576
100
AcDbEntity
  8
LAY-6
  6
CONTINUOUS
 62
     1
100
AcDbLine
 10
363.721344
 20
550.2
 30
0.0
 11
550.721344
 21
550.2
 31
0.0
  0
LINE
  5
577
100
AcDbEntity
  8
LAY-6
  6
CONTINUOUS
 62
     1
100
AcDbLine
 10
366.721344
 20
550.7
 30
0.0
 11
363.721344
 21
550.2
 31
0.0
  0
LINE
  5
578
100
AcDbEntity
  8
LAY-6
  6
CONTINUOUS
 62
     1
100
AcDbLine
 10
363.721344
 20
550.2
 30
0.0
 11
366.721344
 21
549.7
 31
0.0
  0
LINE
  5
579
100
AcDbEntity
  8
LAY-6
  6
CONTINUOUS
 62
     1
100
AcDbLine
 10
547.721344
 20
549.7
 30
0.0
 11
550.721344
 21
550.2
 31
0.0
  0
LINE
  5
57A
100
AcDbEntity
  8
LAY-6
  6
CONTINUOUS
 62
     1
100
AcDbLine
 10
550.721344
 20
550.2
 30
0.0
 11
547.721344
 21
550.7
 31
0.0
  0
INSERT
  5
57B
100
AcDbEntity
  8
LAY-6
  6
CONTINUOUS
 62
     0
100
AcDbBlockReference
  2
SYM-1
 10
449.26
 20
551.58
 30
0.0
  0
TEXT
  5
57C
100
AcDbEntity
  8
LAY-6
  6
CONTINUOUS
 62
     2
100
AcDbText
 10
278.5
 20
295.052078
 30
0.0
 40
5.0
  1
８
 50
90.0
 41
0.672
  7
EXCADSTD
 72
     5
 11
278.5
 21
298.252078
 31
0.0
100
AcDbText
  0
LINE
  5
57D
100
AcDbEntity
  8
LAY-6
  6
CONTINUOUS
 62
     1
100
AcDbLine
 10
284.221344
 20
293.052078
 30
0.0
 11
277.5
 21
293.052078
 31
0.0
  0
LINE
  5
57E
100
AcDbEntity
  8
LAY-6
  6
CONTINUOUS
 62
     1
100
AcDbLine
 10
279.0
 20
288.052078
 30
0.0
 11
279.0
 21
301.052078
 31
0.0
  0
LINE
  5
57F
100
AcDbEntity
  8
LAY-6
  6
CONTINUOUS
 62
     1
100
AcDbLine
 10
279.5
 20
290.052078
 30
0.0
 11
279.0
 21
293.052078
 31
0.0
  0
LINE
  5
580
100
AcDbEntity
  8
LAY-6
  6
CONTINUOUS
 62
     1
100
AcDbLine
 10
279.0
 20
293.052078
 30
0.0
 11
278.5
 21
290.052078
 31
0.0
  0
TEXT
  5
581
100
AcDbEntity
  8
LAY-6
  6
CONTINUOUS
 62
     2
100
AcDbText
 10
278.5
 20
303.052078
 30
0.0
 40
5.0
  1
８
 50
90.0
 41
0.672
  7
EXCADSTD
 72
     5
 11
278.5
 21
306.252078
 31
0.0
100
AcDbText
  0
LINE
  5
582
100
AcDbEntity
  8
LAY-6
  6
CONTINUOUS
 62
     1
100
AcDbLine
 10
271.221344
 20
309.052078
 30
0.0
 11
280.5
 21
309.052078
 31
0.0
  0
LINE
  5
583
100
AcDbEntity
  8
LAY-6
  6
CONTINUOUS
 62
     1
100
AcDbLine
 10
279.0
 20
301.052078
 30
0.0
 11
279.0
 21
314.052078
 31
0.0
  0
CIRCLE
  5
584
100
AcDbEntity
  8
LAY-6
  6
CONTINUOUS
 62
     1
100
AcDbCircle
 10
279.0
 20
301.052078
 30
0.0
 40
0.5
  0
CIRCLE
  5
585
100
AcDbEntity
  8
LAY-6
  6
CONTINUOUS
 62
     1
100
AcDbCircle
 10
279.0
 20
301.052078
 30
0.0
 40
0.25
  0
LINE
  5
586
100
AcDbEntity
  8
LAY-6
  6
CONTINUOUS
 62
     1
100
AcDbLine
 10
278.5
 20
312.052078
 30
0.0
 11
279.0
 21
309.052078
 31
0.0
  0
LINE
  5
587
100
AcDbEntity
  8
LAY-6
  6
CONTINUOUS
 62
     1
100
AcDbLine
 10
279.0
 20
309.052078
 30
0.0
 11
279.5
 21
312.052078
 31
0.0
  0
LINE
  5
588
100
AcDbEntity
  8
LAY-9
  6
CONTINUOUS
 62
     1
100
AcDbLine
 10
31.321344
 20
456.348181
 30
0.0
 11
49.721344
 21
456.348181
 31
0.0
  0
LINE
  5
589
100
AcDbEntity
  8
LAY-9
  6
CONTINUOUS
 62
     1
100
AcDbLine
 10
224.721344
 20
456.348181
 30
0.0
 11
284.538211
 21
456.348181
 31
0.0
  0
POLYLINE
  5
58A
100
AcDbEntity
  8
LAY-9
  6
CONTINUOUS
 62
     1
100
AcDb2dPolyline
 66
     1
 10
0.0
 20
0.0
 30
0.0
 70
   128
  0
VERTEX
  5
58B
100
AcDbEntity
  8
LAY-9
  6
CONTINUOUS
 62
     1
100
AcDbVertex
100
AcDb2dVertex
 10
286.0
 20
460.948181
 30
0.0
  0
VERTEX
  5
58C
100
AcDbEntity
  8
LAY-9
  6
CONTINUOUS
 62
     1
100
AcDbVertex
100
AcDb2dVertex
 10
286.024918
 20
461.021018
 30
0.0
  0
VERTEX
  5
58D
100
AcDbEntity
  8
LAY-9
  6
CONTINUOUS
 62
     1
100
AcDbVertex
100
AcDb2dVertex
 10
286.093618
 20
461.227091
 30
0.0
  0
VERTEX
  5
58E
100
AcDbEntity
  8
LAY-9
  6
CONTINUOUS
 62
     1
100
AcDbVertex
100
AcDb2dVertex
 10
286.197024
 20
461.547738
 30
0.0
  0
VERTEX
  5
58F
100
AcDbEntity
  8
LAY-9
  6
CONTINUOUS
 62
     1
100
AcDbVertex
100
AcDb2dVertex
 10
286.326056
 20
461.9643
 30
0.0
  0
VERTEX
  5
590
100
AcDbEntity
  8
LAY-9
  6
CONTINUOUS
 62
     1
100
AcDbVertex
100
AcDb2dVertex
 10
286.471635
 20
462.458117
 30
0.0
  0
VERTEX
  5
591
100
AcDbEntity
  8
LAY-9
  6
CONTINUOUS
 62
     1
100
AcDbVertex
100
AcDb2dVertex
 10
286.624684
 20
463.010529
 30
0.0
  0
VERTEX
  5
592
100
AcDbEntity
  8
LAY-9
  6
CONTINUOUS
 62
     1
100
AcDbVertex
100
AcDb2dVertex
 10
286.776125
 20
463.602876
 30
0.0
  0
VERTEX
  5
593
100
AcDbEntity
  8
LAY-9
  6
CONTINUOUS
 62
     1
100
AcDbVertex
100
AcDb2dVertex
 10
286.916877
 20
464.216497
 30
0.0
  0
VERTEX
  5
594
100
AcDbEntity
  8
LAY-9
  6
CONTINUOUS
 62
     1
100
AcDbVertex
100
AcDb2dVertex
 10
287.037865
 20
464.832734
 30
0.0
  0
VERTEX
  5
595
100
AcDbEntity
  8
LAY-9
  6
CONTINUOUS
 62
     1
100
AcDbVertex
100
AcDb2dVertex
 10
287.130008
 20
465.432926
 30
0.0
  0
VERTEX
  5
596
100
AcDbEntity
  8
LAY-9
  6
CONTINUOUS
 62
     1
100
AcDbVertex
100
AcDb2dVertex
 10
287.184228
 20
465.998413
 30
0.0
  0
VERTEX
  5
597
100
AcDbEntity
  8
LAY-9
  6
CONTINUOUS
 62
     1
100
AcDbVertex
100
AcDb2dVertex
 10
287.194679
 20
466.474041
 30
0.0
  0
VERTEX
  5
598
100
AcDbEntity
  8
LAY-9
  6
CONTINUOUS
 62
     1
100
AcDbVertex
100
AcDb2dVertex
 10
287.169545
 20
466.913179
 30
0.0
  0
VERTEX
  5
599
100
AcDbEntity
  8
LAY-9
  6
CONTINUOUS
 62
     1
100
AcDbVertex
100
AcDb2dVertex
 10
287.112718
 20
467.324162
 30
0.0
  0
VERTEX
  5
59A
100
AcDbEntity
  8
LAY-9
  6
CONTINUOUS
 62
     1
100
AcDbVertex
100
AcDb2dVertex
 10
287.02809
 20
467.715322
 30
0.0
  0
VERTEX
  5
59B
100
AcDbEntity
  8
LAY-9
  6
CONTINUOUS
 62
     1
100
AcDbVertex
100
AcDb2dVertex
 10
286.919555
 20
468.094993
 30
0.0
  0
VERTEX
  5
59C
100
AcDbEntity
  8
LAY-9
  6
CONTINUOUS
 62
     1
100
AcDbVertex
100
AcDb2dVertex
 10
286.791003
 20
468.471508
 30
0.0
  0
VERTEX
  5
59D
100
AcDbEntity
  8
LAY-9
  6
CONTINUOUS
 62
     1
100
AcDbVertex
100
AcDb2dVertex
 10
286.646327
 20
468.853201
 30
0.0
  0
VERTEX
  5
59E
100
AcDbEntity
  8
LAY-9
  6
CONTINUOUS
 62
     1
100
AcDbVertex
100
AcDb2dVertex
 10
286.489419
 20
469.248405
 30
0.0
  0
VERTEX
  5
59F
100
AcDbEntity
  8
LAY-9
  6
CONTINUOUS
 62
     1
100
AcDbVertex
100
AcDb2dVertex
 10
286.324172
 20
469.665452
 30
0.0
  0
VERTEX
  5
5A0
100
AcDbEntity
  8
LAY-9
  6
CONTINUOUS
 62
     1
100
AcDbVertex
100
AcDb2dVertex
 10
286.154478
 20
470.112677
 30
0.0
  0
VERTEX
  5
5A1
100
AcDbEntity
  8
LAY-9
  6
CONTINUOUS
 62
     1
100
AcDbVertex
100
AcDb2dVertex
 10
285.984228
 20
470.598413
 30
0.0
  0
VERTEX
  5
5A2
100
AcDbEntity
  8
LAY-9
  6
CONTINUOUS
 62
     1
100
AcDbVertex
100
AcDb2dVertex
 10
285.82803
 20
471.090359
 30
0.0
  0
VERTEX
  5
5A3
100
AcDbEntity
  8
LAY-9
  6
CONTINUOUS
 62
     1
100
AcDbVertex
100
AcDb2dVertex
 10
285.676824
 20
471.607878
 30
0.0
  0
VERTEX
  5
5A4
100
AcDbEntity
  8
LAY-9
  6
CONTINUOUS
 62
     1
100
AcDbVertex
100
AcDb2dVertex
 10
285.532692
 20
472.135709
 30
0.0
  0
VERTEX
  5
5A5
100
AcDbEntity
  8
LAY-9
  6
CONTINUOUS
 62
     1
100
AcDbVertex
100
AcDb2dVertex
 10
285.397717
 20
472.658594
 30
0.0
  0
VERTEX
  5
5A6
100
AcDbEntity
  8
LAY-9
  6
CONTINUOUS
 62
     1
100
AcDbVertex
100
AcDb2dVertex
 10
285.273981
 20
473.161271
 30
0.0
  0
VERTEX
  5
5A7
100
AcDbEntity
  8
LAY-9
  6
CONTINUOUS
 62
     1
100
AcDbVertex
100
AcDb2dVertex
 10
285.163568
 20
473.628481
 30
0.0
  0
VERTEX
  5
5A8
100
AcDbEntity
  8
LAY-9
  6
CONTINUOUS
 62
     1
100
AcDbVertex
100
AcDb2dVertex
 10
285.068559
 20
474.044963
 30
0.0
  0
VERTEX
  5
5A9
100
AcDbEntity
  8
LAY-9
  6
CONTINUOUS
 62
     1
100
AcDbVertex
100
AcDb2dVertex
 10
284.991038
 20
474.395457
 30
0.0
  0
VERTEX
  5
5AA
100
AcDbEntity
  8
LAY-9
  6
CONTINUOUS
 62
     1
100
AcDbVertex
100
AcDb2dVertex
 10
284.933088
 20
474.664704
 30
0.0
  0
VERTEX
  5
5AB
100
AcDbEntity
  8
LAY-9
  6
CONTINUOUS
 62
     1
100
AcDbVertex
100
AcDb2dVertex
 10
284.89679
 20
474.837442
 30
0.0
  0
VERTEX
  5
5AC
100
AcDbEntity
  8
LAY-9
  6
CONTINUOUS
 62
     1
100
AcDbVertex
100
AcDb2dVertex
 10
284.884228
 20
474.898413
 30
0.0
  0
SEQEND
  5
5AD
100
AcDbEntity
  8
LAY-9
  6
CONTINUOUS
 62
     1
  0
POLYLINE
  5
5AE
100
AcDbEntity
  8
LAY-9
  6
CONTINUOUS
 62
     1
100
AcDb2dPolyline
 66
     1
 10
0.0
 20
0.0
 30
0.0
 70
   128
  0
VERTEX
  5
5AF
100
AcDbEntity
  8
LAY-9
  6
CONTINUOUS
 62
     1
100
AcDbVertex
100
AcDb2dVertex
 10
285.0
 20
457.948181
 30
0.0
  0
VERTEX
  5
5B0
100
AcDbEntity
  8
LAY-9
  6
CONTINUOUS
 62
     1
100
AcDbVertex
100
AcDb2dVertex
 10
284.980961
 20
457.86649
 30
0.0
  0
VERTEX
  5
5B1
100
AcDbEntity
  8
LAY-9
  6
CONTINUOUS
 62
     1
100
AcDbVertex
100
AcDb2dVertex
 10
284.928103
 20
457.635417
 30
0.0
  0
VERTEX
  5
5B2
100
AcDbEntity
  8
LAY-9
  6
CONTINUOUS
 62
     1
100
AcDbVertex
100
AcDb2dVertex
 10
284.847811
 20
457.27596
 30
0.0
  0
VERTEX
  5
5B3
100
AcDbEntity
  8
LAY-9
  6
CONTINUOUS
 62
     1
100
AcDbVertex
100
AcDb2dVertex
 10
284.746473
 20
456.80912
 30
0.0
  0
VERTEX
  5
5B4
100
AcDbEntity
  8
LAY-9
  6
CONTINUOUS
 62
     1
100
AcDbVertex
100
AcDb2dVertex
 10
284.630473
 20
456.255894
 30
0.0
  0
VERTEX
  5
5B5
100
AcDbEntity
  8
LAY-9
  6
CONTINUOUS
 62
     1
100
AcDbVertex
100
AcDb2dVertex
 10
284.506199
 20
455.637283
 30
0.0
  0
VERTEX
  5
5B6
100
AcDbEntity
  8
LAY-9
  6
CONTINUOUS
 62
     1
100
AcDbVertex
100
AcDb2dVertex
 10
284.380036
 20
454.974286
 30
0.0
  0
VERTEX
  5
5B7
100
AcDbEntity
  8
LAY-9
  6
CONTINUOUS
 62
     1
100
AcDbVertex
100
AcDb2dVertex
 10
284.258372
 20
454.287901
 30
0.0
  0
VERTEX
  5
5B8
100
AcDbEntity
  8
LAY-9
  6
CONTINUOUS
 62
     1
100
AcDbVertex
100
AcDb2dVertex
 10
284.147591
 20
453.599128
 30
0.0
  0
VERTEX
  5
5B9
100
AcDbEntity
  8
LAY-9
  6
CONTINUOUS
 62
     1
100
AcDbVertex
100
AcDb2dVertex
 10
284.054081
 20
452.928965
 30
0.0
  0
VERTEX
  5
5BA
100
AcDbEntity
  8
LAY-9
  6
CONTINUOUS
 62
     1
100
AcDbVertex
100
AcDb2dVertex
 10
283.984228
 20
452.298413
 30
0.0
  0
VERTEX
  5
5BB
100
AcDbEntity
  8
LAY-9
  6
CONTINUOUS
 62
     1
100
AcDbVertex
100
AcDb2dVertex
 10
283.949955
 20
451.846982
 30
0.0
  0
VERTEX
  5
5BC
100
AcDbEntity
  8
LAY-9
  6
CONTINUOUS
 62
     1
100
AcDbVertex
100
AcDb2dVertex
 10
283.934152
 20
451.425505
 30
0.0
  0
VERTEX
  5
5BD
100
AcDbEntity
  8
LAY-9
  6
CONTINUOUS
 62
     1
100
AcDbVertex
100
AcDb2dVertex
 10
283.937188
 20
451.027427
 30
0.0
  0
VERTEX
  5
5BE
100
AcDbEntity
  8
LAY-9
  6
CONTINUOUS
 62
     1
100
AcDbVertex
100
AcDb2dVertex
 10
283.959435
 20
450.646191
 30
0.0
  0
VERTEX
  5
5BF
100
AcDbEntity
  8
LAY-9
  6
CONTINUOUS
 62
     1
100
AcDbVertex
100
AcDb2dVertex
 10
284.001263
 20
450.275242
 30
0.0
  0
VERTEX
  5
5C0
100
AcDbEntity
  8
LAY-9
  6
CONTINUOUS
 62
     1
100
AcDbVertex
100
AcDb2dVertex
 10
284.063045
 20
449.908023
 30
0.0
  0
VERTEX
  5
5C1
100
AcDbEntity
  8
LAY-9
  6
CONTINUOUS
 62
     1
100
AcDbVertex
100
AcDb2dVertex
 10
284.14515
 20
449.537977
 30
0.0
  0
VERTEX
  5
5C2
100
AcDbEntity
  8
LAY-9
  6
CONTINUOUS
 62
     1
100
AcDbVertex
100
AcDb2dVertex
 10
284.24795
 20
449.15855
 30
0.0
  0
VERTEX
  5
5C3
100
AcDbEntity
  8
LAY-9
  6
CONTINUOUS
 62
     1
100
AcDbVertex
100
AcDb2dVertex
 10
284.371816
 20
448.763184
 30
0.0
  0
VERTEX
  5
5C4
100
AcDbEntity
  8
LAY-9
  6
CONTINUOUS
 62
     1
100
AcDbVertex
100
AcDb2dVertex
 10
284.517118
 20
448.345324
 30
0.0
  0
VERTEX
  5
5C5
100
AcDbEntity
  8
LAY-9
  6
CONTINUOUS
 62
     1
100
AcDbVertex
100
AcDb2dVertex
 10
284.684228
 20
447.898413
 30
0.0
  0
VERTEX
  5
5C6
100
AcDbEntity
  8
LAY-9
  6
CONTINUOUS
 62
     1
100
AcDbVertex
100
AcDb2dVertex
 10
284.867439
 20
447.431472
 30
0.0
  0
VERTEX
  5
5C7
100
AcDbEntity
  8
LAY-9
  6
CONTINUOUS
 62
     1
100
AcDbVertex
100
AcDb2dVertex
 10
285.065047
 20
446.944282
 30
0.0
  0
VERTEX
  5
5C8
100
AcDbEntity
  8
LAY-9
  6
CONTINUOUS
 62
     1
100
AcDbVertex
100
AcDb2dVertex
 10
285.270341
 20
446.450481
 30
0.0
  0
VERTEX
  5
5C9
100
AcDbEntity
  8
LAY-9
  6
CONTINUOUS
 62
     1
100
AcDbVertex
100
AcDb2dVertex
 10
285.476611
 20
445.963704
 30
0.0
  0
VERTEX
  5
5CA
100
AcDbEntity
  8
LAY-9
  6
CONTINUOUS
 62
     1
100
AcDbVertex
100
AcDb2dVertex
 10
285.677149
 20
445.497588
 30
0.0
  0
VERTEX
  5
5CB
100
AcDbEntity
  8
LAY-9
  6
CONTINUOUS
 62
     1
100
AcDbVertex
100
AcDb2dVertex
 10
285.865243
 20
445.06577
 30
0.0
  0
VERTEX
  5
5CC
100
AcDbEntity
  8
LAY-9
  6
CONTINUOUS
 62
     1
100
AcDbVertex
100
AcDb2dVertex
 10
286.034185
 20
444.681885
 30
0.0
  0
VERTEX
  5
5CD
100
AcDbEntity
  8
LAY-9
  6
CONTINUOUS
 62
     1
100
AcDbVertex
100
AcDb2dVertex
 10
286.177264
 20
444.359571
 30
0.0
  0
VERTEX
  5
5CE
100
AcDbEntity
  8
LAY-9
  6
CONTINUOUS
 62
     1
100
AcDbVertex
100
AcDb2dVertex
 10
286.287771
 20
444.112463
 30
0.0
  0
VERTEX
  5
5CF
100
AcDbEntity
  8
LAY-9
  6
CONTINUOUS
 62
     1
100
AcDbVertex
100
AcDb2dVertex
 10
286.358995
 20
443.954198
 30
0.0
  0
VERTEX
  5
5D0
100
AcDbEntity
  8
LAY-9
  6
CONTINUOUS
 62
     1
100
AcDbVertex
100
AcDb2dVertex
 10
286.384228
 20
443.898413
 30
0.0
  0
SEQEND
  5
5D1
100
AcDbEntity
  8
LAY-9
  6
CONTINUOUS
 62
     1
  0
LINE
  5
5D2
100
AcDbEntity
  8
LAY-9
  6
CONTINUOUS
 62
     1
100
AcDbLine
 10
49.721344
 20
467.348175
 30
0.0
 11
49.721344
 21
471.848175
 31
0.0
  0
LINE
  5
5D3
100
AcDbEntity
  8
LAY-9
  6
CONTINUOUS
 62
     1
100
AcDbLine
 10
49.721344
 20
471.848175
 30
0.0
 11
69.721344
 21
471.848175
 31
0.0
  0
LINE
  5
5D4
100
AcDbEntity
  8
LAY-9
  6
CONTINUOUS
 62
     1
100
AcDbLine
 10
69.721344
 20
471.848175
 30
0.0
 11
69.721344
 21
467.348175
 31
0.0
  0
LINE
  5
5D5
100
AcDbEntity
  8
LAY-9
  6
CONTINUOUS
 62
     1
100
AcDbLine
 10
224.721314
 20
467.348175
 30
0.0
 11
224.721314
 21
471.848175
 31
0.0
  0
LINE
  5
5D6
100
AcDbEntity
  8
LAY-9
  6
CONTINUOUS
 62
     1
100
AcDbLine
 10
224.721314
 20
471.848175
 30
0.0
 11
205.721314
 21
471.848175
 31
0.0
  0
LINE
  5
5D7
100
AcDbEntity
  8
LAY-9
  6
CONTINUOUS
 62
     1
100
AcDbLine
 10
205.721314
 20
471.848175
 30
0.0
 11
205.721314
 21
467.348175
 31
0.0
  0
LINE
  5
5D8
100
AcDbEntity
  8
LAY-9
  6
CONTINUOUS
 62
     1
100
AcDbLine
 10
60.5056
 20
467.348175
 30
0.0
 11
65.0056
 21
471.848175
 31
0.0
  0
LINE
  5
5D9
100
AcDbEntity
  8
LAY-9
  6
CONTINUOUS
 62
     1
100
AcDbLine
 10
63.334027
 20
467.348175
 30
0.0
 11
67.834027
 21
471.848175
 31
0.0
  0
LINE
  5
5DA
100
AcDbEntity
  8
LAY-9
  6
CONTINUOUS
 62
     1
100
AcDbLine
 10
213.133966
 20
467.348175
 30
0.0
 11
217.633966
 21
471.848175
 31
0.0
  0
LINE
  5
5DB
100
AcDbEntity
  8
LAY-9
  6
CONTINUOUS
 62
     1
100
AcDbLine
 10
215.962393
 20
467.348175
 30
0.0
 11
220.462393
 21
471.848175
 31
0.0
  0
LINE
  5
5DC
100
AcDbEntity
  8
LAY-9
  6
CONTINUOUS
 62
     1
100
AcDbLine
 10
224.721375
 20
451.548157
 30
0.0
 11
224.721375
 21
447.048157
 31
0.0
  0
LINE
  5
5DD
100
AcDbEntity
  8
LAY-9
  6
CONTINUOUS
 62
     1
100
AcDbLine
 10
224.721375
 20
447.048157
 30
0.0
 11
109.721375
 21
447.048157
 31
0.0
  0
LINE
  5
5DE
100
AcDbEntity
  8
LAY-9
  6
CONTINUOUS
 62
     1
100
AcDbLine
 10
109.721375
 20
447.048157
 30
0.0
 11
109.721375
 21
451.548157
 31
0.0
  0
LINE
  5
5DF
100
AcDbEntity
  8
LAY-9
  6
CONTINUOUS
 62
     1
100
AcDbLine
 10
123.361335
 20
447.048157
 30
0.0
 11
127.861335
 21
451.548157
 31
0.0
  0
LINE
  5
5E0
100
AcDbEntity
  8
LAY-9
  6
CONTINUOUS
 62
     1
100
AcDbLine
 10
126.189762
 20
447.048157
 30
0.0
 11
130.689762
 21
451.548157
 31
0.0
  0
LINE
  5
5E1
100
AcDbEntity
  8
LAY-9
  6
CONTINUOUS
 62
     1
100
AcDbLine
 10
151.645606
 20
447.048157
 30
0.0
 11
156.145606
 21
451.548157
 31
0.0
  0
LINE
  5
5E2
100
AcDbEntity
  8
LAY-9
  6
CONTINUOUS
 62
     1
100
AcDbLine
 10
154.474033
 20
447.048157
 30
0.0
 11
158.974033
 21
451.548157
 31
0.0
  0
LINE
  5
5E3
100
AcDbEntity
  8
LAY-9
  6
CONTINUOUS
 62
     1
100
AcDbLine
 10
179.929878
 20
447.048157
 30
0.0
 11
184.429878
 21
451.548157
 31
0.0
  0
LINE
  5
5E4
100
AcDbEntity
  8
LAY-9
  6
CONTINUOUS
 62
     1
100
AcDbLine
 10
182.758305
 20
447.048157
 30
0.0
 11
187.258305
 21
451.548157
 31
0.0
  0
LINE
  5
5E5
100
AcDbEntity
  8
LAY-9
  6
CONTINUOUS
 62
     1
100
AcDbLine
 10
208.214149
 20
447.048157
 30
0.0
 11
212.714149
 21
451.548157
 31
0.0
  0
LINE
  5
5E6
100
AcDbEntity
  8
LAY-9
  6
CONTINUOUS
 62
     1
100
AcDbLine
 10
211.042576
 20
447.048157
 30
0.0
 11
215.542576
 21
451.548157
 31
0.0
  0
LINE
  5
5E7
100
AcDbEntity
  8
LAY-9
  6
CONTINUOUS
 62
     1
100
AcDbLine
 10
31.321344
 20
456.348181
 30
0.0
 11
31.321344
 21
394.0
 31
0.0
  0
LINE
  5
5E8
100
AcDbEntity
  8
LAY-9
  6
CONTINUOUS
 62
     1
100
AcDbLine
 10
29.721344
 20
457.948181
 30
0.0
 11
29.721344
 21
394.0
 31
0.0
  0
LINE
  5
5E9
100
AcDbEntity
  8
LAY-9
  6
CONTINUOUS
 62
     1
100
AcDbLine
 10
26.721344
 20
460.948181
 30
0.0
 11
26.721344
 21
394.0
 31
0.0
  0
ARC
  5
5EA
100
AcDbEntity
  8
LAY-9
  6
CONTINUOUS
 62
     1
100
AcDbCircle
 10
89.72136
 20
301.052078
 30
0.0
 40
60.0
100
AcDbArc
 50
157.975687
 51
202.024313
  0
LINE
  5
5EB
100
AcDbEntity
  8
LAY-9
  6
CONTINUOUS
 62
     1
100
AcDbLine
 10
34.099871
 20
323.552078
 30
0.0
 11
490.760245
 21
323.552078
 31
0.0
  0
LINE
  5
5EC
100
AcDbEntity
  8
LAY-9
  6
CONTINUOUS
 62
     1
100
AcDbLine
 10
34.099871
 20
278.552078
 30
0.0
 11
490.760245
 21
278.552078
 31
0.0
  0
ARC
  5
5ED
100
AcDbEntity
  8
LAY-9
  6
CONTINUOUS
 62
     1
100
AcDbCircle
 10
89.72136
 20
301.052078
 30
0.0
 40
58.4
100
AcDbArc
 50
159.030145
 51
200.969855
  0
LINE
  5
5EE
100
AcDbEntity
  8
LAY-9
  6
CONTINUOUS
 62
     1
100
AcDbLine
 10
35.189259
 20
280.152078
 30
0.0
 11
490.234619
 21
280.152078
 31
0.0
  0
LINE
  5
5EF
100
AcDbEntity
  8
LAY-9
  6
CONTINUOUS
 62
     1
100
AcDbLine
 10
491.886007
 20
321.952078
 30
0.0
 11
35.189259
 21
321.952078
 31
0.0
  0
POLYLINE
  5
5F0
100
AcDbEntity
  8
LAY-9
  6
CONTINUOUS
 62
     1
100
AcDb2dPolyline
 66
     1
 10
0.0
 20
0.0
 30
0.0
 70
   128
  0
VERTEX
  5
5F1
100
AcDbEntity
  8
LAY-9
  6
CONTINUOUS
 62
     1
100
AcDbVertex
100
AcDb2dVertex
 10
473.700016
 20
136.947876
 30
0.0
  0
VERTEX
  5
5F2
100
AcDbEntity
  8
LAY-9
  6
CONTINUOUS
 62
     1
100
AcDbVertex
100
AcDb2dVertex
 10
473.74292
 20
136.84373
 30
0.0
  0
VERTEX
  5
5F3
100
AcDbEntity
  8
LAY-9
  6
CONTINUOUS
 62
     1
100
AcDbVertex
100
AcDb2dVertex
 10
473.861082
 20
136.548978
 30
0.0
  0
VERTEX
  5
5F4
100
AcDbEntity
  8
LAY-9
  6
CONTINUOUS
 62
     1
100
AcDbVertex
100
AcDb2dVertex
 10
474.038678
 20
136.090146
 30
0.0
  0
VERTEX
  5
5F5
100
AcDbEntity
  8
LAY-9
  6
CONTINUOUS
 62
     1
100
AcDbVertex
100
AcDb2dVertex
 10
474.259881
 20
135.493761
 30
0.0
  0
VERTEX
  5
5F6
100
AcDbEntity
  8
LAY-9
  6
CONTINUOUS
 62
     1
100
AcDbVertex
100
AcDb2dVertex
 10
474.508867
 20
134.786349
 30
0.0
  0
VERTEX
  5
5F7
100
AcDbEntity
  8
LAY-9
  6
CONTINUOUS
 62
     1
100
AcDbVertex
100
AcDb2dVertex
 10
474.769811
 20
133.994437
 30
0.0
  0
VERTEX
  5
5F8
100
AcDbEntity
  8
LAY-9
  6
CONTINUOUS
 62
     1
100
AcDbVertex
100
AcDb2dVertex
 10
475.026887
 20
133.144552
 30
0.0
  0
VERTEX
  5
5F9
100
AcDbEntity
  8
LAY-9
  6
CONTINUOUS
 62
     1
100
AcDbVertex
100
AcDb2dVertex
 10
475.264271
 20
132.26322
 30
0.0
  0
VERTEX
  5
5FA
100
AcDbEntity
  8
LAY-9
  6
CONTINUOUS
 62
     1
100
AcDbVertex
100
AcDb2dVertex
 10
475.466137
 20
131.376968
 30
0.0
  0
VERTEX
  5
5FB
100
AcDbEntity
  8
LAY-9
  6
CONTINUOUS
 62
     1
100
AcDbVertex
100
AcDb2dVertex
 10
475.61666
 20
130.512324
 30
0.0
  0
VERTEX
  5
5FC
100
AcDbEntity
  8
LAY-9
  6
CONTINUOUS
 62
     1
100
AcDbVertex
100
AcDb2dVertex
 10
475.700016
 20
129.695813
 30
0.0
  0
VERTEX
  5
5FD
100
AcDbEntity
  8
LAY-9
  6
CONTINUOUS
 62
     1
100
AcDbVertex
100
AcDb2dVertex
 10
475.706943
 20
128.993722
 30
0.0
  0
VERTEX
  5
5FE
100
AcDbEntity
  8
LAY-9
  6
CONTINUOUS
 62
     1
100
AcDbVertex
100
AcDb2dVertex
 10
475.650921
 20
128.344785
 30
0.0
  0
VERTEX
  5
5FF
100
AcDbEntity
  8
LAY-9
  6
CONTINUOUS
 62
     1
100
AcDbVertex
100
AcDb2dVertex
 10
475.541561
 20
127.736877
 30
0.0
  0
VERTEX
  5
600
100
AcDbEntity
  8
LAY-9
  6
CONTINUOUS
 62
     1
100
AcDbVertex
100
AcDb2dVertex
 10
475.388475
 20
127.157875
 30
0.0
  0
VERTEX
  5
601
100
AcDbEntity
  8
LAY-9
  6
CONTINUOUS
 62
     1
100
AcDbVertex
100
AcDb2dVertex
 10
475.201277
 20
126.595655
 30
0.0
  0
VERTEX
  5
602
100
AcDbEntity
  8
LAY-9
  6
CONTINUOUS
 62
     1
100
AcDbVertex
100
AcDb2dVertex
 10
474.989578
 20
126.038092
 30
0.0
  0
VERTEX
  5
603
100
AcDbEntity
  8
LAY-9
  6
CONTINUOUS
 62
     1
100
AcDbVertex
100
AcDb2dVertex
 10
474.762992
 20
125.473063
 30
0.0
  0
VERTEX
  5
604
100
AcDbEntity
  8
LAY-9
  6
CONTINUOUS
 62
     1
100
AcDbVertex
100
AcDb2dVertex
 10
474.53113
 20
124.888445
 30
0.0
  0
VERTEX
  5
605
100
AcDbEntity
  8
LAY-9
  6
CONTINUOUS
 62
     1
100
AcDbVertex
100
AcDb2dVertex
 10
474.303605
 20
124.272113
 30
0.0
  0
VERTEX
  5
606
100
AcDbEntity
  8
LAY-9
  6
CONTINUOUS
 62
     1
100
AcDbVertex
100
AcDb2dVertex
 10
474.090029
 20
123.611944
 30
0.0
  0
VERTEX
  5
607
100
AcDbEntity
  8
LAY-9
  6
CONTINUOUS
 62
     1
100
AcDbVertex
100
AcDb2dVertex
 10
473.900016
 20
122.895813
 30
0.0
  0
VERTEX
  5
608
100
AcDbEntity
  8
LAY-9
  6
CONTINUOUS
 62
     1
100
AcDbVertex
100
AcDb2dVertex
 10
473.725168
 20
122.026498
 30
0.0
  0
VERTEX
  5
609
100
AcDbEntity
  8
LAY-9
  6
CONTINUOUS
 62
     1
100
AcDbVertex
100
AcDb2dVertex
 10
473.58711
 20
121.102035
 30
0.0
  0
VERTEX
  5
60A
100
AcDbEntity
  8
LAY-9
  6
CONTINUOUS
 62
     1
100
AcDbVertex
100
AcDb2dVertex
 10
473.481598
 20
120.151488
 30
0.0
  0
VERTEX
  5
60B
100
AcDbEntity
  8
LAY-9
  6
CONTINUOUS
 62
     1
100
AcDbVertex
100
AcDb2dVertex
 10
473.404389
 20
119.203922
 30
0.0
  0
VERTEX
  5
60C
100
AcDbEntity
  8
LAY-9
  6
CONTINUOUS
 62
     1
100
AcDbVertex
100
AcDb2dVertex
 10
473.351241
 20
118.288401
 30
0.0
  0
VERTEX
  5
60D
100
AcDbEntity
  8
LAY-9
  6
CONTINUOUS
 62
     1
100
AcDbVertex
100
AcDb2dVertex
 10
473.31791
 20
117.433989
 30
0.0
  0
VERTEX
  5
60E
100
AcDbEntity
  8
LAY-9
  6
CONTINUOUS
 62
     1
100
AcDbVertex
100
AcDb2dVertex
 10
473.300153
 20
116.66975
 30
0.0
  0
VERTEX
  5
60F
100
AcDbEntity
  8
LAY-9
  6
CONTINUOUS
 62
     1
100
AcDbVertex
100
AcDb2dVertex
 10
473.293729
 20
116.024749
 30
0.0
  0
VERTEX
  5
610
100
AcDbEntity
  8
LAY-9
  6
CONTINUOUS
 62
     1
100
AcDbVertex
100
AcDb2dVertex
 10
473.294393
 20
115.52805
 30
0.0
  0
VERTEX
  5
611
100
AcDbEntity
  8
LAY-9
  6
CONTINUOUS
 62
     1
100
AcDbVertex
100
AcDb2dVertex
 10
473.297903
 20
115.208716
 30
0.0
  0
VERTEX
  5
612
100
AcDbEntity
  8
LAY-9
  6
CONTINUOUS
 62
     1
100
AcDbVertex
100
AcDb2dVertex
 10
473.300016
 20
115.095813
 30
0.0
  0
SEQEND
  5
613
100
AcDbEntity
  8
LAY-9
  6
CONTINUOUS
 62
     1
  0
LINE
  5
614
100
AcDbEntity
  8
LAY-9
  6
CONTINUOUS
 62
     1
100
AcDbLine
 10
53.522065
 20
176.947876
 30
0.0
 11
58.022065
 21
181.447876
 31
0.0
  0
LINE
  5
615
100
AcDbEntity
  8
LAY-9
  6
CONTINUOUS
 62
     1
100
AcDbLine
 10
56.350492
 20
176.947876
 30
0.0
 11
60.850492
 21
181.447876
 31
0.0
  0
LINE
  5
616
100
AcDbEntity
  8
LAY-9
  6
CONTINUOUS
 62
     1
100
AcDbLine
 10
81.806336
 20
176.947876
 30
0.0
 11
86.306336
 21
181.447876
 31
0.0
  0
LINE
  5
617
100
AcDbEntity
  8
LAY-9
  6
CONTINUOUS
 62
     1
100
AcDbLine
 10
84.634763
 20
176.947876
 30
0.0
 11
89.134763
 21
181.447876
 31
0.0
  0
LINE
  5
618
100
AcDbEntity
  8
LAY-9
  6
CONTINUOUS
 62
     1
100
AcDbLine
 10
110.090607
 20
176.947876
 30
0.0
 11
114.590607
 21
181.447876
 31
0.0
  0
LINE
  5
619
100
AcDbEntity
  8
LAY-9
  6
CONTINUOUS
 62
     1
100
AcDbLine
 10
112.919035
 20
176.947876
 30
0.0
 11
117.419035
 21
181.447876
 31
0.0
  0
LINE
  5
61A
100
AcDbEntity
  8
LAY-9
  6
CONTINUOUS
 62
     1
100
AcDbLine
 10
138.374879
 20
176.947876
 30
0.0
 11
142.874879
 21
181.447876
 31
0.0
  0
LINE
  5
61B
100
AcDbEntity
  8
LAY-9
  6
CONTINUOUS
 62
     1
100
AcDbLine
 10
141.203306
 20
176.947876
 30
0.0
 11
145.703306
 21
181.447876
 31
0.0
  0
LINE
  5
61C
100
AcDbEntity
  8
LAY-9
  6
CONTINUOUS
 62
     1
100
AcDbLine
 10
166.65915
 20
176.947876
 30
0.0
 11
171.15915
 21
181.447876
 31
0.0
  0
LINE
  5
61D
100
AcDbEntity
  8
LAY-9
  6
CONTINUOUS
 62
     1
100
AcDbLine
 10
169.487577
 20
176.947876
 30
0.0
 11
173.987577
 21
181.447876
 31
0.0
  0
LINE
  5
61E
100
AcDbEntity
  8
LAY-9
  6
CONTINUOUS
 62
     1
100
AcDbLine
 10
194.943421
 20
176.947876
 30
0.0
 11
199.443421
 21
181.447876
 31
0.0
  0
LINE
  5
61F
100
AcDbEntity
  8
LAY-9
  6
CONTINUOUS
 62
     1
100
AcDbLine
 10
197.771848
 20
176.947876
 30
0.0
 11
202.271848
 21
181.447876
 31
0.0
  0
LINE
  5
620
100
AcDbEntity
  8
LAY-9
  6
CONTINUOUS
 62
     1
100
AcDbLine
 10
223.227692
 20
176.947876
 30
0.0
 11
227.727692
 21
181.447876
 31
0.0
  0
LINE
  5
621
100
AcDbEntity
  8
LAY-9
  6
CONTINUOUS
 62
     1
100
AcDbLine
 10
226.05612
 20
176.947876
 30
0.0
 11
230.55612
 21
181.447876
 31
0.0
  0
LINE
  5
622
100
AcDbEntity
  8
LAY-9
  6
CONTINUOUS
 62
     1
100
AcDbLine
 10
251.511964
 20
176.947876
 30
0.0
 11
256.011964
 21
181.447876
 31
0.0
  0
LINE
  5
623
100
AcDbEntity
  8
LAY-9
  6
CONTINUOUS
 62
     1
100
AcDbLine
 10
254.340391
 20
176.947876
 30
0.0
 11
258.840391
 21
181.447876
 31
0.0
  0
LINE
  5
624
100
AcDbEntity
  8
LAY-9
  6
CONTINUOUS
 62
     1
100
AcDbLine
 10
279.796235
 20
176.947876
 30
0.0
 11
284.296235
 21
181.447876
 31
0.0
  0
LINE
  5
625
100
AcDbEntity
  8
LAY-9
  6
CONTINUOUS
 62
     1
100
AcDbLine
 10
282.624662
 20
176.947876
 30
0.0
 11
287.124662
 21
181.447876
 31
0.0
  0
LINE
  5
626
100
AcDbEntity
  8
LAY-9
  6
CONTINUOUS
 62
     1
100
AcDbLine
 10
308.080506
 20
176.947876
 30
0.0
 11
312.580506
 21
181.447876
 31
0.0
  0
LINE
  5
627
100
AcDbEntity
  8
LAY-9
  6
CONTINUOUS
 62
     1
100
AcDbLine
 10
310.908933
 20
176.947876
 30
0.0
 11
315.408933
 21
181.447876
 31
0.0
  0
LINE
  5
628
100
AcDbEntity
  8
LAY-9
  6
CONTINUOUS
 62
     1
100
AcDbLine
 10
336.364777
 20
176.947876
 30
0.0
 11
340.864777
 21
181.447876
 31
0.0
  0
LINE
  5
629
100
AcDbEntity
  8
LAY-9
  6
CONTINUOUS
 62
     1
100
AcDbLine
 10
339.193204
 20
176.947876
 30
0.0
 11
343.693204
 21
181.447876
 31
0.0
  0
LINE
  5
62A
100
AcDbEntity
  8
LAY-9
  6
CONTINUOUS
 62
     1
100
AcDbLine
 10
364.649049
 20
176.947876
 30
0.0
 11
369.149049
 21
181.447876
 31
0.0
  0
LINE
  5
62B
100
AcDbEntity
  8
LAY-9
  6
CONTINUOUS
 62
     1
100
AcDbLine
 10
367.477476
 20
176.947876
 30
0.0
 11
371.977476
 21
181.447876
 31
0.0
  0
LINE
  5
62C
100
AcDbEntity
  8
LAY-9
  6
CONTINUOUS
 62
     1
100
AcDbLine
 10
392.93332
 20
176.947876
 30
0.0
 11
397.43332
 21
181.447876
 31
0.0
  0
LINE
  5
62D
100
AcDbEntity
  8
LAY-9
  6
CONTINUOUS
 62
     1
100
AcDbLine
 10
395.761747
 20
176.947876
 30
0.0
 11
400.261747
 21
181.447876
 31
0.0
  0
ARC
  5
62E
100
AcDbEntity
  8
LAY-9
  6
CONTINUOUS
 62
     1
100
AcDbCircle
 10
409.721344
 20
408.161377
 30
0.0
 40
60.0
100
AcDbArc
 50
157.975687
 51
202.024313
  0
LINE
  5
62F
100
AcDbEntity
  8
LAY-9
  6
CONTINUOUS
 62
     1
100
AcDbLine
 10
354.099855
 20
430.661377
 30
0.0
 11
615.7
 21
430.661377
 31
0.0
  0
LINE
  5
630
100
AcDbEntity
  8
LAY-9
  6
CONTINUOUS
 62
     1
100
AcDbLine
 10
354.099855
 20
385.661377
 30
0.0
 11
615.7
 21
385.661377
 31
0.0
  0
POLYLINE
  5
631
100
AcDbEntity
  8
LAY-9
  6
CONTINUOUS
 62
     1
100
AcDb2dPolyline
 66
     1
 10
0.0
 20
0.0
 30
0.0
 70
   128
  0
VERTEX
  5
632
100
AcDbEntity
  8
LAY-9
  6
CONTINUOUS
 62
     1
100
AcDbVertex
100
AcDb2dVertex
 10
585.928656
 20
311.947623
 30
0.0
  0
VERTEX
  5
633
100
AcDbEntity
  8
LAY-9
  6
CONTINUOUS
 62
     1
100
AcDbVertex
100
AcDb2dVertex
 10
585.960444
 20
311.834619
 30
0.0
  0
VERTEX
  5
634
100
AcDbEntity
  8
LAY-9
  6
CONTINUOUS
 62
     1
100
AcDbVertex
100
AcDb2dVertex
 10
586.048052
 20
311.513861
 30
0.0
  0
VERTEX
  5
635
100
AcDbEntity
  8
LAY-9
  6
CONTINUOUS
 62
     1
100
AcDbVertex
100
AcDb2dVertex
 10
586.179845
 20
311.012726
 30
0.0
  0
VERTEX
  5
636
100
AcDbEntity
  8
LAY-9
  6
CONTINUOUS
 62
     1
100
AcDbVertex
100
AcDb2dVertex
 10
586.344188
 20
310.358594
 30
0.0
  0
VERTEX
  5
637
100
AcDbEntity
  8
LAY-9
  6
CONTINUOUS
 62
     1
100
AcDbVertex
100
AcDb2dVertex
 10
586.529447
 20
309.578844
 30
0.0
  0
VERTEX
  5
638
100
AcDbEntity
  8
LAY-9
  6
CONTINUOUS
 62
     1
100
AcDbVertex
100
AcDb2dVertex
 10
586.723985
 20
308.700853
 30
0.0
  0
VERTEX
  5
639
100
AcDbEntity
  8
LAY-9
  6
CONTINUOUS
 62
     1
100
AcDbVertex
100
AcDb2dVertex
 10
586.916168
 20
307.752002
 30
0.0
  0
VERTEX
  5
63A
100
AcDbEntity
  8
LAY-9
  6
CONTINUOUS
 62
     1
100
AcDbVertex
100
AcDb2dVertex
 10
587.094362
 20
306.759668
 30
0.0
  0
VERTEX
  5
63B
100
AcDbEntity
  8
LAY-9
  6
CONTINUOUS
 62
     1
100
AcDbVertex
100
AcDb2dVertex
 10
587.246931
 20
305.75123
 30
0.0
  0
VERTEX
  5
63C
100
AcDbEntity
  8
LAY-9
  6
CONTINUOUS
 62
     1
100
AcDbVertex
100
AcDb2dVertex
 10
587.362241
 20
304.754068
 30
0.0
  0
VERTEX
  5
63D
100
AcDbEntity
  8
LAY-9
  6
CONTINUOUS
 62
     1
100
AcDbVertex
100
AcDb2dVertex
 10
587.428656
 20
303.79556
 30
0.0
  0
VERTEX
  5
63E
100
AcDbEntity
  8
LAY-9
  6
CONTINUOUS
 62
     1
100
AcDbVertex
100
AcDb2dVertex
 10
587.44011
 20
303.067804
 30
0.0
  0
VERTEX
  5
63F
100
AcDbEntity
  8
LAY-9
  6
CONTINUOUS
 62
     1
100
AcDbVertex
100
AcDb2dVertex
 10
587.414769
 20
302.378967
 30
0.0
  0
VERTEX
  5
640
100
AcDbEntity
  8
LAY-9
  6
CONTINUOUS
 62
     1
100
AcDbVertex
100
AcDb2dVertex
 10
587.355046
 20
301.725199
 30
0.0
  0
VERTEX
  5
641
100
AcDbEntity
  8
LAY-9
  6
CONTINUOUS
 62
     1
100
AcDbVertex
100
AcDb2dVertex
 10
587.263348
 20
301.10265
 30
0.0
  0
VERTEX
  5
642
100
AcDbEntity
  8
LAY-9
  6
CONTINUOUS
 62
     1
100
AcDbVertex
100
AcDb2dVertex
 10
587.142087
 20
300.50747
 30
0.0
  0
VERTEX
  5
643
100
AcDbEntity
  8
LAY-9
  6
CONTINUOUS
 62
     1
100
AcDbVertex
100
AcDb2dVertex
 10
586.993672
 20
299.93581
 30
0.0
  0
VERTEX
  5
644
100
AcDbEntity
  8
LAY-9
  6
CONTINUOUS
 62
     1
100
AcDbVertex
100
AcDb2dVertex
 10
586.820515
 20
299.383819
 30
0.0
  0
VERTEX
  5
645
100
AcDbEntity
  8
LAY-9
  6
CONTINUOUS
 62
     1
100
AcDbVertex
100
AcDb2dVertex
 10
586.625024
 20
298.847649
 30
0.0
  0
VERTEX
  5
646
100
AcDbEntity
  8
LAY-9
  6
CONTINUOUS
 62
     1
100
AcDbVertex
100
AcDb2dVertex
 10
586.409611
 20
298.323449
 30
0.0
  0
VERTEX
  5
647
100
AcDbEntity
  8
LAY-9
  6
CONTINUOUS
 62
     1
100
AcDbVertex
100
AcDb2dVertex
 10
586.176685
 20
297.807369
 30
0.0
  0
VERTEX
  5
648
100
AcDbEntity
  8
LAY-9
  6
CONTINUOUS
 62
     1
100
AcDbVertex
100
AcDb2dVertex
 10
585.928656
 20
297.29556
 30
0.0
  0
VERTEX
  5
649
100
AcDbEntity
  8
LAY-9
  6
CONTINUOUS
 62
     1
100
AcDbVertex
100
AcDb2dVertex
 10
585.654454
 20
296.756327
 30
0.0
  0
VERTEX
  5
64A
100
AcDbEntity
  8
LAY-9
  6
CONTINUOUS
 62
     1
100
AcDbVertex
100
AcDb2dVertex
 10
585.375196
 20
296.213498
 30
0.0
  0
VERTEX
  5
64B
100
AcDbEntity
  8
LAY-9
  6
CONTINUOUS
 62
     1
100
AcDbVertex
100
AcDb2dVertex
 10
585.099938
 20
295.663007
 30
0.0
  0
VERTEX
  5
64C
100
AcDbEntity
  8
LAY-9
  6
CONTINUOUS
 62
     1
100
AcDbVertex
100
AcDb2dVertex
 10
584.837737
 20
295.100792
 30
0.0
  0
VERTEX
  5
64D
100
AcDbEntity
  8
LAY-9
  6
CONTINUOUS
 62
     1
100
AcDbVertex
100
AcDb2dVertex
 10
584.597649
 20
294.522786
 30
0.0
  0
VERTEX
  5
64E
100
AcDbEntity
  8
LAY-9
  6
CONTINUOUS
 62
     1
100
AcDbVertex
100
AcDb2dVertex
 10
584.38873
 20
293.924926
 30
0.0
  0
VERTEX
  5
64F
100
AcDbEntity
  8
LAY-9
  6
CONTINUOUS
 62
     1
100
AcDbVertex
100
AcDb2dVertex
 10
584.220037
 20
293.303148
 30
0.0
  0
VERTEX
  5
650
100
AcDbEntity
  8
LAY-9
  6
CONTINUOUS
 62
     1
100
AcDbVertex
100
AcDb2dVertex
 10
584.100627
 20
292.653387
 30
0.0
  0
VERTEX
  5
651
100
AcDbEntity
  8
LAY-9
  6
CONTINUOUS
 62
     1
100
AcDbVertex
100
AcDb2dVertex
 10
584.039556
 20
291.971578
 30
0.0
  0
VERTEX
  5
652
100
AcDbEntity
  8
LAY-9
  6
CONTINUOUS
 62
     1
100
AcDbVertex
100
AcDb2dVertex
 10
584.04588
 20
291.253657
 30
0.0
  0
VERTEX
  5
653
100
AcDbEntity
  8
LAY-9
  6
CONTINUOUS
 62
     1
100
AcDbVertex
100
AcDb2dVertex
 10
584.128656
 20
290.49556
 30
0.0
  0
VERTEX
  5
654
100
AcDbEntity
  8
LAY-9
  6
CONTINUOUS
 62
     1
100
AcDbVertex
100
AcDb2dVertex
 10
584.281428
 20
289.742252
 30
0.0
  0
VERTEX
  5
655
100
AcDbEntity
  8
LAY-9
  6
CONTINUOUS
 62
     1
100
AcDbVertex
100
AcDb2dVertex
 10
584.494757
 20
288.968789
 30
0.0
  0
VERTEX
  5
656
100
AcDbEntity
  8
LAY-9
  6
CONTINUOUS
 62
     1
100
AcDbVertex
100
AcDb2dVertex
 10
584.75282
 20
288.194532
 30
0.0
  0
VERTEX
  5
657
100
AcDbEntity
  8
LAY-9
  6
CONTINUOUS
 62
     1
100
AcDbVertex
100
AcDb2dVertex
 10
585.039791
 20
287.438846
 30
0.0
  0
VERTEX
  5
658
100
AcDbEntity
  8
LAY-9
  6
CONTINUOUS
 62
     1
100
AcDbVertex
100
AcDb2dVertex
 10
585.339843
 20
286.721094
 30
0.0
  0
VERTEX
  5
659
100
AcDbEntity
  8
LAY-9
  6
CONTINUOUS
 62
     1
100
AcDbVertex
100
AcDb2dVertex
 10
585.637152
 20
286.06064
 30
0.0
  0
VERTEX
  5
65A
100
AcDbEntity
  8
LAY-9
  6
CONTINUOUS
 62
     1
100
AcDbVertex
100
AcDb2dVertex
 10
585.915892
 20
285.476847
 30
0.0
  0
VERTEX
  5
65B
100
AcDbEntity
  8
LAY-9
  6
CONTINUOUS
 62
     1
100
AcDbVertex
100
AcDb2dVertex
 10
586.160238
 20
284.989079
 30
0.0
  0
VERTEX
  5
65C
100
AcDbEntity
  8
LAY-9
  6
CONTINUOUS
 62
     1
100
AcDbVertex
100
AcDb2dVertex
 10
586.354364
 20
284.6167
 30
0.0
  0
VERTEX
  5
65D
100
AcDbEntity
  8
LAY-9
  6
CONTINUOUS
 62
     1
100
AcDbVertex
100
AcDb2dVertex
 10
586.482446
 20
284.379072
 30
0.0
  0
VERTEX
  5
65E
100
AcDbEntity
  8
LAY-9
  6
CONTINUOUS
 62
     1
100
AcDbVertex
100
AcDb2dVertex
 10
586.528656
 20
284.29556
 30
0.0
  0
SEQEND
  5
65F
100
AcDbEntity
  8
LAY-9
  6
CONTINUOUS
 62
     1
  0
POLYLINE
  5
660
100
AcDbEntity
  8
LAY-9
  6
CONTINUOUS
 62
     1
100
AcDb2dPolyline
 66
     1
 10
0.0
 20
0.0
 30
0.0
 70
   128
  0
VERTEX
  5
661
100
AcDbEntity
  8
LAY-9
  6
CONTINUOUS
 62
     1
100
AcDbVertex
100
AcDb2dVertex
 10
776.928656
 20
311.948003
 30
0.0
  0
VERTEX
  5
662
100
AcDbEntity
  8
LAY-9
  6
CONTINUOUS
 62
     1
100
AcDbVertex
100
AcDb2dVertex
 10
776.960444
 20
311.834999
 30
0.0
  0
VERTEX
  5
663
100
AcDbEntity
  8
LAY-9
  6
CONTINUOUS
 62
     1
100
AcDbVertex
100
AcDb2dVertex
 10
777.048052
 20
311.51424
 30
0.0
  0
VERTEX
  5
664
100
AcDbEntity
  8
LAY-9
  6
CONTINUOUS
 62
     1
100
AcDbVertex
100
AcDb2dVertex
 10
777.179845
 20
311.013106
 30
0.0
  0
VERTEX
  5
665
100
AcDbEntity
  8
LAY-9
  6
CONTINUOUS
 62
     1
100
AcDbVertex
100
AcDb2dVertex
 10
777.344188
 20
310.358974
 30
0.0
  0
VERTEX
  5
666
100
AcDbEntity
  8
LAY-9
  6
CONTINUOUS
 62
     1
100
AcDbVertex
100
AcDb2dVertex
 10
777.529447
 20
309.579223
 30
0.0
  0
VERTEX
  5
667
100
AcDbEntity
  8
LAY-9
  6
CONTINUOUS
 62
     1
100
AcDbVertex
100
AcDb2dVertex
 10
777.723985
 20
308.701233
 30
0.0
  0
VERTEX
  5
668
100
AcDbEntity
  8
LAY-9
  6
CONTINUOUS
 62
     1
100
AcDbVertex
100
AcDb2dVertex
 10
777.916168
 20
307.752381
 30
0.0
  0
VERTEX
  5
669
100
AcDbEntity
  8
LAY-9
  6
CONTINUOUS
 62
     1
100
AcDbVertex
100
AcDb2dVertex
 10
778.094362
 20
306.760047
 30
0.0
  0
VERTEX
  5
66A
100
AcDbEntity
  8
LAY-9
  6
CONTINUOUS
 62
     1
100
AcDbVertex
100
AcDb2dVertex
 10
778.246931
 20
305.75161
 30
0.0
  0
VERTEX
  5
66B
100
AcDbEntity
  8
LAY-9
  6
CONTINUOUS
 62
     1
100
AcDbVertex
100
AcDb2dVertex
 10
778.362241
 20
304.754448
 30
0.0
  0
VERTEX
  5
66C
100
AcDbEntity
  8
LAY-9
  6
CONTINUOUS
 62
     1
100
AcDbVertex
100
AcDb2dVertex
 10
778.428656
 20
303.79594
 30
0.0
  0
VERTEX
  5
66D
100
AcDbEntity
  8
LAY-9
  6
CONTINUOUS
 62
     1
100
AcDbVertex
100
AcDb2dVertex
 10
778.44011
 20
303.068184
 30
0.0
  0
VERTEX
  5
66E
100
AcDbEntity
  8
LAY-9
  6
CONTINUOUS
 62
     1
100
AcDbVertex
100
AcDb2dVertex
 10
778.414769
 20
302.379347
 30
0.0
  0
VERTEX
  5
66F
100
AcDbEntity
  8
LAY-9
  6
CONTINUOUS
 62
     1
100
AcDbVertex
100
AcDb2dVertex
 10
778.355046
 20
301.725578
 30
0.0
  0
VERTEX
  5
670
100
AcDbEntity
  8
LAY-9
  6
CONTINUOUS
 62
     1
100
AcDbVertex
100
AcDb2dVertex
 10
778.263348
 20
301.103029
 30
0.0
  0
VERTEX
  5
671
100
AcDbEntity
  8
LAY-9
  6
CONTINUOUS
 62
     1
100
AcDbVertex
100
AcDb2dVertex
 10
778.142087
 20
300.50785
 30
0.0
  0
VERTEX
  5
672
100
AcDbEntity
  8
LAY-9
  6
CONTINUOUS
 62
     1
100
AcDbVertex
100
AcDb2dVertex
 10
777.993672
 20
299.936189
 30
0.0
  0
VERTEX
  5
673
100
AcDbEntity
  8
LAY-9
  6
CONTINUOUS
 62
     1
100
AcDbVertex
100
AcDb2dVertex
 10
777.820515
 20
299.384199
 30
0.0
  0
VERTEX
  5
674
100
AcDbEntity
  8
LAY-9
  6
CONTINUOUS
 62
     1
100
AcDbVertex
100
AcDb2dVertex
 10
777.625024
 20
298.848029
 30
0.0
  0
VERTEX
  5
675
100
AcDbEntity
  8
LAY-9
  6
CONTINUOUS
 62
     1
100
AcDbVertex
100
AcDb2dVertex
 10
777.409611
 20
298.323828
 30
0.0
  0
VERTEX
  5
676
100
AcDbEntity
  8
LAY-9
  6
CONTINUOUS
 62
     1
100
AcDbVertex
100
AcDb2dVertex
 10
777.176685
 20
297.807749
 30
0.0
  0
VERTEX
  5
677
100
AcDbEntity
  8
LAY-9
  6
CONTINUOUS
 62
     1
100
AcDbVertex
100
AcDb2dVertex
 10
776.928656
 20
297.29594
 30
0.0
  0
VERTEX
  5
678
100
AcDbEntity
  8
LAY-9
  6
CONTINUOUS
 62
     1
100
AcDbVertex
100
AcDb2dVertex
 10
776.654454
 20
296.756707
 30
0.0
  0
VERTEX
  5
679
100
AcDbEntity
  8
LAY-9
  6
CONTINUOUS
 62
     1
100
AcDbVertex
100
AcDb2dVertex
 10
776.375196
 20
296.213877
 30
0.0
  0
VERTEX
  5
67A
100
AcDbEntity
  8
LAY-9
  6
CONTINUOUS
 62
     1
100
AcDbVertex
100
AcDb2dVertex
 10
776.099938
 20
295.663387
 30
0.0
  0
VERTEX
  5
67B
100
AcDbEntity
  8
LAY-9
  6
CONTINUOUS
 62
     1
100
AcDbVertex
100
AcDb2dVertex
 10
775.837737
 20
295.101171
 30
0.0
  0
VERTEX
  5
67C
100
AcDbEntity
  8
LAY-9
  6
CONTINUOUS
 62
     1
100
AcDbVertex
100
AcDb2dVertex
 10
775.597649
 20
294.523166
 30
0.0
  0
VERTEX
  5
67D
100
AcDbEntity
  8
LAY-9
  6
CONTINUOUS
 62
     1
100
AcDbVertex
100
AcDb2dVertex
 10
775.38873
 20
293.925306
 30
0.0
  0
VERTEX
  5
67E
100
AcDbEntity
  8
LAY-9
  6
CONTINUOUS
 62
     1
100
AcDbVertex
100
AcDb2dVertex
 10
775.220037
 20
293.303528
 30
0.0
  0
VERTEX
  5
67F
100
AcDbEntity
  8
LAY-9
  6
CONTINUOUS
 62
     1
100
AcDbVertex
100
AcDb2dVertex
 10
775.100627
 20
292.653766
 30
0.0
  0
VERTEX
  5
680
100
AcDbEntity
  8
LAY-9
  6
CONTINUOUS
 62
     1
100
AcDbVertex
100
AcDb2dVertex
 10
775.039556
 20
291.971958
 30
0.0
  0
VERTEX
  5
681
100
AcDbEntity
  8
LAY-9
  6
CONTINUOUS
 62
     1
100
AcDbVertex
100
AcDb2dVertex
 10
775.04588
 20
291.254037
 30
0.0
  0
VERTEX
  5
682
100
AcDbEntity
  8
LAY-9
  6
CONTINUOUS
 62
     1
100
AcDbVertex
100
AcDb2dVertex
 10
775.128656
 20
290.49594
 30
0.0
  0
VERTEX
  5
683
100
AcDbEntity
  8
LAY-9
  6
CONTINUOUS
 62
     1
100
AcDbVertex
100
AcDb2dVertex
 10
775.281428
 20
289.742632
 30
0.0
  0
VERTEX
  5
684
100
AcDbEntity
  8
LAY-9
  6
CONTINUOUS
 62
     1
100
AcDbVertex
100
AcDb2dVertex
 10
775.494757
 20
288.969168
 30
0.0
  0
VERTEX
  5
685
100
AcDbEntity
  8
LAY-9
  6
CONTINUOUS
 62
     1
100
AcDbVertex
100
AcDb2dVertex
 10
775.75282
 20
288.194911
 30
0.0
  0
VERTEX
  5
686
100
AcDbEntity
  8
LAY-9
  6
CONTINUOUS
 62
     1
100
AcDbVertex
100
AcDb2dVertex
 10
776.039791
 20
287.439225
 30
0.0
  0
VERTEX
  5
687
100
AcDbEntity
  8
LAY-9
  6
CONTINUOUS
 62
     1
100
AcDbVertex
100
AcDb2dVertex
 10
776.339843
 20
286.721474
 30
0.0
  0
VERTEX
  5
688
100
AcDbEntity
  8
LAY-9
  6
CONTINUOUS
 62
     1
100
AcDbVertex
100
AcDb2dVertex
 10
776.637152
 20
286.06102
 30
0.0
  0
VERTEX
  5
689
100
AcDbEntity
  8
LAY-9
  6
CONTINUOUS
 62
     1
100
AcDbVertex
100
AcDb2dVertex
 10
776.915892
 20
285.477227
 30
0.0
  0
VERTEX
  5
68A
100
AcDbEntity
  8
LAY-9
  6
CONTINUOUS
 62
     1
100
AcDbVertex
100
AcDb2dVertex
 10
777.160238
 20
284.989459
 30
0.0
  0
VERTEX
  5
68B
100
AcDbEntity
  8
LAY-9
  6
CONTINUOUS
 62
     1
100
AcDbVertex
100
AcDb2dVertex
 10
777.354364
 20
284.617079
 30
0.0
  0
VERTEX
  5
68C
100
AcDbEntity
  8
LAY-9
  6
CONTINUOUS
 62
     1
100
AcDbVertex
100
AcDb2dVertex
 10
777.482446
 20
284.379452
 30
0.0
  0
VERTEX
  5
68D
100
AcDbEntity
  8
LAY-9
  6
CONTINUOUS
 62
     1
100
AcDbVertex
100
AcDb2dVertex
 10
777.528656
 20
284.29594
 30
0.0
  0
SEQEND
  5
68E
100
AcDbEntity
  8
LAY-9
  6
CONTINUOUS
 62
     1
  0
LINE
  5
68F
100
AcDbEntity
  8
LAY-9
  6
CONTINUOUS
 62
     1
100
AcDbLine
 10
684.131729
 20
351.947876
 30
0.0
 11
688.631729
 21
356.447876
 31
0.0
  0
LINE
  5
690
100
AcDbEntity
  8
LAY-9
  6
CONTINUOUS
 62
     1
100
AcDbLine
 10
686.960156
 20
351.947876
 30
0.0
 11
691.460156
 21
356.447876
 31
0.0
  0
LINE
  5
691
100
AcDbEntity
  8
LAY-9
  6
CONTINUOUS
 62
     1
100
AcDbLine
 10
703.930719
 20
351.947876
 30
0.0
 11
708.430719
 21
356.447876
 31
0.0
  0
LINE
  5
692
100
AcDbEntity
  8
LAY-9
  6
CONTINUOUS
 62
     1
100
AcDbLine
 10
677.078461
 20
356.379889
 30
0.0
 11
677.146448
 21
356.447876
 31
0.0
  0
LINE
  5
693
100
AcDbEntity
  8
LAY-9
  6
CONTINUOUS
 62
     1
100
AcDbLine
 10
676.478461
 20
506.412347
 30
0.0
 11
676.478461
 21
488.712347
 31
0.0
  0
LINE
  5
694
100
AcDbEntity
  8
LAY-9
  6
CONTINUOUS
 62
     1
100
AcDbLine
 10
713.678461
 20
506.412347
 30
0.0
 11
713.678461
 21
488.712347
 31
0.0
  0
ARC
  5
695
100
AcDbEntity
  8
LAY-9
  6
CONTINUOUS
 62
     1
100
AcDbCircle
 10
674.178461
 20
508.712347
 30
0.0
 40
1.6
100
AcDbArc
 50
90.0
 51
180.0
  0
ARC
  5
696
100
AcDbEntity
  8
LAY-9
  6
CONTINUOUS
 62
     1
100
AcDbCircle
 10
715.978461
 20
508.712347
 30
0.0
 40
1.6
100
AcDbArc
 50
0.0
 51
90.0
  0
LINE
  5
697
100
AcDbEntity
  8
LAY-9
  6
CONTINUOUS
 62
     1
100
AcDbLine
 10
676.478461
 20
488.712347
 30
0.0
 11
674.178461
 21
488.712347
 31
0.0
  0
LINE
  5
698
100
AcDbEntity
  8
LAY-9
  6
CONTINUOUS
 62
     1
100
AcDbLine
 10
713.678461
 20
488.712347
 30
0.0
 11
715.978461
 21
488.712347
 31
0.0
  0
ARC
  5
699
100
AcDbEntity
  8
LAY-9
  6
CONTINUOUS
 62
     1
100
AcDbCircle
 10
676.478461
 20
506.412347
 30
0.0
 40
2.3
100
AcDbArc
 50
90.0
 51
180.0
  0
ARC
  5
69A
100
AcDbEntity
  8
LAY-9
  6
CONTINUOUS
 62
     1
100
AcDbCircle
 10
713.678461
 20
506.412347
 30
0.0
 40
2.3
100
AcDbArc
 50
0.0
 51
90.0
  0
LINE
  5
69B
100
AcDbEntity
  8
LAY-9
  6
CONTINUOUS
 62
     1
100
AcDbLine
 10
674.178461
 20
508.712347
 30
0.0
 11
678.078461
 21
508.712347
 31
0.0
  0
LINE
  5
69C
100
AcDbEntity
  8
LAY-9
  6
CONTINUOUS
 62
     1
100
AcDbLine
 10
712.078461
 20
508.712347
 30
0.0
 11
715.978461
 21
508.712347
 31
0.0
  0
LINE
  5
69D
100
AcDbEntity
  8
LAY-9
  6
CONTINUOUS
 62
     1
100
AcDbLine
 10
672.578461
 20
508.712347
 30
0.0
 11
672.578461
 21
410.902536
 31
0.0
  0
LINE
  5
69E
100
AcDbEntity
  8
LAY-9
  6
CONTINUOUS
 62
     1
100
AcDbLine
 10
717.578461
 20
508.712347
 30
0.0
 11
717.578461
 21
410.902536
 31
0.0
  0
LINE
  5
69F
100
AcDbEntity
  8
LAY-9
  6
CONTINUOUS
 62
     1
100
AcDbLine
 10
715.978461
 20
508.712347
 30
0.0
 11
715.978461
 21
410.902536
 31
0.0
  0
LINE
  5
6A0
100
AcDbEntity
  8
LAY-9
  6
CONTINUOUS
 62
     1
100
AcDbLine
 10
674.178461
 20
508.712347
 30
0.0
 11
674.178461
 21
410.902536
 31
0.0
  0
LINE
  5
6A1
100
AcDbEntity
  8
LAY-9
  6
DIVIDE
 62
     1
100
AcDbLine
 10
667.6
 20
410.902536
 30
0.0
 11
724.5
 21
410.902536
 31
0.0
  0
LINE
  5
6A2
100
AcDbEntity
  8
LAY-9
  6
DIVIDE
 62
     1
100
AcDbLine
 10
667.6
 20
405.902536
 30
0.0
 11
724.5
 21
405.902536
 31
0.0
  0
LINE
  5
6A3
100
AcDbEntity
  8
LAY-9
  6
CONTINUOUS
 62
     1
100
AcDbLine
 10
49.721344
 20
451.548157
 30
0.0
 11
49.721344
 21
447.048157
 31
0.0
  0
LINE
  5
6A4
100
AcDbEntity
  8
LAY-9
  6
CONTINUOUS
 62
     1
100
AcDbLine
 10
49.721344
 20
447.048157
 30
0.0
 11
69.721344
 21
447.048157
 31
0.0
  0
LINE
  5
6A5
100
AcDbEntity
  8
LAY-9
  6
CONTINUOUS
 62
     1
100
AcDbLine
 10
69.721344
 20
447.048157
 30
0.0
 11
69.721344
 21
451.548157
 31
0.0
  0
LINE
  5
6A6
100
AcDbEntity
  8
LAY-9
  6
CONTINUOUS
 62
     1
100
AcDbLine
 10
56.711341
 20
447.048157
 30
0.0
 11
61.211341
 21
451.548157
 31
0.0
  0
LINE
  5
6A7
100
AcDbEntity
  8
LAY-9
  6
CONTINUOUS
 62
     1
100
AcDbLine
 10
59.539768
 20
447.048157
 30
0.0
 11
64.039768
 21
451.548157
 31
0.0
  0
LINE
  5
6A8
100
AcDbEntity
  8
LAY-9
  6
CONTINUOUS
 62
     1
100
AcDbLine
 10
392.93332
 20
176.947876
 30
0.0
 11
397.43332
 21
181.447876
 31
0.0
  0
LINE
  5
6A9
100
AcDbEntity
  8
LAY-9
  6
CONTINUOUS
 62
     1
100
AcDbLine
 10
395.761747
 20
176.947876
 30
0.0
 11
400.261747
 21
181.447876
 31
0.0
  0
LINE
  5
6AA
100
AcDbEntity
  8
LAY-9
  6
CONTINUOUS
 62
     1
100
AcDbLine
 10
421.217591
 20
176.947876
 30
0.0
 11
425.717591
 21
181.447876
 31
0.0
  0
LINE
  5
6AB
100
AcDbEntity
  8
LAY-9
  6
CONTINUOUS
 62
     1
100
AcDbLine
 10
424.046018
 20
176.947876
 30
0.0
 11
428.546018
 21
181.447876
 31
0.0
  0
LINE
  5
6AC
100
AcDbEntity
  8
LAY-9
  6
CONTINUOUS
 62
     1
100
AcDbLine
 10
451.177188
 20
176.947876
 30
0.0
 11
455.677188
 21
181.447876
 31
0.0
  0
LINE
  5
6AD
100
AcDbEntity
  8
LAY-9
  6
CONTINUOUS
 62
     1
100
AcDbLine
 10
454.005615
 20
176.947876
 30
0.0
 11
458.505615
 21
181.447876
 31
0.0
  0
LINE
  5
6AE
100
AcDbEntity
  8
LAY-9
  6
CONTINUOUS
 62
     1
100
AcDbLine
 10
706.759146
 20
351.947876
 30
0.0
 11
711.259146
 21
356.447876
 31
0.0
  0
LINE
  5
6AF
100
AcDbEntity
  8
LAY-9
  6
CONTINUOUS
 62
     1
100
AcDbLine
 10
676.478461
 20
506.412347
 30
0.0
 11
678.078461
 21
506.412347
 31
0.0
  0
LINE
  5
6B0
100
AcDbEntity
  8
LAY-9
  6
CONTINUOUS
 62
     1
100
AcDbLine
 10
713.678461
 20
506.412347
 30
0.0
 11
712.078461
 21
506.412347
 31
0.0
  0
POLYLINE
  5
6B1
100
AcDbEntity
  8
LAY-9
  6
CONTINUOUS
 62
     1
100
AcDb2dPolyline
 66
     1
 10
0.0
 20
0.0
 30
0.0
 70
   128
  0
VERTEX
  5
6B2
100
AcDbEntity
  8
LAY-9
  6
CONTINUOUS
 62
     1
100
AcDbVertex
100
AcDb2dVertex
 10
615.7
 20
430.661377
 30
0.0
  0
VERTEX
  5
6B3
100
AcDbEntity
  8
LAY-9
  6
CONTINUOUS
 62
     1
100
AcDbVertex
100
AcDb2dVertex
 10
615.808822
 20
430.468914
 30
0.0
  0
VERTEX
  5
6B4
100
AcDbEntity
  8
LAY-9
  6
CONTINUOUS
 62
     1
100
AcDbVertex
100
AcDb2dVertex
 10
616.105644
 20
429.924669
 30
0.0
  0
VERTEX
  5
6B5
100
AcDbEntity
  8
LAY-9
  6
CONTINUOUS
 62
     1
100
AcDbVertex
100
AcDb2dVertex
 10
616.545999
 20
429.078363
 30
0.0
  0
VERTEX
  5
6B6
100
AcDbEntity
  8
LAY-9
  6
CONTINUOUS
 62
     1
100
AcDbVertex
100
AcDb2dVertex
 10
617.08542
 20
427.979715
 30
0.0
  0
VERTEX
  5
6B7
100
AcDbEntity
  8
LAY-9
  6
CONTINUOUS
 62
     1
100
AcDbVertex
100
AcDb2dVertex
 10
617.679441
 20
426.678444
 30
0.0
  0
VERTEX
  5
6B8
100
AcDbEntity
  8
LAY-9
  6
CONTINUOUS
 62
     1
100
AcDbVertex
100
AcDb2dVertex
 10
618.283593
 20
425.224268
 30
0.0
  0
VERTEX
  5
6B9
100
AcDbEntity
  8
LAY-9
  6
CONTINUOUS
 62
     1
100
AcDbVertex
100
AcDb2dVertex
 10
618.853411
 20
423.666908
 30
0.0
  0
VERTEX
  5
6BA
100
AcDbEntity
  8
LAY-9
  6
CONTINUOUS
 62
     1
100
AcDbVertex
100
AcDb2dVertex
 10
619.344428
 20
422.056081
 30
0.0
  0
VERTEX
  5
6BB
100
AcDbEntity
  8
LAY-9
  6
CONTINUOUS
 62
     1
100
AcDbVertex
100
AcDb2dVertex
 10
619.712176
 20
420.441508
 30
0.0
  0
VERTEX
  5
6BC
100
AcDbEntity
  8
LAY-9
  6
CONTINUOUS
 62
     1
100
AcDbVertex
100
AcDb2dVertex
 10
619.912189
 20
418.872908
 30
0.0
  0
VERTEX
  5
6BD
100
AcDbEntity
  8
LAY-9
  6
CONTINUOUS
 62
     1
100
AcDbVertex
100
AcDb2dVertex
 10
619.9
 20
417.4
 30
0.0
  0
VERTEX
  5
6BE
100
AcDbEntity
  8
LAY-9
  6
CONTINUOUS
 62
     1
100
AcDbVertex
100
AcDb2dVertex
 10
619.750648
 20
416.465782
 30
0.0
  0
VERTEX
  5
6BF
100
AcDbEntity
  8
LAY-9
  6
CONTINUOUS
 62
     1
100
AcDbVertex
100
AcDb2dVertex
 10
619.495714
 20
415.592431
 30
0.0
  0
VERTEX
  5
6C0
100
AcDbEntity
  8
LAY-9
  6
CONTINUOUS
 62
     1
100
AcDbVertex
100
AcDb2dVertex
 10
619.150651
 20
414.772241
 30
0.0
  0
VERTEX
  5
6C1
100
AcDbEntity
  8
LAY-9
  6
CONTINUOUS
 62
     1
100
AcDbVertex
100
AcDb2dVertex
 10
618.730914
 20
413.997508
 30
0.0
  0
VERTEX
  5
6C2
100
AcDbEntity
  8
LAY-9
  6
CONTINUOUS
 62
     1
100
AcDbVertex
100
AcDb2dVertex
 10
618.251956
 20
413.260529
 30
0.0
  0
VERTEX
  5
6C3
100
AcDbEntity
  8
LAY-9
  6
CONTINUOUS
 62
     1
100
AcDbVertex
100
AcDb2dVertex
 10
617.729232
 20
412.553597
 30
0.0
  0
VERTEX
  5
6C4
100
AcDbEntity
  8
LAY-9
  6
CONTINUOUS
 62
     1
100
AcDbVertex
100
AcDb2dVertex
 10
617.178195
 20
411.869009
 30
0.0
  0
VERTEX
  5
6C5
100
AcDbEntity
  8
LAY-9
  6
CONTINUOUS
 62
     1
100
AcDbVertex
100
AcDb2dVertex
 10
616.614299
 20
411.199059
 30
0.0
  0
VERTEX
  5
6C6
100
AcDbEntity
  8
LAY-9
  6
CONTINUOUS
 62
     1
100
AcDbVertex
100
AcDb2dVertex
 10
616.052999
 20
410.536045
 30
0.0
  0
VERTEX
  5
6C7
100
AcDbEntity
  8
LAY-9
  6
CONTINUOUS
 62
     1
100
AcDbVertex
100
AcDb2dVertex
 10
615.509748
 20
409.87226
 30
0.0
  0
VERTEX
  5
6C8
100
AcDbEntity
  8
LAY-9
  6
CONTINUOUS
 62
     1
100
AcDbVertex
100
AcDb2dVertex
 10
615.0
 20
409.2
 30
0.0
  0
VERTEX
  5
6C9
100
AcDbEntity
  8
LAY-9
  6
CONTINUOUS
 62
     1
100
AcDbVertex
100
AcDb2dVertex
 10
614.468744
 20
408.403581
 30
0.0
  0
VERTEX
  5
6CA
100
AcDbEntity
  8
LAY-9
  6
CONTINUOUS
 62
     1
100
AcDbVertex
100
AcDb2dVertex
 10
614.002659
 20
407.581678
 30
0.0
  0
VERTEX
  5
6CB
100
AcDbEntity
  8
LAY-9
  6
CONTINUOUS
 62
     1
100
AcDbVertex
100
AcDb2dVertex
 10
613.601499
 20
406.730426
 30
0.0
  0
VERTEX
  5
6CC
100
AcDbEntity
  8
LAY-9
  6
CONTINUOUS
 62
     1
100
AcDbVertex
100
AcDb2dVertex
 10
613.265019
 20
405.845958
 30
0.0
  0
VERTEX
  5
6CD
100
AcDbEntity
  8
LAY-9
  6
CONTINUOUS
 62
     1
100
AcDbVertex
100
AcDb2dVertex
 10
612.992972
 20
404.924411
 30
0.0
  0
VERTEX
  5
6CE
100
AcDbEntity
  8
LAY-9
  6
CONTINUOUS
 62
     1
100
AcDbVertex
100
AcDb2dVertex
 10
612.785112
 20
403.961919
 30
0.0
  0
VERTEX
  5
6CF
100
AcDbEntity
  8
LAY-9
  6
CONTINUOUS
 62
     1
100
AcDbVertex
100
AcDb2dVertex
 10
612.641192
 20
402.954617
 30
0.0
  0
VERTEX
  5
6D0
100
AcDbEntity
  8
LAY-9
  6
CONTINUOUS
 62
     1
100
AcDbVertex
100
AcDb2dVertex
 10
612.560967
 20
401.898639
 30
0.0
  0
VERTEX
  5
6D1
100
AcDbEntity
  8
LAY-9
  6
CONTINUOUS
 62
     1
100
AcDbVertex
100
AcDb2dVertex
 10
612.544191
 20
400.79012
 30
0.0
  0
VERTEX
  5
6D2
100
AcDbEntity
  8
LAY-9
  6
CONTINUOUS
 62
     1
100
AcDbVertex
100
AcDb2dVertex
 10
612.590617
 20
399.625196
 30
0.0
  0
VERTEX
  5
6D3
100
AcDbEntity
  8
LAY-9
  6
CONTINUOUS
 62
     1
100
AcDbVertex
100
AcDb2dVertex
 10
612.7
 20
398.4
 30
0.0
  0
VERTEX
  5
6D4
100
AcDbEntity
  8
LAY-9
  6
CONTINUOUS
 62
     1
100
AcDbVertex
100
AcDb2dVertex
 10
612.907765
 20
396.872453
 30
0.0
  0
VERTEX
  5
6D5
100
AcDbEntity
  8
LAY-9
  6
CONTINUOUS
 62
     1
100
AcDbVertex
100
AcDb2dVertex
 10
613.184843
 20
395.295811
 30
0.0
  0
VERTEX
  5
6D6
100
AcDbEntity
  8
LAY-9
  6
CONTINUOUS
 62
     1
100
AcDbVertex
100
AcDb2dVertex
 10
613.512462
 20
393.711074
 30
0.0
  0
VERTEX
  5
6D7
100
AcDbEntity
  8
LAY-9
  6
CONTINUOUS
 62
     1
100
AcDbVertex
100
AcDb2dVertex
 10
613.871847
 20
392.159237
 30
0.0
  0
VERTEX
  5
6D8
100
AcDbEntity
  8
LAY-9
  6
CONTINUOUS
 62
     1
100
AcDbVertex
100
AcDb2dVertex
 10
614.244224
 20
390.681299
 30
0.0
  0
VERTEX
  5
6D9
100
AcDbEntity
  8
LAY-9
  6
CONTINUOUS
 62
     1
100
AcDbVertex
100
AcDb2dVertex
 10
614.61082
 20
389.318256
 30
0.0
  0
VERTEX
  5
6DA
100
AcDbEntity
  8
LAY-9
  6
CONTINUOUS
 62
     1
100
AcDbVertex
100
AcDb2dVertex
 10
614.952862
 20
388.111105
 30
0.0
  0
VERTEX
  5
6DB
100
AcDbEntity
  8
LAY-9
  6
CONTINUOUS
 62
     1
100
AcDbVertex
100
AcDb2dVertex
 10
615.251574
 20
387.100845
 30
0.0
  0
VERTEX
  5
6DC
100
AcDbEntity
  8
LAY-9
  6
CONTINUOUS
 62
     1
100
AcDbVertex
100
AcDb2dVertex
 10
615.488184
 20
386.328472
 30
0.0
  0
VERTEX
  5
6DD
100
AcDbEntity
  8
LAY-9
  6
CONTINUOUS
 62
     1
100
AcDbVertex
100
AcDb2dVertex
 10
615.643917
 20
385.834984
 30
0.0
  0
VERTEX
  5
6DE
100
AcDbEntity
  8
LAY-9
  6
CONTINUOUS
 62
     1
100
AcDbVertex
100
AcDb2dVertex
 10
615.7
 20
385.661377
 30
0.0
  0
SEQEND
  5
6DF
100
AcDbEntity
  8
LAY-9
  6
CONTINUOUS
 62
     1
  0
POLYLINE
  5
6E0
100
AcDbEntity
  8
LAY-9
  6
CONTINUOUS
 62
     1
100
AcDb2dPolyline
 66
     1
 10
0.0
 20
0.0
 30
0.0
 70
   128
  0
VERTEX
  5
6E1
100
AcDbEntity
  8
LAY-9
  6
CONTINUOUS
 62
     1
100
AcDbVertex
100
AcDb2dVertex
 10
490.760245
 20
323.552078
 30
0.0
  0
VERTEX
  5
6E2
100
AcDbEntity
  8
LAY-9
  6
CONTINUOUS
 62
     1
100
AcDbVertex
100
AcDb2dVertex
 10
490.869067
 20
323.359615
 30
0.0
  0
VERTEX
  5
6E3
100
AcDbEntity
  8
LAY-9
  6
CONTINUOUS
 62
     1
100
AcDbVertex
100
AcDb2dVertex
 10
491.165889
 20
322.81537
 30
0.0
  0
VERTEX
  5
6E4
100
AcDbEntity
  8
LAY-9
  6
CONTINUOUS
 62
     1
100
AcDbVertex
100
AcDb2dVertex
 10
491.606244
 20
321.969064
 30
0.0
  0
VERTEX
  5
6E5
100
AcDbEntity
  8
LAY-9
  6
CONTINUOUS
 62
     1
100
AcDbVertex
100
AcDb2dVertex
 10
492.145665
 20
320.870416
 30
0.0
  0
VERTEX
  5
6E6
100
AcDbEntity
  8
LAY-9
  6
CONTINUOUS
 62
     1
100
AcDbVertex
100
AcDb2dVertex
 10
492.739686
 20
319.569145
 30
0.0
  0
VERTEX
  5
6E7
100
AcDbEntity
  8
LAY-9
  6
CONTINUOUS
 62
     1
100
AcDbVertex
100
AcDb2dVertex
 10
493.343838
 20
318.114969
 30
0.0
  0
VERTEX
  5
6E8
100
AcDbEntity
  8
LAY-9
  6
CONTINUOUS
 62
     1
100
AcDbVertex
100
AcDb2dVertex
 10
493.913656
 20
316.557609
 30
0.0
  0
VERTEX
  5
6E9
100
AcDbEntity
  8
LAY-9
  6
CONTINUOUS
 62
     1
100
AcDbVertex
100
AcDb2dVertex
 10
494.404673
 20
314.946782
 30
0.0
  0
VERTEX
  5
6EA
100
AcDbEntity
  8
LAY-9
  6
CONTINUOUS
 62
     1
100
AcDbVertex
100
AcDb2dVertex
 10
494.772421
 20
313.332209
 30
0.0
  0
VERTEX
  5
6EB
100
AcDbEntity
  8
LAY-9
  6
CONTINUOUS
 62
     1
100
AcDbVertex
100
AcDb2dVertex
 10
494.972434
 20
311.763609
 30
0.0
  0
VERTEX
  5
6EC
100
AcDbEntity
  8
LAY-9
  6
CONTINUOUS
 62
     1
100
AcDbVertex
100
AcDb2dVertex
 10
494.960245
 20
310.290701
 30
0.0
  0
VERTEX
  5
6ED
100
AcDbEntity
  8
LAY-9
  6
CONTINUOUS
 62
     1
100
AcDbVertex
100
AcDb2dVertex
 10
494.810893
 20
309.356483
 30
0.0
  0
VERTEX
  5
6EE
100
AcDbEntity
  8
LAY-9
  6
CONTINUOUS
 62
     1
100
AcDbVertex
100
AcDb2dVertex
 10
494.555959
 20
308.483132
 30
0.0
  0
VERTEX
  5
6EF
100
AcDbEntity
  8
LAY-9
  6
CONTINUOUS
 62
     1
100
AcDbVertex
100
AcDb2dVertex
 10
494.210896
 20
307.662942
 30
0.0
  0
VERTEX
  5
6F0
100
AcDbEntity
  8
LAY-9
  6
CONTINUOUS
 62
     1
100
AcDbVertex
100
AcDb2dVertex
 10
493.791159
 20
306.888209
 30
0.0
  0
VERTEX
  5
6F1
100
AcDbEntity
  8
LAY-9
  6
CONTINUOUS
 62
     1
100
AcDbVertex
100
AcDb2dVertex
 10
493.312201
 20
306.15123
 30
0.0
  0
VERTEX
  5
6F2
100
AcDbEntity
  8
LAY-9
  6
CONTINUOUS
 62
     1
100
AcDbVertex
100
AcDb2dVertex
 10
492.789477
 20
305.444298
 30
0.0
  0
VERTEX
  5
6F3
100
AcDbEntity
  8
LAY-9
  6
CONTINUOUS
 62
     1
100
AcDbVertex
100
AcDb2dVertex
 10
492.23844
 20
304.75971
 30
0.0
  0
VERTEX
  5
6F4
100
AcDbEntity
  8
LAY-9
  6
CONTINUOUS
 62
     1
100
AcDbVertex
100
AcDb2dVertex
 10
491.674544
 20
304.08976
 30
0.0
  0
VERTEX
  5
6F5
100
AcDbEntity
  8
LAY-9
  6
CONTINUOUS
 62
     1
100
AcDbVertex
100
AcDb2dVertex
 10
491.113244
 20
303.426746
 30
0.0
  0
VERTEX
  5
6F6
100
AcDbEntity
  8
LAY-9
  6
CONTINUOUS
 62
     1
100
AcDbVertex
100
AcDb2dVertex
 10
490.569993
 20
302.762961
 30
0.0
  0
VERTEX
  5
6F7
100
AcDbEntity
  8
LAY-9
  6
CONTINUOUS
 62
     1
100
AcDbVertex
100
AcDb2dVertex
 10
490.060245
 20
302.090701
 30
0.0
  0
VERTEX
  5
6F8
100
AcDbEntity
  8
LAY-9
  6
CONTINUOUS
 62
     1
100
AcDbVertex
100
AcDb2dVertex
 10
489.528989
 20
301.294282
 30
0.0
  0
VERTEX
  5
6F9
100
AcDbEntity
  8
LAY-9
  6
CONTINUOUS
 62
     1
100
AcDbVertex
100
AcDb2dVertex
 10
489.062904
 20
300.472379
 30
0.0
  0
VERTEX
  5
6FA
100
AcDbEntity
  8
LAY-9
  6
CONTINUOUS
 62
     1
100
AcDbVertex
100
AcDb2dVertex
 10
488.661744
 20
299.621127
 30
0.0
  0
VERTEX
  5
6FB
100
AcDbEntity
  8
LAY-9
  6
CONTINUOUS
 62
     1
100
AcDbVertex
100
AcDb2dVertex
 10
488.325264
 20
298.736659
 30
0.0
  0
VERTEX
  5
6FC
100
AcDbEntity
  8
LAY-9
  6
CONTINUOUS
 62
     1
100
AcDbVertex
100
AcDb2dVertex
 10
488.053217
 20
297.815112
 30
0.0
  0
VERTEX
  5
6FD
100
AcDbEntity
  8
LAY-9
  6
CONTINUOUS
 62
     1
100
AcDbVertex
100
AcDb2dVertex
 10
487.845357
 20
296.85262
 30
0.0
  0
VERTEX
  5
6FE
100
AcDbEntity
  8
LAY-9
  6
CONTINUOUS
 62
     1
100
AcDbVertex
100
AcDb2dVertex
 10
487.701437
 20
295.845318
 30
0.0
  0
VERTEX
  5
6FF
100
AcDbEntity
  8
LAY-9
  6
CONTINUOUS
 62
     1
100
AcDbVertex
100
AcDb2dVertex
 10
487.621212
 20
294.78934
 30
0.0
  0
VERTEX
  5
700
100
AcDbEntity
  8
LAY-9
  6
CONTINUOUS
 62
     1
100
AcDbVertex
100
AcDb2dVertex
 10
487.604436
 20
293.680821
 30
0.0
  0
VERTEX
  5
701
100
AcDbEntity
  8
LAY-9
  6
CONTINUOUS
 62
     1
100
AcDbVertex
100
AcDb2dVertex
 10
487.650862
 20
292.515897
 30
0.0
  0
VERTEX
  5
702
100
AcDbEntity
  8
LAY-9
  6
CONTINUOUS
 62
     1
100
AcDbVertex
100
AcDb2dVertex
 10
487.760245
 20
291.290701
 30
0.0
  0
VERTEX
  5
703
100
AcDbEntity
  8
LAY-9
  6
CONTINUOUS
 62
     1
100
AcDbVertex
100
AcDb2dVertex
 10
487.96801
 20
289.763154
 30
0.0
  0
VERTEX
  5
704
100
AcDbEntity
  8
LAY-9
  6
CONTINUOUS
 62
     1
100
AcDbVertex
100
AcDb2dVertex
 10
488.245088
 20
288.186512
 30
0.0
  0
VERTEX
  5
705
100
AcDbEntity
  8
LAY-9
  6
CONTINUOUS
 62
     1
100
AcDbVertex
100
AcDb2dVertex
 10
488.572707
 20
286.601775
 30
0.0
  0
VERTEX
  5
706
100
AcDbEntity
  8
LAY-9
  6
CONTINUOUS
 62
     1
100
AcDbVertex
100
AcDb2dVertex
 10
488.932092
 20
285.049938
 30
0.0
  0
VERTEX
  5
707
100
AcDbEntity
  8
LAY-9
  6
CONTINUOUS
 62
     1
100
AcDbVertex
100
AcDb2dVertex
 10
489.304469
 20
283.572
 30
0.0
  0
VERTEX
  5
708
100
AcDbEntity
  8
LAY-9
  6
CONTINUOUS
 62
     1
100
AcDbVertex
100
AcDb2dVertex
 10
489.671065
 20
282.208957
 30
0.0
  0
VERTEX
  5
709
100
AcDbEntity
  8
LAY-9
  6
CONTINUOUS
 62
     1
100
AcDbVertex
100
AcDb2dVertex
 10
490.013107
 20
281.001806
 30
0.0
  0
VERTEX
  5
70A
100
AcDbEntity
  8
LAY-9
  6
CONTINUOUS
 62
     1
100
AcDbVertex
100
AcDb2dVertex
 10
490.311819
 20
279.991546
 30
0.0
  0
VERTEX
  5
70B
100
AcDbEntity
  8
LAY-9
  6
CONTINUOUS
 62
     1
100
AcDbVertex
100
AcDb2dVertex
 10
490.548429
 20
279.219173
 30
0.0
  0
VERTEX
  5
70C
100
AcDbEntity
  8
LAY-9
  6
CONTINUOUS
 62
     1
100
AcDbVertex
100
AcDb2dVertex
 10
490.704162
 20
278.725685
 30
0.0
  0
VERTEX
  5
70D
100
AcDbEntity
  8
LAY-9
  6
CONTINUOUS
 62
     1
100
AcDbVertex
100
AcDb2dVertex
 10
490.760245
 20
278.552078
 30
0.0
  0
SEQEND
  5
70E
100
AcDbEntity
  8
LAY-9
  6
CONTINUOUS
 62
     1
  0
LINE
  5
70F
100
AcDbEntity
  8
LAY-9
  6
CONTINUOUS
 62
     1
100
AcDbLine
 10
26.721344
 20
460.948181
 30
0.0
 11
43.721344
 21
460.948181
 31
0.0
  0
LINE
  5
710
100
AcDbEntity
  8
LAY-9
  6
CONTINUOUS
 62
     1
100
AcDbLine
 10
29.721344
 20
457.948181
 30
0.0
 11
49.721344
 21
457.948181
 31
0.0
  0
LINE
  5
711
100
AcDbEntity
  8
LAY-9
  6
CONTINUOUS
 62
     1
100
AcDbLine
 10
230.8
 20
460.948181
 30
0.0
 11
286.0
 21
460.948181
 31
0.0
  0
LINE
  5
712
100
AcDbEntity
  8
LAY-9
  6
CONTINUOUS
 62
     1
100
AcDbLine
 10
252.0
 20
457.948181
 30
0.0
 11
285.0
 21
457.948181
 31
0.0
  0
LINE
  5
713
100
AcDbEntity
  8
LAY-9
  6
CONTINUOUS
 62
     1
100
AcDbLine
 10
714.7
 20
510.312347
 30
0.0
 11
715.978461
 21
510.312347
 31
0.0
  0
LINE
  5
714
100
AcDbEntity
  8
LAY-9
  6
CONTINUOUS
 62
     1
100
AcDbLine
 10
674.178461
 20
510.312347
 30
0.0
 11
678.078461
 21
510.312347
 31
0.0
  0
LINE
  5
715
100
AcDbEntity
  8
LAY-9
  6
CONTINUOUS
 62
     1
100
AcDbLine
 10
675.1
 20
513.31232
 30
0.0
 11
652.0
 21
513.31232
 31
0.0
  0
LINE
  5
716
100
AcDbEntity
  8
LAY-9
  6
CONTINUOUS
 62
     1
100
AcDbLine
 10
718.7
 20
513.31235
 30
0.0
 11
743.9
 21
513.31235
 31
0.0
  0
LINE
  5
717
100
AcDbEntity
  8
LAY-9
  6
CONTINUOUS
 62
     1
100
AcDbLine
 10
636.7
 20
311.947623
 30
0.0
 11
585.928656
 21
311.947623
 31
0.0
  0
LINE
  5
718
100
AcDbEntity
  8
LAY-9
  6
CONTINUOUS
 62
     1
100
AcDbLine
 10
740.0
 20
311.948003
 30
0.0
 11
776.928656
 21
311.948003
 31
0.0
  0
LINE
  5
719
100
AcDbEntity
  8
LAY-9
  6
CONTINUOUS
 62
     1
100
AcDbLine
 10
26.72136
 20
136.947876
 30
0.0
 11
44.8
 21
136.947876
 31
0.0
  0
LINE
  5
71A
100
AcDbEntity
  8
LAY-9
  6
CONTINUOUS
 62
     1
100
AcDbLine
 10
154.8
 20
136.947876
 30
0.0
 11
473.700016
 21
136.947876
 31
0.0
  0
LINE
  5
71B
100
AcDbEntity
  8
LAY-9
  6
CONTINUOUS
 62
     1
100
AcDbLine
 10
676.478461
 20
356.447845
 30
0.0
 11
713.678461
 21
356.447845
 31
0.0
  0
LINE
  5
71C
100
AcDbEntity
  8
LAY-9
  6
CONTINUOUS
 62
     1
100
AcDbLine
 10
676.478461
 20
351.947876
 30
0.0
 11
713.678461
 21
351.947876
 31
0.0
  0
LINE
  5
71D
100
AcDbEntity
  8
LAY-9
  6
CONTINUOUS
 62
     1
100
AcDbLine
 10
676.478461
 20
358.747845
 30
0.0
 11
713.678461
 21
358.747845
 31
0.0
  0
ARC
  5
71E
100
AcDbEntity
  8
LAY-9
  6
CONTINUOUS
 62
     1
100
AcDbCircle
 10
676.478461
 20
356.447845
 30
0.0
 40
2.3
100
AcDbArc
 50
90.0
 51
180.0
  0
ARC
  5
71F
100
AcDbEntity
  8
LAY-9
  6
CONTINUOUS
 62
     1
100
AcDbCircle
 10
713.678461
 20
356.447845
 30
0.0
 40
2.3
100
AcDbArc
 50
0.0
 51
90.0
  0
LINE
  5
720
100
AcDbEntity
  8
LAY-9
  6
CONTINUOUS
 62
     1
100
AcDbLine
 10
672.578461
 20
405.902536
 30
0.0
 11
672.578461
 21
321.947933
 31
0.0
  0
LINE
  5
721
100
AcDbEntity
  8
LAY-9
  6
CONTINUOUS
 62
     1
100
AcDbLine
 10
674.178461
 20
405.902536
 30
0.0
 11
674.178461
 21
321.947933
 31
0.0
  0
LINE
  5
722
100
AcDbEntity
  8
LAY-9
  6
CONTINUOUS
 62
     1
100
AcDbLine
 10
676.478461
 20
356.447845
 30
0.0
 11
676.478461
 21
324.747845
 31
0.0
  0
LINE
  5
723
100
AcDbEntity
  8
LAY-9
  6
CONTINUOUS
 62
     1
100
AcDbLine
 10
717.578461
 20
405.902536
 30
0.0
 11
717.578461
 21
321.947933
 31
0.0
  0
LINE
  5
724
100
AcDbEntity
  8
LAY-9
  6
CONTINUOUS
 62
     1
100
AcDbLine
 10
715.978461
 20
405.902536
 30
0.0
 11
715.978461
 21
321.947933
 31
0.0
  0
LINE
  5
725
100
AcDbEntity
  8
LAY-9
  6
CONTINUOUS
 62
     1
100
AcDbLine
 10
713.678461
 20
356.447845
 30
0.0
 11
713.678461
 21
324.747845
 31
0.0
  0
LINE
  5
726
100
AcDbEntity
  8
LAY-9
  6
CONTINUOUS
 62
     1
100
AcDbLine
 10
717.578461
 20
321.947933
 30
0.0
 11
715.978461
 21
321.947933
 31
0.0
  0
LINE
  5
727
100
AcDbEntity
  8
LAY-9
  6
CONTINUOUS
 62
     1
100
AcDbLine
 10
672.578461
 20
321.947933
 30
0.0
 11
674.178461
 21
321.947933
 31
0.0
  0
LINE
  5
728
100
AcDbEntity
  8
LAY-9
  6
CONTINUOUS
 62
     1
100
AcDbLine
 10
676.478461
 20
324.747845
 30
0.0
 11
674.178461
 21
324.747845
 31
0.0
  0
LINE
  5
729
100
AcDbEntity
  8
LAY-9
  6
CONTINUOUS
 62
     1
100
AcDbLine
 10
715.978461
 20
324.747845
 30
0.0
 11
713.678461
 21
324.747845
 31
0.0
  0
LINE
  5
72A
100
AcDbEntity
  8
LAY-9
  6
CONTINUOUS
 62
     1
100
AcDbLine
 10
31.32136
 20
176.947876
 30
0.0
 11
470.5406
 21
176.947876
 31
0.0
  0
LINE
  5
72B
100
AcDbEntity
  8
LAY-9
  6
CONTINUOUS
 62
     1
100
AcDbLine
 10
31.32136
 20
181.447876
 30
0.0
 11
472.038676
 21
181.447876
 31
0.0
  0
LINE
  5
72C
100
AcDbEntity
  8
LAY-9
  6
CONTINUOUS
 62
     1
100
AcDbLine
 10
31.32136
 20
183.747876
 30
0.0
 11
472.536832
 21
183.747876
 31
0.0
  0
LINE
  5
72D
100
AcDbEntity
  8
LAY-9
  6
CONTINUOUS
 62
     1
100
AcDbLine
 10
26.72136
 20
215.0
 30
0.0
 11
26.72136
 21
125.947815
 31
0.0
  0
POLYLINE
  5
72E
100
AcDbEntity
  8
LAY-9
  6
CONTINUOUS
 62
     1
100
AcDb2dPolyline
 66
     1
 10
0.0
 20
0.0
 30
0.0
 70
   128
  0
VERTEX
  5
72F
100
AcDbEntity
  8
LAY-9
  6
CONTINUOUS
 62
     1
100
AcDbVertex
100
AcDb2dVertex
 10
470.700016
 20
150.947815
 30
0.0
  0
VERTEX
  5
730
100
AcDbEntity
  8
LAY-9
  6
CONTINUOUS
 62
     1
100
AcDbVertex
100
AcDb2dVertex
 10
470.669556
 20
151.075964
 30
0.0
  0
VERTEX
  5
731
100
AcDbEntity
  8
LAY-9
  6
CONTINUOUS
 62
     1
100
AcDbVertex
100
AcDb2dVertex
 10
470.58408
 20
151.441376
 30
0.0
  0
VERTEX
  5
732
100
AcDbEntity
  8
LAY-9
  6
CONTINUOUS
 62
     1
100
AcDbVertex
100
AcDb2dVertex
 10
470.452441
 20
152.015498
 30
0.0
  0
VERTEX
  5
733
100
AcDbEntity
  8
LAY-9
  6
CONTINUOUS
 62
     1
100
AcDbVertex
100
AcDb2dVertex
 10
470.283495
 20
152.769778
 30
0.0
  0
VERTEX
  5
734
100
AcDbEntity
  8
LAY-9
  6
CONTINUOUS
 62
     1
100
AcDbVertex
100
AcDb2dVertex
 10
470.086095
 20
153.675664
 30
0.0
  0
VERTEX
  5
735
100
AcDbEntity
  8
LAY-9
  6
CONTINUOUS
 62
     1
100
AcDbVertex
100
AcDb2dVertex
 10
469.869095
 20
154.704602
 30
0.0
  0
VERTEX
  5
736
100
AcDbEntity
  8
LAY-9
  6
CONTINUOUS
 62
     1
100
AcDbVertex
100
AcDb2dVertex
 10
469.641352
 20
155.828041
 30
0.0
  0
VERTEX
  5
737
100
AcDbEntity
  8
LAY-9
  6
CONTINUOUS
 62
     1
100
AcDbVertex
100
AcDb2dVertex
 10
469.411717
 20
157.017428
 30
0.0
  0
VERTEX
  5
738
100
AcDbEntity
  8
LAY-9
  6
CONTINUOUS
 62
     1
100
AcDbVertex
100
AcDb2dVertex
 10
469.189047
 20
158.244211
 30
0.0
  0
VERTEX
  5
739
100
AcDbEntity
  8
LAY-9
  6
CONTINUOUS
 62
     1
100
AcDbVertex
100
AcDb2dVertex
 10
468.982195
 20
159.479836
 30
0.0
  0
VERTEX
  5
73A
100
AcDbEntity
  8
LAY-9
  6
CONTINUOUS
 62
     1
100
AcDbVertex
100
AcDb2dVertex
 10
468.800016
 20
160.695752
 30
0.0
  0
VERTEX
  5
73B
100
AcDbEntity
  8
LAY-9
  6
CONTINUOUS
 62
     1
100
AcDbVertex
100
AcDb2dVertex
 10
468.577909
 20
162.525421
 30
0.0
  0
VERTEX
  5
73C
100
AcDbEntity
  8
LAY-9
  6
CONTINUOUS
 62
     1
100
AcDbVertex
100
AcDb2dVertex
 10
468.436343
 20
164.244381
 30
0.0
  0
VERTEX
  5
73D
100
AcDbEntity
  8
LAY-9
  6
CONTINUOUS
 62
     1
100
AcDbVertex
100
AcDb2dVertex
 10
468.372367
 20
165.862102
 30
0.0
  0
VERTEX
  5
73E
100
AcDbEntity
  8
LAY-9
  6
CONTINUOUS
 62
     1
100
AcDbVertex
100
AcDb2dVertex
 10
468.383034
 20
167.388055
 30
0.0
  0
VERTEX
  5
73F
100
AcDbEntity
  8
LAY-9
  6
CONTINUOUS
 62
     1
100
AcDbVertex
100
AcDb2dVertex
 10
468.465396
 20
168.831712
 30
0.0
  0
VERTEX
  5
740
100
AcDbEntity
  8
LAY-9
  6
CONTINUOUS
 62
     1
100
AcDbVertex
100
AcDb2dVertex
 10
468.616502
 20
170.202544
 30
0.0
  0
VERTEX
  5
741
100
AcDbEntity
  8
LAY-9
  6
CONTINUOUS
 62
     1
100
AcDbVertex
100
AcDb2dVertex
 10
468.833406
 20
171.510022
 30
0.0
  0
VERTEX
  5
742
100
AcDbEntity
  8
LAY-9
  6
CONTINUOUS
 62
     1
100
AcDbVertex
100
AcDb2dVertex
 10
469.113158
 20
172.763616
 30
0.0
  0
VERTEX
  5
743
100
AcDbEntity
  8
LAY-9
  6
CONTINUOUS
 62
     1
100
AcDbVertex
100
AcDb2dVertex
 10
469.452809
 20
173.972799
 30
0.0
  0
VERTEX
  5
744
100
AcDbEntity
  8
LAY-9
  6
CONTINUOUS
 62
     1
100
AcDbVertex
100
AcDb2dVertex
 10
469.849411
 20
175.147041
 30
0.0
  0
VERTEX
  5
745
100
AcDbEntity
  8
LAY-9
  6
CONTINUOUS
 62
     1
100
AcDbVertex
100
AcDb2dVertex
 10
470.300016
 20
176.295813
 30
0.0
  0
VERTEX
  5
746
100
AcDbEntity
  8
LAY-9
  6
CONTINUOUS
 62
     1
100
AcDbVertex
100
AcDb2dVertex
 10
470.594038
 20
176.978469
 30
0.0
  0
VERTEX
  5
747
100
AcDbEntity
  8
LAY-9
  6
CONTINUOUS
 62
     1
100
AcDbVertex
100
AcDb2dVertex
 10
470.898076
 20
177.664029
 30
0.0
  0
VERTEX
  5
748
100
AcDbEntity
  8
LAY-9
  6
CONTINUOUS
 62
     1
100
AcDbVertex
100
AcDb2dVertex
 10
471.203735
 20
178.361166
 30
0.0
  0
VERTEX
  5
749
100
AcDbEntity
  8
LAY-9
  6
CONTINUOUS
 62
     1
100
AcDbVertex
100
AcDb2dVertex
 10
471.50262
 20
179.078553
 30
0.0
  0
VERTEX
  5
74A
100
AcDbEntity
  8
LAY-9
  6
CONTINUOUS
 62
     1
100
AcDbVertex
100
AcDb2dVertex
 10
471.786338
 20
179.824864
 30
0.0
  0
VERTEX
  5
74B
100
AcDbEntity
  8
LAY-9
  6
CONTINUOUS
 62
     1
100
AcDbVertex
100
AcDb2dVertex
 10
472.046493
 20
180.608771
 30
0.0
  0
VERTEX
  5
74C
100
AcDbEntity
  8
LAY-9
  6
CONTINUOUS
 62
     1
100
AcDbVertex
100
AcDb2dVertex
 10
472.274691
 20
181.438948
 30
0.0
  0
VERTEX
  5
74D
100
AcDbEntity
  8
LAY-9
  6
CONTINUOUS
 62
     1
100
AcDbVertex
100
AcDb2dVertex
 10
472.462536
 20
182.324067
 30
0.0
  0
VERTEX
  5
74E
100
AcDbEntity
  8
LAY-9
  6
CONTINUOUS
 62
     1
100
AcDbVertex
100
AcDb2dVertex
 10
472.601636
 20
183.272802
 30
0.0
  0
VERTEX
  5
74F
100
AcDbEntity
  8
LAY-9
  6
CONTINUOUS
 62
     1
100
AcDbVertex
100
AcDb2dVertex
 10
472.683594
 20
184.293827
 30
0.0
  0
VERTEX
  5
750
100
AcDbEntity
  8
LAY-9
  6
CONTINUOUS
 62
     1
100
AcDbVertex
100
AcDb2dVertex
 10
472.700016
 20
185.395813
 30
0.0
  0
VERTEX
  5
751
100
AcDbEntity
  8
LAY-9
  6
CONTINUOUS
 62
     1
100
AcDbVertex
100
AcDb2dVertex
 10
472.679923
 20
186.017676
 30
0.0
  0
VERTEX
  5
752
100
AcDbEntity
  8
LAY-9
  6
CONTINUOUS
 62
     1
100
AcDbVertex
100
AcDb2dVertex
 10
472.642755
 20
186.650339
 30
0.0
  0
VERTEX
  5
753
100
AcDbEntity
  8
LAY-9
  6
CONTINUOUS
 62
     1
100
AcDbVertex
100
AcDb2dVertex
 10
472.592512
 20
187.279047
 30
0.0
  0
VERTEX
  5
754
100
AcDbEntity
  8
LAY-9
  6
CONTINUOUS
 62
     1
100
AcDbVertex
100
AcDb2dVertex
 10
472.533196
 20
187.889045
 30
0.0
  0
VERTEX
  5
755
100
AcDbEntity
  8
LAY-9
  6
CONTINUOUS
 62
     1
100
AcDbVertex
100
AcDb2dVertex
 10
472.468807
 20
188.46558
 30
0.0
  0
VERTEX
  5
756
100
AcDbEntity
  8
LAY-9
  6
CONTINUOUS
 62
     1
100
AcDbVertex
100
AcDb2dVertex
 10
472.403348
 20
188.993897
 30
0.0
  0
VERTEX
  5
757
100
AcDbEntity
  8
LAY-9
  6
CONTINUOUS
 62
     1
100
AcDbVertex
100
AcDb2dVertex
 10
472.340818
 20
189.459242
 30
0.0
  0
VERTEX
  5
758
100
AcDbEntity
  8
LAY-9
  6
CONTINUOUS
 62
     1
100
AcDbVertex
100
AcDb2dVertex
 10
472.285219
 20
189.84686
 30
0.0
  0
VERTEX
  5
759
100
AcDbEntity
  8
LAY-9
  6
CONTINUOUS
 62
     1
100
AcDbVertex
100
AcDb2dVertex
 10
472.240551
 20
190.141998
 30
0.0
  0
VERTEX
  5
75A
100
AcDbEntity
  8
LAY-9
  6
CONTINUOUS
 62
     1
100
AcDbVertex
100
AcDb2dVertex
 10
472.210817
 20
190.3299
 30
0.0
  0
VERTEX
  5
75B
100
AcDbEntity
  8
LAY-9
  6
CONTINUOUS
 62
     1
100
AcDbVertex
100
AcDb2dVertex
 10
472.200016
 20
190.395813
 30
0.0
  0
SEQEND
  5
75C
100
AcDbEntity
  8
LAY-9
  6
CONTINUOUS
 62
     1
  0
LINE
  5
75D
100
AcDbEntity
  8
LAY-9
  6
CONTINUOUS
 62
     1
100
AcDbLine
 10
29.72136
 20
146.947815
 30
0.0
 11
75.433854
 21
146.947815
 31
0.0
  0
LINE
  5
75E
100
AcDbEntity
  8
LAY-9
  6
CONTINUOUS
 62
     1
100
AcDbLine
 10
29.72136
 20
215.0
 30
0.0
 11
29.72136
 21
146.947815
 31
0.0
  0
LINE
  5
75F
100
AcDbEntity
  8
LAY-9
  6
CONTINUOUS
 62
     1
100
AcDbLine
 10
31.32136
 20
215.0
 30
0.0
 11
31.32136
 21
146.947815
 31
0.0
  0
LINE
  5
760
100
AcDbEntity
  8
LAY-9
  6
CONTINUOUS
 62
     1
100
AcDbLine
 10
104.008866
 20
146.947815
 30
0.0
 11
470.700016
 21
146.947815
 31
0.0
  0
TEXT
  5
761
100
AcDbEntity
  8
LAY-9
  6
CONTINUOUS
 62
     2
100
AcDbText
 10
204.600031
 20
152.447892
 30
0.0
 40
5.0
  1
１１
 50
90.0
 41
0.672
  7
EXCADSTD
 72
     5
 11
204.600031
 21
159.780691
 31
0.0
100
AcDbText
  0
LINE
  5
762
100
AcDbEntity
  8
LAY-9
  6
CONTINUOUS
 62
     1
100
AcDbLine
 10
205.100031
 20
161.947876
 30
0.0
 11
205.100031
 21
150.947907
 31
0.0
  0
LINE
  5
763
100
AcDbEntity
  8
LAY-9
  6
CONTINUOUS
 62
     1
100
AcDbLine
 10
205.433364
 20
159.947876
 30
0.0
 11
205.100031
 21
161.947876
 31
0.0
  0
LINE
  5
764
100
AcDbEntity
  8
LAY-9
  6
CONTINUOUS
 62
     1
100
AcDbLine
 10
205.100031
 20
161.947876
 30
0.0
 11
204.766698
 21
159.947876
 31
0.0
  0
LINE
  5
765
100
AcDbEntity
  8
LAY-9
  6
CONTINUOUS
 62
     1
100
AcDbLine
 10
204.766698
 20
152.947907
 30
0.0
 11
205.100031
 21
150.947907
 31
0.0
  0
LINE
  5
766
100
AcDbEntity
  8
LAY-9
  6
CONTINUOUS
 62
     1
100
AcDbLine
 10
205.100031
 20
150.947907
 30
0.0
 11
205.433364
 21
152.947907
 31
0.0
  0
LINE
  5
767
100
AcDbEntity
  8
LAY-9
  6
CONTINUOUS
 62
     1
100
AcDbLine
 10
119.22139
 20
150.947907
 30
0.0
 11
218.6
 21
150.947907
 31
0.0
  0
LINE
  5
768
100
AcDbEntity
  8
LAY-9
  6
CONTINUOUS
 62
     1
100
AcDbLine
 10
217.1
 20
176.947876
 30
0.0
 11
217.1
 21
150.947907
 31
0.0
  0
LINE
  5
769
100
AcDbEntity
  8
LAY-9
  6
CONTINUOUS
 62
     1
100
AcDbLine
 10
217.433333
 20
174.947876
 30
0.0
 11
217.1
 21
176.947876
 31
0.0
  0
LINE
  5
76A
100
AcDbEntity
  8
LAY-9
  6
CONTINUOUS
 62
     1
100
AcDbLine
 10
217.1
 20
176.947876
 30
0.0
 11
216.766667
 21
174.947876
 31
0.0
  0
LINE
  5
76B
100
AcDbEntity
  8
LAY-9
  6
CONTINUOUS
 62
     1
100
AcDbLine
 10
216.766667
 20
152.947907
 30
0.0
 11
217.1
 21
150.947907
 31
0.0
  0
LINE
  5
76C
100
AcDbEntity
  8
LAY-9
  6
CONTINUOUS
 62
     1
100
AcDbLine
 10
217.1
 20
150.947907
 30
0.0
 11
217.433333
 21
152.947907
 31
0.0
  0
TEXT
  5
76D
100
AcDbEntity
  8
LAY-9
  6
CONTINUOUS
 62
     2
100
AcDbText
 10
216.6
 20
161.947892
 30
0.0
 40
5.0
  1
２６
 50
90.0
 41
0.672
  7
EXCADSTD
 72
     5
 11
216.6
 21
169.280691
 31
0.0
100
AcDbText
  0
LINE
  5
76E
100
AcDbEntity
  8
LAY-9
  6
CONTINUOUS
 62
     1
100
AcDbLine
 10
217.1
 20
150.947907
 30
0.0
 11
217.1
 21
136.947876
 31
0.0
  0
LINE
  5
76F
100
AcDbEntity
  8
LAY-9
  6
CONTINUOUS
 62
     1
100
AcDbLine
 10
217.433333
 20
148.947907
 30
0.0
 11
217.1
 21
150.947907
 31
0.0
  0
LINE
  5
770
100
AcDbEntity
  8
LAY-9
  6
CONTINUOUS
 62
     1
100
AcDbLine
 10
217.1
 20
150.947907
 30
0.0
 11
216.766667
 21
148.947907
 31
0.0
  0
LINE
  5
771
100
AcDbEntity
  8
LAY-9
  6
CONTINUOUS
 62
     1
100
AcDbLine
 10
216.766667
 20
138.947876
 30
0.0
 11
217.1
 21
136.947876
 31
0.0
  0
LINE
  5
772
100
AcDbEntity
  8
LAY-9
  6
CONTINUOUS
 62
     1
100
AcDbLine
 10
217.1
 20
136.947876
 30
0.0
 11
217.433333
 21
138.947876
 31
0.0
  0
TEXT
  5
773
100
AcDbEntity
  8
LAY-9
  6
CONTINUOUS
 62
     2
100
AcDbText
 10
216.6
 20
139.947892
 30
0.0
 40
5.0
  1
１４
 50
90.0
 41
0.672
  7
EXCADSTD
 72
     5
 11
216.6
 21
147.280691
 31
0.0
100
AcDbText
  0
TEXT
  5
774
100
AcDbEntity
  8
LAY-9
  6
CONTINUOUS
 62
     2
100
AcDbText
 10
232.7
 20
137.947846
 30
0.0
 40
5.0
  1
１０
 50
90.0
 41
0.672
  7
EXCADSTD
 72
     5
 11
232.7
 21
145.280645
 31
0.0
100
AcDbText
  0
LINE
  5
775
100
AcDbEntity
  8
LAY-9
  6
CONTINUOUS
 62
     1
100
AcDbLine
 10
233.2
 20
136.947876
 30
0.0
 11
233.2
 21
146.947815
 31
0.0
  0
LINE
  5
776
100
AcDbEntity
  8
LAY-9
  6
CONTINUOUS
 62
     1
100
AcDbLine
 10
232.866667
 20
138.947876
 30
0.0
 11
233.2
 21
136.947876
 31
0.0
  0
LINE
  5
777
100
AcDbEntity
  8
LAY-9
  6
CONTINUOUS
 62
     1
100
AcDbLine
 10
233.2
 20
136.947876
 30
0.0
 11
233.533333
 21
138.947876
 31
0.0
  0
LINE
  5
778
100
AcDbEntity
  8
LAY-9
  6
CONTINUOUS
 62
     1
100
AcDbLine
 10
233.533333
 20
144.947815
 30
0.0
 11
233.2
 21
146.947815
 31
0.0
  0
LINE
  5
779
100
AcDbEntity
  8
LAY-9
  6
CONTINUOUS
 62
     1
100
AcDbLine
 10
233.2
 20
146.947815
 30
0.0
 11
232.866667
 21
144.947815
 31
0.0
  0
TEXT
  5
77A
100
AcDbEntity
  8
LAY-9
  6
CONTINUOUS
 62
     2
100
AcDbText
 10
232.7
 20
157.947846
 30
0.0
 40
5.0
  1
３０
 50
90.0
 41
0.672
  7
EXCADSTD
 72
     5
 11
232.7
 21
165.280645
 31
0.0
100
AcDbText
  0
LINE
  5
77B
100
AcDbEntity
  8
LAY-9
  6
CONTINUOUS
 62
     1
100
AcDbLine
 10
233.2
 20
146.947815
 30
0.0
 11
233.2
 21
176.947876
 31
0.0
  0
LINE
  5
77C
100
AcDbEntity
  8
LAY-9
  6
CONTINUOUS
 62
     1
100
AcDbLine
 10
232.866667
 20
148.947815
 30
0.0
 11
233.2
 21
146.947815
 31
0.0
  0
LINE
  5
77D
100
AcDbEntity
  8
LAY-9
  6
CONTINUOUS
 62
     1
100
AcDbLine
 10
233.2
 20
146.947815
 30
0.0
 11
233.533333
 21
148.947815
 31
0.0
  0
LINE
  5
77E
100
AcDbEntity
  8
LAY-9
  6
CONTINUOUS
 62
     1
100
AcDbLine
 10
233.533333
 20
174.947876
 30
0.0
 11
233.2
 21
176.947876
 31
0.0
  0
LINE
  5
77F
100
AcDbEntity
  8
LAY-9
  6
CONTINUOUS
 62
     1
100
AcDbLine
 10
233.2
 20
176.947876
 30
0.0
 11
232.866667
 21
174.947876
 31
0.0
  0
LINE
  5
780
100
AcDbEntity
  8
LAY-10
  6
CONTINUOUS
 62
     5
100
AcDbLine
 10
15.0
 20
15.0
 30
0.0
 11
826.0
 21
15.0
 31
0.0
  0
LINE
  5
781
100
AcDbEntity
  8
LAY-10
  6
CONTINUOUS
 62
     5
100
AcDbLine
 10
826.0
 20
15.0
 30
0.0
 11
826.0
 21
579.0
 31
0.0
  0
LINE
  5
782
100
AcDbEntity
  8
LAY-10
  6
CONTINUOUS
 62
     5
100
AcDbLine
 10
15.0
 20
15.0
 30
0.0
 11
15.0
 21
579.0
 31
0.0
  0
LINE
  5
783
100
AcDbEntity
  8
LAY-10
  6
CONTINUOUS
 62
     5
100
AcDbLine
 10
15.0
 20
579.0
 30
0.0
 11
826.0
 21
579.0
 31
0.0
  0
LINE
  5
784
100
AcDbEntity
  8
LAY-10
  6
CONTINUOUS
 62
     5
100
AcDbLine
 10
15.0
 20
40.0
 30
0.0
 11
826.0
 21
40.0
 31
0.0
  0
LINE
  5
785
100
AcDbEntity
  8
LAY-10
  6
CONTINUOUS
 62
     1
100
AcDbLine
 10
224.0
 20
40.0
 30
0.0
 11
224.0
 21
15.0
 31
0.0
  0
LINE
  5
786
100
AcDbEntity
  8
LAY-10
  6
CONTINUOUS
 62
     1
100
AcDbLine
 10
249.5
 20
40.0
 30
0.0
 11
249.5
 21
15.0
 31
0.0
  0
LINE
  5
787
100
AcDbEntity
  8
LAY-10
  6
CONTINUOUS
 62
     1
100
AcDbLine
 10
275.0
 20
40.0
 30
0.0
 11
275.0
 21
15.0
 31
0.0
  0
LINE
  5
788
100
AcDbEntity
  8
LAY-10
  6
CONTINUOUS
 62
     1
100
AcDbLine
 10
300.5
 20
40.0
 30
0.0
 11
300.5
 21
15.0
 31
0.0
  0
LINE
  5
789
100
AcDbEntity
  8
LAY-10
  6
CONTINUOUS
 62
     1
100
AcDbLine
 10
326.0
 20
40.0
 30
0.0
 11
326.0
 21
15.0
 31
0.0
  0
LINE
  5
78A
100
AcDbEntity
  8
LAY-10
  6
CONTINUOUS
 62
     1
100
AcDbLine
 10
377.0
 20
40.0
 30
0.0
 11
377.0
 21
15.0
 31
0.0
  0
LINE
  5
78B
100
AcDbEntity
  8
LAY-10
  6
CONTINUOUS
 62
     1
100
AcDbLine
 10
738.0
 20
40.0
 30
0.0
 11
738.0
 21
15.0
 31
0.0
  0
LINE
  5
78C
100
AcDbEntity
  8
LAY-10
  6
CONTINUOUS
 62
     1
100
AcDbLine
 10
224.0
 20
32.0
 30
0.0
 11
377.0
 21
32.0
 31
0.0
  0
TEXT
  5
78D
100
AcDbEntity
  8
LAY-10
  6
CONTINUOUS
 62
     4
100
AcDbText
 10
227.5
 20
33.0
 30
0.0
 40
6.0
  1
検　  図
 41
0.57856
  7
EXCADSTD
 72
     5
 11
246.700001
 21
33.0
 31
0.0
100
AcDbText
  0
TEXT
  5
78E
100
AcDbEntity
  8
LAY-10
  6
CONTINUOUS
 62
     4
100
AcDbText
 10
253.2
 20
33.0
 30
0.0
 40
6.0
  1
担　　当
 41
0.672
  7
EXCADSTD
 72
     5
 11
272.400001
 21
33.0
 31
0.0
100
AcDbText
  0
TEXT
  5
78F
100
AcDbEntity
  8
LAY-10
  6
CONTINUOUS
 62
     4
100
AcDbText
 10
278.4
 20
33.0
 30
0.0
 40
6.0
  1
製　　図
 41
0.672
  7
EXCADSTD
 72
     5
 11
297.600001
 21
33.0
 31
0.0
100
AcDbText
  0
TEXT
  5
790
100
AcDbEntity
  8
LAY-10
  6
CONTINUOUS
 62
     4
100
AcDbText
 10
303.9
 20
33.0
 30
0.0
 40
6.0
  1
尺　　度
 41
0.672
  7
EXCADSTD
 72
     5
 11
323.100001
 21
33.0
 31
0.0
100
AcDbText
  0
TEXT
  5
791
100
AcDbEntity
  8
LAY-10
  6
CONTINUOUS
 62
     4
100
AcDbText
 10
339.5
 20
33.0
 30
0.0
 40
6.0
  1
作成年月日
 41
0.672
  7
EXCADSTD
 72
     5
 11
363.500001
 21
33.0
 31
0.0
100
AcDbText
  0
TEXT
  5
792
100
AcDbEntity
  8
LAY-10
  6
CONTINUOUS
 62
   134
100
AcDbText
 10
42.98
 20
20.91
 30
0.0
 40
13.0
  1
日本ドアーチエック製造株式会社
 41
0.653908
  7
EXCADSTD
 72
     5
 11
194.779994
 21
20.91
 31
0.0
100
AcDbText
  0
LINE
  5
793
100
AcDbEntity
  8
LAY-10
  6
CONTINUOUS
 62
     1
100
AcDbLine
 10
841.0
 20
0.0
 30
0.0
 11
841.0
 21
2.0
 31
0.0
  0
LINE
  5
794
100
AcDbEntity
  8
LAY-10
  6
CONTINUOUS
 62
     1
100
AcDbLine
 10
841.0
 20
592.0
 30
0.0
 11
841.0
 21
594.0
 31
0.0
  0
LINE
  5
795
100
AcDbEntity
  8
LAY-10
  6
CONTINUOUS
 62
     1
100
AcDbLine
 10
841.0
 20
594.0
 30
0.0
 11
839.0
 21
594.0
 31
0.0
  0
LINE
  5
796
100
AcDbEntity
  8
LAY-10
  6
CONTINUOUS
 62
     1
100
AcDbLine
 10
2.0
 20
594.0
 30
0.0
 11
0.0
 21
594.0
 31
0.0
  0
LINE
  5
797
100
AcDbEntity
  8
LAY-10
  6
CONTINUOUS
 62
     1
100
AcDbLine
 10
0.0
 20
594.0
 30
0.0
 11
0.0
 21
592.0
 31
0.0
  0
LINE
  5
798
100
AcDbEntity
  8
LAY-10
  6
CONTINUOUS
 62
     1
100
AcDbLine
 10
0.0
 20
2.0
 30
0.0
 11
0.0
 21
0.0
 31
0.0
  0
LINE
  5
799
100
AcDbEntity
  8
LAY-10
  6
CONTINUOUS
 62
     1
100
AcDbLine
 10
0.0
 20
0.0
 30
0.0
 11
2.0
 21
0.0
 31
0.0
  0
LINE
  5
79A
100
AcDbEntity
  8
LAY-10
  6
CONTINUOUS
 62
     1
100
AcDbLine
 10
839.0
 20
0.0
 30
0.0
 11
841.0
 21
0.0
 31
0.0
  0
TEXT
  5
79B
100
AcDbEntity
  8
LAY-10
  6
CONTINUOUS
 62
     4
100
AcDbText
 10
383.0
 20
33.0
 30
0.0
 40
6.0
  1
図 面 名
 41
0.57856
  7
EXCADSTD
 72
     5
 11
402.200001
 21
33.0
 31
0.0
100
AcDbText
  0
TEXT
  5
79C
100
AcDbEntity
  8
LAY-10
  6
CONTINUOUS
 62
     4
100
AcDbText
 10
744.0
 20
33.0
 30
0.0
 40
6.0
  1
図面番号
 41
0.672
  7
EXCADSTD
 72
     5
 11
763.200001
 21
33.0
 31
0.0
100
AcDbText
  0
TEXT
  5
79D
100
AcDbEntity
  8
LAY-10
  6
CONTINUOUS
 62
     2
100
AcDbText
 10
306.5
 20
20.2
 30
0.0
 40
6.0
  1
１／１
 41
0.672
  7
EXCADSTD
 72
     5
 11
320.900001
 21
20.2
 31
0.0
100
AcDbText
  0
TEXT
  5
79E
100
AcDbEntity
  8
LAY-10
  6
CONTINUOUS
 62
     2
100
AcDbText
 10
406.828367
 20
19.274519
 30
0.0
 40
10.0
  1
ピボットヒンジ　ＴＣ－１３０(本体埋込型 )　納まり図
 41
0.655621
  7
EXCADSTD
 72
     5
 11
606.828367
 21
19.274519
 31
0.0
100
AcDbText
  0
ENDSEC
  0
SECTION
  2
OBJECTS
  0
DICTIONARY
  5
19
100
AcDbDictionary
  3
ACAD_GROUP
350
1A
  3
ACAD_MLINESTYLE
350
1B
  0
DICTIONARY
  5
1A
102
{ACAD_REACTORS
330
19
102
}
100
AcDbDictionary
  0
DICTIONARY
  5
1B
102
{ACAD_REACTORS
330
19
102
}
100
AcDbDictionary
  3
STANDARD
350
1C
  0
MLINESTYLE
  5
1C
102
{ACAD_REACTORS
330
1B
102
}
100
AcDbMlineStyle
  2
Standard
 70
     0
  3

 62
     0
 51
90.0
 52
90.0
 71
     2
 49
0.5
 62
   256
  6
ByLayer
 49
-0.5
 62
   256
  6
ByLayer
  0
ENDSEC
  0
EOF
