  0
SECTION
  2
HEADER
  9
$ACADVER
  1
AC1014
  9
$ACADMAINTVER
 70
     0
  9
$DWGCODEPAGE
  3
ANSI_932
  9
$INSBASE
 10
0.0
 20
0.0
 30
0.0
  9
$EXTMIN
 10
0.0
 20
0.0
 30
0.0
  9
$EXTMAX
 10
841.0
 20
594.0
 30
0.0
  9
$LIMMIN
 10
0.0
 20
0.0
  9
$LIMMAX
 10
841.0
 20
594.0
  9
$ORTHOMODE
 70
     0
  9
$REGENMODE
 70
     1
  9
$FILLMODE
 70
     1
  9
$QTEXTMODE
 70
     0
  9
$MIRRTEXT
 70
     1
  9
$DRAGMODE
 70
     2
  9
$LTSCALE
 40
1.0
  9
$OSMODE
 70
     0
  9
$ATTMODE
 70
     1
  9
$TEXTSIZE
 40
0.2
  9
$TRACEWID
 40
0.05
  9
$TEXTSTYLE
  7
STANDARD
  9
$CLAYER
  8
LAY-1
  9
$CELTYPE
  6
CONTINUOUS
  9
$CECOLOR
 62
   256
  9
$CELTSCALE
 40
1.0
  9
$DELOBJ
 70
     1
  9
$DISPSILH
 70
     0
  9
$DIMSCALE
 40
1.0
  9
$DIMASZ
 40
0.18
  9
$DIMEXO
 40
0.0625
  9
$DIMDLI
 40
0.38
  9
$DIMRND
 40
0.0
  9
$DIMDLE
 40
0.0
  9
$DIMEXE
 40
0.18
  9
$DIMTP
 40
0.0
  9
$DIMTM
 40
0.0
  9
$DIMTXT
 40
0.18
  9
$DIMCEN
 40
0.09
  9
$DIMTSZ
 40
0.0
  9
$DIMTOL
 70
     0
  9
$DIMLIM
 70
     0
  9
$DIMTIH
 70
     1
  9
$DIMTOH
 70
     1
  9
$DIMSE1
 70
     0
  9
$DIMSE2
 70
     0
  9
$DIMTAD
 70
     0
  9
$DIMZIN
 70
     0
  9
$DIMBLK
  1

  9
$DIMASO
 70
     1
  9
$DIMSHO
 70
     1
  9
$DIMPOST
  1

  9
$DIMAPOST
  1

  9
$DIMALT
 70
     0
  9
$DIMALTD
 70
     2
  9
$DIMALTF
 40
25.4
  9
$DIMLFAC
 40
1.0
  9
$DIMTOFL
 70
     0
  9
$DIMTVP
 40
0.0
  9
$DIMTIX
 70
     0
  9
$DIMSOXD
 70
     0
  9
$DIMSAH
 70
     0
  9
$DIMBLK1
  1

  9
$DIMBLK2
  1

  9
$DIMSTYLE
  2
STANDARD
  9
$DIMCLRD
 70
     0
  9
$DIMCLRE
 70
     0
  9
$DIMCLRT
 70
     0
  9
$DIMTFAC
 40
1.0
  9
$DIMGAP
 40
0.09
  9
$DIMJUST
 70
     0
  9
$DIMSD1
 70
     0
  9
$DIMSD2
 70
     0
  9
$DIMTOLJ
 70
     1
  9
$DIMTZIN
 70
     0
  9
$DIMALTZ
 70
     0
  9
$DIMALTTZ
 70
     0
  9
$DIMFIT
 70
     3
  9
$DIMUPT
 70
     0
  9
$DIMUNIT
 70
     2
  9
$DIMDEC
 70
     4
  9
$DIMTDEC
 70
     4
  9
$DIMALTU
 70
     2
  9
$DIMALTTD
 70
     2
  9
$DIMTXSTY
  7
STANDARD
  9
$DIMAUNIT
 70
     0
  9
$LUNITS
 70
     2
  9
$LUPREC
 70
     4
  9
$SKETCHINC
 40
0.1
  9
$FILLETRAD
 40
0.0
  9
$AUNITS
 70
     0
  9
$AUPREC
 70
     0
  9
$MENU
  1
acad
  9
$ELEVATION
 40
0.0
  9
$PELEVATION
 40
0.0
  9
$THICKNESS
 40
0.0
  9
$LIMCHECK
 70
     0
  9
$BLIPMODE
 70
     1
  9
$CHAMFERA
 40
0.0
  9
$CHAMFERB
 40
0.0
  9
$CHAMFERC
 40
0.0
  9
$CHAMFERD
 40
0.0
  9
$SKPOLY
 70
     0
  9
$TDCREATE
 40
2454542.036972442
  9
$TDUPDATE
 40
2454542.036972442
  9
$TDINDWG
 40
0.0000000000
  9
$TDUSRTIMER
 40
0.0000000000
  9
$USRTIMER
 70
     1
  9
$ANGBASE
 50
0.0
  9
$ANGDIR
 70
     0
  9
$PDMODE
 70
     0
  9
$PDSIZE
 40
0.0
  9
$PLINEWID
 40
0.0
  9
$COORDS
 70
     1
  9
$SPLFRAME
 70
     0
  9
$SPLINETYPE
 70
     6
  9
$SPLINESEGS
 70
     8
  9
$ATTDIA
 70
     0
  9
$ATTREQ
 70
     1
  9
$HANDLING
 70
     1
  9
$HANDSEED
  5
74A
  9
$SURFTAB1
 70
     6
  9
$SURFTAB2
 70
     6
  9
$SURFTYPE
 70
     6
  9
$SURFU
 70
     6
  9
$SURFV
 70
     6
  9
$UCSNAME
  2

  9
$UCSORG
 10
0.0
 20
0.0
 30
0.0
  9
$UCSXDIR
 10
1.0
 20
0.0
 30
0.0
  9
$UCSYDIR
 10
0.0
 20
1.0
 30
0.0
  9
$PUCSNAME
  2

  9
$PUCSORG
 10
0.0
 20
0.0
 30
0.0
  9
$PUCSXDIR
 10
1.0
 20
0.0
 30
0.0
  9
$PUCSYDIR
 10
0.0
 20
1.0
 30
0.0
  9
$USERI1
 70
     0
  9
$USERI2
 70
     0
  9
$USERI3
 70
     0
  9
$USERI4
 70
     0
  9
$USERI5
 70
     0
  9
$USERR1
 40
0.0
  9
$USERR2
 40
0.0
  9
$USERR3
 40
0.0
  9
$USERR4
 40
0.0
  9
$USERR5
 40
0.0
  9
$WORLDVIEW
 70
     1
  9
$SHADEDGE
 70
     3
  9
$SHADEDIF
 70
    70
  9
$TILEMODE
 70
     1
  9
$MAXACTVP
 70
    16
  9
$PINSBASE
 10
0.0
 20
0.0
 30
0.0
  9
$PLIMCHECK
 70
     0
  9
$PEXTMIN
 10
1.000000E+20
 20
1.000000E+20
 30
1.000000E+20
  9
$PEXTMAX
 10
-1.000000E+20
 20
-1.000000E+20
 30
-1.000000E+20
  9
$PLIMMIN
 10
0.0
 20
0.0
  9
$PLIMMAX
 10
12.0
 20
9.0
  9
$UNITMODE
 70
     0
  9
$VISRETAIN
 70
     0
  9
$PLINEGEN
 70
     1
  9
$PSLTSCALE
 70
     0
  9
$TREEDEPTH
 70
  3020
  9
$PICKSTYLE
 70
     1
  9
$CMLSTYLE
  2
Standard
  9
$CMLJUST
 70
     0
  9
$CMLSCALE
 40
1.0
  9
$PROXYGRAPHICS
 70
     0
  9
$MEASUREMENT
 70
     0
  0
ENDSEC
  0
SECTION
  2
CLASSES
  0
CLASS
  1
LWPOLYLINE
  2
AcDbPolyline
  3
"AutoCAD"
 90
        0
280
     0
281
     1
  0
CLASS
  1
IMAGE
  2
AcDbRasterImage
  3
ISM
 90
      127
280
     0
281
     1
  0
CLASS
  1
OLE2FRAME
  2
AcDbOle2Frame
  3
""
 90
        0
280
     0
281
     1
  0
CLASS
  1
HATCH
  2
AcDbHatch
  3
"ACAD_SEDONA"
 90
        0
280
     0
281
     1
  0
CLASS
  1
DICTIONARYVAR
  2
AcDbDictionaryVar
  3
"AutoCAD"
 90
        0
280
     0
281
     0
  0
CLASS
  1
RASTERVARIABLES
  2
AcDbRasterVariables
  3
ISM
 90
        0
280
     0
281
     0
  0
CLASS
  1
IMAGEDEF
  2
AcDbRasterImageDef
  3
ISM
 90
        0
280
     0
281
     0
  0
CLASS
  1
IMAGEDEF_REACTOR
  2
AcDbRasterImageDefReactor
  3
ISM
 90
        1
280
     0
281
     0
  0
CLASS
  1
IDBUFFER
  2
AcDbIdBuffer
  3
"Acad"
 90
        0
280
     0
281
     0
  0
CLASS
  1
SPATIAL_FILTER
  2
AcDbSpatialFilter
  3
"Acad"
 90
        0
280
     0
281
     0
  0
CLASS
  1
XRECORD
  2
AcDbXrecord
  3
"<Built In>"
 90
        0
280
     0
281
     0
  0
CLASS
  1
SORTENTSTABLE
  2
AcDbSortentsTable
  3
"AutoCAD"
 90
        0
280
     0
281
     0
  0
CLASS
  1
LAYER_INDEX
  2
AcDbLayerIndex
  3
"Acad"
 90
        0
280
     0
281
     0
  0
CLASS
  1
SPATIAL_INDEX
  2
AcDbSpatialIndex
  3
"Acad"
 90
        0
280
     0
281
     0
  0
CLASS
  1
OBJECT_PTR
  2
CAseDLPNTableRecord
  3
"ASE-LPNTableRecord"
 90
        1
280
     0
281
     0
  0
CLASS
  1
LAYOUT
  2
AcDbLayout
  3
"AutoCAD 2000"
 90
        0
280
     0
281
     0
  0
CLASS
  1
PLOTSETTINGS
  2
AcDbPlotSettings
  3
"AutoCAD 2000"
 90
        0
280
     0
281
     0
  0
CLASS
  1
ACDBDICTIONARYWDFLT
  2
AcDbDictionaryWithDefault
  3
"AutoCAD 2000"
 90
        0
280
     0
281
     0
  0
CLASS
  1
ACDBPLACEHOLDER
  2
AcDbPlaceHolder
  3
"AutoCAD 2000"
 90
        0
280
     0
281
     0
  0
CLASS
  1
VBA_PROJECT
  2
AcDbVbaProject
  3
"acadvba"
 90
        0
280
     0
281
     0
  0
CLASS
  1
WIPEOUT
  2
AcDbWipeout
  3
WipeOut|AutoCAD Express Tool|expresstools@autodesk.com
 90
      127
280
     0
281
     1
  0
CLASS
  1
WIPEOUTVARIABLES
  2
AcDbWipeoutVariables
  3
WipeOut|AutoCAD Express Tool|expresstools@autodesk.com
 90
        0
280
     0
281
     0
  0
CLASS
  1
RTEXT
  2
RText
  3
RText|AutoCAD Express Tool|expresstools@autodesk.com
 90
        0
280
     0
281
     1
  0
CLASS
  1
ARCALIGNEDTEXT
  2
AcDbArcAlignedText
  3
ATEXT|AutoCAD Express Tool|expresstools@autodesk.com
 90
        0
280
     0
281
     1
  0
ENDSEC
  0
SECTION
  2
TABLES
  0
TABLE
  2
VPORT
  5
7
100
AcDbSymbolTable
 70
     1
  0
VPORT
  5
15
100
AcDbSymbolTableRecord
100
AcDbViewportTableRecord
  2
*ACTIVE
 70
     0
 10
0.0
 20
0.0
 11
1.0
 21
1.0
 12
420.5
 22
297.0
 13
0.0
 23
0.0
 14
1.0
 24
1.0
 15
0.0
 25
0.0
 16
0.0
 26
0.0
 36
1.0
 17
0.0
 27
0.0
 37
0.0
 40
594.0
 41
1.722533
 42
50.0
 43
0.0
 44
0.0
 50
0.0
 51
0.0
 71
     0
 72
   100
 73
     1
 74
     1
 75
     0
 76
     0
 77
     0
 78
     0
  0
ENDTAB
  0
TABLE
  2
LTYPE
  5
4
100
AcDbSymbolTable
 70
     9
  0
LTYPE
  5
11
100
AcDbSymbolTableRecord
100
AcDbLinetypeTableRecord
  2
BYBLOCK
 70
    64
  3

 72
    65
 73
     0
 40
0.0
  0
LTYPE
  5
12
100
AcDbSymbolTableRecord
100
AcDbLinetypeTableRecord
  2
BYLAYER
 70
    64
  3

 72
    65
 73
     0
 40
0.0
  0
LTYPE
  5
13
100
AcDbSymbolTableRecord
100
AcDbLinetypeTableRecord
  2
CONTINUOUS
 70
    64
  3
実線
 72
    65
 73
     0
 40
0.0
  0
LTYPE
  5
1D
100
AcDbSymbolTableRecord
100
AcDbLinetypeTableRecord
  2
DASHED
 70
    64
  3
Dashed __ __ __ __ __ __ __ __ __ __ __ __ __ _
 72
    65
 73
     2
 40
19.05
 49
12.7
 74
     0
 49
-6.35
 74
     0
  0
LTYPE
  5
1E
100
AcDbSymbolTableRecord
100
AcDbLinetypeTableRecord
  2
DASHED2
 70
    64
  3
Dashed (.5x) _ _ _ _ _ _ _ _ _ _ _ _ _ _ _ _ _ 
 72
    65
 73
     2
 40
9.525
 49
6.35
 74
     0
 49
-3.175
 74
     0
  0
LTYPE
  5
1F
100
AcDbSymbolTableRecord
100
AcDbLinetypeTableRecord
  2
DASHDOT
 70
    64
  3
Dash dot __ . __ . __ . __ . __ . __ . __ . __
 72
    65
 73
     4
 40
25.4
 49
12.7
 74
     0
 49
-6.35
 74
     0
 49
0.0
 74
     0
 49
-6.35
 74
     0
  0
LTYPE
  5
20
100
AcDbSymbolTableRecord
100
AcDbLinetypeTableRecord
  2
DIVIDE
 70
    64
  3
Divide ____ . . ____ . . ____ . . ____ . . ____
 72
    65
 73
     6
 40
31.75
 49
12.7
 74
     0
 49
-6.35
 74
     0
 49
0.0
 74
     0
 49
-6.35
 74
     0
 49
0.0
 74
     0
 49
-6.35
 74
     0
  0
LTYPE
  5
21
100
AcDbSymbolTableRecord
100
AcDbLinetypeTableRecord
  2
ACAD_ISO06W100
 70
    64
  3
ISO long-dash triple-dot ____ ... ____ ... ____
 72
    65
 73
     8
 40
36.0
 49
24.0
 74
     0
 49
-3.0
 74
     0
 49
0.0
 74
     0
 49
-3.0
 74
     0
 49
0.0
 74
     0
 49
-3.0
 74
     0
 49
0.0
 74
     0
 49
-3.0
 74
     0
  0
LTYPE
  5
22
100
AcDbSymbolTableRecord
100
AcDbLinetypeTableRecord
  2
ACAD_ISO15W100
 70
    64
  3
ISO double-dash triple-dot __ __ . . . __ __ . .
 72
    65
 73
    10
 40
39.0
 49
12.0
 74
     0
 49
-3.0
 74
     0
 49
12.0
 74
     0
 49
-3.0
 74
     0
 49
0.0
 74
     0
 49
-3.0
 74
     0
 49
0.0
 74
     0
 49
-3.0
 74
     0
 49
0.0
 74
     0
 49
-3.0
 74
     0
  0
ENDTAB
  0
TABLE
  2
LAYER
  5
2
100
AcDbSymbolTable
 70
     9
  0
LAYER
  5
14
100
AcDbSymbolTableRecord
100
AcDbLayerTableRecord
  2
0
 70
     0
 62
     7
  6
CONTINUOUS
  0
LAYER
  5
25
100
AcDbSymbolTableRecord
100
AcDbLayerTableRecord
  2
LAY-1
 70
    64
 62
     3
  6
CONTINUOUS
  0
LAYER
  5
26
100
AcDbSymbolTableRecord
100
AcDbLayerTableRecord
  2
LAY-2
 70
    64
 62
     3
  6
CONTINUOUS
  0
LAYER
  5
27
100
AcDbSymbolTableRecord
100
AcDbLayerTableRecord
  2
LAY-3
 70
    64
 62
     3
  6
CONTINUOUS
  0
LAYER
  5
28
100
AcDbSymbolTableRecord
100
AcDbLayerTableRecord
  2
LAY-4
 70
    64
 62
     3
  6
CONTINUOUS
  0
LAYER
  5
29
100
AcDbSymbolTableRecord
100
AcDbLayerTableRecord
  2
LAY-5
 70
    64
 62
     1
  6
DASHDOT
  0
LAYER
  5
2A
100
AcDbSymbolTableRecord
100
AcDbLayerTableRecord
  2
LAY-6
 70
    64
 62
     2
  6
CONTINUOUS
  0
LAYER
  5
2B
100
AcDbSymbolTableRecord
100
AcDbLayerTableRecord
  2
LAY-9
 70
    64
 62
     1
  6
CONTINUOUS
  0
LAYER
  5
2C
100
AcDbSymbolTableRecord
100
AcDbLayerTableRecord
  2
LAY-10
 70
    64
 62
     5
  6
CONTINUOUS
  0
ENDTAB
  0
TABLE
  2
STYLE
  5
3
100
AcDbSymbolTable
 70
     3
  0
STYLE
  5
17
100
AcDbSymbolTableRecord
100
AcDbTextStyleTableRecord
  2
STANDARD
 70
     0
 40
0.0
 41
1.0
 50
0.0
 71
     0
 42
0.0
  3
monotxt
  4
extfont
  0
STYLE
  5
23
100
AcDbSymbolTableRecord
100
AcDbTextStyleTableRecord
  2
EXCADSTD
 70
    64
 40
0.0
 41
1.0
 50
0.0
 71
     0
 42
0.2
  3
monotxt
  4
extfont
  0
STYLE
  5
24
100
AcDbSymbolTableRecord
100
AcDbTextStyleTableRecord
  2
EXCADVERT
 70
    68
 40
0.0
 41
1.0
 50
0.0
 71
     0
 42
0.286885
  3
monotxt
  4
extfont
  0
ENDTAB
  0
TABLE
  2
VIEW
  5
5
100
AcDbSymbolTable
 70
     0
  0
ENDTAB
  0
TABLE
  2
UCS
  5
6
100
AcDbSymbolTable
 70
     0
  0
ENDTAB
  0
TABLE
  2
APPID
  5
8
100
AcDbSymbolTable
 70
     1
  0
APPID
  5
16
100
AcDbSymbolTableRecord
100
AcDbRegAppTableRecord
  2
ACAD
 70
     0
  0
ENDTAB
  0
TABLE
  2
DIMSTYLE
  5
9
100
AcDbSymbolTable
 70
     1
  0
DIMSTYLE
105
18
100
AcDbSymbolTableRecord
100
AcDbDimStyleTableRecord
  2
STANDARD
 70
     0
  3

  4

  5

  6

  7

 40
1.0
 41
0.18
 42
0.0625
 43
0.38
 44
0.18
 45
0.0
 46
0.0
 47
0.0
 48
0.0
 71
     0
 72
     0
 73
     1
 74
     1
 75
     0
 76
     0
 77
     0
 78
     0
140
0.18
141
0.09
142
0.0
143
25.4
144
1.0
145
0.0
146
1.0
147
0.09
170
     0
171
     2
172
     1
173
     0
174
     0
175
     0
176
     0
177
     0
178
     0
270
     2
271
     4
272
     4
273
     2
274
     2
275
     0
280
     0
281
     0
282
     0
283
     1
284
     0
285
     0
286
     0
287
     3
288
     0
340
17
  0
ENDTAB
  0
TABLE
  2
BLOCK_RECORD
  5
1
100
AcDbSymbolTable
 70
    19
  0
BLOCK_RECORD
  5
A
100
AcDbSymbolTableRecord
100
AcDbBlockTableRecord
  2
*MODEL_SPACE
  0
BLOCK_RECORD
  5
B
100
AcDbSymbolTableRecord
100
AcDbBlockTableRecord
  2
*PAPER_SPACE
  0
BLOCK_RECORD
  5
2D
100
AcDbSymbolTableRecord
100
AcDbBlockTableRecord
  2
_EX_NORM
  0
BLOCK_RECORD
  5
2E
100
AcDbSymbolTableRecord
100
AcDbBlockTableRecord
  2
_EX_BNORM
  0
BLOCK_RECORD
  5
2F
100
AcDbSymbolTableRecord
100
AcDbBlockTableRecord
  2
_EX_BCIR
  0
BLOCK_RECORD
  5
30
100
AcDbSymbolTableRecord
100
AcDbBlockTableRecord
  2
_EX_RCIVIL
  0
BLOCK_RECORD
  5
31
100
AcDbSymbolTableRecord
100
AcDbBlockTableRecord
  2
_EX_SLANT
  0
BLOCK_RECORD
  5
32
100
AcDbSymbolTableRecord
100
AcDbBlockTableRecord
  2
_EX_NONE
  0
BLOCK_RECORD
  5
33
100
AcDbSymbolTableRecord
100
AcDbBlockTableRecord
  2
_EX_CIVIL
  0
BLOCK_RECORD
  5
34
100
AcDbSymbolTableRecord
100
AcDbBlockTableRecord
  2
_EX_WCIR
  0
BLOCK_RECORD
  5
35
100
AcDbSymbolTableRecord
100
AcDbBlockTableRecord
  2
_EX_WCIR2
  0
BLOCK_RECORD
  5
36
100
AcDbSymbolTableRecord
100
AcDbBlockTableRecord
  2
_EX_WNORM
  0
BLOCK_RECORD
  5
37
100
AcDbSymbolTableRecord
100
AcDbBlockTableRecord
  2
_EX_NNORM
  0
BLOCK_RECORD
  5
38
100
AcDbSymbolTableRecord
100
AcDbBlockTableRecord
  2
_EX_BBOX
  0
BLOCK_RECORD
  5
39
100
AcDbSymbolTableRecord
100
AcDbBlockTableRecord
  2
_EX_WBOX
  0
BLOCK_RECORD
  5
3A
100
AcDbSymbolTableRecord
100
AcDbBlockTableRecord
  2
_EX_INTEGRAL
  0
BLOCK_RECORD
  5
3B
100
AcDbSymbolTableRecord
100
AcDbBlockTableRecord
  2
SYM-1
  0
BLOCK_RECORD
  5
3C
100
AcDbSymbolTableRecord
100
AcDbBlockTableRecord
  2
SYM-2
  0
BLOCK_RECORD
  5
3D
100
AcDbSymbolTableRecord
100
AcDbBlockTableRecord
  2
SYM-3
  0
BLOCK_RECORD
  5
3E
100
AcDbSymbolTableRecord
100
AcDbBlockTableRecord
  2
SYM-4
  0
BLOCK_RECORD
  5
3F
100
AcDbSymbolTableRecord
100
AcDbBlockTableRecord
  2
SYM-5
  0
ENDTAB
  0
ENDSEC
  0
SECTION
  2
BLOCKS
  0
BLOCK
  5
D
100
AcDbEntity
  8
0
100
AcDbBlockBegin
  2
*MODEL_SPACE
 70
     0
 10
0.0
 20
0.0
 30
0.0
  3
*MODEL_SPACE
  1

  0
ENDBLK
  5
E
100
AcDbEntity
  8
0
100
AcDbBlockEnd
  0
BLOCK
  5
F
100
AcDbEntity
 67
     1
  8
0
100
AcDbBlockBegin
  2
*PAPER_SPACE
 70
     0
 10
0.0
 20
0.0
 30
0.0
  3
*PAPER_SPACE
  1

  0
ENDBLK
  5
10
100
AcDbEntity
 67
     1
  8
0
100
AcDbBlockEnd
  0
BLOCK
  5
40
100
AcDbEntity
  8
0
100
AcDbBlockBegin
  2
_EX_NORM
 70
     0
 10
0.0
 20
0.0
 30
0.0
  3
_EX_NORM
  1

  0
LINE
  5
41
100
AcDbEntity
  8
0
  6
CONTINUOUS
 62
     0
100
AcDbLine
 10
0.0
 20
0.0
 30
0.0
 11
-1.0
 21
0.0
 31
0.0
  0
LINE
  5
42
100
AcDbEntity
  8
0
  6
CONTINUOUS
 62
     0
100
AcDbLine
 10
0.0
 20
0.0
 30
0.0
 11
-1.0
 21
0.166667
 31
0.0
  0
LINE
  5
43
100
AcDbEntity
  8
0
  6
CONTINUOUS
 62
     0
100
AcDbLine
 10
0.0
 20
0.0
 30
0.0
 11
-1.0
 21
-0.166667
 31
0.0
  0
ENDBLK
  5
44
100
AcDbEntity
  8
0
100
AcDbBlockEnd
  0
BLOCK
  5
45
100
AcDbEntity
  8
0
100
AcDbBlockBegin
  2
_EX_BNORM
 70
     0
 10
0.0
 20
0.0
 30
0.0
  3
_EX_BNORM
  1

  0
LINE
  5
46
100
AcDbEntity
  8
0
  6
CONTINUOUS
 62
     0
100
AcDbLine
 10
0.0
 20
0.0
 30
0.0
 11
-1.0
 21
0.0
 31
0.0
  0
LINE
  5
47
100
AcDbEntity
  8
0
  6
CONTINUOUS
 62
     0
100
AcDbLine
 10
0.0
 20
0.0
 30
0.0
 11
-1.0
 21
0.166667
 31
0.0
  0
LINE
  5
48
100
AcDbEntity
  8
0
  6
CONTINUOUS
 62
     0
100
AcDbLine
 10
0.0
 20
0.0
 30
0.0
 11
-1.0
 21
-0.166667
 31
0.0
  0
LINE
  5
49
100
AcDbEntity
  8
0
  6
CONTINUOUS
 62
     0
100
AcDbLine
 10
0.0
 20
0.0
 30
0.0
 11
-1.0
 21
0.083333
 31
0.0
  0
LINE
  5
4A
100
AcDbEntity
  8
0
  6
CONTINUOUS
 62
     0
100
AcDbLine
 10
0.0
 20
0.0
 30
0.0
 11
-1.0
 21
-0.083333
 31
0.0
  0
LINE
  5
4B
100
AcDbEntity
  8
0
  6
CONTINUOUS
 62
     0
100
AcDbLine
 10
-1.0
 20
0.166667
 30
0.0
 11
-1.0
 21
-0.166667
 31
0.0
  0
ENDBLK
  5
4C
100
AcDbEntity
  8
0
100
AcDbBlockEnd
  0
BLOCK
  5
4D
100
AcDbEntity
  8
0
100
AcDbBlockBegin
  2
_EX_BCIR
 70
     0
 10
0.0
 20
0.0
 30
0.0
  3
_EX_BCIR
  1

  0
LINE
  5
4E
100
AcDbEntity
  8
0
  6
CONTINUOUS
 62
     0
100
AcDbLine
 10
0.0
 20
0.0
 30
0.0
 11
-1.0
 21
0.0
 31
0.0
  0
CIRCLE
  5
4F
100
AcDbEntity
  8
0
  6
CONTINUOUS
 62
     0
100
AcDbCircle
 10
0.0
 20
0.0
 30
0.0
 40
0.5
  0
CIRCLE
  5
50
100
AcDbEntity
  8
0
  6
CONTINUOUS
 62
     0
100
AcDbCircle
 10
0.0
 20
0.0
 30
0.0
 40
0.25
  0
ENDBLK
  5
51
100
AcDbEntity
  8
0
100
AcDbBlockEnd
  0
BLOCK
  5
52
100
AcDbEntity
  8
0
100
AcDbBlockBegin
  2
_EX_RCIVIL
 70
     0
 10
0.0
 20
0.0
 30
0.0
  3
_EX_RCIVIL
  1

  0
LINE
  5
53
100
AcDbEntity
  8
0
  6
CONTINUOUS
 62
     0
100
AcDbLine
 10
0.0
 20
0.0
 30
0.0
 11
-1.0
 21
0.0
 31
0.0
  0
LINE
  5
54
100
AcDbEntity
  8
0
  6
CONTINUOUS
 62
     0
100
AcDbLine
 10
-1.0
 20
-0.25
 30
0.0
 11
0.0
 21
-0.25
 31
0.0
  0
LINE
  5
55
100
AcDbEntity
  8
0
  6
CONTINUOUS
 62
     0
100
AcDbLine
 10
-1.0
 20
-0.125
 30
0.0
 11
0.0
 21
-0.125
 31
0.0
  0
ENDBLK
  5
56
100
AcDbEntity
  8
0
100
AcDbBlockEnd
  0
BLOCK
  5
57
100
AcDbEntity
  8
0
100
AcDbBlockBegin
  2
_EX_SLANT
 70
     0
 10
0.0
 20
0.0
 30
0.0
  3
_EX_SLANT
  1

  0
LINE
  5
58
100
AcDbEntity
  8
0
  6
CONTINUOUS
 62
     0
100
AcDbLine
 10
0.0
 20
0.0
 30
0.0
 11
-1.0
 21
0.0
 31
0.0
  0
LINE
  5
59
100
AcDbEntity
  8
0
  6
CONTINUOUS
 62
     0
100
AcDbLine
 10
0.707107
 20
0.707107
 30
0.0
 11
-0.707107
 21
-0.707107
 31
0.0
  0
ENDBLK
  5
5A
100
AcDbEntity
  8
0
100
AcDbBlockEnd
  0
BLOCK
  5
5B
100
AcDbEntity
  8
0
100
AcDbBlockBegin
  2
_EX_NONE
 70
     0
 10
0.0
 20
0.0
 30
0.0
  3
_EX_NONE
  1

  0
LINE
  5
5C
100
AcDbEntity
  8
0
  6
CONTINUOUS
 62
     0
100
AcDbLine
 10
0.0
 20
0.0
 30
0.0
 11
-1.0
 21
0.0
 31
0.0
  0
ENDBLK
  5
5D
100
AcDbEntity
  8
0
100
AcDbBlockEnd
  0
BLOCK
  5
5E
100
AcDbEntity
  8
0
100
AcDbBlockBegin
  2
_EX_CIVIL
 70
     0
 10
0.0
 20
0.0
 30
0.0
  3
_EX_CIVIL
  1

  0
LINE
  5
5F
100
AcDbEntity
  8
0
  6
CONTINUOUS
 62
     0
100
AcDbLine
 10
0.0
 20
0.0
 30
0.0
 11
-1.0
 21
0.0
 31
0.0
  0
LINE
  5
60
100
AcDbEntity
  8
0
  6
CONTINUOUS
 62
     0
100
AcDbLine
 10
-1.0
 20
0.25
 30
0.0
 11
0.0
 21
0.25
 31
0.0
  0
LINE
  5
61
100
AcDbEntity
  8
0
  6
CONTINUOUS
 62
     0
100
AcDbLine
 10
-1.0
 20
0.125
 30
0.0
 11
0.0
 21
0.125
 31
0.0
  0
ENDBLK
  5
62
100
AcDbEntity
  8
0
100
AcDbBlockEnd
  0
BLOCK
  5
63
100
AcDbEntity
  8
0
100
AcDbBlockBegin
  2
_EX_WCIR
 70
     0
 10
0.0
 20
0.0
 30
0.0
  3
_EX_WCIR
  1

  0
LINE
  5
64
100
AcDbEntity
  8
0
  6
CONTINUOUS
 62
     0
100
AcDbLine
 10
0.0
 20
0.0
 30
0.0
 11
-1.0
 21
0.0
 31
0.0
  0
CIRCLE
  5
65
100
AcDbEntity
  8
0
  6
CONTINUOUS
 62
     0
100
AcDbCircle
 10
0.0
 20
0.0
 30
0.0
 40
0.5
  0
ENDBLK
  5
66
100
AcDbEntity
  8
0
100
AcDbBlockEnd
  0
BLOCK
  5
67
100
AcDbEntity
  8
0
100
AcDbBlockBegin
  2
_EX_WCIR2
 70
     0
 10
0.0
 20
0.0
 30
0.0
  3
_EX_WCIR2
  1

  0
LINE
  5
68
100
AcDbEntity
  8
0
  6
CONTINUOUS
 62
     0
100
AcDbLine
 10
-0.5
 20
0.0
 30
0.0
 11
-1.0
 21
0.0
 31
0.0
  0
CIRCLE
  5
69
100
AcDbEntity
  8
0
  6
CONTINUOUS
 62
     0
100
AcDbCircle
 10
0.0
 20
0.0
 30
0.0
 40
0.5
  0
ENDBLK
  5
6A
100
AcDbEntity
  8
0
100
AcDbBlockEnd
  0
BLOCK
  5
6B
100
AcDbEntity
  8
0
100
AcDbBlockBegin
  2
_EX_WNORM
 70
     0
 10
0.0
 20
0.0
 30
0.0
  3
_EX_WNORM
  1

  0
LINE
  5
6C
100
AcDbEntity
  8
0
  6
CONTINUOUS
 62
     0
100
AcDbLine
 10
-1.0
 20
0.0
 30
0.0
 11
-1.0
 21
0.0
 31
0.0
  0
LINE
  5
6D
100
AcDbEntity
  8
0
  6
CONTINUOUS
 62
     0
100
AcDbLine
 10
0.0
 20
0.0
 30
0.0
 11
-1.0
 21
0.166667
 31
0.0
  0
LINE
  5
6E
100
AcDbEntity
  8
0
  6
CONTINUOUS
 62
     0
100
AcDbLine
 10
0.0
 20
0.0
 30
0.0
 11
-1.0
 21
-0.166667
 31
0.0
  0
LINE
  5
6F
100
AcDbEntity
  8
0
  6
CONTINUOUS
 62
     0
100
AcDbLine
 10
-1.0
 20
0.166667
 30
0.0
 11
-1.0
 21
-0.166667
 31
0.0
  0
ENDBLK
  5
70
100
AcDbEntity
  8
0
100
AcDbBlockEnd
  0
BLOCK
  5
71
100
AcDbEntity
  8
0
100
AcDbBlockBegin
  2
_EX_NNORM
 70
     0
 10
0.0
 20
0.0
 30
0.0
  3
_EX_NNORM
  1

  0
LINE
  5
72
100
AcDbEntity
  8
0
  6
CONTINUOUS
 62
     0
100
AcDbLine
 10
0.0
 20
0.0
 30
0.0
 11
-1.0
 21
0.0
 31
0.0
  0
LINE
  5
73
100
AcDbEntity
  8
0
  6
CONTINUOUS
 62
     0
100
AcDbLine
 10
0.0
 20
0.0
 30
0.0
 11
-1.0
 21
0.166667
 31
0.0
  0
LINE
  5
74
100
AcDbEntity
  8
0
  6
CONTINUOUS
 62
     0
100
AcDbLine
 10
0.0
 20
0.0
 30
0.0
 11
-1.0
 21
-0.166667
 31
0.0
  0
LINE
  5
75
100
AcDbEntity
  8
0
  6
CONTINUOUS
 62
     0
100
AcDbLine
 10
-1.0
 20
0.166667
 30
0.0
 11
-1.0
 21
-0.166667
 31
0.0
  0
ENDBLK
  5
76
100
AcDbEntity
  8
0
100
AcDbBlockEnd
  0
BLOCK
  5
77
100
AcDbEntity
  8
0
100
AcDbBlockBegin
  2
_EX_BBOX
 70
     0
 10
0.0
 20
0.0
 30
0.0
  3
_EX_BBOX
  1

  0
LINE
  5
78
100
AcDbEntity
  8
0
  6
CONTINUOUS
 62
     0
100
AcDbLine
 10
0.0
 20
0.0
 30
0.0
 11
-1.0
 21
0.0
 31
0.0
  0
LINE
  5
79
100
AcDbEntity
  8
0
  6
CONTINUOUS
 62
     0
100
AcDbLine
 10
-0.5
 20
0.5
 30
0.0
 11
0.5
 21
0.5
 31
0.0
  0
LINE
  5
7A
100
AcDbEntity
  8
0
  6
CONTINUOUS
 62
     0
100
AcDbLine
 10
0.5
 20
0.5
 30
0.0
 11
0.5
 21
-0.5
 31
0.0
  0
LINE
  5
7B
100
AcDbEntity
  8
0
  6
CONTINUOUS
 62
     0
100
AcDbLine
 10
0.5
 20
-0.5
 30
0.0
 11
-0.5
 21
-0.5
 31
0.0
  0
LINE
  5
7C
100
AcDbEntity
  8
0
  6
CONTINUOUS
 62
     0
100
AcDbLine
 10
-0.5
 20
-0.5
 30
0.0
 11
-0.5
 21
0.5
 31
0.0
  0
LINE
  5
7D
100
AcDbEntity
  8
0
  6
CONTINUOUS
 62
     0
100
AcDbLine
 10
-0.25
 20
0.25
 30
0.0
 11
0.25
 21
0.25
 31
0.0
  0
LINE
  5
7E
100
AcDbEntity
  8
0
  6
CONTINUOUS
 62
     0
100
AcDbLine
 10
0.25
 20
0.25
 30
0.0
 11
0.25
 21
-0.25
 31
0.0
  0
LINE
  5
7F
100
AcDbEntity
  8
0
  6
CONTINUOUS
 62
     0
100
AcDbLine
 10
0.25
 20
-0.25
 30
0.0
 11
-0.25
 21
-0.25
 31
0.0
  0
LINE
  5
80
100
AcDbEntity
  8
0
  6
CONTINUOUS
 62
     0
100
AcDbLine
 10
-0.25
 20
-0.25
 30
0.0
 11
-0.25
 21
0.25
 31
0.0
  0
ENDBLK
  5
81
100
AcDbEntity
  8
0
100
AcDbBlockEnd
  0
BLOCK
  5
82
100
AcDbEntity
  8
0
100
AcDbBlockBegin
  2
_EX_WBOX
 70
     0
 10
0.0
 20
0.0
 30
0.0
  3
_EX_WBOX
  1

  0
LINE
  5
83
100
AcDbEntity
  8
0
  6
CONTINUOUS
 62
     0
100
AcDbLine
 10
-0.5
 20
0.0
 30
0.0
 11
-1.0
 21
0.0
 31
0.0
  0
LINE
  5
84
100
AcDbEntity
  8
0
  6
CONTINUOUS
 62
     0
100
AcDbLine
 10
-0.5
 20
0.5
 30
0.0
 11
0.5
 21
0.5
 31
0.0
  0
LINE
  5
85
100
AcDbEntity
  8
0
  6
CONTINUOUS
 62
     0
100
AcDbLine
 10
0.5
 20
0.5
 30
0.0
 11
0.5
 21
-0.5
 31
0.0
  0
LINE
  5
86
100
AcDbEntity
  8
0
  6
CONTINUOUS
 62
     0
100
AcDbLine
 10
0.5
 20
-0.5
 30
0.0
 11
-0.5
 21
-0.5
 31
0.0
  0
LINE
  5
87
100
AcDbEntity
  8
0
  6
CONTINUOUS
 62
     0
100
AcDbLine
 10
-0.5
 20
-0.5
 30
0.0
 11
-0.5
 21
0.5
 31
0.0
  0
ENDBLK
  5
88
100
AcDbEntity
  8
0
100
AcDbBlockEnd
  0
BLOCK
  5
89
100
AcDbEntity
  8
0
100
AcDbBlockBegin
  2
_EX_INTEGRAL
 70
     0
 10
0.0
 20
0.0
 30
0.0
  3
_EX_INTEGRAL
  1

  0
LINE
  5
8A
100
AcDbEntity
  8
0
  6
CONTINUOUS
 62
     0
100
AcDbLine
 10
0.0
 20
0.0
 30
0.0
 11
-1.0
 21
0.0
 31
0.0
  0
ARC
  5
8B
100
AcDbEntity
  8
0
  6
CONTINUOUS
 62
     0
100
AcDbCircle
 10
0.542115
 20
0.164992
 30
0.0
 40
0.56667
100
AcDbArc
 50
73.07249
 51
196.927513
  0
ARC
  5
8C
100
AcDbEntity
  8
0
  6
CONTINUOUS
 62
     0
100
AcDbCircle
 10
-0.542115
 20
-0.164992
 30
0.0
 40
0.56667
100
AcDbArc
 50
253.072487
 51
16.927513
  0
ENDBLK
  5
8D
100
AcDbEntity
  8
0
100
AcDbBlockEnd
  0
BLOCK
  5
8E
100
AcDbEntity
  8
0
100
AcDbBlockBegin
  2
SYM-1
 70
     0
 10
0.0
 20
0.0
 30
0.0
  3
SYM-1
  1

  0
TEXT
  5
8F
100
AcDbEntity
  8
0
  6
CONTINUOUS
 62
     2
100
AcDbText
 10
-2.7
 20
-1.0
 30
0.0
 40
5.0
  1
Ｐ
 41
0.672
  7
EXCADSTD
 72
     5
 11
0.5
 21
-1.0
 31
0.0
100
AcDbText
  0
TEXT
  5
90
100
AcDbEntity
  8
0
  6
CONTINUOUS
 62
     2
100
AcDbText
 10
-1.8
 20
-0.9
 30
0.0
 40
5.0
  1
Ｌ
 41
0.672
  7
EXCADSTD
 72
     5
 11
1.4
 21
-0.9
 31
0.0
100
AcDbText
  0
ENDBLK
  5
91
100
AcDbEntity
  8
0
100
AcDbBlockEnd
  0
BLOCK
  5
92
100
AcDbEntity
  8
0
100
AcDbBlockBegin
  2
SYM-2
 70
     0
 10
0.0
 20
0.0
 30
0.0
  3
SYM-2
  1

  0
TEXT
  5
93
100
AcDbEntity
  8
0
  6
CONTINUOUS
 62
     2
100
AcDbText
 10
-2.828427
 20
-2.828427
 30
0.0
 40
5.656854
  1
２
 41
0.84
  7
EXCADSTD
 72
     5
 11
1.697056
 21
-2.828427
 31
0.0
100
AcDbText
  0
CIRCLE
  5
94
100
AcDbEntity
  8
0
  6
CONTINUOUS
 62
     1
100
AcDbCircle
 10
0.0
 20
0.0
 30
0.0
 40
4.0
  0
TEXT
  5
95
100
AcDbEntity
  8
0
  6
CONTINUOUS
 62
     2
100
AcDbText
 10
6.6
 20
-3.2
 30
0.0
 40
7.0
  1
トップピボット（ドア側）
 41
0.672
  7
EXCADSTD
 72
     5
 11
73.799999
 21
-3.2
 31
0.0
100
AcDbText
  0
LINE
  5
96
100
AcDbEntity
  8
0
  6
CONTINUOUS
 62
     1
100
AcDbLine
 10
4.0
 20
-3.7
 30
0.0
 11
71.0
 21
-3.7
 31
0.0
  0
ENDBLK
  5
97
100
AcDbEntity
  8
0
100
AcDbBlockEnd
  0
BLOCK
  5
98
100
AcDbEntity
  8
0
100
AcDbBlockBegin
  2
SYM-3
 70
     0
 10
0.0
 20
0.0
 30
0.0
  3
SYM-3
  1

  0
TEXT
  5
99
100
AcDbEntity
  8
0
  6
CONTINUOUS
 62
     2
100
AcDbText
 10
-2.828427
 20
-2.828427
 30
0.0
 40
5.656854
  1
３
 41
0.84
  7
EXCADSTD
 72
     5
 11
1.697056
 21
-2.828427
 31
0.0
100
AcDbText
  0
CIRCLE
  5
9A
100
AcDbEntity
  8
0
  6
CONTINUOUS
 62
     1
100
AcDbCircle
 10
0.0
 20
0.0
 30
0.0
 40
4.0
  0
TEXT
  5
9B
100
AcDbEntity
  8
0
  6
CONTINUOUS
 62
     2
100
AcDbText
 10
6.6
 20
-3.2
 30
0.0
 40
7.0
  1
ア　ー　ム
 41
0.672
  7
EXCADSTD
 72
     5
 11
34.6
 21
-3.2
 31
0.0
100
AcDbText
  0
LINE
  5
9C
100
AcDbEntity
  8
0
  6
CONTINUOUS
 62
     1
100
AcDbLine
 10
4.0
 20
-3.7
 30
0.0
 11
34.9
 21
-3.7
 31
0.0
  0
ENDBLK
  5
9D
100
AcDbEntity
  8
0
100
AcDbBlockEnd
  0
BLOCK
  5
9E
100
AcDbEntity
  8
0
100
AcDbBlockBegin
  2
SYM-4
 70
     0
 10
0.0
 20
0.0
 30
0.0
  3
SYM-4
  1

  0
TEXT
  5
9F
100
AcDbEntity
  8
0
  6
CONTINUOUS
 62
     2
100
AcDbText
 10
-2.828427
 20
-2.828427
 30
0.0
 40
5.656854
  1
４
 41
0.84
  7
EXCADSTD
 72
     5
 11
1.697056
 21
-2.828427
 31
0.0
100
AcDbText
  0
CIRCLE
  5
A0
100
AcDbEntity
  8
0
  6
CONTINUOUS
 62
     1
100
AcDbCircle
 10
0.0
 20
0.0
 30
0.0
 40
4.0
  0
TEXT
  5
A1
100
AcDbEntity
  8
0
  6
CONTINUOUS
 62
     2
100
AcDbText
 10
6.6
 20
-3.2
 30
0.0
 40
7.0
  1
床面軸座
 41
0.672
  7
EXCADSTD
 72
     5
 11
29.0
 21
-3.2
 31
0.0
100
AcDbText
  0
LINE
  5
A2
100
AcDbEntity
  8
0
  6
CONTINUOUS
 62
     1
100
AcDbLine
 10
4.0
 20
-3.7
 30
0.0
 11
29.3
 21
-3.7
 31
0.0
  0
ENDBLK
  5
A3
100
AcDbEntity
  8
0
100
AcDbBlockEnd
  0
BLOCK
  5
A4
100
AcDbEntity
  8
0
100
AcDbBlockBegin
  2
SYM-5
 70
     0
 10
0.0
 20
0.0
 30
0.0
  3
SYM-5
  1

  0
TEXT
  5
A5
100
AcDbEntity
  8
0
  6
CONTINUOUS
 62
     2
100
AcDbText
 10
-2.828427
 20
-2.828427
 30
0.0
 40
5.656854
  1
１
 41
0.84
  7
EXCADSTD
 72
     5
 11
1.697056
 21
-2.828427
 31
0.0
100
AcDbText
  0
CIRCLE
  5
A6
100
AcDbEntity
  8
0
  6
CONTINUOUS
 62
     1
100
AcDbCircle
 10
0.0
 20
0.0
 30
0.0
 40
4.0
  0
TEXT
  5
A7
100
AcDbEntity
  8
0
  6
CONTINUOUS
 62
     2
100
AcDbText
 10
6.6
 20
-3.2
 30
0.0
 40
7.0
  1
トップピボット（上枠側）
 41
0.672
  7
EXCADSTD
 72
     5
 11
73.799999
 21
-3.2
 31
0.0
100
AcDbText
  0
LINE
  5
A8
100
AcDbEntity
  8
0
  6
CONTINUOUS
 62
     1
100
AcDbLine
 10
4.0
 20
-3.7
 30
0.0
 11
70.1
 21
-3.7
 31
0.0
  0
ENDBLK
  5
A9
100
AcDbEntity
  8
0
100
AcDbBlockEnd
  0
ENDSEC
  0
SECTION
  2
ENTITIES
  0
LINE
  5
AA
100
AcDbEntity
  8
LAY-1
  6
CONTINUOUS
 62
     3
100
AcDbLine
 10
200.971329
 20
419.009826
 30
0.0
 11
200.971329
 21
416.809814
 31
0.0
  0
LINE
  5
AB
100
AcDbEntity
  8
LAY-1
  6
CONTINUOUS
 62
     3
100
AcDbLine
 10
188.471329
 20
419.009826
 30
0.0
 11
188.471329
 21
416.809814
 31
0.0
  0
LINE
  5
AC
100
AcDbEntity
  8
LAY-1
  6
CONTINUOUS
 62
     3
100
AcDbLine
 10
335.721344
 20
419.809814
 30
0.0
 11
153.721344
 21
419.809814
 31
0.0
  0
LINE
  5
AD
100
AcDbEntity
  8
LAY-1
  6
CONTINUOUS
 62
     3
100
AcDbLine
 10
335.721344
 20
419.009826
 30
0.0
 11
153.721344
 21
419.009826
 31
0.0
  0
LINE
  5
AE
100
AcDbEntity
  8
LAY-1
  6
CONTINUOUS
 62
     3
100
AcDbLine
 10
335.721344
 20
419.809814
 30
0.0
 11
335.721344
 21
419.009826
 31
0.0
  0
LINE
  5
AF
100
AcDbEntity
  8
LAY-1
  6
CONTINUOUS
 62
     3
100
AcDbLine
 10
153.721344
 20
419.809814
 30
0.0
 11
153.721344
 21
419.009826
 31
0.0
  0
LINE
  5
B0
100
AcDbEntity
  8
LAY-1
  6
CONTINUOUS
 62
     3
100
AcDbLine
 10
160.721344
 20
419.809814
 30
0.0
 11
160.721344
 21
425.809814
 31
0.0
  0
LINE
  5
B1
100
AcDbEntity
  8
LAY-1
  6
CONTINUOUS
 62
     3
100
AcDbLine
 10
329.721344
 20
419.809814
 30
0.0
 11
329.721344
 21
425.809814
 31
0.0
  0
LINE
  5
B2
100
AcDbEntity
  8
LAY-1
  6
CONTINUOUS
 62
     3
100
AcDbLine
 10
160.721344
 20
425.809814
 30
0.0
 11
329.721344
 21
425.809814
 31
0.0
  0
LINE
  5
B3
100
AcDbEntity
  8
LAY-1
  6
DASHED2
 62
     3
100
AcDbLine
 10
175.721329
 20
420.209838
 30
0.0
 11
163.721344
 21
420.209838
 31
0.0
  0
LINE
  5
B4
100
AcDbEntity
  8
LAY-1
  6
DASHED2
 62
     3
100
AcDbLine
 10
173.071335
 20
423.209838
 30
0.0
 11
166.371308
 21
423.209838
 31
0.0
  0
LINE
  5
B5
100
AcDbEntity
  8
LAY-1
  6
DASHED2
 62
     3
100
AcDbLine
 10
166.371308
 20
423.209838
 30
0.0
 11
163.721344
 21
420.209838
 31
0.0
  0
LINE
  5
B6
100
AcDbEntity
  8
LAY-1
  6
DASHED2
 62
     3
100
AcDbLine
 10
173.071335
 20
423.209838
 30
0.0
 11
175.721329
 21
420.209838
 31
0.0
  0
LINE
  5
B7
100
AcDbEntity
  8
LAY-1
  6
DASHED2
 62
     3
100
AcDbLine
 10
163.721344
 20
420.209838
 30
0.0
 11
163.721344
 21
419.809814
 31
0.0
  0
LINE
  5
B8
100
AcDbEntity
  8
LAY-1
  6
DASHED2
 62
     3
100
AcDbLine
 10
175.721329
 20
420.209838
 30
0.0
 11
175.721329
 21
419.809814
 31
0.0
  0
LINE
  5
B9
100
AcDbEntity
  8
LAY-1
  6
CONTINUOUS
 62
     3
100
AcDbLine
 10
166.371308
 20
435.809814
 30
0.0
 11
173.071335
 21
435.809814
 31
0.0
  0
LINE
  5
BA
100
AcDbEntity
  8
LAY-1
  6
DASHED2
 62
     3
100
AcDbLine
 10
166.371308
 20
423.209838
 30
0.0
 11
166.371308
 21
425.809814
 31
0.0
  0
LINE
  5
BB
100
AcDbEntity
  8
LAY-1
  6
DASHED2
 62
     3
100
AcDbLine
 10
173.07132
 20
425.809814
 30
0.0
 11
173.071335
 21
423.209838
 31
0.0
  0
LINE
  5
BC
100
AcDbEntity
  8
LAY-1
  6
DASHED2
 62
     1
100
AcDbLine
 10
167.121308
 20
423.209838
 30
0.0
 11
167.121308
 21
425.809814
 31
0.0
  0
LINE
  5
BD
100
AcDbEntity
  8
LAY-1
  6
DASHED2
 62
     1
100
AcDbLine
 10
172.321305
 20
423.209838
 30
0.0
 11
172.321305
 21
425.809814
 31
0.0
  0
CIRCLE
  5
BE
100
AcDbEntity
  8
LAY-1
  6
CONTINUOUS
 62
     3
100
AcDbCircle
 10
274.721314
 20
437.309814
 30
0.0
 40
3.5
  0
ARC
  5
BF
100
AcDbEntity
  8
LAY-1
  6
CONTINUOUS
 62
     3
100
AcDbCircle
 10
274.721314
 20
437.309814
 30
0.0
 40
6.0
100
AcDbArc
 50
0.0
 51
180.00002
  0
ARC
  5
C0
100
AcDbEntity
  8
LAY-1
  6
CONTINUOUS
 62
     3
100
AcDbCircle
 10
295.721314
 20
441.309814
 30
0.0
 40
6.0
100
AcDbArc
 50
305.685646
 51
234.314969
  0
LINE
  5
C1
100
AcDbEntity
  8
LAY-1
  6
CONTINUOUS
 62
     3
100
AcDbLine
 10
290.621338
 20
425.809875
 30
0.0
 11
290.621338
 21
431.809875
 31
0.0
  0
LINE
  5
C2
100
AcDbEntity
  8
LAY-1
  6
CONTINUOUS
 62
     3
100
AcDbLine
 10
300.821351
 20
425.809875
 30
0.0
 11
300.821351
 21
431.809875
 31
0.0
  0
LINE
  5
C3
100
AcDbEntity
  8
LAY-1
  6
CONTINUOUS
 62
     3
100
AcDbLine
 10
290.621338
 20
431.809875
 30
0.0
 11
300.821351
 21
431.809875
 31
0.0
  0
LINE
  5
C4
100
AcDbEntity
  8
LAY-1
  6
CONTINUOUS
 62
     1
100
AcDbLine
 10
291.221344
 20
425.809875
 30
0.0
 11
291.221344
 21
431.809875
 31
0.0
  0
LINE
  5
C5
100
AcDbEntity
  8
LAY-1
  6
CONTINUOUS
 62
     1
100
AcDbLine
 10
300.221344
 20
425.809875
 30
0.0
 11
300.221344
 21
431.809875
 31
0.0
  0
LINE
  5
C6
100
AcDbEntity
  8
LAY-1
  6
CONTINUOUS
 62
     3
100
AcDbLine
 10
292.221344
 20
436.436401
 30
0.0
 11
292.221344
 21
431.809875
 31
0.0
  0
LINE
  5
C7
100
AcDbEntity
  8
LAY-1
  6
CONTINUOUS
 62
     3
100
AcDbLine
 10
299.221344
 20
436.436401
 30
0.0
 11
299.221344
 21
431.809875
 31
0.0
  0
LINE
  5
C8
100
AcDbEntity
  8
LAY-1
  6
CONTINUOUS
 62
     3
100
AcDbLine
 10
292.221344
 20
436.436401
 30
0.0
 11
299.221375
 21
436.436401
 31
0.0
  0
LINE
  5
C9
100
AcDbEntity
  8
LAY-1
  6
CONTINUOUS
 62
     3
100
AcDbLine
 10
280.721314
 20
437.309814
 30
0.0
 11
280.721314
 21
425.809875
 31
0.0
  0
LINE
  5
CA
100
AcDbEntity
  8
LAY-1
  6
CONTINUOUS
 62
     3
100
AcDbLine
 10
268.721314
 20
437.309814
 30
0.0
 11
268.721314
 21
425.809875
 31
0.0
  0
LINE
  5
CB
100
AcDbEntity
  8
LAY-1
  6
DASHED2
 62
     3
100
AcDbLine
 10
310.721314
 20
420.209789
 30
0.0
 11
322.721314
 21
420.209789
 31
0.0
  0
LINE
  5
CC
100
AcDbEntity
  8
LAY-1
  6
DASHED2
 62
     3
100
AcDbLine
 10
313.371308
 20
423.209789
 30
0.0
 11
320.071351
 21
423.209789
 31
0.0
  0
LINE
  5
CD
100
AcDbEntity
  8
LAY-1
  6
DASHED2
 62
     3
100
AcDbLine
 10
320.071351
 20
423.209789
 30
0.0
 11
322.721314
 21
420.209789
 31
0.0
  0
LINE
  5
CE
100
AcDbEntity
  8
LAY-1
  6
DASHED2
 62
     3
100
AcDbLine
 10
313.371308
 20
423.209789
 30
0.0
 11
310.721314
 21
420.209789
 31
0.0
  0
LINE
  5
CF
100
AcDbEntity
  8
LAY-1
  6
DASHED2
 62
     3
100
AcDbLine
 10
322.721314
 20
420.209789
 30
0.0
 11
322.721314
 21
419.809826
 31
0.0
  0
LINE
  5
D0
100
AcDbEntity
  8
LAY-1
  6
DASHED2
 62
     3
100
AcDbLine
 10
310.721314
 20
420.209789
 30
0.0
 11
310.721314
 21
419.809826
 31
0.0
  0
LINE
  5
D1
100
AcDbEntity
  8
LAY-1
  6
CONTINUOUS
 62
     3
100
AcDbLine
 10
320.07132
 20
435.809826
 30
0.0
 11
313.371308
 21
435.809826
 31
0.0
  0
LINE
  5
D2
100
AcDbEntity
  8
LAY-1
  6
DASHED2
 62
     3
100
AcDbLine
 10
320.07132
 20
423.209789
 30
0.0
 11
320.07132
 21
425.009765
 31
0.0
  0
LINE
  5
D3
100
AcDbEntity
  8
LAY-1
  6
DASHED2
 62
     3
100
AcDbLine
 10
313.371308
 20
425.009765
 30
0.0
 11
313.371308
 21
423.209789
 31
0.0
  0
LINE
  5
D4
100
AcDbEntity
  8
LAY-1
  6
DASHED2
 62
     1
100
AcDbLine
 10
319.321351
 20
423.209789
 30
0.0
 11
319.321351
 21
425.009765
 31
0.0
  0
LINE
  5
D5
100
AcDbEntity
  8
LAY-1
  6
DASHED2
 62
     1
100
AcDbLine
 10
314.121338
 20
423.209789
 30
0.0
 11
314.121338
 21
425.009765
 31
0.0
  0
ARC
  5
D6
100
AcDbEntity
  8
LAY-1
  6
CONTINUOUS
 62
     3
100
AcDbCircle
 10
295.721314
 20
441.309814
 30
0.0
 40
11.0
100
AcDbArc
 50
333.214091
 51
359.999982
  0
ARC
  5
D7
100
AcDbEntity
  8
LAY-1
  6
CONTINUOUS
 62
     3
100
AcDbCircle
 10
294.721314
 20
443.809814
 30
0.0
 40
12.0
100
AcDbArc
 50
0.0
 51
94.76361
  0
LINE
  5
D8
100
AcDbEntity
  8
LAY-1
  6
CONTINUOUS
 62
     3
100
AcDbLine
 10
306.721314
 20
443.809814
 30
0.0
 11
306.721314
 21
441.309814
 31
0.0
  0
ARC
  5
D9
100
AcDbEntity
  8
LAY-1
  6
CONTINUOUS
 62
     3
100
AcDbCircle
 10
303.327973
 20
437.706359
 30
0.0
 40
2.5
100
AcDbArc
 50
180.00002
 51
328.367269
  0
LINE
  5
DA
100
AcDbEntity
  8
LAY-1
  6
CONTINUOUS
 62
     3
100
AcDbLine
 10
293.721314
 20
455.809814
 30
0.0
 11
206.721314
 21
433.309814
 31
0.0
  0
LINE
  5
DB
100
AcDbEntity
  8
LAY-1
  6
CONTINUOUS
 62
     3
100
AcDbLine
 10
291.721314
 20
436.837646
 30
0.0
 11
291.721314
 21
434.101867
 31
0.0
  0
LINE
  5
DC
100
AcDbEntity
  8
LAY-1
  6
CONTINUOUS
 62
     3
100
AcDbLine
 10
280.721314
 20
430.721618
 30
0.0
 11
290.950348
 21
433.128417
 31
0.0
  0
ARC
  5
DD
100
AcDbEntity
  8
LAY-1
  6
CONTINUOUS
 62
     3
100
AcDbCircle
 10
290.721314
 20
434.101867
 30
0.0
 40
1.0
100
AcDbArc
 50
283.240597
 51
359.999982
  0
LINE
  5
DE
100
AcDbEntity
  8
LAY-1
  6
CONTINUOUS
 62
     3
100
AcDbLine
 10
268.721314
 20
429.133361
 30
0.0
 11
258.991913
 21
428.847106
 31
0.0
  0
LINE
  5
DF
100
AcDbEntity
  8
LAY-1
  6
CONTINUOUS
 62
     3
100
AcDbLine
 10
206.721314
 20
427.309814
 30
0.0
 11
249.448853
 21
428.566467
 31
0.0
  0
ARC
  5
E0
100
AcDbEntity
  8
LAY-1
  6
CONTINUOUS
 62
     3
100
AcDbCircle
 10
249.478257
 20
427.566894
 30
0.0
 40
1.0
100
AcDbArc
 50
32.083058
 51
91.684649
  0
ARC
  5
E1
100
AcDbEntity
  8
LAY-1
  6
CONTINUOUS
 62
     3
100
AcDbCircle
 10
259.021317
 20
427.847594
 30
0.0
 40
1.0
100
AcDbArc
 50
91.684764
 51
180.00002
  0
ARC
  5
E2
100
AcDbEntity
  8
LAY-1
  6
DASHED2
 62
     3
100
AcDbCircle
 10
256.074692
 20
420.809814
 30
0.0
 40
1.0
100
AcDbArc
 50
212.083135
 51
270.000001
  0
ARC
  5
E3
100
AcDbEntity
  8
LAY-1
  6
DASHED2
 62
     3
100
AcDbCircle
 10
257.021317
 20
420.809814
 30
0.0
 40
1.0
100
AcDbArc
 50
270.000001
 51
359.999982
  0
LINE
  5
E4
100
AcDbEntity
  8
LAY-1
  6
CONTINUOUS
 62
     3
100
AcDbLine
 10
258.021317
 20
427.847594
 30
0.0
 11
258.021317
 21
425.809814
 31
0.0
  0
LINE
  5
E5
100
AcDbEntity
  8
LAY-1
  6
DASHED2
 62
     3
100
AcDbLine
 10
258.021332
 20
425.809814
 30
0.0
 11
258.021317
 21
420.809814
 31
0.0
  0
LINE
  5
E6
100
AcDbEntity
  8
LAY-1
  6
CONTINUOUS
 62
     3
100
AcDbLine
 10
250.325531
 20
428.098022
 30
0.0
 11
251.759995
 21
425.809814
 31
0.0
  0
LINE
  5
E7
100
AcDbEntity
  8
LAY-1
  6
DASHED2
 62
     3
100
AcDbLine
 10
251.759964
 20
425.809814
 30
0.0
 11
255.227417
 21
420.278625
 31
0.0
  0
LINE
  5
E8
100
AcDbEntity
  8
LAY-1
  6
CONTINUOUS
 62
     3
100
AcDbLine
 10
206.721314
 20
433.309814
 30
0.0
 11
204.22136
 21
433.309814
 31
0.0
  0
LINE
  5
E9
100
AcDbEntity
  8
LAY-1
  6
CONTINUOUS
 62
     3
100
AcDbLine
 10
206.721314
 20
427.309814
 30
0.0
 11
204.22136
 21
427.309814
 31
0.0
  0
LINE
  5
EA
100
AcDbEntity
  8
LAY-1
  6
CONTINUOUS
 62
     3
100
AcDbLine
 10
185.271363
 20
425.809875
 30
0.0
 11
185.271363
 21
457.809875
 31
0.0
  0
LINE
  5
EB
100
AcDbEntity
  8
LAY-1
  6
CONTINUOUS
 62
     3
100
AcDbLine
 10
204.171357
 20
425.809875
 30
0.0
 11
204.171357
 21
457.809875
 31
0.0
  0
LINE
  5
EC
100
AcDbEntity
  8
LAY-1
  6
CONTINUOUS
 62
     3
100
AcDbLine
 10
185.271363
 20
457.809875
 30
0.0
 11
204.171357
 21
457.809875
 31
0.0
  0
LINE
  5
ED
100
AcDbEntity
  8
LAY-1
  6
DASHED2
 62
     3
100
AcDbLine
 10
166.371308
 20
425.809814
 30
0.0
 11
166.371308
 21
430.309814
 31
0.0
  0
LINE
  5
EE
100
AcDbEntity
  8
LAY-1
  6
CONTINUOUS
 62
     3
100
AcDbLine
 10
166.371308
 20
430.309814
 30
0.0
 11
166.371308
 21
435.809814
 31
0.0
  0
LINE
  5
EF
100
AcDbEntity
  8
LAY-1
  6
DASHED2
 62
     1
100
AcDbLine
 10
167.121308
 20
425.809814
 30
0.0
 11
167.121308
 21
430.309814
 31
0.0
  0
LINE
  5
F0
100
AcDbEntity
  8
LAY-1
  6
CONTINUOUS
 62
     1
100
AcDbLine
 10
167.121308
 20
430.309814
 30
0.0
 11
167.121308
 21
435.809814
 31
0.0
  0
LINE
  5
F1
100
AcDbEntity
  8
LAY-1
  6
DASHED2
 62
     1
100
AcDbLine
 10
172.321305
 20
425.809814
 30
0.0
 11
172.321318
 21
430.309814
 31
0.0
  0
LINE
  5
F2
100
AcDbEntity
  8
LAY-1
  6
CONTINUOUS
 62
     1
100
AcDbLine
 10
172.321318
 20
430.309814
 30
0.0
 11
172.321335
 21
435.809814
 31
0.0
  0
LINE
  5
F3
100
AcDbEntity
  8
LAY-1
  6
CONTINUOUS
 62
     3
100
AcDbLine
 10
173.071335
 20
435.809814
 30
0.0
 11
173.071327
 21
430.309814
 31
0.0
  0
LINE
  5
F4
100
AcDbEntity
  8
LAY-1
  6
DASHED2
 62
     3
100
AcDbLine
 10
173.071327
 20
430.309814
 30
0.0
 11
173.07132
 21
425.809814
 31
0.0
  0
LINE
  5
F5
100
AcDbEntity
  8
LAY-1
  6
DASHED2
 62
     1
100
AcDbLine
 10
314.121338
 20
425.009765
 30
0.0
 11
314.121322
 21
430.309814
 31
0.0
  0
LINE
  5
F6
100
AcDbEntity
  8
LAY-1
  6
CONTINUOUS
 62
     1
100
AcDbLine
 10
314.121324
 20
430.309814
 30
0.0
 11
314.121308
 21
435.809826
 31
0.0
  0
LINE
  5
F7
100
AcDbEntity
  8
LAY-1
  6
CONTINUOUS
 62
     3
100
AcDbLine
 10
313.371308
 20
435.809826
 30
0.0
 11
313.371308
 21
430.309814
 31
0.0
  0
LINE
  5
F8
100
AcDbEntity
  8
LAY-1
  6
DASHED2
 62
     3
100
AcDbLine
 10
313.371308
 20
430.309814
 30
0.0
 11
313.371308
 21
425.009765
 31
0.0
  0
LINE
  5
F9
100
AcDbEntity
  8
LAY-1
  6
DASHED2
 62
     1
100
AcDbLine
 10
319.321351
 20
425.009765
 30
0.0
 11
319.321335
 21
430.309814
 31
0.0
  0
LINE
  5
FA
100
AcDbEntity
  8
LAY-1
  6
CONTINUOUS
 62
     1
100
AcDbLine
 10
319.321337
 20
430.309814
 30
0.0
 11
319.32132
 21
435.809826
 31
0.0
  0
LINE
  5
FB
100
AcDbEntity
  8
LAY-1
  6
DASHED2
 62
     3
100
AcDbLine
 10
320.07132
 20
425.009765
 30
0.0
 11
320.07132
 21
430.309814
 31
0.0
  0
LINE
  5
FC
100
AcDbEntity
  8
LAY-1
  6
CONTINUOUS
 62
     3
100
AcDbLine
 10
320.07132
 20
430.309814
 30
0.0
 11
320.07132
 21
435.809826
 31
0.0
  0
LINE
  5
FD
100
AcDbEntity
  8
LAY-1
  6
DIVIDE
 62
     3
100
AcDbLine
 10
335.721344
 20
509.727386
 30
0.0
 11
153.721344
 21
509.727386
 31
0.0
  0
LINE
  5
FE
100
AcDbEntity
  8
LAY-1
  6
DIVIDE
 62
     3
100
AcDbLine
 10
335.721344
 20
546.727417
 30
0.0
 11
153.721344
 21
546.727417
 31
0.0
  0
LINE
  5
FF
100
AcDbEntity
  8
LAY-1
  6
DIVIDE
 62
     3
100
AcDbLine
 10
335.721344
 20
546.727417
 30
0.0
 11
335.721344
 21
509.727448
 31
0.0
  0
LINE
  5
100
100
AcDbEntity
  8
LAY-1
  6
DIVIDE
 62
     3
100
AcDbLine
 10
153.721344
 20
546.727417
 30
0.0
 11
153.721344
 21
509.727448
 31
0.0
  0
LINE
  5
101
100
AcDbEntity
  8
LAY-1
  6
CONTINUOUS
 62
     3
100
AcDbLine
 10
160.721344
 20
512.227448
 30
0.0
 11
160.721344
 21
544.227417
 31
0.0
  0
LINE
  5
102
100
AcDbEntity
  8
LAY-1
  6
CONTINUOUS
 62
     3
100
AcDbLine
 10
160.721344
 20
544.227417
 30
0.0
 11
329.721344
 21
544.227417
 31
0.0
  0
LINE
  5
103
100
AcDbEntity
  8
LAY-1
  6
CONTINUOUS
 62
     3
100
AcDbLine
 10
160.721344
 20
512.227448
 30
0.0
 11
329.721344
 21
512.227448
 31
0.0
  0
LINE
  5
104
100
AcDbEntity
  8
LAY-1
  6
CONTINUOUS
 62
     3
100
AcDbLine
 10
329.721344
 20
544.227417
 30
0.0
 11
329.721344
 21
512.227448
 31
0.0
  0
CIRCLE
  5
105
100
AcDbEntity
  8
LAY-1
  6
DASHED2
 62
     3
100
AcDbCircle
 10
169.721344
 20
519.227448
 30
0.0
 40
6.0
  0
CIRCLE
  5
106
100
AcDbEntity
  8
LAY-1
  6
CONTINUOUS
 62
     3
100
AcDbCircle
 10
169.721344
 20
519.227448
 30
0.0
 40
3.35
  0
CIRCLE
  5
107
100
AcDbEntity
  8
LAY-1
  6
DASHED2
 62
     3
100
AcDbCircle
 10
316.721344
 20
519.227448
 30
0.0
 40
6.0
  0
CIRCLE
  5
108
100
AcDbEntity
  8
LAY-1
  6
CONTINUOUS
 62
     3
100
AcDbCircle
 10
316.721344
 20
519.227448
 30
0.0
 40
3.35
  0
CIRCLE
  5
109
100
AcDbEntity
  8
LAY-1
  6
DASHED2
 62
     3
100
AcDbCircle
 10
169.721344
 20
537.227417
 30
0.0
 40
6.0
  0
CIRCLE
  5
10A
100
AcDbEntity
  8
LAY-1
  6
CONTINUOUS
 62
     3
100
AcDbCircle
 10
169.721344
 20
537.227417
 30
0.0
 40
3.35
  0
CIRCLE
  5
10B
100
AcDbEntity
  8
LAY-1
  6
DASHED2
 62
     3
100
AcDbCircle
 10
316.721344
 20
537.227417
 30
0.0
 40
6.0
  0
CIRCLE
  5
10C
100
AcDbEntity
  8
LAY-1
  6
CONTINUOUS
 62
     3
100
AcDbCircle
 10
316.721344
 20
537.227417
 30
0.0
 40
3.35
  0
CIRCLE
  5
10D
100
AcDbEntity
  8
LAY-1
  6
CONTINUOUS
 62
     3
100
AcDbCircle
 10
194.721314
 20
528.227417
 30
0.0
 40
6.25
  0
LINE
  5
10E
100
AcDbEntity
  8
LAY-1
  6
CONTINUOUS
 62
     3
100
AcDbLine
 10
306.721283
 20
525.977417
 30
0.0
 11
306.721344
 21
530.477417
 31
0.0
  0
LINE
  5
10F
100
AcDbEntity
  8
LAY-1
  6
CONTINUOUS
 62
     3
100
AcDbLine
 10
203.95102
 20
530.477417
 30
0.0
 11
306.721344
 21
530.477417
 31
0.0
  0
LINE
  5
110
100
AcDbEntity
  8
LAY-1
  6
CONTINUOUS
 62
     3
100
AcDbLine
 10
203.95102
 20
525.977417
 30
0.0
 11
306.721344
 21
525.977417
 31
0.0
  0
ARC
  5
111
100
AcDbEntity
  8
LAY-1
  6
CONTINUOUS
 62
     3
100
AcDbCircle
 10
254.721344
 20
528.227417
 30
0.0
 40
5.0
100
AcDbArc
 50
26.743665
 51
153.256355
  0
ARC
  5
112
100
AcDbEntity
  8
LAY-1
  6
CONTINUOUS
 62
     3
100
AcDbCircle
 10
254.721344
 20
528.227417
 30
0.0
 40
5.0
100
AcDbArc
 50
205.468338
 51
331.882709
  0
ARC
  5
113
100
AcDbEntity
  8
LAY-1
  6
CONTINUOUS
 62
     3
100
AcDbCircle
 10
295.721344
 20
528.227417
 30
0.0
 40
6.0
100
AcDbArc
 50
22.024383
 51
156.514709
  0
ARC
  5
114
100
AcDbEntity
  8
LAY-1
  6
CONTINUOUS
 62
     3
100
AcDbCircle
 10
295.721344
 20
528.227417
 30
0.0
 40
6.0
100
AcDbArc
 50
203.485273
 51
337.366545
  0
LINE
  5
115
100
AcDbEntity
  8
LAY-1
  6
CONTINUOUS
 62
     3
100
AcDbLine
 10
280.721344
 20
525.67749
 30
0.0
 11
268.721344
 21
525.67749
 31
0.0
  0
LINE
  5
116
100
AcDbEntity
  8
LAY-1
  6
CONTINUOUS
 62
     3
100
AcDbLine
 10
280.721344
 20
530.777466
 30
0.0
 11
268.721344
 21
530.777466
 31
0.0
  0
LINE
  5
117
100
AcDbEntity
  8
LAY-1
  6
CONTINUOUS
 62
     3
100
AcDbLine
 10
280.721344
 20
533.977417
 30
0.0
 11
268.721344
 21
533.977417
 31
0.0
  0
LINE
  5
118
100
AcDbEntity
  8
LAY-1
  6
CONTINUOUS
 62
     3
100
AcDbLine
 10
268.721344
 20
522.477417
 30
0.0
 11
280.721344
 21
522.477417
 31
0.0
  0
LINE
  5
119
100
AcDbEntity
  8
LAY-1
  6
CONTINUOUS
 62
     3
100
AcDbLine
 10
280.721344
 20
533.977417
 30
0.0
 11
280.721344
 21
530.777466
 31
0.0
  0
LINE
  5
11A
100
AcDbEntity
  8
LAY-1
  6
CONTINUOUS
 62
     3
100
AcDbLine
 10
268.721344
 20
533.977417
 30
0.0
 11
268.721344
 21
530.777466
 31
0.0
  0
LINE
  5
11B
100
AcDbEntity
  8
LAY-1
  6
CONTINUOUS
 62
     3
100
AcDbLine
 10
280.721344
 20
522.477417
 30
0.0
 11
280.721344
 21
525.67749
 31
0.0
  0
LINE
  5
11C
100
AcDbEntity
  8
LAY-1
  6
CONTINUOUS
 62
     3
100
AcDbLine
 10
268.721344
 20
522.477417
 30
0.0
 11
268.721344
 21
525.677368
 31
0.0
  0
LINE
  5
11D
100
AcDbEntity
  8
LAY-1
  6
CONTINUOUS
 62
     3
100
AcDbLine
 10
278.221344
 20
530.777466
 30
0.0
 11
278.221344
 21
530.477417
 31
0.0
  0
LINE
  5
11E
100
AcDbEntity
  8
LAY-1
  6
CONTINUOUS
 62
     3
100
AcDbLine
 10
271.221344
 20
530.777466
 30
0.0
 11
271.221344
 21
530.477417
 31
0.0
  0
LINE
  5
11F
100
AcDbEntity
  8
LAY-1
  6
CONTINUOUS
 62
     3
100
AcDbLine
 10
278.221344
 20
525.977417
 30
0.0
 11
278.221344
 21
525.67749
 31
0.0
  0
LINE
  5
120
100
AcDbEntity
  8
LAY-1
  6
CONTINUOUS
 62
     3
100
AcDbLine
 10
271.221344
 20
525.977417
 30
0.0
 11
271.221344
 21
525.67749
 31
0.0
  0
CIRCLE
  5
121
100
AcDbEntity
  8
LAY-1
  6
CONTINUOUS
 62
     3
100
AcDbCircle
 10
194.721344
 20
528.227295
 30
0.0
 40
9.45
  0
LINE
  5
122
100
AcDbEntity
  8
LAY-1
  6
CONTINUOUS
 62
     3
100
AcDbLine
 10
667.728339
 20
488.209827
 30
0.0
 11
667.728339
 21
486.009811
 31
0.0
  0
LINE
  5
123
100
AcDbEntity
  8
LAY-1
  6
CONTINUOUS
 62
     3
100
AcDbLine
 10
655.228339
 20
488.209827
 30
0.0
 11
655.228339
 21
486.009811
 31
0.0
  0
LINE
  5
124
100
AcDbEntity
  8
LAY-1
  6
CONTINUOUS
 62
     3
100
AcDbLine
 10
679.978339
 20
488.209796
 30
0.0
 11
642.978339
 21
488.209796
 31
0.0
  0
LINE
  5
125
100
AcDbEntity
  8
LAY-1
  6
CONTINUOUS
 62
     3
100
AcDbLine
 10
679.978339
 20
488.209796
 30
0.0
 11
679.978339
 21
489.009784
 31
0.0
  0
LINE
  5
126
100
AcDbEntity
  8
LAY-1
  6
CONTINUOUS
 62
     3
100
AcDbLine
 10
642.978339
 20
488.209796
 30
0.0
 11
642.978339
 21
489.009784
 31
0.0
  0
LINE
  5
127
100
AcDbEntity
  8
LAY-1
  6
CONTINUOUS
 62
     3
100
AcDbLine
 10
679.978339
 20
489.009814
 30
0.0
 11
642.978339
 21
489.009784
 31
0.0
  0
LINE
  5
128
100
AcDbEntity
  8
LAY-1
  6
CONTINUOUS
 62
     3
100
AcDbLine
 10
645.478339
 20
489.009753
 30
0.0
 11
645.478339
 21
495.009753
 31
0.0
  0
LINE
  5
129
100
AcDbEntity
  8
LAY-1
  6
CONTINUOUS
 62
     3
100
AcDbLine
 10
677.478339
 20
489.009753
 30
0.0
 11
677.478339
 21
495.009753
 31
0.0
  0
LINE
  5
12A
100
AcDbEntity
  8
LAY-1
  6
CONTINUOUS
 62
     3
100
AcDbLine
 10
645.478339
 20
495.009753
 30
0.0
 11
677.478339
 21
495.009753
 31
0.0
  0
LINE
  5
12B
100
AcDbEntity
  8
LAY-1
  6
CONTINUOUS
 62
     1
100
AcDbLine
 10
0.0
 20
4.0
 30
0.0
 11
1.0
 21
4.0
 31
0.0
  0
LINE
  5
12C
100
AcDbEntity
  8
LAY-1
  6
CONTINUOUS
 62
     3
100
AcDbLine
 10
651.978461
 20
527.009888
 30
0.0
 11
670.978461
 21
527.009888
 31
0.0
  0
LINE
  5
12D
100
AcDbEntity
  8
LAY-1
  6
CONTINUOUS
 62
     3
100
AcDbLine
 10
670.978461
 20
527.009888
 30
0.0
 11
670.978461
 21
495.009753
 31
0.0
  0
LINE
  5
12E
100
AcDbEntity
  8
LAY-1
  6
CONTINUOUS
 62
     3
100
AcDbLine
 10
651.978461
 20
527.009888
 30
0.0
 11
651.978461
 21
495.009753
 31
0.0
  0
LINE
  5
12F
100
AcDbEntity
  8
LAY-2
  6
CONTINUOUS
 62
     3
100
AcDbLine
 10
329.721344
 20
416.809814
 30
0.0
 11
178.721329
 21
416.809814
 31
0.0
  0
LINE
  5
130
100
AcDbEntity
  8
LAY-2
  6
CONTINUOUS
 62
     3
100
AcDbLine
 10
329.721344
 20
410.809814
 30
0.0
 11
178.721329
 21
410.809814
 31
0.0
  0
LINE
  5
131
100
AcDbEntity
  8
LAY-2
  6
CONTINUOUS
 62
     3
100
AcDbLine
 10
329.721344
 20
416.809814
 30
0.0
 11
329.721344
 21
410.809814
 31
0.0
  0
LINE
  5
132
100
AcDbEntity
  8
LAY-2
  6
CONTINUOUS
 62
     3
100
AcDbLine
 10
178.721329
 20
416.809814
 30
0.0
 11
178.721329
 21
410.809814
 31
0.0
  0
LINE
  5
133
100
AcDbEntity
  8
LAY-2
  6
DASHED2
 62
     3
100
AcDbLine
 10
218.721329
 20
416.409789
 30
0.0
 11
230.721329
 21
416.409789
 31
0.0
  0
LINE
  5
134
100
AcDbEntity
  8
LAY-2
  6
DASHED2
 62
     3
100
AcDbLine
 10
221.371323
 20
413.409789
 30
0.0
 11
228.071366
 21
413.409789
 31
0.0
  0
LINE
  5
135
100
AcDbEntity
  8
LAY-2
  6
DASHED2
 62
     3
100
AcDbLine
 10
228.071366
 20
413.409789
 30
0.0
 11
230.721329
 21
416.409789
 31
0.0
  0
LINE
  5
136
100
AcDbEntity
  8
LAY-2
  6
DASHED2
 62
     3
100
AcDbLine
 10
221.371323
 20
413.409789
 30
0.0
 11
218.721329
 21
416.409789
 31
0.0
  0
LINE
  5
137
100
AcDbEntity
  8
LAY-2
  6
DASHED2
 62
     3
100
AcDbLine
 10
230.721329
 20
416.409789
 30
0.0
 11
230.721329
 21
416.809814
 31
0.0
  0
LINE
  5
138
100
AcDbEntity
  8
LAY-2
  6
DASHED2
 62
     3
100
AcDbLine
 10
218.721329
 20
416.409789
 30
0.0
 11
218.721329
 21
416.809814
 31
0.0
  0
LINE
  5
139
100
AcDbEntity
  8
LAY-2
  6
CONTINUOUS
 62
     3
100
AcDbLine
 10
228.071335
 20
400.809814
 30
0.0
 11
221.371323
 21
400.809814
 31
0.0
  0
LINE
  5
13A
100
AcDbEntity
  8
LAY-2
  6
DASHED2
 62
     3
100
AcDbLine
 10
228.071335
 20
413.409789
 30
0.0
 11
228.071351
 21
410.809814
 31
0.0
  0
LINE
  5
13B
100
AcDbEntity
  8
LAY-2
  6
DASHED2
 62
     3
100
AcDbLine
 10
221.371338
 20
410.809814
 30
0.0
 11
221.371323
 21
413.409789
 31
0.0
  0
LINE
  5
13C
100
AcDbEntity
  8
LAY-2
  6
DASHED2
 62
     1
100
AcDbLine
 10
227.321366
 20
413.409789
 30
0.0
 11
227.321366
 21
410.809814
 31
0.0
  0
LINE
  5
13D
100
AcDbEntity
  8
LAY-2
  6
DASHED2
 62
     1
100
AcDbLine
 10
222.121354
 20
413.409789
 30
0.0
 11
222.121354
 21
410.809814
 31
0.0
  0
LINE
  5
13E
100
AcDbEntity
  8
LAY-2
  6
DASHED2
 62
     3
100
AcDbLine
 10
276.721314
 20
416.809814
 30
0.0
 11
264.721314
 21
416.809814
 31
0.0
  0
LINE
  5
13F
100
AcDbEntity
  8
LAY-2
  6
DASHED2
 62
     3
100
AcDbLine
 10
264.721314
 20
416.409789
 30
0.0
 11
276.721314
 21
416.409789
 31
0.0
  0
LINE
  5
140
100
AcDbEntity
  8
LAY-2
  6
DASHED2
 62
     3
100
AcDbLine
 10
267.371308
 20
413.409789
 30
0.0
 11
274.071351
 21
413.409789
 31
0.0
  0
LINE
  5
141
100
AcDbEntity
  8
LAY-2
  6
DASHED2
 62
     3
100
AcDbLine
 10
274.071351
 20
413.409789
 30
0.0
 11
276.721314
 21
416.409789
 31
0.0
  0
LINE
  5
142
100
AcDbEntity
  8
LAY-2
  6
DASHED2
 62
     3
100
AcDbLine
 10
267.371308
 20
413.409789
 30
0.0
 11
264.721314
 21
416.409789
 31
0.0
  0
LINE
  5
143
100
AcDbEntity
  8
LAY-2
  6
DASHED2
 62
     3
100
AcDbLine
 10
276.721314
 20
416.409789
 30
0.0
 11
276.721314
 21
416.809814
 31
0.0
  0
LINE
  5
144
100
AcDbEntity
  8
LAY-2
  6
DASHED2
 62
     3
100
AcDbLine
 10
264.721314
 20
416.409789
 30
0.0
 11
264.721314
 21
416.809814
 31
0.0
  0
LINE
  5
145
100
AcDbEntity
  8
LAY-2
  6
CONTINUOUS
 62
     3
100
AcDbLine
 10
274.07132
 20
400.809814
 30
0.0
 11
267.371308
 21
400.809814
 31
0.0
  0
LINE
  5
146
100
AcDbEntity
  8
LAY-2
  6
DASHED2
 62
     3
100
AcDbLine
 10
274.07132
 20
413.409789
 30
0.0
 11
274.07132
 21
410.809814
 31
0.0
  0
LINE
  5
147
100
AcDbEntity
  8
LAY-2
  6
DASHED2
 62
     3
100
AcDbLine
 10
267.371308
 20
410.809814
 30
0.0
 11
267.371308
 21
413.409789
 31
0.0
  0
LINE
  5
148
100
AcDbEntity
  8
LAY-2
  6
DASHED2
 62
     1
100
AcDbLine
 10
273.321351
 20
413.409789
 30
0.0
 11
273.321351
 21
410.809814
 31
0.0
  0
LINE
  5
149
100
AcDbEntity
  8
LAY-2
  6
DASHED2
 62
     1
100
AcDbLine
 10
268.121338
 20
413.409789
 30
0.0
 11
268.121338
 21
410.809814
 31
0.0
  0
LINE
  5
14A
100
AcDbEntity
  8
LAY-2
  6
DASHED2
 62
     3
100
AcDbLine
 10
322.721314
 20
416.809814
 30
0.0
 11
310.721314
 21
416.809814
 31
0.0
  0
LINE
  5
14B
100
AcDbEntity
  8
LAY-2
  6
DASHED2
 62
     3
100
AcDbLine
 10
310.721314
 20
416.409789
 30
0.0
 11
322.721314
 21
416.409789
 31
0.0
  0
LINE
  5
14C
100
AcDbEntity
  8
LAY-2
  6
DASHED2
 62
     3
100
AcDbLine
 10
313.371308
 20
413.409789
 30
0.0
 11
320.071351
 21
413.409789
 31
0.0
  0
LINE
  5
14D
100
AcDbEntity
  8
LAY-2
  6
DASHED2
 62
     3
100
AcDbLine
 10
320.071351
 20
413.409789
 30
0.0
 11
322.721314
 21
416.409789
 31
0.0
  0
LINE
  5
14E
100
AcDbEntity
  8
LAY-2
  6
DASHED2
 62
     3
100
AcDbLine
 10
313.371308
 20
413.409789
 30
0.0
 11
310.721314
 21
416.409789
 31
0.0
  0
LINE
  5
14F
100
AcDbEntity
  8
LAY-2
  6
DASHED2
 62
     3
100
AcDbLine
 10
322.721314
 20
416.409789
 30
0.0
 11
322.721314
 21
416.809814
 31
0.0
  0
LINE
  5
150
100
AcDbEntity
  8
LAY-2
  6
DASHED2
 62
     3
100
AcDbLine
 10
310.721314
 20
416.409789
 30
0.0
 11
310.721314
 21
416.809814
 31
0.0
  0
LINE
  5
151
100
AcDbEntity
  8
LAY-2
  6
CONTINUOUS
 62
     3
100
AcDbLine
 10
320.07132
 20
400.809814
 30
0.0
 11
313.371308
 21
400.809814
 31
0.0
  0
LINE
  5
152
100
AcDbEntity
  8
LAY-2
  6
DASHED2
 62
     3
100
AcDbLine
 10
320.07132
 20
413.409789
 30
0.0
 11
320.07132
 21
410.809814
 31
0.0
  0
LINE
  5
153
100
AcDbEntity
  8
LAY-2
  6
DASHED2
 62
     3
100
AcDbLine
 10
313.371308
 20
410.809814
 30
0.0
 11
313.371308
 21
413.409789
 31
0.0
  0
LINE
  5
154
100
AcDbEntity
  8
LAY-2
  6
DASHED2
 62
     1
100
AcDbLine
 10
319.321351
 20
413.409789
 30
0.0
 11
319.321351
 21
410.809814
 31
0.0
  0
LINE
  5
155
100
AcDbEntity
  8
LAY-2
  6
DASHED2
 62
     1
100
AcDbLine
 10
314.121338
 20
413.409789
 30
0.0
 11
314.121338
 21
410.809814
 31
0.0
  0
LINE
  5
156
100
AcDbEntity
  8
LAY-2
  6
CONTINUOUS
 62
     3
100
AcDbLine
 10
221.371323
 20
400.809814
 30
0.0
 11
221.371331
 21
406.309814
 31
0.0
  0
LINE
  5
157
100
AcDbEntity
  8
LAY-2
  6
DASHED2
 62
     3
100
AcDbLine
 10
221.371331
 20
406.309814
 30
0.0
 11
221.371338
 21
410.809814
 31
0.0
  0
LINE
  5
158
100
AcDbEntity
  8
LAY-2
  6
DASHED2
 62
     1
100
AcDbLine
 10
222.121354
 20
410.809814
 30
0.0
 11
222.12134
 21
406.309814
 31
0.0
  0
LINE
  5
159
100
AcDbEntity
  8
LAY-2
  6
CONTINUOUS
 62
     1
100
AcDbLine
 10
222.12134
 20
406.309814
 30
0.0
 11
222.121323
 21
400.809814
 31
0.0
  0
LINE
  5
15A
100
AcDbEntity
  8
LAY-2
  6
CONTINUOUS
 62
     3
100
AcDbLine
 10
267.371308
 20
400.809814
 30
0.0
 11
267.371308
 21
406.309814
 31
0.0
  0
LINE
  5
15B
100
AcDbEntity
  8
LAY-2
  6
DASHED2
 62
     3
100
AcDbLine
 10
267.371308
 20
406.309814
 30
0.0
 11
267.371308
 21
410.809814
 31
0.0
  0
LINE
  5
15C
100
AcDbEntity
  8
LAY-2
  6
DASHED2
 62
     1
100
AcDbLine
 10
268.121338
 20
410.809814
 30
0.0
 11
268.121325
 21
406.309814
 31
0.0
  0
LINE
  5
15D
100
AcDbEntity
  8
LAY-2
  6
CONTINUOUS
 62
     1
100
AcDbLine
 10
268.121325
 20
406.309814
 30
0.0
 11
268.121308
 21
400.809814
 31
0.0
  0
LINE
  5
15E
100
AcDbEntity
  8
LAY-2
  6
DASHED2
 62
     1
100
AcDbLine
 10
273.321351
 20
410.809814
 30
0.0
 11
273.321337
 21
406.309814
 31
0.0
  0
LINE
  5
15F
100
AcDbEntity
  8
LAY-2
  6
CONTINUOUS
 62
     1
100
AcDbLine
 10
273.321337
 20
406.309814
 30
0.0
 11
273.32132
 21
400.809814
 31
0.0
  0
LINE
  5
160
100
AcDbEntity
  8
LAY-2
  6
DASHED2
 62
     3
100
AcDbLine
 10
274.07132
 20
410.809814
 30
0.0
 11
274.07132
 21
406.309814
 31
0.0
  0
LINE
  5
161
100
AcDbEntity
  8
LAY-2
  6
CONTINUOUS
 62
     3
100
AcDbLine
 10
274.07132
 20
406.309814
 30
0.0
 11
274.07132
 21
400.809814
 31
0.0
  0
LINE
  5
162
100
AcDbEntity
  8
LAY-2
  6
CONTINUOUS
 62
     3
100
AcDbLine
 10
313.371308
 20
400.809814
 30
0.0
 11
313.371308
 21
406.309814
 31
0.0
  0
LINE
  5
163
100
AcDbEntity
  8
LAY-2
  6
DASHED2
 62
     3
100
AcDbLine
 10
313.371308
 20
406.309814
 30
0.0
 11
313.371308
 21
410.809814
 31
0.0
  0
LINE
  5
164
100
AcDbEntity
  8
LAY-2
  6
DASHED2
 62
     1
100
AcDbLine
 10
314.121338
 20
410.809814
 30
0.0
 11
314.121325
 21
406.309814
 31
0.0
  0
LINE
  5
165
100
AcDbEntity
  8
LAY-2
  6
CONTINUOUS
 62
     1
100
AcDbLine
 10
314.121325
 20
406.309814
 30
0.0
 11
314.121308
 21
400.809814
 31
0.0
  0
LINE
  5
166
100
AcDbEntity
  8
LAY-2
  6
DASHED2
 62
     1
100
AcDbLine
 10
319.321351
 20
410.809814
 30
0.0
 11
319.321337
 21
406.309814
 31
0.0
  0
LINE
  5
167
100
AcDbEntity
  8
LAY-2
  6
CONTINUOUS
 62
     1
100
AcDbLine
 10
319.321337
 20
406.309814
 30
0.0
 11
319.32132
 21
400.809814
 31
0.0
  0
LINE
  5
168
100
AcDbEntity
  8
LAY-2
  6
DASHED2
 62
     3
100
AcDbLine
 10
320.07132
 20
410.809814
 30
0.0
 11
320.07132
 21
406.309814
 31
0.0
  0
LINE
  5
169
100
AcDbEntity
  8
LAY-2
  6
CONTINUOUS
 62
     3
100
AcDbLine
 10
320.07132
 20
406.309814
 30
0.0
 11
320.07132
 21
400.809814
 31
0.0
  0
LINE
  5
16A
100
AcDbEntity
  8
LAY-2
  6
DASHED2
 62
     1
100
AcDbLine
 10
227.321366
 20
410.809814
 30
0.0
 11
227.321352
 21
406.309814
 31
0.0
  0
LINE
  5
16B
100
AcDbEntity
  8
LAY-2
  6
CONTINUOUS
 62
     1
100
AcDbLine
 10
227.321352
 20
406.309814
 30
0.0
 11
227.321335
 21
400.809814
 31
0.0
  0
LINE
  5
16C
100
AcDbEntity
  8
LAY-2
  6
DASHED2
 62
     3
100
AcDbLine
 10
228.071351
 20
410.809814
 30
0.0
 11
228.071344
 21
406.309814
 31
0.0
  0
LINE
  5
16D
100
AcDbEntity
  8
LAY-2
  6
CONTINUOUS
 62
     3
100
AcDbLine
 10
228.071344
 20
406.309814
 30
0.0
 11
228.071335
 21
400.809814
 31
0.0
  0
LINE
  5
16E
100
AcDbEntity
  8
LAY-2
  6
CONTINUOUS
 62
     3
100
AcDbLine
 10
329.721344
 20
311.15741
 30
0.0
 11
178.721314
 21
311.15741
 31
0.0
  0
LINE
  5
16F
100
AcDbEntity
  8
LAY-2
  6
CONTINUOUS
 62
     3
100
AcDbLine
 10
329.721344
 20
343.15741
 30
0.0
 11
178.721314
 21
343.15741
 31
0.0
  0
LINE
  5
170
100
AcDbEntity
  8
LAY-2
  6
CONTINUOUS
 62
     3
100
AcDbLine
 10
329.721344
 20
343.15741
 30
0.0
 11
329.721344
 21
311.15741
 31
0.0
  0
LINE
  5
171
100
AcDbEntity
  8
LAY-2
  6
CONTINUOUS
 62
     3
100
AcDbLine
 10
178.721314
 20
343.15741
 30
0.0
 11
178.721314
 21
311.15741
 31
0.0
  0
CIRCLE
  5
172
100
AcDbEntity
  8
LAY-2
  6
CONTINUOUS
 62
     3
100
AcDbCircle
 10
194.721344
 20
327.157349
 30
0.0
 40
6.25
  0
CIRCLE
  5
173
100
AcDbEntity
  8
LAY-2
  6
CONTINUOUS
 62
     3
100
AcDbCircle
 10
194.721344
 20
327.157349
 30
0.0
 40
11.9
  0
CIRCLE
  5
174
100
AcDbEntity
  8
LAY-2
  6
CONTINUOUS
 62
     3
100
AcDbCircle
 10
224.721314
 20
335.15741
 30
0.0
 40
6.0
  0
CIRCLE
  5
175
100
AcDbEntity
  8
LAY-2
  6
CONTINUOUS
 62
     3
100
AcDbCircle
 10
224.721314
 20
335.15741
 30
0.0
 40
3.35
  0
CIRCLE
  5
176
100
AcDbEntity
  8
LAY-2
  6
CONTINUOUS
 62
     3
100
AcDbCircle
 10
270.721344
 20
319.15741
 30
0.0
 40
6.0
  0
CIRCLE
  5
177
100
AcDbEntity
  8
LAY-2
  6
CONTINUOUS
 62
     3
100
AcDbCircle
 10
270.721344
 20
319.15741
 30
0.0
 40
3.35
  0
CIRCLE
  5
178
100
AcDbEntity
  8
LAY-2
  6
CONTINUOUS
 62
     3
100
AcDbCircle
 10
316.721344
 20
335.15741
 30
0.0
 40
6.0
  0
CIRCLE
  5
179
100
AcDbEntity
  8
LAY-2
  6
CONTINUOUS
 62
     3
100
AcDbCircle
 10
316.721344
 20
335.15741
 30
0.0
 40
3.35
  0
LINE
  5
17A
100
AcDbEntity
  8
LAY-2
  6
CONTINUOUS
 62
     3
100
AcDbLine
 10
677.478339
 20
480.009781
 30
0.0
 11
645.478339
 21
480.009811
 31
0.0
  0
LINE
  5
17B
100
AcDbEntity
  8
LAY-2
  6
CONTINUOUS
 62
     3
100
AcDbLine
 10
677.478339
 20
486.009811
 30
0.0
 11
677.478339
 21
480.009811
 31
0.0
  0
LINE
  5
17C
100
AcDbEntity
  8
LAY-2
  6
CONTINUOUS
 62
     3
100
AcDbLine
 10
645.478339
 20
486.009811
 30
0.0
 11
677.478339
 21
486.009811
 31
0.0
  0
ARC
  5
17D
100
AcDbEntity
  8
LAY-2
  6
CONTINUOUS
 62
     3
100
AcDbCircle
 10
198.021344
 20
401.009814
 30
0.0
 40
5.2
100
AcDbArc
 50
270.0
 51
0.0
  0
LINE
  5
17E
100
AcDbEntity
  8
LAY-2
  6
CONTINUOUS
 62
     3
100
AcDbLine
 10
191.421344
 20
395.809814
 30
0.0
 11
198.021344
 21
395.809814
 31
0.0
  0
ARC
  5
17F
100
AcDbEntity
  8
LAY-2
  6
CONTINUOUS
 62
     3
100
AcDbCircle
 10
191.421344
 20
401.009814
 30
0.0
 40
5.2
100
AcDbArc
 50
180.0
 51
270.0
  0
LINE
  5
180
100
AcDbEntity
  8
LAY-2
  6
CONTINUOUS
 62
     3
100
AcDbLine
 10
208.721344
 20
410.809814
 30
0.0
 11
208.721344
 21
409.609814
 31
0.0
  0
LINE
  5
181
100
AcDbEntity
  8
LAY-2
  6
CONTINUOUS
 62
     3
100
AcDbLine
 10
180.721344
 20
410.809814
 30
0.0
 11
180.721344
 21
409.609814
 31
0.0
  0
LINE
  5
182
100
AcDbEntity
  8
LAY-2
  6
CONTINUOUS
 62
     3
100
AcDbLine
 10
208.721344
 20
409.609814
 30
0.0
 11
180.721344
 21
409.609814
 31
0.0
  0
ARC
  5
183
100
AcDbEntity
  8
LAY-2
  6
CONTINUOUS
 62
     3
100
AcDbCircle
 10
206.571344
 20
409.609814
 30
0.0
 40
1.0
100
AcDbArc
 50
270.0
 51
0.0
  0
LINE
  5
184
100
AcDbEntity
  8
LAY-2
  6
CONTINUOUS
 62
     3
100
AcDbLine
 10
206.571344
 20
408.609814
 30
0.0
 11
182.871344
 21
408.609814
 31
0.0
  0
ARC
  5
185
100
AcDbEntity
  8
LAY-2
  6
CONTINUOUS
 62
     3
100
AcDbCircle
 10
182.871344
 20
409.609814
 30
0.0
 40
1.0
100
AcDbArc
 50
180.0
 51
270.0
  0
ARC
  5
186
100
AcDbEntity
  8
LAY-2
  6
CONTINUOUS
 62
     3
100
AcDbCircle
 10
203.721344
 20
408.109814
 30
0.0
 40
0.5
100
AcDbArc
 50
90.0
 51
180.0
  0
ARC
  5
187
100
AcDbEntity
  8
LAY-2
  6
CONTINUOUS
 62
     3
100
AcDbCircle
 10
185.721344
 20
408.109814
 30
0.0
 40
0.5
100
AcDbArc
 50
0.0
 51
90.0
  0
LINE
  5
188
100
AcDbEntity
  8
LAY-2
  6
CONTINUOUS
 62
     3
100
AcDbLine
 10
186.221344
 20
408.109814
 30
0.0
 11
186.221344
 21
401.009814
 31
0.0
  0
LINE
  5
189
100
AcDbEntity
  8
LAY-2
  6
CONTINUOUS
 62
     3
100
AcDbLine
 10
203.221344
 20
408.109814
 30
0.0
 11
203.221344
 21
401.009814
 31
0.0
  0
LINE
  5
18A
100
AcDbEntity
  8
LAY-2
  6
CONTINUOUS
 62
     3
100
AcDbLine
 10
675.478461
 20
480.009796
 30
0.0
 11
675.478461
 21
478.809796
 31
0.0
  0
LINE
  5
18B
100
AcDbEntity
  8
LAY-2
  6
CONTINUOUS
 62
     3
100
AcDbLine
 10
647.478461
 20
480.009796
 30
0.0
 11
647.478461
 21
478.809796
 31
0.0
  0
LINE
  5
18C
100
AcDbEntity
  8
LAY-2
  6
CONTINUOUS
 62
     3
100
AcDbLine
 10
675.478461
 20
478.809796
 30
0.0
 11
647.478461
 21
478.809796
 31
0.0
  0
ARC
  5
18D
100
AcDbEntity
  8
LAY-2
  6
CONTINUOUS
 62
     3
100
AcDbCircle
 10
649.628461
 20
478.809796
 30
0.0
 40
1.0
100
AcDbArc
 50
180.0
 51
270.0
  0
LINE
  5
18E
100
AcDbEntity
  8
LAY-2
  6
CONTINUOUS
 62
     3
100
AcDbLine
 10
645.478461
 20
486.009811
 30
0.0
 11
645.478461
 21
480.009811
 31
0.0
  0
ARC
  5
18F
100
AcDbEntity
  8
LAY-2
  6
CONTINUOUS
 62
     3
100
AcDbCircle
 10
665.028461
 20
470.209796
 30
0.0
 40
5.2
100
AcDbArc
 50
270.0
 51
0.0
  0
ARC
  5
190
100
AcDbEntity
  8
LAY-2
  6
CONTINUOUS
 62
     3
100
AcDbCircle
 10
673.537147
 20
478.622031
 30
0.0
 40
0.813285
100
AcDbArc
 50
272.911787
 51
13.348418
  0
ARC
  5
191
100
AcDbEntity
  8
LAY-2
  6
CONTINUOUS
 62
     3
100
AcDbCircle
 10
670.728461
 20
477.309796
 30
0.0
 40
0.5
100
AcDbArc
 50
90.0
 51
180.0
  0
LINE
  5
192
100
AcDbEntity
  8
LAY-2
  6
CONTINUOUS
 62
     3
100
AcDbLine
 10
670.228461
 20
477.309796
 30
0.0
 11
670.228461
 21
470.209796
 31
0.0
  0
ARC
  5
193
100
AcDbEntity
  8
LAY-2
  6
CONTINUOUS
 62
     3
100
AcDbCircle
 10
657.928461
 20
470.209796
 30
0.0
 40
5.2
100
AcDbArc
 50
180.0
 51
270.0
  0
ARC
  5
194
100
AcDbEntity
  8
LAY-2
  6
CONTINUOUS
 62
     3
100
AcDbCircle
 10
652.228461
 20
477.309796
 30
0.0
 40
0.5
100
AcDbArc
 50
0.0
 51
90.0
  0
LINE
  5
195
100
AcDbEntity
  8
LAY-2
  6
CONTINUOUS
 62
     3
100
AcDbLine
 10
652.728461
 20
477.309796
 30
0.0
 11
652.728461
 21
470.209796
 31
0.0
  0
LINE
  5
196
100
AcDbEntity
  8
LAY-2
  6
CONTINUOUS
 62
     3
100
AcDbLine
 10
657.928461
 20
465.009796
 30
0.0
 11
665.028461
 21
465.009796
 31
0.0
  0
LINE
  5
197
100
AcDbEntity
  8
LAY-2
  6
CONTINUOUS
 62
     3
100
AcDbLine
 10
673.578461
 20
477.809796
 30
0.0
 11
649.628461
 21
477.809796
 31
0.0
  0
LINE
  5
198
100
AcDbEntity
  8
LAY-3
  6
CONTINUOUS
 62
     3
100
AcDbLine
 10
174.721344
 20
253.052078
 30
0.0
 11
174.721344
 21
235.052078
 31
0.0
  0
LINE
  5
199
100
AcDbEntity
  8
LAY-3
  6
CONTINUOUS
 62
     3
100
AcDbLine
 10
177.721344
 20
256.052078
 30
0.0
 11
339.721344
 21
256.052078
 31
0.0
  0
LINE
  5
19A
100
AcDbEntity
  8
LAY-3
  6
CONTINUOUS
 62
     3
100
AcDbLine
 10
177.721344
 20
232.052078
 30
0.0
 11
339.721344
 21
232.052078
 31
0.0
  0
LINE
  5
19B
100
AcDbEntity
  8
LAY-3
  6
CONTINUOUS
 62
     3
100
AcDbLine
 10
342.721344
 20
235.052078
 30
0.0
 11
342.721344
 21
253.052078
 31
0.0
  0
LINE
  5
19C
100
AcDbEntity
  8
LAY-3
  6
DASHED2
 62
     3
100
AcDbLine
 10
216.721344
 20
235.052078
 30
0.0
 11
216.721344
 21
253.052078
 31
0.0
  0
ARC
  5
19D
100
AcDbEntity
  8
LAY-3
  6
CONTINUOUS
 62
     3
100
AcDbCircle
 10
177.721344
 20
253.052078
 30
0.0
 40
3.0
100
AcDbArc
 50
90.0
 51
180.0
  0
ARC
  5
19E
100
AcDbEntity
  8
LAY-3
  6
CONTINUOUS
 62
     3
100
AcDbCircle
 10
177.721344
 20
235.052078
 30
0.0
 40
3.0
100
AcDbArc
 50
180.0
 51
270.0
  0
ARC
  5
19F
100
AcDbEntity
  8
LAY-3
  6
DASHED2
 62
     3
100
AcDbCircle
 10
213.721344
 20
253.052078
 30
0.0
 40
3.0
100
AcDbArc
 50
0.0
 51
90.0
  0
ARC
  5
1A0
100
AcDbEntity
  8
LAY-3
  6
DASHED2
 62
     3
100
AcDbCircle
 10
213.721344
 20
235.052078
 30
0.0
 40
3.0
100
AcDbArc
 50
270.0
 51
0.0
  0
ARC
  5
1A1
100
AcDbEntity
  8
LAY-3
  6
CONTINUOUS
 62
     3
100
AcDbCircle
 10
339.721344
 20
253.052078
 30
0.0
 40
3.0
100
AcDbArc
 50
0.0
 51
90.0
  0
ARC
  5
1A2
100
AcDbEntity
  8
LAY-3
  6
CONTINUOUS
 62
     3
100
AcDbCircle
 10
339.721344
 20
235.052078
 30
0.0
 40
3.0
100
AcDbArc
 50
270.0
 51
0.0
  0
CIRCLE
  5
1A3
100
AcDbEntity
  8
LAY-3
  6
DASHED2
 62
     3
100
AcDbCircle
 10
227.221344
 20
239.052078
 30
0.0
 40
6.1
  0
CIRCLE
  5
1A4
100
AcDbEntity
  8
LAY-3
  6
CONTINUOUS
 62
     3
100
AcDbCircle
 10
227.221344
 20
239.052078
 30
0.0
 40
3.2
  0
CIRCLE
  5
1A5
100
AcDbEntity
  8
LAY-3
  6
DASHED2
 62
     3
100
AcDbCircle
 10
292.221344
 20
239.052078
 30
0.0
 40
6.1
  0
CIRCLE
  5
1A6
100
AcDbEntity
  8
LAY-3
  6
CONTINUOUS
 62
     3
100
AcDbCircle
 10
292.221344
 20
239.052078
 30
0.0
 40
3.2
  0
CIRCLE
  5
1A7
100
AcDbEntity
  8
LAY-3
  6
DASHED2
 62
     3
100
AcDbCircle
 10
332.221344
 20
249.052078
 30
0.0
 40
6.1
  0
CIRCLE
  5
1A8
100
AcDbEntity
  8
LAY-3
  6
CONTINUOUS
 62
     3
100
AcDbCircle
 10
332.221344
 20
249.052078
 30
0.0
 40
3.2
  0
CIRCLE
  5
1A9
100
AcDbEntity
  8
LAY-3
  6
DASHED2
 62
     3
100
AcDbCircle
 10
252.221344
 20
249.052078
 30
0.0
 40
6.1
  0
CIRCLE
  5
1AA
100
AcDbEntity
  8
LAY-3
  6
CONTINUOUS
 62
     3
100
AcDbCircle
 10
252.221344
 20
249.052078
 30
0.0
 40
3.2
  0
LINE
  5
1AB
100
AcDbEntity
  8
LAY-3
  6
CONTINUOUS
 62
     3
100
AcDbLine
 10
182.963024
 20
248.402078
 30
0.0
 11
206.479664
 21
248.402078
 31
0.0
  0
LINE
  5
1AC
100
AcDbEntity
  8
LAY-3
  6
CONTINUOUS
 62
     3
100
AcDbLine
 10
182.963024
 20
239.702078
 30
0.0
 11
206.479664
 21
239.702078
 31
0.0
  0
LINE
  5
1AD
100
AcDbEntity
  8
LAY-3
  6
DASHED2
 62
     3
100
AcDbLine
 10
182.096344
 20
237.802078
 30
0.0
 11
207.346344
 21
237.802078
 31
0.0
  0
LINE
  5
1AE
100
AcDbEntity
  8
LAY-3
  6
DASHED2
 62
     3
100
AcDbLine
 10
182.096344
 20
250.302078
 30
0.0
 11
207.346344
 21
250.302078
 31
0.0
  0
LINE
  5
1AF
100
AcDbEntity
  8
LAY-3
  6
DASHED2
 62
     3
100
AcDbLine
 10
207.346344
 20
237.802078
 30
0.0
 11
207.346344
 21
250.302078
 31
0.0
  0
LINE
  5
1B0
100
AcDbEntity
  8
LAY-3
  6
DASHED2
 62
     3
100
AcDbLine
 10
182.096344
 20
237.802078
 30
0.0
 11
182.096344
 21
250.302078
 31
0.0
  0
ARC
  5
1B1
100
AcDbEntity
  8
LAY-3
  6
CONTINUOUS
 62
     3
100
AcDbCircle
 10
195.996344
 20
244.052078
 30
0.0
 40
11.35
100
AcDbArc
 50
337.464244
 51
22.535756
  0
ARC
  5
1B2
100
AcDbEntity
  8
LAY-3
  6
CONTINUOUS
 62
     3
100
AcDbCircle
 10
193.446344
 20
244.052078
 30
0.0
 40
11.35
100
AcDbArc
 50
157.464244
 51
202.535756
  0
LINE
  5
1B3
100
AcDbEntity
  8
LAY-3
  6
DASHED2
 62
     3
100
AcDbLine
 10
206.479664
 20
248.402078
 30
0.0
 11
207.346344
 21
250.302078
 31
0.0
  0
LINE
  5
1B4
100
AcDbEntity
  8
LAY-3
  6
DASHED2
 62
     3
100
AcDbLine
 10
182.963024
 20
248.402078
 30
0.0
 11
182.096344
 21
250.302078
 31
0.0
  0
LINE
  5
1B5
100
AcDbEntity
  8
LAY-3
  6
DASHED2
 62
     3
100
AcDbLine
 10
182.963024
 20
239.702078
 30
0.0
 11
182.096344
 21
237.802078
 31
0.0
  0
LINE
  5
1B6
100
AcDbEntity
  8
LAY-3
  6
DASHED2
 62
     3
100
AcDbLine
 10
206.479664
 20
239.702078
 30
0.0
 11
207.346344
 21
237.802078
 31
0.0
  0
LINE
  5
1B7
100
AcDbEntity
  8
LAY-3
  6
CONTINUOUS
 62
     3
100
AcDbLine
 10
342.721344
 20
142.552002
 30
0.0
 11
342.721344
 21
146.552002
 31
0.0
  0
LINE
  5
1B8
100
AcDbEntity
  8
LAY-3
  6
CONTINUOUS
 62
     3
100
AcDbLine
 10
174.721344
 20
146.552002
 30
0.0
 11
174.721344
 21
142.552002
 31
0.0
  0
LINE
  5
1B9
100
AcDbEntity
  8
LAY-3
  6
CONTINUOUS
 62
     3
100
AcDbLine
 10
216.721344
 20
132.552002
 30
0.0
 11
216.721344
 21
136.552002
 31
0.0
  0
LINE
  5
1BA
100
AcDbEntity
  8
LAY-3
  6
CONTINUOUS
 62
     3
100
AcDbLine
 10
218.721344
 20
138.552002
 30
0.0
 11
340.460755
 21
138.552002
 31
0.0
  0
ARC
  5
1BB
100
AcDbEntity
  8
LAY-3
  6
CONTINUOUS
 62
     3
100
AcDbCircle
 10
214.721344
 20
132.552002
 30
0.0
 40
2.0
100
AcDbArc
 50
270.0
 51
0.0
  0
ARC
  5
1BC
100
AcDbEntity
  8
LAY-3
  6
CONTINUOUS
 62
     3
100
AcDbCircle
 10
218.721344
 20
136.552002
 30
0.0
 40
2.0
100
AcDbArc
 50
90.0
 51
180.0
  0
LINE
  5
1BD
100
AcDbEntity
  8
LAY-3
  6
CONTINUOUS
 62
     3
100
AcDbLine
 10
342.445848
 20
140.308263
 30
0.0
 11
342.721344
 21
142.552002
 31
0.0
  0
LINE
  5
1BE
100
AcDbEntity
  8
LAY-3
  6
CONTINUOUS
 62
     3
100
AcDbLine
 10
342.445848
 20
148.795741
 30
0.0
 11
342.721344
 21
146.552002
 31
0.0
  0
LINE
  5
1BF
100
AcDbEntity
  8
LAY-3
  6
CONTINUOUS
 62
     3
100
AcDbLine
 10
174.99684
 20
148.795741
 30
0.0
 11
174.721344
 21
146.552002
 31
0.0
  0
LINE
  5
1C0
100
AcDbEntity
  8
LAY-3
  6
CONTINUOUS
 62
     3
100
AcDbLine
 10
175.979117
 20
132.308263
 30
0.0
 11
174.721344
 21
142.552002
 31
0.0
  0
ARC
  5
1C1
100
AcDbEntity
  8
LAY-3
  6
CONTINUOUS
 62
     3
100
AcDbCircle
 10
176.981933
 20
148.552002
 30
0.0
 40
2.0
100
AcDbArc
 50
90.0
 51
173.0
  0
ARC
  5
1C2
100
AcDbEntity
  8
LAY-3
  6
CONTINUOUS
 62
     3
100
AcDbCircle
 10
177.964209
 20
132.552002
 30
0.0
 40
2.0
100
AcDbArc
 50
187.0
 51
270.0
  0
ARC
  5
1C3
100
AcDbEntity
  8
LAY-3
  6
CONTINUOUS
 62
     3
100
AcDbCircle
 10
340.460755
 20
148.552002
 30
0.0
 40
2.0
100
AcDbArc
 50
7.0
 51
90.0
  0
ARC
  5
1C4
100
AcDbEntity
  8
LAY-3
  6
CONTINUOUS
 62
     3
100
AcDbCircle
 10
340.460755
 20
140.552002
 30
0.0
 40
2.0
100
AcDbArc
 50
270.0
 51
353.0
  0
LINE
  5
1C5
100
AcDbEntity
  8
LAY-3
  6
CONTINUOUS
 62
     3
100
AcDbLine
 10
176.981933
 20
150.552002
 30
0.0
 11
340.460755
 21
150.552002
 31
0.0
  0
LINE
  5
1C6
100
AcDbEntity
  8
LAY-3
  6
CONTINUOUS
 62
     3
100
AcDbLine
 10
177.964209
 20
130.552002
 30
0.0
 11
214.721344
 21
130.552002
 31
0.0
  0
LINE
  5
1C7
100
AcDbEntity
  8
LAY-3
  6
DASHED2
 62
     3
100
AcDbLine
 10
207.346344
 20
130.552002
 30
0.0
 11
207.346344
 21
150.552002
 31
0.0
  0
LINE
  5
1C8
100
AcDbEntity
  8
LAY-3
  6
DASHED2
 62
     3
100
AcDbLine
 10
182.096344
 20
130.552002
 30
0.0
 11
182.096344
 21
150.552002
 31
0.0
  0
LINE
  5
1C9
100
AcDbEntity
  8
LAY-3
  6
DASHED2
 62
     3
100
AcDbLine
 10
221.221344
 20
138.552002
 30
0.0
 11
233.221344
 21
138.552002
 31
0.0
  0
LINE
  5
1CA
100
AcDbEntity
  8
LAY-3
  6
DASHED2
 62
     3
100
AcDbLine
 10
233.221344
 20
138.951965
 30
0.0
 11
221.221344
 21
138.951965
 31
0.0
  0
LINE
  5
1CB
100
AcDbEntity
  8
LAY-3
  6
CONTINUOUS
 62
     3
100
AcDbLine
 10
223.871338
 20
159.551941
 30
0.0
 11
230.571351
 21
159.551941
 31
0.0
  0
LINE
  5
1CC
100
AcDbEntity
  8
LAY-3
  6
DASHED2
 62
     3
100
AcDbLine
 10
230.571351
 20
141.951965
 30
0.0
 11
223.871308
 21
141.951965
 31
0.0
  0
LINE
  5
1CD
100
AcDbEntity
  8
LAY-3
  6
DASHED2
 62
     3
100
AcDbLine
 10
223.871308
 20
141.951965
 30
0.0
 11
221.221344
 21
138.951965
 31
0.0
  0
LINE
  5
1CE
100
AcDbEntity
  8
LAY-3
  6
DASHED2
 62
     3
100
AcDbLine
 10
230.571351
 20
141.951965
 30
0.0
 11
233.221344
 21
138.951965
 31
0.0
  0
LINE
  5
1CF
100
AcDbEntity
  8
LAY-3
  6
DASHED2
 62
     3
100
AcDbLine
 10
221.221344
 20
138.951965
 30
0.0
 11
221.221344
 21
138.552002
 31
0.0
  0
LINE
  5
1D0
100
AcDbEntity
  8
LAY-3
  6
DASHED2
 62
     3
100
AcDbLine
 10
233.221344
 20
138.951965
 30
0.0
 11
233.221344
 21
138.552002
 31
0.0
  0
LINE
  5
1D1
100
AcDbEntity
  8
LAY-3
  6
CONTINUOUS
 62
     3
100
AcDbLine
 10
223.871338
 20
158.35188
 30
0.0
 11
223.871338
 21
159.551941
 31
0.0
  0
LINE
  5
1D2
100
AcDbEntity
  8
LAY-3
  6
CONTINUOUS
 62
     3
100
AcDbLine
 10
230.571351
 20
159.551941
 30
0.0
 11
230.571351
 21
158.35188
 31
0.0
  0
LINE
  5
1D3
100
AcDbEntity
  8
LAY-3
  6
CONTINUOUS
 62
     1
100
AcDbLine
 10
224.621338
 20
158.35188
 30
0.0
 11
224.621338
 21
159.551941
 31
0.0
  0
LINE
  5
1D4
100
AcDbEntity
  8
LAY-3
  6
CONTINUOUS
 62
     1
100
AcDbLine
 10
229.821351
 20
158.35188
 30
0.0
 11
229.821351
 21
159.551941
 31
0.0
  0
LINE
  5
1D5
100
AcDbEntity
  8
LAY-3
  6
DASHED2
 62
     3
100
AcDbLine
 10
223.871338
 20
141.951965
 30
0.0
 11
223.871338
 21
158.35188
 31
0.0
  0
LINE
  5
1D6
100
AcDbEntity
  8
LAY-3
  6
DASHED2
 62
     3
100
AcDbLine
 10
230.571351
 20
158.35188
 30
0.0
 11
230.571351
 21
141.951965
 31
0.0
  0
LINE
  5
1D7
100
AcDbEntity
  8
LAY-3
  6
DASHED2
 62
     1
100
AcDbLine
 10
224.621308
 20
141.951965
 30
0.0
 11
224.621308
 21
158.35188
 31
0.0
  0
LINE
  5
1D8
100
AcDbEntity
  8
LAY-3
  6
DASHED2
 62
     1
100
AcDbLine
 10
229.82132
 20
141.951965
 30
0.0
 11
229.82132
 21
158.35188
 31
0.0
  0
LINE
  5
1D9
100
AcDbEntity
  8
LAY-3
  6
DASHED2
 62
     3
100
AcDbLine
 10
246.221344
 20
138.552002
 30
0.0
 11
258.221344
 21
138.552002
 31
0.0
  0
LINE
  5
1DA
100
AcDbEntity
  8
LAY-3
  6
DASHED2
 62
     3
100
AcDbLine
 10
258.221344
 20
138.951965
 30
0.0
 11
246.221344
 21
138.951965
 31
0.0
  0
LINE
  5
1DB
100
AcDbEntity
  8
LAY-3
  6
CONTINUOUS
 62
     3
100
AcDbLine
 10
248.871338
 20
159.551941
 30
0.0
 11
255.571351
 21
159.551941
 31
0.0
  0
LINE
  5
1DC
100
AcDbEntity
  8
LAY-3
  6
DASHED2
 62
     3
100
AcDbLine
 10
255.571351
 20
141.951965
 30
0.0
 11
248.871308
 21
141.951965
 31
0.0
  0
LINE
  5
1DD
100
AcDbEntity
  8
LAY-3
  6
DASHED2
 62
     3
100
AcDbLine
 10
248.871308
 20
141.951965
 30
0.0
 11
246.221344
 21
138.951965
 31
0.0
  0
LINE
  5
1DE
100
AcDbEntity
  8
LAY-3
  6
DASHED2
 62
     3
100
AcDbLine
 10
255.571351
 20
141.951965
 30
0.0
 11
258.221344
 21
138.951965
 31
0.0
  0
LINE
  5
1DF
100
AcDbEntity
  8
LAY-3
  6
DASHED2
 62
     3
100
AcDbLine
 10
246.221344
 20
138.951965
 30
0.0
 11
246.221344
 21
138.552002
 31
0.0
  0
LINE
  5
1E0
100
AcDbEntity
  8
LAY-3
  6
DASHED2
 62
     3
100
AcDbLine
 10
258.221344
 20
138.951965
 30
0.0
 11
258.221344
 21
138.552002
 31
0.0
  0
LINE
  5
1E1
100
AcDbEntity
  8
LAY-3
  6
CONTINUOUS
 62
     3
100
AcDbLine
 10
248.871338
 20
158.35188
 30
0.0
 11
248.871338
 21
159.551941
 31
0.0
  0
LINE
  5
1E2
100
AcDbEntity
  8
LAY-3
  6
CONTINUOUS
 62
     3
100
AcDbLine
 10
255.571351
 20
159.551941
 30
0.0
 11
255.571351
 21
158.35188
 31
0.0
  0
LINE
  5
1E3
100
AcDbEntity
  8
LAY-3
  6
CONTINUOUS
 62
     1
100
AcDbLine
 10
249.621338
 20
158.35188
 30
0.0
 11
249.621338
 21
159.551941
 31
0.0
  0
LINE
  5
1E4
100
AcDbEntity
  8
LAY-3
  6
CONTINUOUS
 62
     1
100
AcDbLine
 10
254.821351
 20
158.35188
 30
0.0
 11
254.821351
 21
159.551941
 31
0.0
  0
LINE
  5
1E5
100
AcDbEntity
  8
LAY-3
  6
DASHED2
 62
     3
100
AcDbLine
 10
248.871338
 20
141.951965
 30
0.0
 11
248.871338
 21
158.35188
 31
0.0
  0
LINE
  5
1E6
100
AcDbEntity
  8
LAY-3
  6
DASHED2
 62
     3
100
AcDbLine
 10
255.571351
 20
158.35188
 30
0.0
 11
255.571351
 21
141.951965
 31
0.0
  0
LINE
  5
1E7
100
AcDbEntity
  8
LAY-3
  6
DASHED2
 62
     1
100
AcDbLine
 10
249.621308
 20
141.951965
 30
0.0
 11
249.621308
 21
158.35188
 31
0.0
  0
LINE
  5
1E8
100
AcDbEntity
  8
LAY-3
  6
DASHED2
 62
     1
100
AcDbLine
 10
254.82132
 20
141.951965
 30
0.0
 11
254.82132
 21
158.35188
 31
0.0
  0
LINE
  5
1E9
100
AcDbEntity
  8
LAY-3
  6
DASHED2
 62
     3
100
AcDbLine
 10
286.221344
 20
138.552002
 30
0.0
 11
298.221344
 21
138.552002
 31
0.0
  0
LINE
  5
1EA
100
AcDbEntity
  8
LAY-3
  6
DASHED2
 62
     3
100
AcDbLine
 10
298.221344
 20
138.951965
 30
0.0
 11
286.221344
 21
138.951965
 31
0.0
  0
LINE
  5
1EB
100
AcDbEntity
  8
LAY-3
  6
CONTINUOUS
 62
     3
100
AcDbLine
 10
288.871308
 20
159.551941
 30
0.0
 11
295.57132
 21
159.551941
 31
0.0
  0
LINE
  5
1EC
100
AcDbEntity
  8
LAY-3
  6
DASHED2
 62
     3
100
AcDbLine
 10
295.57132
 20
141.951965
 30
0.0
 11
288.871308
 21
141.951965
 31
0.0
  0
LINE
  5
1ED
100
AcDbEntity
  8
LAY-3
  6
DASHED2
 62
     3
100
AcDbLine
 10
288.871308
 20
141.951965
 30
0.0
 11
286.221344
 21
138.951965
 31
0.0
  0
LINE
  5
1EE
100
AcDbEntity
  8
LAY-3
  6
DASHED2
 62
     3
100
AcDbLine
 10
295.57132
 20
141.951965
 30
0.0
 11
298.221344
 21
138.951965
 31
0.0
  0
LINE
  5
1EF
100
AcDbEntity
  8
LAY-3
  6
DASHED2
 62
     3
100
AcDbLine
 10
286.221344
 20
138.951965
 30
0.0
 11
286.221344
 21
138.552002
 31
0.0
  0
LINE
  5
1F0
100
AcDbEntity
  8
LAY-3
  6
DASHED2
 62
     3
100
AcDbLine
 10
298.221344
 20
138.951965
 30
0.0
 11
298.221344
 21
138.552002
 31
0.0
  0
LINE
  5
1F1
100
AcDbEntity
  8
LAY-3
  6
CONTINUOUS
 62
     3
100
AcDbLine
 10
288.871308
 20
158.35188
 30
0.0
 11
288.871308
 21
159.551941
 31
0.0
  0
LINE
  5
1F2
100
AcDbEntity
  8
LAY-3
  6
CONTINUOUS
 62
     3
100
AcDbLine
 10
295.57132
 20
159.551941
 30
0.0
 11
295.57132
 21
158.35188
 31
0.0
  0
LINE
  5
1F3
100
AcDbEntity
  8
LAY-3
  6
CONTINUOUS
 62
     1
100
AcDbLine
 10
289.621308
 20
158.35188
 30
0.0
 11
289.621308
 21
159.551941
 31
0.0
  0
LINE
  5
1F4
100
AcDbEntity
  8
LAY-3
  6
CONTINUOUS
 62
     1
100
AcDbLine
 10
294.82132
 20
158.35188
 30
0.0
 11
294.82132
 21
159.551941
 31
0.0
  0
LINE
  5
1F5
100
AcDbEntity
  8
LAY-3
  6
DASHED2
 62
     3
100
AcDbLine
 10
288.871308
 20
141.951965
 30
0.0
 11
288.871308
 21
158.35188
 31
0.0
  0
LINE
  5
1F6
100
AcDbEntity
  8
LAY-3
  6
DASHED2
 62
     3
100
AcDbLine
 10
295.57132
 20
158.35188
 30
0.0
 11
295.57132
 21
141.951965
 31
0.0
  0
LINE
  5
1F7
100
AcDbEntity
  8
LAY-3
  6
DASHED2
 62
     1
100
AcDbLine
 10
289.621308
 20
141.951965
 30
0.0
 11
289.621308
 21
158.35188
 31
0.0
  0
LINE
  5
1F8
100
AcDbEntity
  8
LAY-3
  6
DASHED2
 62
     1
100
AcDbLine
 10
294.82132
 20
141.951965
 30
0.0
 11
294.82132
 21
158.35188
 31
0.0
  0
LINE
  5
1F9
100
AcDbEntity
  8
LAY-3
  6
DASHED2
 62
     3
100
AcDbLine
 10
326.221344
 20
138.552002
 30
0.0
 11
338.221344
 21
138.552002
 31
0.0
  0
LINE
  5
1FA
100
AcDbEntity
  8
LAY-3
  6
DASHED2
 62
     3
100
AcDbLine
 10
338.221344
 20
138.951965
 30
0.0
 11
326.221344
 21
138.951965
 31
0.0
  0
LINE
  5
1FB
100
AcDbEntity
  8
LAY-3
  6
CONTINUOUS
 62
     3
100
AcDbLine
 10
328.871338
 20
159.551941
 30
0.0
 11
335.571351
 21
159.551941
 31
0.0
  0
LINE
  5
1FC
100
AcDbEntity
  8
LAY-3
  6
DASHED2
 62
     3
100
AcDbLine
 10
335.571351
 20
141.951965
 30
0.0
 11
328.871308
 21
141.951965
 31
0.0
  0
LINE
  5
1FD
100
AcDbEntity
  8
LAY-3
  6
DASHED2
 62
     3
100
AcDbLine
 10
328.871308
 20
141.951965
 30
0.0
 11
326.221344
 21
138.951965
 31
0.0
  0
LINE
  5
1FE
100
AcDbEntity
  8
LAY-3
  6
DASHED2
 62
     3
100
AcDbLine
 10
335.571351
 20
141.951965
 30
0.0
 11
338.221344
 21
138.951965
 31
0.0
  0
LINE
  5
1FF
100
AcDbEntity
  8
LAY-3
  6
DASHED2
 62
     3
100
AcDbLine
 10
326.221344
 20
138.951965
 30
0.0
 11
326.221344
 21
138.552002
 31
0.0
  0
LINE
  5
200
100
AcDbEntity
  8
LAY-3
  6
DASHED2
 62
     3
100
AcDbLine
 10
338.221344
 20
138.951965
 30
0.0
 11
338.221344
 21
138.552002
 31
0.0
  0
LINE
  5
201
100
AcDbEntity
  8
LAY-3
  6
CONTINUOUS
 62
     3
100
AcDbLine
 10
328.871338
 20
158.35188
 30
0.0
 11
328.871338
 21
159.551941
 31
0.0
  0
LINE
  5
202
100
AcDbEntity
  8
LAY-3
  6
CONTINUOUS
 62
     3
100
AcDbLine
 10
335.571351
 20
159.551941
 30
0.0
 11
335.571351
 21
158.35188
 31
0.0
  0
LINE
  5
203
100
AcDbEntity
  8
LAY-3
  6
CONTINUOUS
 62
     1
100
AcDbLine
 10
329.621338
 20
158.35188
 30
0.0
 11
329.621338
 21
159.551941
 31
0.0
  0
LINE
  5
204
100
AcDbEntity
  8
LAY-3
  6
CONTINUOUS
 62
     1
100
AcDbLine
 10
334.821351
 20
158.35188
 30
0.0
 11
334.821351
 21
159.551941
 31
0.0
  0
LINE
  5
205
100
AcDbEntity
  8
LAY-3
  6
DASHED2
 62
     3
100
AcDbLine
 10
328.871338
 20
141.951965
 30
0.0
 11
328.871338
 21
158.35188
 31
0.0
  0
LINE
  5
206
100
AcDbEntity
  8
LAY-3
  6
DASHED2
 62
     3
100
AcDbLine
 10
335.571351
 20
158.35188
 30
0.0
 11
335.571351
 21
141.951965
 31
0.0
  0
LINE
  5
207
100
AcDbEntity
  8
LAY-3
  6
DASHED2
 62
     1
100
AcDbLine
 10
329.621308
 20
141.951965
 30
0.0
 11
329.621308
 21
158.35188
 31
0.0
  0
LINE
  5
208
100
AcDbEntity
  8
LAY-3
  6
DASHED2
 62
     1
100
AcDbLine
 10
334.82132
 20
141.951965
 30
0.0
 11
334.82132
 21
158.35188
 31
0.0
  0
ARC
  5
209
100
AcDbEntity
  8
LAY-3
  6
CONTINUOUS
 62
     3
100
AcDbCircle
 10
651.478461
 20
334.552063
 30
0.0
 40
2.0
100
AcDbArc
 50
180.0
 51
270.0
  0
LINE
  5
20A
100
AcDbEntity
  8
LAY-3
  6
CONTINUOUS
 62
     3
100
AcDbLine
 10
651.478461
 20
332.552063
 30
0.0
 11
671.478461
 21
332.552063
 31
0.0
  0
ARC
  5
20B
100
AcDbEntity
  8
LAY-3
  6
CONTINUOUS
 62
     3
100
AcDbCircle
 10
671.478461
 20
334.552063
 30
0.0
 40
2.0
100
AcDbArc
 50
270.0
 51
0.0
  0
LINE
  5
20C
100
AcDbEntity
  8
LAY-3
  6
CONTINUOUS
 62
     3
100
AcDbLine
 10
673.478461
 20
350.552063
 30
0.0
 11
673.478461
 21
334.552063
 31
0.0
  0
ARC
  5
20D
100
AcDbEntity
  8
LAY-3
  6
CONTINUOUS
 62
     3
100
AcDbCircle
 10
671.478461
 20
350.552063
 30
0.0
 40
2.0
100
AcDbArc
 50
0.0
 51
90.0
  0
LINE
  5
20E
100
AcDbEntity
  8
LAY-3
  6
CONTINUOUS
 62
     3
100
AcDbLine
 10
649.478461
 20
334.552063
 30
0.0
 11
649.478461
 21
350.552063
 31
0.0
  0
LINE
  5
20F
100
AcDbEntity
  8
LAY-3
  6
CONTINUOUS
 62
     3
100
AcDbLine
 10
651.478461
 20
352.552063
 30
0.0
 11
671.478461
 21
352.552063
 31
0.0
  0
ARC
  5
210
100
AcDbEntity
  8
LAY-3
  6
CONTINUOUS
 62
     3
100
AcDbCircle
 10
651.478461
 20
350.552063
 30
0.0
 40
2.0
100
AcDbArc
 50
90.0
 51
180.0
  0
LINE
  5
211
100
AcDbEntity
  8
LAY-3
  6
DASHDOT
 62
     1
100
AcDbLine
 10
227.221344
 20
136.0
 30
0.0
 11
227.221344
 21
150.552002
 31
0.0
  0
LINE
  5
212
100
AcDbEntity
  8
LAY-3
  6
DASHED2
 62
     3
100
AcDbLine
 10
665.978688
 20
350.552063
 30
0.0
 11
665.80371
 21
352.552063
 31
0.0
  0
LINE
  5
213
100
AcDbEntity
  8
LAY-3
  6
DASHED2
 62
     3
100
AcDbLine
 10
656.978234
 20
350.552063
 30
0.0
 11
657.153212
 21
352.552063
 31
0.0
  0
LINE
  5
214
100
AcDbEntity
  8
LAY-4
  6
CONTINUOUS
 62
     1
100
AcDbLine
 10
244.721344
 20
119.052063
 30
0.0
 11
238.6
 21
119.052063
 31
0.0
  0
LINE
  5
215
100
AcDbEntity
  8
LAY-4
  6
CONTINUOUS
 62
     1
100
AcDbLine
 10
244.721344
 20
120.552063
 30
0.0
 11
238.6
 21
120.552063
 31
0.0
  0
ARC
  5
216
100
AcDbEntity
  8
LAY-4
  6
DASHED2
 62
     3
100
AcDbCircle
 10
661.478461
 20
152.552078
 30
0.0
 40
33.0
100
AcDbArc
 50
130.749054
 51
139.250946
  0
ARC
  5
217
100
AcDbEntity
  8
LAY-4
  6
DASHED2
 62
     3
100
AcDbCircle
 10
661.478461
 20
152.552078
 30
0.0
 40
33.0
100
AcDbArc
 50
220.749054
 51
229.250946
  0
ARC
  5
218
100
AcDbEntity
  8
LAY-4
  6
DASHED2
 62
     3
100
AcDbCircle
 10
661.478461
 20
152.552078
 30
0.0
 40
33.0
100
AcDbArc
 50
310.749054
 51
319.250946
  0
ARC
  5
219
100
AcDbEntity
  8
LAY-4
  6
DASHED2
 62
     3
100
AcDbCircle
 10
661.478461
 20
152.552078
 30
0.0
 40
33.0
100
AcDbArc
 50
40.749054
 51
49.250946
  0
LINE
  5
21A
100
AcDbEntity
  8
LAY-4
  6
CONTINUOUS
 62
     3
100
AcDbLine
 10
631.478461
 20
192.552078
 30
0.0
 11
631.478461
 21
112.552078
 31
0.0
  0
LINE
  5
21B
100
AcDbEntity
  8
LAY-4
  6
CONTINUOUS
 62
     3
100
AcDbLine
 10
711.478461
 20
192.552078
 30
0.0
 11
711.478461
 21
112.552078
 31
0.0
  0
LINE
  5
21C
100
AcDbEntity
  8
LAY-4
  6
CONTINUOUS
 62
     3
100
AcDbLine
 10
631.478461
 20
112.552078
 30
0.0
 11
711.478461
 21
112.552078
 31
0.0
  0
LINE
  5
21D
100
AcDbEntity
  8
LAY-4
  6
CONTINUOUS
 62
     3
100
AcDbLine
 10
631.478461
 20
192.552078
 30
0.0
 11
711.478461
 21
192.552078
 31
0.0
  0
LINE
  5
21E
100
AcDbEntity
  8
LAY-4
  6
DASHED2
 62
     3
100
AcDbLine
 10
639.937802
 20
177.552078
 30
0.0
 11
683.01912
 21
177.552078
 31
0.0
  0
LINE
  5
21F
100
AcDbEntity
  8
LAY-4
  6
DASHED2
 62
     3
100
AcDbLine
 10
639.937802
 20
127.552078
 30
0.0
 11
683.01912
 21
127.552078
 31
0.0
  0
LINE
  5
220
100
AcDbEntity
  8
LAY-4
  6
DASHED2
 62
     3
100
AcDbLine
 10
636.478461
 20
174.092737
 30
0.0
 11
636.478461
 21
131.011419
 31
0.0
  0
LINE
  5
221
100
AcDbEntity
  8
LAY-4
  6
DASHED2
 62
     3
100
AcDbLine
 10
686.478461
 20
174.092737
 30
0.0
 11
686.478461
 21
131.011419
 31
0.0
  0
CIRCLE
  5
222
100
AcDbEntity
  8
LAY-4
  6
CONTINUOUS
 62
     3
100
AcDbCircle
 10
642.407696
 20
171.622823
 30
0.0
 40
3.96
  0
LINE
  5
223
100
AcDbEntity
  8
LAY-4
  6
CONTINUOUS
 62
     3
100
AcDbLine
 10
642.011692
 20
173.899791
 30
0.0
 11
642.8037
 21
173.899791
 31
0.0
  0
LINE
  5
224
100
AcDbEntity
  8
LAY-4
  6
CONTINUOUS
 62
     3
100
AcDbLine
 10
642.011692
 20
169.345815
 30
0.0
 11
642.8037
 21
169.345815
 31
0.0
  0
LINE
  5
225
100
AcDbEntity
  8
LAY-4
  6
CONTINUOUS
 62
     3
100
AcDbLine
 10
640.130708
 20
171.226798
 30
0.0
 11
640.130708
 21
172.018807
 31
0.0
  0
LINE
  5
226
100
AcDbEntity
  8
LAY-4
  6
CONTINUOUS
 62
     3
100
AcDbLine
 10
644.684704
 20
171.226798
 30
0.0
 11
644.684704
 21
172.018807
 31
0.0
  0
LINE
  5
227
100
AcDbEntity
  8
LAY-4
  6
CONTINUOUS
 62
     3
100
AcDbLine
 10
642.011692
 20
173.008807
 30
0.0
 11
642.011692
 21
173.899791
 31
0.0
  0
LINE
  5
228
100
AcDbEntity
  8
LAY-4
  6
CONTINUOUS
 62
     3
100
AcDbLine
 10
640.130688
 20
172.018807
 30
0.0
 11
641.021692
 21
172.018807
 31
0.0
  0
ARC
  5
229
100
AcDbEntity
  8
LAY-4
  6
CONTINUOUS
 62
     3
100
AcDbCircle
 10
641.021692
 20
173.008807
 30
0.0
 40
0.99
100
AcDbArc
 50
270.000001
 51
359.999982
  0
LINE
  5
22A
100
AcDbEntity
  8
LAY-4
  6
CONTINUOUS
 62
     3
100
AcDbLine
 10
643.7937
 20
172.018807
 30
0.0
 11
644.684684
 21
172.018807
 31
0.0
  0
LINE
  5
22B
100
AcDbEntity
  8
LAY-4
  6
CONTINUOUS
 62
     3
100
AcDbLine
 10
642.8037
 20
173.899831
 30
0.0
 11
642.8037
 21
173.008807
 31
0.0
  0
ARC
  5
22C
100
AcDbEntity
  8
LAY-4
  6
CONTINUOUS
 62
     3
100
AcDbCircle
 10
643.7937
 20
173.008807
 30
0.0
 40
0.99
100
AcDbArc
 50
180.00002
 51
270.000001
  0
LINE
  5
22D
100
AcDbEntity
  8
LAY-4
  6
CONTINUOUS
 62
     3
100
AcDbLine
 10
644.684704
 20
171.226798
 30
0.0
 11
643.7937
 21
171.226798
 31
0.0
  0
LINE
  5
22E
100
AcDbEntity
  8
LAY-4
  6
CONTINUOUS
 62
     3
100
AcDbLine
 10
642.8037
 20
170.236798
 30
0.0
 11
642.8037
 21
169.345815
 31
0.0
  0
ARC
  5
22F
100
AcDbEntity
  8
LAY-4
  6
CONTINUOUS
 62
     3
100
AcDbCircle
 10
643.7937
 20
170.236798
 30
0.0
 40
0.99
100
AcDbArc
 50
89.999981
 51
180.00002
  0
LINE
  5
230
100
AcDbEntity
  8
LAY-4
  6
CONTINUOUS
 62
     3
100
AcDbLine
 10
642.011692
 20
169.345815
 30
0.0
 11
642.011692
 21
170.236798
 31
0.0
  0
LINE
  5
231
100
AcDbEntity
  8
LAY-4
  6
CONTINUOUS
 62
     3
100
AcDbLine
 10
641.021692
 20
171.226798
 30
0.0
 11
640.130708
 21
171.226798
 31
0.0
  0
ARC
  5
232
100
AcDbEntity
  8
LAY-4
  6
CONTINUOUS
 62
     3
100
AcDbCircle
 10
641.021692
 20
170.236798
 30
0.0
 40
0.99
100
AcDbArc
 50
0.0
 51
89.999981
  0
ARC
  5
233
100
AcDbEntity
  8
LAY-4
  6
CONTINUOUS
 62
     3
100
AcDbCircle
 10
643.7937
 20
173.008807
 30
0.0
 40
0.99
100
AcDbArc
 50
180.00002
 51
270.000001
  0
ARC
  5
234
100
AcDbEntity
  8
LAY-4
  6
CONTINUOUS
 62
     3
100
AcDbCircle
 10
643.7937
 20
170.236798
 30
0.0
 40
0.99
100
AcDbArc
 50
89.999981
 51
180.00002
  0
CIRCLE
  5
235
100
AcDbEntity
  8
LAY-4
  6
CONTINUOUS
 62
     3
100
AcDbCircle
 10
680.570324
 20
171.643961
 30
0.0
 40
3.96
  0
LINE
  5
236
100
AcDbEntity
  8
LAY-4
  6
CONTINUOUS
 62
     3
100
AcDbLine
 10
680.17432
 20
173.920929
 30
0.0
 11
680.966328
 21
173.920929
 31
0.0
  0
LINE
  5
237
100
AcDbEntity
  8
LAY-4
  6
CONTINUOUS
 62
     3
100
AcDbLine
 10
680.17432
 20
169.366953
 30
0.0
 11
680.966328
 21
169.366953
 31
0.0
  0
LINE
  5
238
100
AcDbEntity
  8
LAY-4
  6
CONTINUOUS
 62
     3
100
AcDbLine
 10
678.293336
 20
171.247937
 30
0.0
 11
678.293336
 21
172.039945
 31
0.0
  0
LINE
  5
239
100
AcDbEntity
  8
LAY-4
  6
CONTINUOUS
 62
     3
100
AcDbLine
 10
682.847332
 20
171.247937
 30
0.0
 11
682.847332
 21
172.039945
 31
0.0
  0
LINE
  5
23A
100
AcDbEntity
  8
LAY-4
  6
CONTINUOUS
 62
     3
100
AcDbLine
 10
680.17432
 20
173.029945
 30
0.0
 11
680.17432
 21
173.920929
 31
0.0
  0
LINE
  5
23B
100
AcDbEntity
  8
LAY-4
  6
CONTINUOUS
 62
     3
100
AcDbLine
 10
678.293316
 20
172.039945
 30
0.0
 11
679.18432
 21
172.039945
 31
0.0
  0
ARC
  5
23C
100
AcDbEntity
  8
LAY-4
  6
CONTINUOUS
 62
     3
100
AcDbCircle
 10
679.18432
 20
173.029945
 30
0.0
 40
0.99
100
AcDbArc
 50
270.000001
 51
359.999982
  0
LINE
  5
23D
100
AcDbEntity
  8
LAY-4
  6
CONTINUOUS
 62
     3
100
AcDbLine
 10
681.956328
 20
172.039945
 30
0.0
 11
682.847312
 21
172.039945
 31
0.0
  0
LINE
  5
23E
100
AcDbEntity
  8
LAY-4
  6
CONTINUOUS
 62
     3
100
AcDbLine
 10
680.966328
 20
173.920969
 30
0.0
 11
680.966328
 21
173.029945
 31
0.0
  0
ARC
  5
23F
100
AcDbEntity
  8
LAY-4
  6
CONTINUOUS
 62
     3
100
AcDbCircle
 10
681.956328
 20
173.029945
 30
0.0
 40
0.99
100
AcDbArc
 50
180.00002
 51
270.000001
  0
LINE
  5
240
100
AcDbEntity
  8
LAY-4
  6
CONTINUOUS
 62
     3
100
AcDbLine
 10
682.847332
 20
171.247937
 30
0.0
 11
681.956328
 21
171.247937
 31
0.0
  0
LINE
  5
241
100
AcDbEntity
  8
LAY-4
  6
CONTINUOUS
 62
     3
100
AcDbLine
 10
680.966328
 20
170.257937
 30
0.0
 11
680.966328
 21
169.366953
 31
0.0
  0
ARC
  5
242
100
AcDbEntity
  8
LAY-4
  6
CONTINUOUS
 62
     3
100
AcDbCircle
 10
681.956328
 20
170.257937
 30
0.0
 40
0.99
100
AcDbArc
 50
89.999981
 51
180.00002
  0
LINE
  5
243
100
AcDbEntity
  8
LAY-4
  6
CONTINUOUS
 62
     3
100
AcDbLine
 10
680.17432
 20
169.366953
 30
0.0
 11
680.17432
 21
170.257937
 31
0.0
  0
LINE
  5
244
100
AcDbEntity
  8
LAY-4
  6
CONTINUOUS
 62
     3
100
AcDbLine
 10
679.18432
 20
171.247937
 30
0.0
 11
678.293336
 21
171.247937
 31
0.0
  0
ARC
  5
245
100
AcDbEntity
  8
LAY-4
  6
CONTINUOUS
 62
     3
100
AcDbCircle
 10
679.18432
 20
170.257937
 30
0.0
 40
0.99
100
AcDbArc
 50
0.0
 51
89.999981
  0
ARC
  5
246
100
AcDbEntity
  8
LAY-4
  6
CONTINUOUS
 62
     3
100
AcDbCircle
 10
681.956328
 20
173.029945
 30
0.0
 40
0.99
100
AcDbArc
 50
180.00002
 51
270.000001
  0
ARC
  5
247
100
AcDbEntity
  8
LAY-4
  6
CONTINUOUS
 62
     3
100
AcDbCircle
 10
681.956328
 20
170.257937
 30
0.0
 40
0.99
100
AcDbArc
 50
89.999981
 51
180.00002
  0
CIRCLE
  5
248
100
AcDbEntity
  8
LAY-4
  6
CONTINUOUS
 62
     3
100
AcDbCircle
 10
642.407676
 20
133.481313
 30
0.0
 40
3.96
  0
LINE
  5
249
100
AcDbEntity
  8
LAY-4
  6
CONTINUOUS
 62
     3
100
AcDbLine
 10
642.011672
 20
135.758281
 30
0.0
 11
642.80368
 21
135.758281
 31
0.0
  0
LINE
  5
24A
100
AcDbEntity
  8
LAY-4
  6
CONTINUOUS
 62
     3
100
AcDbLine
 10
642.011672
 20
131.204305
 30
0.0
 11
642.80368
 21
131.204305
 31
0.0
  0
LINE
  5
24B
100
AcDbEntity
  8
LAY-4
  6
CONTINUOUS
 62
     3
100
AcDbLine
 10
640.130688
 20
133.085289
 30
0.0
 11
640.130688
 21
133.877297
 31
0.0
  0
LINE
  5
24C
100
AcDbEntity
  8
LAY-4
  6
CONTINUOUS
 62
     3
100
AcDbLine
 10
644.684684
 20
133.085289
 30
0.0
 11
644.684684
 21
133.877297
 31
0.0
  0
LINE
  5
24D
100
AcDbEntity
  8
LAY-4
  6
CONTINUOUS
 62
     3
100
AcDbLine
 10
642.011672
 20
134.867297
 30
0.0
 11
642.011672
 21
135.758281
 31
0.0
  0
LINE
  5
24E
100
AcDbEntity
  8
LAY-4
  6
CONTINUOUS
 62
     3
100
AcDbLine
 10
640.130668
 20
133.877297
 30
0.0
 11
641.021672
 21
133.877297
 31
0.0
  0
ARC
  5
24F
100
AcDbEntity
  8
LAY-4
  6
CONTINUOUS
 62
     3
100
AcDbCircle
 10
641.021672
 20
134.867297
 30
0.0
 40
0.99
100
AcDbArc
 50
270.000001
 51
359.999982
  0
LINE
  5
250
100
AcDbEntity
  8
LAY-4
  6
CONTINUOUS
 62
     3
100
AcDbLine
 10
643.79368
 20
133.877297
 30
0.0
 11
644.684664
 21
133.877297
 31
0.0
  0
LINE
  5
251
100
AcDbEntity
  8
LAY-4
  6
CONTINUOUS
 62
     3
100
AcDbLine
 10
642.80368
 20
135.758321
 30
0.0
 11
642.80368
 21
134.867297
 31
0.0
  0
ARC
  5
252
100
AcDbEntity
  8
LAY-4
  6
CONTINUOUS
 62
     3
100
AcDbCircle
 10
643.79368
 20
134.867297
 30
0.0
 40
0.99
100
AcDbArc
 50
180.00002
 51
270.000001
  0
LINE
  5
253
100
AcDbEntity
  8
LAY-4
  6
CONTINUOUS
 62
     3
100
AcDbLine
 10
644.684684
 20
133.085289
 30
0.0
 11
643.79368
 21
133.085289
 31
0.0
  0
LINE
  5
254
100
AcDbEntity
  8
LAY-4
  6
CONTINUOUS
 62
     3
100
AcDbLine
 10
642.80368
 20
132.095289
 30
0.0
 11
642.80368
 21
131.204305
 31
0.0
  0
ARC
  5
255
100
AcDbEntity
  8
LAY-4
  6
CONTINUOUS
 62
     3
100
AcDbCircle
 10
643.79368
 20
132.095289
 30
0.0
 40
0.99
100
AcDbArc
 50
89.999981
 51
180.00002
  0
LINE
  5
256
100
AcDbEntity
  8
LAY-4
  6
CONTINUOUS
 62
     3
100
AcDbLine
 10
642.011672
 20
131.204305
 30
0.0
 11
642.011672
 21
132.095289
 31
0.0
  0
LINE
  5
257
100
AcDbEntity
  8
LAY-4
  6
CONTINUOUS
 62
     3
100
AcDbLine
 10
641.021672
 20
133.085289
 30
0.0
 11
640.130688
 21
133.085289
 31
0.0
  0
ARC
  5
258
100
AcDbEntity
  8
LAY-4
  6
CONTINUOUS
 62
     3
100
AcDbCircle
 10
641.021672
 20
132.095289
 30
0.0
 40
0.99
100
AcDbArc
 50
0.0
 51
89.999981
  0
ARC
  5
259
100
AcDbEntity
  8
LAY-4
  6
CONTINUOUS
 62
     3
100
AcDbCircle
 10
643.79368
 20
134.867297
 30
0.0
 40
0.99
100
AcDbArc
 50
180.00002
 51
270.000001
  0
ARC
  5
25A
100
AcDbEntity
  8
LAY-4
  6
CONTINUOUS
 62
     3
100
AcDbCircle
 10
643.79368
 20
132.095289
 30
0.0
 40
0.99
100
AcDbArc
 50
89.999981
 51
180.00002
  0
CIRCLE
  5
25B
100
AcDbEntity
  8
LAY-4
  6
CONTINUOUS
 62
     3
100
AcDbCircle
 10
680.570324
 20
133.460195
 30
0.0
 40
3.96
  0
LINE
  5
25C
100
AcDbEntity
  8
LAY-4
  6
CONTINUOUS
 62
     3
100
AcDbLine
 10
680.17432
 20
135.737163
 30
0.0
 11
680.966328
 21
135.737163
 31
0.0
  0
LINE
  5
25D
100
AcDbEntity
  8
LAY-4
  6
CONTINUOUS
 62
     3
100
AcDbLine
 10
680.17432
 20
131.183187
 30
0.0
 11
680.966328
 21
131.183187
 31
0.0
  0
LINE
  5
25E
100
AcDbEntity
  8
LAY-4
  6
CONTINUOUS
 62
     3
100
AcDbLine
 10
678.293336
 20
133.06417
 30
0.0
 11
678.293336
 21
133.856179
 31
0.0
  0
LINE
  5
25F
100
AcDbEntity
  8
LAY-4
  6
CONTINUOUS
 62
     3
100
AcDbLine
 10
682.847332
 20
133.06417
 30
0.0
 11
682.847332
 21
133.856179
 31
0.0
  0
LINE
  5
260
100
AcDbEntity
  8
LAY-4
  6
CONTINUOUS
 62
     3
100
AcDbLine
 10
680.17432
 20
134.846179
 30
0.0
 11
680.17432
 21
135.737163
 31
0.0
  0
LINE
  5
261
100
AcDbEntity
  8
LAY-4
  6
CONTINUOUS
 62
     3
100
AcDbLine
 10
678.293316
 20
133.856179
 30
0.0
 11
679.18432
 21
133.856179
 31
0.0
  0
ARC
  5
262
100
AcDbEntity
  8
LAY-4
  6
CONTINUOUS
 62
     3
100
AcDbCircle
 10
679.18432
 20
134.846179
 30
0.0
 40
0.99
100
AcDbArc
 50
270.000001
 51
359.999982
  0
LINE
  5
263
100
AcDbEntity
  8
LAY-4
  6
CONTINUOUS
 62
     3
100
AcDbLine
 10
681.956328
 20
133.856179
 30
0.0
 11
682.847312
 21
133.856179
 31
0.0
  0
LINE
  5
264
100
AcDbEntity
  8
LAY-4
  6
CONTINUOUS
 62
     3
100
AcDbLine
 10
680.966328
 20
135.737203
 30
0.0
 11
680.966328
 21
134.846179
 31
0.0
  0
ARC
  5
265
100
AcDbEntity
  8
LAY-4
  6
CONTINUOUS
 62
     3
100
AcDbCircle
 10
681.956328
 20
134.846179
 30
0.0
 40
0.99
100
AcDbArc
 50
180.00002
 51
270.000001
  0
LINE
  5
266
100
AcDbEntity
  8
LAY-4
  6
CONTINUOUS
 62
     3
100
AcDbLine
 10
682.847332
 20
133.06417
 30
0.0
 11
681.956328
 21
133.06417
 31
0.0
  0
LINE
  5
267
100
AcDbEntity
  8
LAY-4
  6
CONTINUOUS
 62
     3
100
AcDbLine
 10
680.966328
 20
132.07417
 30
0.0
 11
680.966328
 21
131.183187
 31
0.0
  0
ARC
  5
268
100
AcDbEntity
  8
LAY-4
  6
CONTINUOUS
 62
     3
100
AcDbCircle
 10
681.956328
 20
132.07417
 30
0.0
 40
0.99
100
AcDbArc
 50
89.999981
 51
180.00002
  0
LINE
  5
269
100
AcDbEntity
  8
LAY-4
  6
CONTINUOUS
 62
     3
100
AcDbLine
 10
680.17432
 20
131.183187
 30
0.0
 11
680.17432
 21
132.07417
 31
0.0
  0
LINE
  5
26A
100
AcDbEntity
  8
LAY-4
  6
CONTINUOUS
 62
     3
100
AcDbLine
 10
679.18432
 20
133.06417
 30
0.0
 11
678.293336
 21
133.06417
 31
0.0
  0
ARC
  5
26B
100
AcDbEntity
  8
LAY-4
  6
CONTINUOUS
 62
     3
100
AcDbCircle
 10
679.18432
 20
132.07417
 30
0.0
 40
0.99
100
AcDbArc
 50
0.0
 51
89.999981
  0
ARC
  5
26C
100
AcDbEntity
  8
LAY-4
  6
CONTINUOUS
 62
     3
100
AcDbCircle
 10
681.956328
 20
134.846179
 30
0.0
 40
0.99
100
AcDbArc
 50
180.00002
 51
270.000001
  0
ARC
  5
26D
100
AcDbEntity
  8
LAY-4
  6
CONTINUOUS
 62
     3
100
AcDbCircle
 10
681.956328
 20
132.07417
 30
0.0
 40
0.99
100
AcDbArc
 50
89.999981
 51
180.00002
  0
LINE
  5
26E
100
AcDbEntity
  8
LAY-4
  6
CONTINUOUS
 62
     3
100
AcDbLine
 10
164.721344
 20
120.552063
 30
0.0
 11
244.721344
 21
120.552063
 31
0.0
  0
LINE
  5
26F
100
AcDbEntity
  8
LAY-4
  6
CONTINUOUS
 62
     3
100
AcDbLine
 10
164.721344
 20
119.052063
 30
0.0
 11
244.721344
 21
119.052063
 31
0.0
  0
LINE
  5
270
100
AcDbEntity
  8
LAY-4
  6
CONTINUOUS
 62
     3
100
AcDbLine
 10
164.721344
 20
120.552063
 30
0.0
 11
164.721344
 21
119.052063
 31
0.0
  0
LINE
  5
271
100
AcDbEntity
  8
LAY-4
  6
CONTINUOUS
 62
     3
100
AcDbLine
 10
244.721344
 20
120.552063
 30
0.0
 11
244.721344
 21
119.052063
 31
0.0
  0
LINE
  5
272
100
AcDbEntity
  8
LAY-4
  6
CONTINUOUS
 62
     3
100
AcDbLine
 10
621.478461
 20
322.551695
 30
0.0
 11
701.478461
 21
322.552074
 31
0.0
  0
LINE
  5
273
100
AcDbEntity
  8
LAY-4
  6
CONTINUOUS
 62
     3
100
AcDbLine
 10
621.478461
 20
321.051885
 30
0.0
 11
701.478461
 21
321.051885
 31
0.0
  0
LINE
  5
274
100
AcDbEntity
  8
LAY-4
  6
CONTINUOUS
 62
     3
100
AcDbLine
 10
621.478461
 20
322.551706
 30
0.0
 11
621.478461
 21
321.051885
 31
0.0
  0
LINE
  5
275
100
AcDbEntity
  8
LAY-4
  6
CONTINUOUS
 62
     3
100
AcDbLine
 10
701.478461
 20
322.552068
 30
0.0
 11
701.478461
 21
321.051885
 31
0.0
  0
CIRCLE
  5
276
100
AcDbEntity
  8
LAY-4
  6
CONTINUOUS
 62
     3
100
AcDbCircle
 10
661.478461
 20
152.552078
 30
0.0
 40
12.5
  0
CIRCLE
  5
277
100
AcDbEntity
  8
LAY-4
  6
CONTINUOUS
 62
     3
100
AcDbCircle
 10
661.478461
 20
152.552078
 30
0.0
 40
2.0
  0
CIRCLE
  5
278
100
AcDbEntity
  8
LAY-4
  6
CONTINUOUS
 62
     3
100
AcDbCircle
 10
661.478461
 20
152.552078
 30
0.0
 40
1.575
  0
ARC
  5
279
100
AcDbEntity
  8
LAY-4
  6
CONTINUOUS
 62
     3
100
AcDbCircle
 10
661.478461
 20
152.552078
 30
0.0
 40
12.0
100
AcDbArc
 50
337.9744
 51
22.0256
  0
ARC
  5
27A
100
AcDbEntity
  8
LAY-4
  6
CONTINUOUS
 62
     3
100
AcDbCircle
 10
661.478461
 20
152.552078
 30
0.0
 40
12.0
100
AcDbArc
 50
157.9744
 51
202.0256
  0
CIRCLE
  5
27B
100
AcDbEntity
  8
LAY-4
  6
CONTINUOUS
 62
     3
100
AcDbCircle
 10
661.478461
 20
152.552078
 30
0.0
 40
12.35
  0
LINE
  5
27C
100
AcDbEntity
  8
LAY-4
  6
CONTINUOUS
 62
     3
100
AcDbLine
 10
672.979341
 20
148.051828
 30
0.0
 11
649.977581
 21
148.051828
 31
0.0
  0
LINE
  5
27D
100
AcDbEntity
  8
LAY-4
  6
CONTINUOUS
 62
     3
100
AcDbLine
 10
672.130221
 20
146.302078
 30
0.0
 11
650.826701
 21
146.302078
 31
0.0
  0
LINE
  5
27E
100
AcDbEntity
  8
LAY-4
  6
CONTINUOUS
 62
     3
100
AcDbLine
 10
672.130221
 20
158.802078
 30
0.0
 11
650.826701
 21
158.802078
 31
0.0
  0
LINE
  5
27F
100
AcDbEntity
  8
LAY-4
  6
CONTINUOUS
 62
     3
100
AcDbLine
 10
672.979341
 20
157.052328
 30
0.0
 11
649.977581
 21
157.052328
 31
0.0
  0
LINE
  5
280
100
AcDbEntity
  8
LAY-4
  6
CONTINUOUS
 62
     3
100
AcDbLine
 10
636.478461
 20
271.051885
 30
0.0
 11
686.478461
 21
271.051885
 31
0.0
  0
LINE
  5
281
100
AcDbEntity
  8
LAY-4
  6
CONTINUOUS
 62
     3
100
AcDbLine
 10
636.478461
 20
321.051885
 30
0.0
 11
636.478461
 21
271.051885
 31
0.0
  0
LINE
  5
282
100
AcDbEntity
  8
LAY-4
  6
CONTINUOUS
 62
     3
100
AcDbLine
 10
686.478461
 20
321.051885
 30
0.0
 11
686.478461
 21
271.051885
 31
0.0
  0
LINE
  5
283
100
AcDbEntity
  8
LAY-4
  6
CONTINUOUS
 62
     3
100
AcDbLine
 10
639.978461
 20
321.051885
 30
0.0
 11
639.978461
 21
271.051885
 31
0.0
  0
LINE
  5
284
100
AcDbEntity
  8
LAY-4
  6
CONTINUOUS
 62
     3
100
AcDbLine
 10
682.978461
 20
321.051885
 30
0.0
 11
682.978461
 21
271.051885
 31
0.0
  0
LINE
  5
285
100
AcDbEntity
  8
LAY-4
  6
CONTINUOUS
 62
     3
100
AcDbLine
 10
169.721344
 20
69.052063
 30
0.0
 11
219.721344
 21
69.052063
 31
0.0
  0
LINE
  5
286
100
AcDbEntity
  8
LAY-4
  6
CONTINUOUS
 62
     3
100
AcDbLine
 10
169.721344
 20
119.052063
 30
0.0
 11
169.721344
 21
69.052063
 31
0.0
  0
LINE
  5
287
100
AcDbEntity
  8
LAY-4
  6
CONTINUOUS
 62
     3
100
AcDbLine
 10
219.721344
 20
119.052063
 30
0.0
 11
219.721344
 21
69.052063
 31
0.0
  0
LINE
  5
288
100
AcDbEntity
  8
LAY-4
  6
CONTINUOUS
 62
     3
100
AcDbLine
 10
173.221344
 20
119.052063
 30
0.0
 11
173.221344
 21
69.052063
 31
0.0
  0
LINE
  5
289
100
AcDbEntity
  8
LAY-4
  6
CONTINUOUS
 62
     3
100
AcDbLine
 10
216.221344
 20
119.052063
 30
0.0
 11
216.221344
 21
69.052063
 31
0.0
  0
LINE
  5
28A
100
AcDbEntity
  8
LAY-4
  6
DASHED2
 62
     3
100
AcDbLine
 10
665.978688
 20
350.552063
 30
0.0
 11
656.978234
 21
350.552063
 31
0.0
  0
LINE
  5
28B
100
AcDbEntity
  8
LAY-4
  6
DASHED2
 62
     3
100
AcDbLine
 10
656.890746
 20
349.552063
 30
0.0
 11
666.066176
 21
349.552063
 31
0.0
  0
LINE
  5
28C
100
AcDbEntity
  8
LAY-4
  6
DASHED2
 62
     3
100
AcDbLine
 10
667.553484
 20
332.552063
 30
0.0
 11
667.556104
 21
332.522111
 31
0.0
  0
LINE
  5
28D
100
AcDbEntity
  8
LAY-4
  6
DASHED2
 62
     3
100
AcDbLine
 10
656.978234
 20
350.552063
 30
0.0
 11
655.403438
 21
332.552063
 31
0.0
  0
LINE
  5
28E
100
AcDbEntity
  8
LAY-4
  6
DASHED2
 62
     3
100
AcDbLine
 10
665.978688
 20
350.552063
 30
0.0
 11
667.553484
 21
332.552063
 31
0.0
  0
LINE
  5
28F
100
AcDbEntity
  8
LAY-4
  6
CONTINUOUS
 62
     3
100
AcDbLine
 10
667.728461
 20
330.552063
 30
0.0
 11
673.828461
 21
330.552063
 31
0.0
  0
LINE
  5
290
100
AcDbEntity
  8
LAY-4
  6
CONTINUOUS
 62
     3
100
AcDbLine
 10
649.128461
 20
330.552063
 30
0.0
 11
655.228461
 21
330.552063
 31
0.0
  0
LINE
  5
291
100
AcDbEntity
  8
LAY-4
  6
CONTINUOUS
 62
     3
100
AcDbLine
 10
649.128461
 20
330.552063
 30
0.0
 11
649.128461
 21
329.552063
 31
0.0
  0
LINE
  5
292
100
AcDbEntity
  8
LAY-4
  6
CONTINUOUS
 62
     3
100
AcDbLine
 10
673.828461
 20
329.552063
 30
0.0
 11
673.828461
 21
330.552063
 31
0.0
  0
LINE
  5
293
100
AcDbEntity
  8
LAY-4
  6
CONTINUOUS
 62
     3
100
AcDbLine
 10
648.978461
 20
329.552063
 30
0.0
 11
673.978461
 21
329.552063
 31
0.0
  0
LINE
  5
294
100
AcDbEntity
  8
LAY-4
  6
CONTINUOUS
 62
     3
100
AcDbLine
 10
673.978461
 20
329.552063
 30
0.0
 11
673.978461
 21
322.551944
 31
0.0
  0
LINE
  5
295
100
AcDbEntity
  8
LAY-4
  6
CONTINUOUS
 62
     3
100
AcDbLine
 10
648.978461
 20
329.552063
 30
0.0
 11
648.978461
 21
322.551825
 31
0.0
  0
LINE
  5
296
100
AcDbEntity
  8
LAY-4
  6
CONTINUOUS
 62
     3
100
AcDbLine
 10
667.553484
 20
332.552063
 30
0.0
 11
667.728461
 21
330.552063
 31
0.0
  0
LINE
  5
297
100
AcDbEntity
  8
LAY-4
  6
CONTINUOUS
 62
     3
100
AcDbLine
 10
655.403438
 20
332.552063
 30
0.0
 11
655.228461
 21
330.552063
 31
0.0
  0
LINE
  5
298
100
AcDbEntity
  8
LAY-4
  6
CONTINUOUS
 62
     3
100
AcDbLine
 10
184.721344
 20
128.552063
 30
0.0
 11
204.721344
 21
128.552063
 31
0.0
  0
LINE
  5
299
100
AcDbEntity
  8
LAY-4
  6
CONTINUOUS
 62
     3
100
AcDbLine
 10
182.221344
 20
127.552063
 30
0.0
 11
207.221344
 21
127.552063
 31
0.0
  0
LINE
  5
29A
100
AcDbEntity
  8
LAY-4
  6
CONTINUOUS
 62
     3
100
AcDbLine
 10
207.221344
 20
127.552063
 30
0.0
 11
207.221344
 21
120.552063
 31
0.0
  0
LINE
  5
29B
100
AcDbEntity
  8
LAY-4
  6
CONTINUOUS
 62
     3
100
AcDbLine
 10
182.221344
 20
127.552063
 30
0.0
 11
182.221344
 21
120.552063
 31
0.0
  0
LINE
  5
29C
100
AcDbEntity
  8
LAY-4
  6
DASHED2
 62
     3
100
AcDbLine
 10
206.071344
 20
148.552063
 30
0.0
 11
183.371344
 21
148.552063
 31
0.0
  0
LINE
  5
29D
100
AcDbEntity
  8
LAY-4
  6
DASHED2
 62
     3
100
AcDbLine
 10
183.371344
 20
148.552063
 30
0.0
 11
182.371344
 21
147.552063
 31
0.0
  0
LINE
  5
29E
100
AcDbEntity
  8
LAY-4
  6
DASHED2
 62
     3
100
AcDbLine
 10
207.071344
 20
147.552063
 30
0.0
 11
206.071344
 21
148.552063
 31
0.0
  0
LINE
  5
29F
100
AcDbEntity
  8
LAY-4
  6
DASHED2
 62
     3
100
AcDbLine
 10
182.371344
 20
147.552063
 30
0.0
 11
183.689757
 21
147.552063
 31
0.0
  0
LINE
  5
2A0
100
AcDbEntity
  8
LAY-4
  6
DASHED2
 62
     3
100
AcDbLine
 10
207.071344
 20
147.552063
 30
0.0
 11
205.752931
 21
147.552063
 31
0.0
  0
LINE
  5
2A1
100
AcDbEntity
  8
LAY-4
  6
DASHED2
 62
     3
100
AcDbLine
 10
206.921344
 20
147.552063
 30
0.0
 11
205.752931
 21
147.552063
 31
0.0
  0
LINE
  5
2A2
100
AcDbEntity
  8
LAY-4
  6
DASHED2
 62
     3
100
AcDbLine
 10
207.071344
 20
130.552002
 30
0.0
 11
207.071344
 21
147.552063
 31
0.0
  0
LINE
  5
2A3
100
AcDbEntity
  8
LAY-4
  6
DASHED2
 62
     3
100
AcDbLine
 10
183.635463
 20
148.552063
 30
0.0
 11
184.612759
 21
130.552002
 31
0.0
  0
LINE
  5
2A4
100
AcDbEntity
  8
LAY-4
  6
DASHED2
 62
     3
100
AcDbLine
 10
182.371344
 20
130.552002
 30
0.0
 11
182.371344
 21
147.552063
 31
0.0
  0
LINE
  5
2A5
100
AcDbEntity
  8
LAY-4
  6
DASHED2
 62
     3
100
AcDbLine
 10
205.807225
 20
148.552063
 30
0.0
 11
204.829929
 21
130.552002
 31
0.0
  0
LINE
  5
2A6
100
AcDbEntity
  8
LAY-4
  6
CONTINUOUS
 62
     3
100
AcDbLine
 10
207.071344
 20
130.552002
 30
0.0
 11
207.071344
 21
127.552063
 31
0.0
  0
LINE
  5
2A7
100
AcDbEntity
  8
LAY-4
  6
CONTINUOUS
 62
     3
100
AcDbLine
 10
182.371344
 20
130.552002
 30
0.0
 11
182.371344
 21
127.552063
 31
0.0
  0
LINE
  5
2A8
100
AcDbEntity
  8
LAY-4
  6
CONTINUOUS
 62
     3
100
AcDbLine
 10
204.721344
 20
128.552063
 30
0.0
 11
204.829929
 21
130.552002
 31
0.0
  0
LINE
  5
2A9
100
AcDbEntity
  8
LAY-4
  6
CONTINUOUS
 62
     3
100
AcDbLine
 10
184.721344
 20
128.552063
 30
0.0
 11
184.612759
 21
130.552002
 31
0.0
  0
LINE
  5
2AA
100
AcDbEntity
  8
LAY-5
  6
DASHDOT
 62
     1
100
AcDbLine
 10
194.721344
 20
271.75
 30
0.0
 11
194.721344
 21
219.45
 31
0.0
  0
LINE
  5
2AB
100
AcDbEntity
  8
LAY-5
  6
DASHDOT
 62
     1
100
AcDbLine
 10
224.721329
 20
418.440795
 30
0.0
 11
224.721329
 21
396.731249
 31
0.0
  0
LINE
  5
2AC
100
AcDbEntity
  8
LAY-5
  6
DASHDOT
 62
     1
100
AcDbLine
 10
270.721344
 20
418.440795
 30
0.0
 11
270.721344
 21
396.531249
 31
0.0
  0
LINE
  5
2AD
100
AcDbEntity
  8
LAY-5
  6
DASHDOT
 62
     1
100
AcDbLine
 10
283.351532
 20
437.309814
 30
0.0
 11
265.743897
 21
437.309814
 31
0.0
  0
LINE
  5
2AE
100
AcDbEntity
  8
LAY-5
  6
DASHDOT
 62
     1
100
AcDbLine
 10
287.453309
 20
441.309814
 30
0.0
 11
304.560761
 21
441.309814
 31
0.0
  0
LINE
  5
2AF
100
AcDbEntity
  8
LAY-5
  6
DASHDOT
 62
     1
100
AcDbLine
 10
274.721314
 20
448.3
 30
0.0
 11
274.721314
 21
423.543334
 31
0.0
  0
LINE
  5
2B0
100
AcDbEntity
  8
LAY-5
  6
DASHDOT
 62
     1
100
AcDbLine
 10
295.721314
 20
423.543334
 30
0.0
 11
295.721314
 21
449.755981
 31
0.0
  0
LINE
  5
2B1
100
AcDbEntity
  8
LAY-5
  6
DASHDOT
 62
     1
100
AcDbLine
 10
194.721344
 20
461.361022
 30
0.0
 11
194.721344
 21
394.743334
 31
0.0
  0
LINE
  5
2B2
100
AcDbEntity
  8
LAY-5
  6
DASHDOT
 62
     1
100
AcDbLine
 10
216.013459
 20
335.15741
 30
0.0
 11
234.256958
 21
335.15741
 31
0.0
  0
LINE
  5
2B3
100
AcDbEntity
  8
LAY-5
  6
DASHDOT
 62
     1
100
AcDbLine
 10
260.256958
 20
319.15741
 30
0.0
 11
279.913849
 21
319.15741
 31
0.0
  0
LINE
  5
2B4
100
AcDbEntity
  8
LAY-5
  6
DASHDOT
 62
     1
100
AcDbLine
 10
307.622895
 20
335.15741
 30
0.0
 11
325.944733
 21
335.15741
 31
0.0
  0
LINE
  5
2B5
100
AcDbEntity
  8
LAY-5
  6
DASHDOT
 62
     1
100
AcDbLine
 10
173.256958
 20
327.15741
 30
0.0
 11
335.053315
 21
327.15741
 31
0.0
  0
LINE
  5
2B6
100
AcDbEntity
  8
LAY-5
  6
DASHDOT
 62
     1
100
AcDbLine
 10
224.721314
 20
343.15741
 30
0.0
 11
224.721314
 21
323.0
 31
0.0
  0
LINE
  5
2B7
100
AcDbEntity
  8
LAY-5
  6
DASHDOT
 62
     1
100
AcDbLine
 10
270.721344
 20
327.15741
 30
0.0
 11
270.721344
 21
306.154175
 31
0.0
  0
LINE
  5
2B8
100
AcDbEntity
  8
LAY-5
  6
DASHDOT
 62
     1
100
AcDbLine
 10
316.721344
 20
343.15741
 30
0.0
 11
316.721344
 21
326.0
 31
0.0
  0
LINE
  5
2B9
100
AcDbEntity
  8
LAY-5
  6
DASHDOT
 62
     1
100
AcDbLine
 10
194.721344
 20
345.405212
 30
0.0
 11
194.721344
 21
308.0
 31
0.0
  0
LINE
  5
2BA
100
AcDbEntity
  8
LAY-5
  6
DASHDOT
 62
     1
100
AcDbLine
 10
316.721344
 20
544.227417
 30
0.0
 11
316.721344
 21
528.643311
 31
0.0
  0
LINE
  5
2BB
100
AcDbEntity
  8
LAY-5
  6
DASHDOT
 62
     1
100
AcDbLine
 10
316.721344
 20
512.227509
 30
0.0
 11
316.721344
 21
527.059937
 31
0.0
  0
LINE
  5
2BC
100
AcDbEntity
  8
LAY-5
  6
DASHDOT
 62
     1
100
AcDbLine
 10
307.622895
 20
537.227417
 30
0.0
 11
328.256958
 21
537.227417
 31
0.0
  0
LINE
  5
2BD
100
AcDbEntity
  8
LAY-5
  6
DASHDOT
 62
     1
100
AcDbLine
 10
307.622895
 20
519.227386
 30
0.0
 11
328.256958
 21
519.227386
 31
0.0
  0
LINE
  5
2BE
100
AcDbEntity
  8
LAY-5
  6
DASHDOT
 62
     1
100
AcDbLine
 10
169.721344
 20
544.227417
 30
0.0
 11
169.721344
 21
528.982544
 31
0.0
  0
LINE
  5
2BF
100
AcDbEntity
  8
LAY-5
  6
DASHDOT
 62
     1
100
AcDbLine
 10
169.721344
 20
512.227509
 30
0.0
 11
169.721344
 21
526.946777
 31
0.0
  0
LINE
  5
2C0
100
AcDbEntity
  8
LAY-5
  6
DASHDOT
 62
     1
100
AcDbLine
 10
161.500214
 20
537.227417
 30
0.0
 11
178.691132
 21
537.227417
 31
0.0
  0
LINE
  5
2C1
100
AcDbEntity
  8
LAY-5
  6
DASHDOT
 62
     1
100
AcDbLine
 10
178.691132
 20
519.227386
 30
0.0
 11
161.500214
 21
519.227386
 31
0.0
  0
LINE
  5
2C2
100
AcDbEntity
  8
LAY-5
  6
CONTINUOUS
 62
     1
100
AcDbLine
 10
646.211044
 20
167.819495
 30
0.0
 11
637.539444
 21
176.491095
 31
0.0
  0
LINE
  5
2C3
100
AcDbEntity
  8
LAY-5
  6
CONTINUOUS
 62
     1
100
AcDbLine
 10
676.638586
 20
167.712203
 30
0.0
 11
685.438616
 21
176.512233
 31
0.0
  0
LINE
  5
2C4
100
AcDbEntity
  8
LAY-5
  6
CONTINUOUS
 62
     1
100
AcDbLine
 10
676.840664
 20
137.189875
 30
0.0
 11
685.438616
 21
128.591923
 31
0.0
  0
LINE
  5
2C5
100
AcDbEntity
  8
LAY-5
  6
CONTINUOUS
 62
     1
100
AcDbLine
 10
637.539424
 20
128.613041
 30
0.0
 11
646.858946
 21
137.932563
 31
0.0
  0
LINE
  5
2C6
100
AcDbEntity
  8
LAY-5
  6
DASHDOT
 62
     1
100
AcDbLine
 10
619.0
 20
152.552078
 30
0.0
 11
719.0
 21
152.552078
 31
0.0
  0
LINE
  5
2C7
100
AcDbEntity
  8
LAY-5
  6
DASHDOT
 62
     1
100
AcDbLine
 10
661.478461
 20
202.0
 30
0.0
 11
661.478461
 21
104.0
 31
0.0
  0
ARC
  5
2C8
100
AcDbEntity
  8
LAY-5
  6
DASHDOT
 62
     1
100
AcDbCircle
 10
661.478461
 20
152.552078
 30
0.0
 40
26.999986
100
AcDbArc
 50
303.725818
 51
325.994361
  0
ARC
  5
2C9
100
AcDbEntity
  8
LAY-5
  6
DASHDOT
 62
     1
100
AcDbCircle
 10
661.478461
 20
152.552078
 30
0.0
 40
26.999986
100
AcDbArc
 50
34.161739
 51
56.14832
  0
ARC
  5
2CA
100
AcDbEntity
  8
LAY-5
  6
DASHDOT
 62
     1
100
AcDbCircle
 10
661.478461
 20
152.552078
 30
0.0
 40
26.970121
100
AcDbArc
 50
124.065115
 51
145.31602
  0
ARC
  5
2CB
100
AcDbEntity
  8
LAY-5
  6
DASHDOT
 62
     1
100
AcDbCircle
 10
661.478461
 20
152.552078
 30
0.0
 40
26.970149
100
AcDbArc
 50
215.356156
 51
235.757692
  0
LINE
  5
2CC
100
AcDbEntity
  8
LAY-5
  6
DASHDOT
 62
     1
100
AcDbLine
 10
169.721344
 20
418.36
 30
0.0
 11
169.721344
 21
439.550292
 31
0.0
  0
LINE
  5
2CD
100
AcDbEntity
  8
LAY-5
  6
DASHDOT
 62
     1
100
AcDbLine
 10
316.721344
 20
417.42
 30
0.0
 11
316.721344
 21
396.531249
 31
0.0
  0
LINE
  5
2CE
100
AcDbEntity
  8
LAY-5
  6
DASHDOT
 62
     1
100
AcDbLine
 10
316.721314
 20
418.31
 30
0.0
 11
316.721314
 21
438.750304
 31
0.0
  0
LINE
  5
2CF
100
AcDbEntity
  8
LAY-5
  6
DASHDOT
 62
     1
100
AcDbLine
 10
194.721344
 20
507.7
 30
0.0
 11
194.721344
 21
548.8
 31
0.0
  0
LINE
  5
2D0
100
AcDbEntity
  8
LAY-5
  6
DASHDOT
 62
     1
100
AcDbLine
 10
254.721344
 20
521.0
 30
0.0
 11
254.721344
 21
535.5
 31
0.0
  0
LINE
  5
2D1
100
AcDbEntity
  8
LAY-5
  6
DASHDOT
 62
     1
100
AcDbLine
 10
274.721344
 20
520.7
 30
0.0
 11
274.721344
 21
536.3
 31
0.0
  0
LINE
  5
2D2
100
AcDbEntity
  8
LAY-5
  6
DASHDOT
 62
     1
100
AcDbLine
 10
295.721344
 20
520.2
 30
0.0
 11
295.721344
 21
536.5
 31
0.0
  0
LINE
  5
2D3
100
AcDbEntity
  8
LAY-5
  6
DASHDOT
 62
     1
100
AcDbLine
 10
150.6
 20
528.227417
 30
0.0
 11
339.0
 21
528.227417
 31
0.0
  0
LINE
  5
2D4
100
AcDbEntity
  8
LAY-5
  6
DASHDOT
 62
     1
100
AcDbLine
 10
160.0
 20
244.052078
 30
0.0
 11
350.0
 21
244.052078
 31
0.0
  0
LINE
  5
2D5
100
AcDbEntity
  8
LAY-5
  6
DASHDOT
 62
     1
100
AcDbLine
 10
227.221344
 20
232.052078
 30
0.0
 11
227.221344
 21
246.842078
 31
0.0
  0
LINE
  5
2D6
100
AcDbEntity
  8
LAY-5
  6
DASHDOT
 62
     1
100
AcDbLine
 10
216.721344
 20
239.052078
 30
0.0
 11
236.151344
 21
239.052078
 31
0.0
  0
LINE
  5
2D7
100
AcDbEntity
  8
LAY-5
  6
DASHDOT
 62
     1
100
AcDbLine
 10
252.221344
 20
240.452078
 30
0.0
 11
252.221344
 21
256.052078
 31
0.0
  0
LINE
  5
2D8
100
AcDbEntity
  8
LAY-5
  6
DASHDOT
 62
     1
100
AcDbLine
 10
244.221344
 20
249.052078
 30
0.0
 11
260.121344
 21
249.052078
 31
0.0
  0
LINE
  5
2D9
100
AcDbEntity
  8
LAY-5
  6
DASHDOT
 62
     1
100
AcDbLine
 10
283.921344
 20
239.052078
 30
0.0
 11
299.521344
 21
239.052078
 31
0.0
  0
LINE
  5
2DA
100
AcDbEntity
  8
LAY-5
  6
DASHDOT
 62
     1
100
AcDbLine
 10
292.221344
 20
232.052078
 30
0.0
 11
292.221344
 21
247.152078
 31
0.0
  0
LINE
  5
2DB
100
AcDbEntity
  8
LAY-5
  6
DASHDOT
 62
     1
100
AcDbLine
 10
332.221344
 20
241.352078
 30
0.0
 11
332.221344
 21
256.052078
 31
0.0
  0
LINE
  5
2DC
100
AcDbEntity
  8
LAY-5
  6
DASHDOT
 62
     1
100
AcDbLine
 10
322.521344
 20
249.052078
 30
0.0
 11
342.721344
 21
249.052078
 31
0.0
  0
LINE
  5
2DD
100
AcDbEntity
  8
LAY-5
  6
CONTINUOUS
 62
     1
100
AcDbLine
 10
194.721344
 20
231.552078
 30
0.0
 11
194.721344
 21
210.8
 31
0.0
  0
LINE
  5
2DE
100
AcDbEntity
  8
LAY-5
  6
DASHDOT
 62
     1
100
AcDbLine
 10
227.221344
 20
166.304871
 30
0.0
 11
227.221344
 21
134.122253
 31
0.0
  0
LINE
  5
2DF
100
AcDbEntity
  8
LAY-5
  6
DASHDOT
 62
     1
100
AcDbLine
 10
252.221344
 20
166.304871
 30
0.0
 11
252.221344
 21
134.122253
 31
0.0
  0
LINE
  5
2E0
100
AcDbEntity
  8
LAY-5
  6
DASHDOT
 62
     1
100
AcDbLine
 10
292.221344
 20
166.304871
 30
0.0
 11
292.221344
 21
134.122253
 31
0.0
  0
LINE
  5
2E1
100
AcDbEntity
  8
LAY-5
  6
DASHDOT
 62
     1
100
AcDbLine
 10
332.221344
 20
166.304871
 30
0.0
 11
332.221344
 21
134.122253
 31
0.0
  0
LINE
  5
2E2
100
AcDbEntity
  8
LAY-5
  6
DASHDOT
 62
     1
100
AcDbLine
 10
661.478461
 20
530.561023
 30
0.0
 11
661.478461
 21
259.821289
 31
0.0
  0
LINE
  5
2E3
100
AcDbEntity
  8
LAY-5
  6
DASHDOT
 62
     1
100
AcDbLine
 10
194.721344
 20
65.8
 30
0.0
 11
194.721344
 21
159.0
 31
0.0
  0
LINE
  5
2E4
100
AcDbEntity
  8
LAY-6
  6
CONTINUOUS
 62
     1
100
AcDbLine
 10
153.721344
 20
552.6
 30
0.0
 11
194.721344
 21
552.6
 31
0.0
  0
LINE
  5
2E5
100
AcDbEntity
  8
LAY-6
  6
CONTINUOUS
 62
     1
100
AcDbLine
 10
155.721344
 20
552.933333
 30
0.0
 11
153.721344
 21
552.6
 31
0.0
  0
LINE
  5
2E6
100
AcDbEntity
  8
LAY-6
  6
CONTINUOUS
 62
     1
100
AcDbLine
 10
153.721344
 20
552.6
 30
0.0
 11
155.721344
 21
552.266667
 31
0.0
  0
LINE
  5
2E7
100
AcDbEntity
  8
LAY-6
  6
CONTINUOUS
 62
     1
100
AcDbLine
 10
192.721344
 20
552.266667
 30
0.0
 11
194.721344
 21
552.6
 31
0.0
  0
LINE
  5
2E8
100
AcDbEntity
  8
LAY-6
  6
CONTINUOUS
 62
     1
100
AcDbLine
 10
194.721344
 20
552.6
 30
0.0
 11
192.721344
 21
552.933333
 31
0.0
  0
TEXT
  5
2E9
100
AcDbEntity
  8
LAY-6
  6
CONTINUOUS
 62
     2
100
AcDbText
 10
172.221344
 20
553.1
 30
0.0
 40
5.0
  1
４１
 41
0.672
  7
EXCADSTD
 72
     5
 11
179.554144
 21
553.1
 31
0.0
100
AcDbText
  0
LINE
  5
2EA
100
AcDbEntity
  8
LAY-6
  6
CONTINUOUS
 62
     1
100
AcDbLine
 10
153.721344
 20
546.727417
 30
0.0
 11
153.721344
 21
554.1
 31
0.0
  0
LINE
  5
2EB
100
AcDbEntity
  8
LAY-6
  6
CONTINUOUS
 62
     1
100
AcDbLine
 10
194.721344
 20
548.6
 30
0.0
 11
194.721344
 21
554.1
 31
0.0
  0
LINE
  5
2EC
100
AcDbEntity
  8
LAY-6
  6
CONTINUOUS
 62
     1
100
AcDbLine
 10
194.721344
 20
552.6
 30
0.0
 11
335.721344
 21
552.6
 31
0.0
  0
LINE
  5
2ED
100
AcDbEntity
  8
LAY-6
  6
CONTINUOUS
 62
     1
100
AcDbLine
 10
196.721344
 20
552.933333
 30
0.0
 11
194.721344
 21
552.6
 31
0.0
  0
LINE
  5
2EE
100
AcDbEntity
  8
LAY-6
  6
CONTINUOUS
 62
     1
100
AcDbLine
 10
194.721344
 20
552.6
 30
0.0
 11
196.721344
 21
552.266667
 31
0.0
  0
LINE
  5
2EF
100
AcDbEntity
  8
LAY-6
  6
CONTINUOUS
 62
     1
100
AcDbLine
 10
333.721344
 20
552.266667
 30
0.0
 11
335.721344
 21
552.6
 31
0.0
  0
LINE
  5
2F0
100
AcDbEntity
  8
LAY-6
  6
CONTINUOUS
 62
     1
100
AcDbLine
 10
335.721344
 20
552.6
 30
0.0
 11
333.721344
 21
552.933333
 31
0.0
  0
TEXT
  5
2F1
100
AcDbEntity
  8
LAY-6
  6
CONTINUOUS
 62
     2
100
AcDbText
 10
261.221344
 20
553.1
 30
0.0
 40
5.0
  1
１４１
 41
0.672
  7
EXCADSTD
 72
     5
 11
273.221344
 21
553.1
 31
0.0
100
AcDbText
  0
LINE
  5
2F2
100
AcDbEntity
  8
LAY-6
  6
CONTINUOUS
 62
     1
100
AcDbLine
 10
335.721344
 20
546.727417
 30
0.0
 11
335.721344
 21
554.1
 31
0.0
  0
TEXT
  5
2F3
100
AcDbEntity
  8
LAY-6
  6
CONTINUOUS
 62
     2
100
AcDbText
 10
178.221344
 20
499.1
 30
0.0
 40
5.0
  1
２５
 41
0.672
  7
EXCADSTD
 72
     5
 11
185.554144
 21
499.1
 31
0.0
100
AcDbText
  0
LINE
  5
2F4
100
AcDbEntity
  8
LAY-6
  6
CONTINUOUS
 62
     1
100
AcDbLine
 10
169.721344
 20
511.727509
 30
0.0
 11
169.721344
 21
497.1
 31
0.0
  0
LINE
  5
2F5
100
AcDbEntity
  8
LAY-6
  6
CONTINUOUS
 62
     1
100
AcDbLine
 10
169.721344
 20
498.6
 30
0.0
 11
194.721344
 21
498.6
 31
0.0
  0
LINE
  5
2F6
100
AcDbEntity
  8
LAY-6
  6
CONTINUOUS
 62
     1
100
AcDbLine
 10
171.721344
 20
498.933333
 30
0.0
 11
169.721344
 21
498.6
 31
0.0
  0
LINE
  5
2F7
100
AcDbEntity
  8
LAY-6
  6
CONTINUOUS
 62
     1
100
AcDbLine
 10
169.721344
 20
498.6
 30
0.0
 11
171.721344
 21
498.266667
 31
0.0
  0
LINE
  5
2F8
100
AcDbEntity
  8
LAY-6
  6
CONTINUOUS
 62
     1
100
AcDbLine
 10
192.721344
 20
498.266667
 30
0.0
 11
194.721344
 21
498.6
 31
0.0
  0
LINE
  5
2F9
100
AcDbEntity
  8
LAY-6
  6
CONTINUOUS
 62
     1
100
AcDbLine
 10
194.721344
 20
498.6
 30
0.0
 11
192.721344
 21
498.933333
 31
0.0
  0
TEXT
  5
2FA
100
AcDbEntity
  8
LAY-6
  6
CONTINUOUS
 62
     2
100
AcDbText
 10
249.721344
 20
499.1
 30
0.0
 40
5.0
  1
１２２
 41
0.672
  7
EXCADSTD
 72
     5
 11
261.721344
 21
499.1
 31
0.0
100
AcDbText
  0
LINE
  5
2FB
100
AcDbEntity
  8
LAY-6
  6
CONTINUOUS
 62
     1
100
AcDbLine
 10
194.721344
 20
498.6
 30
0.0
 11
316.721344
 21
498.6
 31
0.0
  0
LINE
  5
2FC
100
AcDbEntity
  8
LAY-6
  6
CONTINUOUS
 62
     1
100
AcDbLine
 10
196.721344
 20
498.933333
 30
0.0
 11
194.721344
 21
498.6
 31
0.0
  0
LINE
  5
2FD
100
AcDbEntity
  8
LAY-6
  6
CONTINUOUS
 62
     1
100
AcDbLine
 10
194.721344
 20
498.6
 30
0.0
 11
196.721344
 21
498.266667
 31
0.0
  0
LINE
  5
2FE
100
AcDbEntity
  8
LAY-6
  6
CONTINUOUS
 62
     1
100
AcDbLine
 10
314.721344
 20
498.266667
 30
0.0
 11
316.721344
 21
498.6
 31
0.0
  0
LINE
  5
2FF
100
AcDbEntity
  8
LAY-6
  6
CONTINUOUS
 62
     1
100
AcDbLine
 10
316.721344
 20
498.6
 30
0.0
 11
314.721344
 21
498.933333
 31
0.0
  0
TEXT
  5
300
100
AcDbEntity
  8
LAY-6
  6
CONTINUOUS
 62
     2
100
AcDbText
 10
141.5
 20
526.227402
 30
0.0
 40
5.0
  1
３７
 50
90.0
 41
0.672
  7
EXCADSTD
 72
     5
 11
141.5
 21
533.560202
 31
0.0
100
AcDbText
  0
LINE
  5
301
100
AcDbEntity
  8
LAY-6
  6
CONTINUOUS
 62
     1
100
AcDbLine
 10
153.721344
 20
546.727417
 30
0.0
 11
140.5
 21
546.727417
 31
0.0
  0
LINE
  5
302
100
AcDbEntity
  8
LAY-6
  6
CONTINUOUS
 62
     1
100
AcDbLine
 10
153.721344
 20
509.727386
 30
0.0
 11
140.5
 21
509.727386
 31
0.0
  0
LINE
  5
303
100
AcDbEntity
  8
LAY-6
  6
CONTINUOUS
 62
     1
100
AcDbLine
 10
142.0
 20
546.727417
 30
0.0
 11
142.0
 21
509.727386
 31
0.0
  0
LINE
  5
304
100
AcDbEntity
  8
LAY-6
  6
CONTINUOUS
 62
     1
100
AcDbLine
 10
142.333333
 20
544.727417
 30
0.0
 11
142.0
 21
546.727417
 31
0.0
  0
LINE
  5
305
100
AcDbEntity
  8
LAY-6
  6
CONTINUOUS
 62
     1
100
AcDbLine
 10
142.0
 20
546.727417
 30
0.0
 11
141.666667
 21
544.727417
 31
0.0
  0
LINE
  5
306
100
AcDbEntity
  8
LAY-6
  6
CONTINUOUS
 62
     1
100
AcDbLine
 10
141.666667
 20
511.727386
 30
0.0
 11
142.0
 21
509.727386
 31
0.0
  0
LINE
  5
307
100
AcDbEntity
  8
LAY-6
  6
CONTINUOUS
 62
     1
100
AcDbLine
 10
142.0
 20
509.727386
 30
0.0
 11
142.333333
 21
511.727386
 31
0.0
  0
TEXT
  5
308
100
AcDbEntity
  8
LAY-6
  6
CONTINUOUS
 62
     2
100
AcDbText
 10
348.1
 20
524.227402
 30
0.0
 40
5.0
  1
１８
 50
90.0
 41
0.672
  7
EXCADSTD
 72
     5
 11
348.1
 21
531.560202
 31
0.0
100
AcDbText
  0
LINE
  5
309
100
AcDbEntity
  8
LAY-6
  6
CONTINUOUS
 62
     1
100
AcDbLine
 10
328.256958
 20
537.227417
 30
0.0
 11
350.1
 21
537.227417
 31
0.0
  0
LINE
  5
30A
100
AcDbEntity
  8
LAY-6
  6
CONTINUOUS
 62
     1
100
AcDbLine
 10
328.256958
 20
519.227386
 30
0.0
 11
350.1
 21
519.227386
 31
0.0
  0
LINE
  5
30B
100
AcDbEntity
  8
LAY-6
  6
CONTINUOUS
 62
     1
100
AcDbLine
 10
348.6
 20
537.227417
 30
0.0
 11
348.6
 21
519.227386
 31
0.0
  0
LINE
  5
30C
100
AcDbEntity
  8
LAY-6
  6
CONTINUOUS
 62
     1
100
AcDbLine
 10
348.933333
 20
535.227417
 30
0.0
 11
348.6
 21
537.227417
 31
0.0
  0
LINE
  5
30D
100
AcDbEntity
  8
LAY-6
  6
CONTINUOUS
 62
     1
100
AcDbLine
 10
348.6
 20
537.227417
 30
0.0
 11
348.266667
 21
535.227417
 31
0.0
  0
LINE
  5
30E
100
AcDbEntity
  8
LAY-6
  6
CONTINUOUS
 62
     1
100
AcDbLine
 10
348.266667
 20
521.227386
 30
0.0
 11
348.6
 21
519.227386
 31
0.0
  0
LINE
  5
30F
100
AcDbEntity
  8
LAY-6
  6
CONTINUOUS
 62
     1
100
AcDbLine
 10
348.6
 20
519.227386
 30
0.0
 11
348.933333
 21
521.227386
 31
0.0
  0
TEXT
  5
310
100
AcDbEntity
  8
LAY-6
  6
CONTINUOUS
 62
     2
100
AcDbText
 10
359.4
 20
524.227432
 30
0.0
 40
5.0
  1
３２
 50
90.0
 41
0.672
  7
EXCADSTD
 72
     5
 11
359.4
 21
531.560232
 31
0.0
100
AcDbText
  0
LINE
  5
311
100
AcDbEntity
  8
LAY-6
  6
CONTINUOUS
 62
     1
100
AcDbLine
 10
329.721344
 20
544.227417
 30
0.0
 11
361.4
 21
544.227417
 31
0.0
  0
LINE
  5
312
100
AcDbEntity
  8
LAY-6
  6
CONTINUOUS
 62
     1
100
AcDbLine
 10
329.721344
 20
512.227448
 30
0.0
 11
361.4
 21
512.227448
 31
0.0
  0
LINE
  5
313
100
AcDbEntity
  8
LAY-6
  6
CONTINUOUS
 62
     1
100
AcDbLine
 10
359.9
 20
544.227417
 30
0.0
 11
359.9
 21
512.227448
 31
0.0
  0
LINE
  5
314
100
AcDbEntity
  8
LAY-6
  6
CONTINUOUS
 62
     1
100
AcDbLine
 10
360.233333
 20
542.227417
 30
0.0
 11
359.9
 21
544.227417
 31
0.0
  0
LINE
  5
315
100
AcDbEntity
  8
LAY-6
  6
CONTINUOUS
 62
     1
100
AcDbLine
 10
359.9
 20
544.227417
 30
0.0
 11
359.566667
 21
542.227417
 31
0.0
  0
LINE
  5
316
100
AcDbEntity
  8
LAY-6
  6
CONTINUOUS
 62
     1
100
AcDbLine
 10
359.566667
 20
514.227448
 30
0.0
 11
359.9
 21
512.227448
 31
0.0
  0
LINE
  5
317
100
AcDbEntity
  8
LAY-6
  6
CONTINUOUS
 62
     1
100
AcDbLine
 10
359.9
 20
512.227448
 30
0.0
 11
360.233333
 21
514.227448
 31
0.0
  0
INSERT
  5
318
100
AcDbEntity
  8
LAY-6
  6
CONTINUOUS
 62
     0
100
AcDbBlockReference
  2
SYM-1
 10
140.3
 20
523.5
 30
0.0
 50
90.0
  0
TEXT
  5
319
100
AcDbEntity
  8
LAY-6
  6
CONTINUOUS
 62
     2
100
AcDbText
 10
166.721313
 20
465.9
 30
0.0
 40
5.0
  1
２０
 41
0.672
  7
EXCADSTD
 72
     5
 11
174.054113
 21
465.9
 31
0.0
100
AcDbText
  0
LINE
  5
31A
100
AcDbEntity
  8
LAY-6
  6
CONTINUOUS
 62
     1
100
AcDbLine
 10
160.721313
 20
430.309814
 30
0.0
 11
160.721313
 21
466.9
 31
0.0
  0
LINE
  5
31B
100
AcDbEntity
  8
LAY-6
  6
CONTINUOUS
 62
     1
100
AcDbLine
 10
180.721313
 20
430.309814
 30
0.0
 11
180.721313
 21
466.9
 31
0.0
  0
LINE
  5
31C
100
AcDbEntity
  8
LAY-6
  6
CONTINUOUS
 62
     1
100
AcDbLine
 10
160.721313
 20
465.4
 30
0.0
 11
180.721313
 21
465.4
 31
0.0
  0
LINE
  5
31D
100
AcDbEntity
  8
LAY-6
  6
CONTINUOUS
 62
     1
100
AcDbLine
 10
162.721313
 20
465.733333
 30
0.0
 11
160.721313
 21
465.4
 31
0.0
  0
LINE
  5
31E
100
AcDbEntity
  8
LAY-6
  6
CONTINUOUS
 62
     1
100
AcDbLine
 10
160.721313
 20
465.4
 30
0.0
 11
162.721313
 21
465.066667
 31
0.0
  0
LINE
  5
31F
100
AcDbEntity
  8
LAY-6
  6
CONTINUOUS
 62
     1
100
AcDbLine
 10
178.721313
 20
465.066667
 30
0.0
 11
180.721313
 21
465.4
 31
0.0
  0
LINE
  5
320
100
AcDbEntity
  8
LAY-6
  6
CONTINUOUS
 62
     1
100
AcDbLine
 10
180.721313
 20
465.4
 30
0.0
 11
178.721313
 21
465.733333
 31
0.0
  0
TEXT
  5
321
100
AcDbEntity
  8
LAY-6
  6
CONTINUOUS
 62
     2
100
AcDbText
 10
183.721329
 20
465.9
 30
0.0
 40
5.0
  1
１４
 41
0.672
  7
EXCADSTD
 72
     5
 11
191.054129
 21
465.9
 31
0.0
100
AcDbText
  0
LINE
  5
322
100
AcDbEntity
  8
LAY-6
  6
CONTINUOUS
 62
     1
100
AcDbLine
 10
194.721344
 20
461.361022
 30
0.0
 11
194.721344
 21
466.9
 31
0.0
  0
LINE
  5
323
100
AcDbEntity
  8
LAY-6
  6
CONTINUOUS
 62
     1
100
AcDbLine
 10
180.721313
 20
465.4
 30
0.0
 11
194.721344
 21
465.4
 31
0.0
  0
LINE
  5
324
100
AcDbEntity
  8
LAY-6
  6
CONTINUOUS
 62
     1
100
AcDbLine
 10
182.721313
 20
465.733333
 30
0.0
 11
180.721313
 21
465.4
 31
0.0
  0
LINE
  5
325
100
AcDbEntity
  8
LAY-6
  6
CONTINUOUS
 62
     1
100
AcDbLine
 10
180.721313
 20
465.4
 30
0.0
 11
182.721313
 21
465.066667
 31
0.0
  0
LINE
  5
326
100
AcDbEntity
  8
LAY-6
  6
CONTINUOUS
 62
     1
100
AcDbLine
 10
192.721344
 20
465.066667
 30
0.0
 11
194.721344
 21
465.4
 31
0.0
  0
LINE
  5
327
100
AcDbEntity
  8
LAY-6
  6
CONTINUOUS
 62
     1
100
AcDbLine
 10
194.721344
 20
465.4
 30
0.0
 11
192.721344
 21
465.733333
 31
0.0
  0
TEXT
  5
328
100
AcDbEntity
  8
LAY-6
  6
CONTINUOUS
 62
     2
100
AcDbText
 10
246.721344
 20
465.9
 30
0.0
 40
5.0
  1
１１６
 41
0.672
  7
EXCADSTD
 72
     5
 11
258.721344
 21
465.9
 31
0.0
100
AcDbText
  0
LINE
  5
329
100
AcDbEntity
  8
LAY-6
  6
CONTINUOUS
 62
     1
100
AcDbLine
 10
310.721344
 20
430.309814
 30
0.0
 11
310.721344
 21
466.9
 31
0.0
  0
LINE
  5
32A
100
AcDbEntity
  8
LAY-6
  6
CONTINUOUS
 62
     1
100
AcDbLine
 10
194.721344
 20
465.4
 30
0.0
 11
310.721344
 21
465.4
 31
0.0
  0
LINE
  5
32B
100
AcDbEntity
  8
LAY-6
  6
CONTINUOUS
 62
     1
100
AcDbLine
 10
196.721344
 20
465.733333
 30
0.0
 11
194.721344
 21
465.4
 31
0.0
  0
LINE
  5
32C
100
AcDbEntity
  8
LAY-6
  6
CONTINUOUS
 62
     1
100
AcDbLine
 10
194.721344
 20
465.4
 30
0.0
 11
196.721344
 21
465.066667
 31
0.0
  0
LINE
  5
32D
100
AcDbEntity
  8
LAY-6
  6
CONTINUOUS
 62
     1
100
AcDbLine
 10
308.721344
 20
465.066667
 30
0.0
 11
310.721344
 21
465.4
 31
0.0
  0
LINE
  5
32E
100
AcDbEntity
  8
LAY-6
  6
CONTINUOUS
 62
     1
100
AcDbLine
 10
310.721344
 20
465.4
 30
0.0
 11
308.721344
 21
465.733333
 31
0.0
  0
TEXT
  5
32F
100
AcDbEntity
  8
LAY-6
  6
CONTINUOUS
 62
     2
100
AcDbText
 10
316.221344
 20
465.9
 30
0.0
 40
5.0
  1
１９
 41
0.672
  7
EXCADSTD
 72
     5
 11
323.554144
 21
465.9
 31
0.0
100
AcDbText
  0
LINE
  5
330
100
AcDbEntity
  8
LAY-6
  6
CONTINUOUS
 62
     1
100
AcDbLine
 10
329.721344
 20
430.309814
 30
0.0
 11
329.721344
 21
466.9
 31
0.0
  0
LINE
  5
331
100
AcDbEntity
  8
LAY-6
  6
CONTINUOUS
 62
     1
100
AcDbLine
 10
310.721344
 20
465.4
 30
0.0
 11
329.721344
 21
465.4
 31
0.0
  0
LINE
  5
332
100
AcDbEntity
  8
LAY-6
  6
CONTINUOUS
 62
     1
100
AcDbLine
 10
312.721344
 20
465.733333
 30
0.0
 11
310.721344
 21
465.4
 31
0.0
  0
LINE
  5
333
100
AcDbEntity
  8
LAY-6
  6
CONTINUOUS
 62
     1
100
AcDbLine
 10
310.721344
 20
465.4
 30
0.0
 11
312.721344
 21
465.066667
 31
0.0
  0
LINE
  5
334
100
AcDbEntity
  8
LAY-6
  6
CONTINUOUS
 62
     1
100
AcDbLine
 10
327.721344
 20
465.066667
 30
0.0
 11
329.721344
 21
465.4
 31
0.0
  0
LINE
  5
335
100
AcDbEntity
  8
LAY-6
  6
CONTINUOUS
 62
     1
100
AcDbLine
 10
329.721344
 20
465.4
 30
0.0
 11
327.721344
 21
465.733333
 31
0.0
  0
TEXT
  5
336
100
AcDbEntity
  8
LAY-6
  6
CONTINUOUS
 62
     2
100
AcDbText
 10
182.721337
 20
384.6
 30
0.0
 40
5.0
  1
１６
 41
0.672
  7
EXCADSTD
 72
     5
 11
190.054137
 21
384.6
 31
0.0
100
AcDbText
  0
LINE
  5
337
100
AcDbEntity
  8
LAY-6
  6
CONTINUOUS
 62
     1
100
AcDbLine
 10
178.721329
 20
410.809814
 30
0.0
 11
178.721329
 21
382.6
 31
0.0
  0
LINE
  5
338
100
AcDbEntity
  8
LAY-6
  6
CONTINUOUS
 62
     1
100
AcDbLine
 10
194.721344
 20
394.743334
 30
0.0
 11
194.721344
 21
382.6
 31
0.0
  0
LINE
  5
339
100
AcDbEntity
  8
LAY-6
  6
CONTINUOUS
 62
     1
100
AcDbLine
 10
178.721329
 20
384.1
 30
0.0
 11
194.721344
 21
384.1
 31
0.0
  0
LINE
  5
33A
100
AcDbEntity
  8
LAY-6
  6
CONTINUOUS
 62
     1
100
AcDbLine
 10
180.721329
 20
384.433333
 30
0.0
 11
178.721329
 21
384.1
 31
0.0
  0
LINE
  5
33B
100
AcDbEntity
  8
LAY-6
  6
CONTINUOUS
 62
     1
100
AcDbLine
 10
178.721329
 20
384.1
 30
0.0
 11
180.721329
 21
383.766667
 31
0.0
  0
LINE
  5
33C
100
AcDbEntity
  8
LAY-6
  6
CONTINUOUS
 62
     1
100
AcDbLine
 10
192.721344
 20
383.766667
 30
0.0
 11
194.721344
 21
384.1
 31
0.0
  0
LINE
  5
33D
100
AcDbEntity
  8
LAY-6
  6
CONTINUOUS
 62
     1
100
AcDbLine
 10
194.721344
 20
384.1
 30
0.0
 11
192.721344
 21
384.433333
 31
0.0
  0
TEXT
  5
33E
100
AcDbEntity
  8
LAY-6
  6
CONTINUOUS
 62
     2
100
AcDbText
 10
200.721344
 20
384.6
 30
0.0
 40
5.0
  1
２０
 41
0.672
  7
EXCADSTD
 72
     5
 11
208.054144
 21
384.6
 31
0.0
100
AcDbText
  0
LINE
  5
33F
100
AcDbEntity
  8
LAY-6
  6
CONTINUOUS
 62
     1
100
AcDbLine
 10
214.721344
 20
406.309814
 30
0.0
 11
214.721344
 21
382.6
 31
0.0
  0
LINE
  5
340
100
AcDbEntity
  8
LAY-6
  6
CONTINUOUS
 62
     1
100
AcDbLine
 10
194.721344
 20
384.1
 30
0.0
 11
214.721344
 21
384.1
 31
0.0
  0
LINE
  5
341
100
AcDbEntity
  8
LAY-6
  6
CONTINUOUS
 62
     1
100
AcDbLine
 10
196.721344
 20
384.433333
 30
0.0
 11
194.721344
 21
384.1
 31
0.0
  0
LINE
  5
342
100
AcDbEntity
  8
LAY-6
  6
CONTINUOUS
 62
     1
100
AcDbLine
 10
194.721344
 20
384.1
 30
0.0
 11
196.721344
 21
383.766667
 31
0.0
  0
LINE
  5
343
100
AcDbEntity
  8
LAY-6
  6
CONTINUOUS
 62
     1
100
AcDbLine
 10
212.721344
 20
383.766667
 30
0.0
 11
214.721344
 21
384.1
 31
0.0
  0
LINE
  5
344
100
AcDbEntity
  8
LAY-6
  6
CONTINUOUS
 62
     1
100
AcDbLine
 10
214.721344
 20
384.1
 30
0.0
 11
212.721344
 21
384.433333
 31
0.0
  0
TEXT
  5
345
100
AcDbEntity
  8
LAY-6
  6
CONTINUOUS
 62
     2
100
AcDbText
 10
266.221344
 20
384.6
 30
0.0
 40
5.0
  1
１１５
 41
0.672
  7
EXCADSTD
 72
     5
 11
278.221344
 21
384.6
 31
0.0
100
AcDbText
  0
LINE
  5
346
100
AcDbEntity
  8
LAY-6
  6
CONTINUOUS
 62
     1
100
AcDbLine
 10
329.721344
 20
406.309814
 30
0.0
 11
329.721344
 21
382.6
 31
0.0
  0
LINE
  5
347
100
AcDbEntity
  8
LAY-6
  6
CONTINUOUS
 62
     1
100
AcDbLine
 10
214.721344
 20
384.1
 30
0.0
 11
329.721344
 21
384.1
 31
0.0
  0
LINE
  5
348
100
AcDbEntity
  8
LAY-6
  6
CONTINUOUS
 62
     1
100
AcDbLine
 10
216.721344
 20
384.433333
 30
0.0
 11
214.721344
 21
384.1
 31
0.0
  0
LINE
  5
349
100
AcDbEntity
  8
LAY-6
  6
CONTINUOUS
 62
     1
100
AcDbLine
 10
214.721344
 20
384.1
 30
0.0
 11
216.721344
 21
383.766667
 31
0.0
  0
LINE
  5
34A
100
AcDbEntity
  8
LAY-6
  6
CONTINUOUS
 62
     1
100
AcDbLine
 10
327.721344
 20
383.766667
 30
0.0
 11
329.721344
 21
384.1
 31
0.0
  0
LINE
  5
34B
100
AcDbEntity
  8
LAY-6
  6
CONTINUOUS
 62
     1
100
AcDbLine
 10
329.721344
 20
384.1
 30
0.0
 11
327.721344
 21
384.433333
 31
0.0
  0
TEXT
  5
34C
100
AcDbEntity
  8
LAY-6
  6
CONTINUOUS
 62
     2
100
AcDbText
 10
345.0
 20
411.809814
 30
0.0
 40
5.0
  1
６
 50
90.0
 41
0.672
  7
EXCADSTD
 72
     5
 11
345.0
 21
415.009814
 31
0.0
100
AcDbText
  0
LINE
  5
34D
100
AcDbEntity
  8
LAY-6
  6
CONTINUOUS
 62
     1
100
AcDbLine
 10
329.721344
 20
410.809814
 30
0.0
 11
347.0
 21
410.809814
 31
0.0
  0
LINE
  5
34E
100
AcDbEntity
  8
LAY-6
  6
CONTINUOUS
 62
     1
100
AcDbLine
 10
345.5
 20
410.809814
 30
0.0
 11
345.5
 21
416.809814
 31
0.0
  0
LINE
  5
34F
100
AcDbEntity
  8
LAY-6
  6
CONTINUOUS
 62
     1
100
AcDbLine
 10
345.166667
 20
412.809814
 30
0.0
 11
345.5
 21
410.809814
 31
0.0
  0
LINE
  5
350
100
AcDbEntity
  8
LAY-6
  6
CONTINUOUS
 62
     1
100
AcDbLine
 10
345.5
 20
410.809814
 30
0.0
 11
345.833333
 21
412.809814
 31
0.0
  0
LINE
  5
351
100
AcDbEntity
  8
LAY-6
  6
CONTINUOUS
 62
     1
100
AcDbLine
 10
345.833333
 20
414.809814
 30
0.0
 11
345.5
 21
416.809814
 31
0.0
  0
LINE
  5
352
100
AcDbEntity
  8
LAY-6
  6
CONTINUOUS
 62
     1
100
AcDbLine
 10
345.5
 20
416.809814
 30
0.0
 11
345.166667
 21
414.809814
 31
0.0
  0
TEXT
  5
353
100
AcDbEntity
  8
LAY-6
  6
CONTINUOUS
 62
     2
100
AcDbText
 10
345.0
 20
420.809814
 30
0.0
 40
5.0
  1
６
 50
90.0
 41
0.672
  7
EXCADSTD
 72
     5
 11
345.0
 21
424.009814
 31
0.0
100
AcDbText
  0
LINE
  5
354
100
AcDbEntity
  8
LAY-6
  6
CONTINUOUS
 62
     1
100
AcDbLine
 10
329.721344
 20
425.809814
 30
0.0
 11
347.0
 21
425.809814
 31
0.0
  0
LINE
  5
355
100
AcDbEntity
  8
LAY-6
  6
CONTINUOUS
 62
     1
100
AcDbLine
 10
345.5
 20
419.809814
 30
0.0
 11
345.5
 21
425.809814
 31
0.0
  0
LINE
  5
356
100
AcDbEntity
  8
LAY-6
  6
CONTINUOUS
 62
     1
100
AcDbLine
 10
345.166667
 20
421.809814
 30
0.0
 11
345.5
 21
419.809814
 31
0.0
  0
LINE
  5
357
100
AcDbEntity
  8
LAY-6
  6
CONTINUOUS
 62
     1
100
AcDbLine
 10
345.5
 20
419.809814
 30
0.0
 11
345.833333
 21
421.809814
 31
0.0
  0
LINE
  5
358
100
AcDbEntity
  8
LAY-6
  6
CONTINUOUS
 62
     1
100
AcDbLine
 10
345.833333
 20
423.809814
 30
0.0
 11
345.5
 21
425.809814
 31
0.0
  0
LINE
  5
359
100
AcDbEntity
  8
LAY-6
  6
CONTINUOUS
 62
     1
100
AcDbLine
 10
345.5
 20
425.809814
 30
0.0
 11
345.166667
 21
423.809814
 31
0.0
  0
TEXT
  5
35A
100
AcDbEntity
  8
LAY-6
  6
CONTINUOUS
 62
     2
100
AcDbText
 10
247.7
 20
321.15741
 30
0.0
 40
5.0
  1
８
 50
90.0
 41
0.672
  7
EXCADSTD
 72
     5
 11
247.7
 21
324.35741
 31
0.0
100
AcDbText
  0
LINE
  5
35B
100
AcDbEntity
  8
LAY-6
  6
CONTINUOUS
 62
     1
100
AcDbLine
 10
260.256958
 20
319.15741
 30
0.0
 11
246.7
 21
319.15741
 31
0.0
  0
LINE
  5
35C
100
AcDbEntity
  8
LAY-6
  6
CONTINUOUS
 62
     1
100
AcDbLine
 10
245.8
 20
327.15741
 30
0.0
 11
249.7
 21
327.15741
 31
0.0
  0
LINE
  5
35D
100
AcDbEntity
  8
LAY-6
  6
CONTINUOUS
 62
     1
100
AcDbLine
 10
248.2
 20
319.15741
 30
0.0
 11
248.2
 21
327.15741
 31
0.0
  0
LINE
  5
35E
100
AcDbEntity
  8
LAY-6
  6
CONTINUOUS
 62
     1
100
AcDbLine
 10
247.866667
 20
321.15741
 30
0.0
 11
248.2
 21
319.15741
 31
0.0
  0
LINE
  5
35F
100
AcDbEntity
  8
LAY-6
  6
CONTINUOUS
 62
     1
100
AcDbLine
 10
248.2
 20
319.15741
 30
0.0
 11
248.533333
 21
321.15741
 31
0.0
  0
LINE
  5
360
100
AcDbEntity
  8
LAY-6
  6
CONTINUOUS
 62
     1
100
AcDbLine
 10
248.533333
 20
325.15741
 30
0.0
 11
248.2
 21
327.15741
 31
0.0
  0
LINE
  5
361
100
AcDbEntity
  8
LAY-6
  6
CONTINUOUS
 62
     1
100
AcDbLine
 10
248.2
 20
327.15741
 30
0.0
 11
247.866667
 21
325.15741
 31
0.0
  0
TEXT
  5
362
100
AcDbEntity
  8
LAY-6
  6
CONTINUOUS
 62
     2
100
AcDbText
 10
247.7
 20
329.15741
 30
0.0
 40
5.0
  1
８
 50
90.0
 41
0.672
  7
EXCADSTD
 72
     5
 11
247.7
 21
332.35741
 31
0.0
100
AcDbText
  0
LINE
  5
363
100
AcDbEntity
  8
LAY-6
  6
CONTINUOUS
 62
     1
100
AcDbLine
 10
234.256958
 20
335.15741
 30
0.0
 11
249.7
 21
335.15741
 31
0.0
  0
LINE
  5
364
100
AcDbEntity
  8
LAY-6
  6
CONTINUOUS
 62
     1
100
AcDbLine
 10
248.2
 20
327.15741
 30
0.0
 11
248.2
 21
335.15741
 31
0.0
  0
LINE
  5
365
100
AcDbEntity
  8
LAY-6
  6
CONTINUOUS
 62
     1
100
AcDbLine
 10
247.866667
 20
329.15741
 30
0.0
 11
248.2
 21
327.15741
 31
0.0
  0
LINE
  5
366
100
AcDbEntity
  8
LAY-6
  6
CONTINUOUS
 62
     1
100
AcDbLine
 10
248.2
 20
327.15741
 30
0.0
 11
248.533333
 21
329.15741
 31
0.0
  0
LINE
  5
367
100
AcDbEntity
  8
LAY-6
  6
CONTINUOUS
 62
     1
100
AcDbLine
 10
248.533333
 20
333.15741
 30
0.0
 11
248.2
 21
335.15741
 31
0.0
  0
LINE
  5
368
100
AcDbEntity
  8
LAY-6
  6
CONTINUOUS
 62
     1
100
AcDbLine
 10
248.2
 20
335.15741
 30
0.0
 11
247.866667
 21
333.15741
 31
0.0
  0
TEXT
  5
369
100
AcDbEntity
  8
LAY-6
  6
CONTINUOUS
 62
     2
100
AcDbText
 10
343.5
 20
323.15741
 30
0.0
 40
5.0
  1
３２
 50
90.0
 41
0.672
  7
EXCADSTD
 72
     5
 11
343.5
 21
330.49021
 31
0.0
100
AcDbText
  0
LINE
  5
36A
100
AcDbEntity
  8
LAY-6
  6
CONTINUOUS
 62
     1
100
AcDbLine
 10
329.721344
 20
343.15741
 30
0.0
 11
345.5
 21
343.15741
 31
0.0
  0
LINE
  5
36B
100
AcDbEntity
  8
LAY-6
  6
CONTINUOUS
 62
     1
100
AcDbLine
 10
329.721344
 20
311.15741
 30
0.0
 11
345.5
 21
311.15741
 31
0.0
  0
LINE
  5
36C
100
AcDbEntity
  8
LAY-6
  6
CONTINUOUS
 62
     1
100
AcDbLine
 10
344.0
 20
343.15741
 30
0.0
 11
344.0
 21
311.15741
 31
0.0
  0
LINE
  5
36D
100
AcDbEntity
  8
LAY-6
  6
CONTINUOUS
 62
     1
100
AcDbLine
 10
344.333333
 20
341.15741
 30
0.0
 11
344.0
 21
343.15741
 31
0.0
  0
LINE
  5
36E
100
AcDbEntity
  8
LAY-6
  6
CONTINUOUS
 62
     1
100
AcDbLine
 10
344.0
 20
343.15741
 30
0.0
 11
343.666667
 21
341.15741
 31
0.0
  0
LINE
  5
36F
100
AcDbEntity
  8
LAY-6
  6
CONTINUOUS
 62
     1
100
AcDbLine
 10
343.666667
 20
313.15741
 30
0.0
 11
344.0
 21
311.15741
 31
0.0
  0
LINE
  5
370
100
AcDbEntity
  8
LAY-6
  6
CONTINUOUS
 62
     1
100
AcDbLine
 10
344.0
 20
311.15741
 30
0.0
 11
344.333333
 21
313.15741
 31
0.0
  0
TEXT
  5
371
100
AcDbEntity
  8
LAY-6
  6
CONTINUOUS
 62
     2
100
AcDbText
 10
205.721329
 20
297.0
 30
0.0
 40
5.0
  1
３０
 41
0.672
  7
EXCADSTD
 72
     5
 11
213.054129
 21
297.0
 31
0.0
100
AcDbText
  0
LINE
  5
372
100
AcDbEntity
  8
LAY-6
  6
CONTINUOUS
 62
     1
100
AcDbLine
 10
194.721344
 20
308.0
 30
0.0
 11
194.721344
 21
295.0
 31
0.0
  0
LINE
  5
373
100
AcDbEntity
  8
LAY-6
  6
CONTINUOUS
 62
     1
100
AcDbLine
 10
224.721314
 20
323.0
 30
0.0
 11
224.721314
 21
295.0
 31
0.0
  0
LINE
  5
374
100
AcDbEntity
  8
LAY-6
  6
CONTINUOUS
 62
     1
100
AcDbLine
 10
194.721344
 20
296.5
 30
0.0
 11
224.721314
 21
296.5
 31
0.0
  0
LINE
  5
375
100
AcDbEntity
  8
LAY-6
  6
CONTINUOUS
 62
     1
100
AcDbLine
 10
196.721344
 20
296.833333
 30
0.0
 11
194.721344
 21
296.5
 31
0.0
  0
LINE
  5
376
100
AcDbEntity
  8
LAY-6
  6
CONTINUOUS
 62
     1
100
AcDbLine
 10
194.721344
 20
296.5
 30
0.0
 11
196.721344
 21
296.166667
 31
0.0
  0
LINE
  5
377
100
AcDbEntity
  8
LAY-6
  6
CONTINUOUS
 62
     1
100
AcDbLine
 10
222.721314
 20
296.166667
 30
0.0
 11
224.721314
 21
296.5
 31
0.0
  0
LINE
  5
378
100
AcDbEntity
  8
LAY-6
  6
CONTINUOUS
 62
     1
100
AcDbLine
 10
224.721314
 20
296.5
 30
0.0
 11
222.721314
 21
296.833333
 31
0.0
  0
TEXT
  5
379
100
AcDbEntity
  8
LAY-6
  6
CONTINUOUS
 62
     2
100
AcDbText
 10
243.721329
 20
297.0
 30
0.0
 40
5.0
  1
４６
 41
0.672
  7
EXCADSTD
 72
     5
 11
251.054129
 21
297.0
 31
0.0
100
AcDbText
  0
LINE
  5
37A
100
AcDbEntity
  8
LAY-6
  6
CONTINUOUS
 62
     1
100
AcDbLine
 10
270.721344
 20
306.154175
 30
0.0
 11
270.721344
 21
295.0
 31
0.0
  0
LINE
  5
37B
100
AcDbEntity
  8
LAY-6
  6
CONTINUOUS
 62
     1
100
AcDbLine
 10
224.721314
 20
296.5
 30
0.0
 11
270.721344
 21
296.5
 31
0.0
  0
LINE
  5
37C
100
AcDbEntity
  8
LAY-6
  6
CONTINUOUS
 62
     1
100
AcDbLine
 10
226.721314
 20
296.833333
 30
0.0
 11
224.721314
 21
296.5
 31
0.0
  0
LINE
  5
37D
100
AcDbEntity
  8
LAY-6
  6
CONTINUOUS
 62
     1
100
AcDbLine
 10
224.721314
 20
296.5
 30
0.0
 11
226.721314
 21
296.166667
 31
0.0
  0
LINE
  5
37E
100
AcDbEntity
  8
LAY-6
  6
CONTINUOUS
 62
     1
100
AcDbLine
 10
268.721344
 20
296.166667
 30
0.0
 11
270.721344
 21
296.5
 31
0.0
  0
LINE
  5
37F
100
AcDbEntity
  8
LAY-6
  6
CONTINUOUS
 62
     1
100
AcDbLine
 10
270.721344
 20
296.5
 30
0.0
 11
268.721344
 21
296.833333
 31
0.0
  0
TEXT
  5
380
100
AcDbEntity
  8
LAY-6
  6
CONTINUOUS
 62
     2
100
AcDbText
 10
289.721344
 20
297.0
 30
0.0
 40
5.0
  1
４６
 41
0.672
  7
EXCADSTD
 72
     5
 11
297.054144
 21
297.0
 31
0.0
100
AcDbText
  0
LINE
  5
381
100
AcDbEntity
  8
LAY-6
  6
CONTINUOUS
 62
     1
100
AcDbLine
 10
316.721344
 20
326.0
 30
0.0
 11
316.721344
 21
295.0
 31
0.0
  0
LINE
  5
382
100
AcDbEntity
  8
LAY-6
  6
CONTINUOUS
 62
     1
100
AcDbLine
 10
270.721344
 20
296.5
 30
0.0
 11
316.721344
 21
296.5
 31
0.0
  0
LINE
  5
383
100
AcDbEntity
  8
LAY-6
  6
CONTINUOUS
 62
     1
100
AcDbLine
 10
272.721344
 20
296.833333
 30
0.0
 11
270.721344
 21
296.5
 31
0.0
  0
LINE
  5
384
100
AcDbEntity
  8
LAY-6
  6
CONTINUOUS
 62
     1
100
AcDbLine
 10
270.721344
 20
296.5
 30
0.0
 11
272.721344
 21
296.166667
 31
0.0
  0
LINE
  5
385
100
AcDbEntity
  8
LAY-6
  6
CONTINUOUS
 62
     1
100
AcDbLine
 10
314.721344
 20
296.166667
 30
0.0
 11
316.721344
 21
296.5
 31
0.0
  0
LINE
  5
386
100
AcDbEntity
  8
LAY-6
  6
CONTINUOUS
 62
     1
100
AcDbLine
 10
316.721344
 20
296.5
 30
0.0
 11
314.721344
 21
296.833333
 31
0.0
  0
TEXT
  5
387
100
AcDbEntity
  8
LAY-6
  6
CONTINUOUS
 62
     2
100
AcDbText
 10
182.721329
 20
288.2
 30
0.0
 40
5.0
  1
１６
 41
0.672
  7
EXCADSTD
 72
     5
 11
190.054129
 21
288.2
 31
0.0
100
AcDbText
  0
LINE
  5
388
100
AcDbEntity
  8
LAY-6
  6
CONTINUOUS
 62
     1
100
AcDbLine
 10
178.721314
 20
311.15741
 30
0.0
 11
178.721314
 21
286.2
 31
0.0
  0
LINE
  5
389
100
AcDbEntity
  8
LAY-6
  6
CONTINUOUS
 62
     1
100
AcDbLine
 10
194.721344
 20
295.0
 30
0.0
 11
194.721344
 21
286.2
 31
0.0
  0
LINE
  5
38A
100
AcDbEntity
  8
LAY-6
  6
CONTINUOUS
 62
     1
100
AcDbLine
 10
178.721314
 20
287.7
 30
0.0
 11
194.721344
 21
287.7
 31
0.0
  0
LINE
  5
38B
100
AcDbEntity
  8
LAY-6
  6
CONTINUOUS
 62
     1
100
AcDbLine
 10
180.721314
 20
288.033333
 30
0.0
 11
178.721314
 21
287.7
 31
0.0
  0
LINE
  5
38C
100
AcDbEntity
  8
LAY-6
  6
CONTINUOUS
 62
     1
100
AcDbLine
 10
178.721314
 20
287.7
 30
0.0
 11
180.721314
 21
287.366667
 31
0.0
  0
LINE
  5
38D
100
AcDbEntity
  8
LAY-6
  6
CONTINUOUS
 62
     1
100
AcDbLine
 10
192.721344
 20
287.366667
 30
0.0
 11
194.721344
 21
287.7
 31
0.0
  0
LINE
  5
38E
100
AcDbEntity
  8
LAY-6
  6
CONTINUOUS
 62
     1
100
AcDbLine
 10
194.721344
 20
287.7
 30
0.0
 11
192.721344
 21
288.033333
 31
0.0
  0
TEXT
  5
38F
100
AcDbEntity
  8
LAY-6
  6
CONTINUOUS
 62
     2
100
AcDbText
 10
311.6
 20
121.552033
 30
0.0
 40
5.0
  1
１０
 50
90.0
 41
0.672
  7
EXCADSTD
 72
     5
 11
311.6
 21
128.884832
 31
0.0
100
AcDbText
  0
LINE
  5
390
100
AcDbEntity
  8
LAY-6
  6
CONTINUOUS
 62
     1
100
AcDbLine
 10
207.221351
 20
130.552002
 30
0.0
 11
313.6
 21
130.552002
 31
0.0
  0
LINE
  5
391
100
AcDbEntity
  8
LAY-6
  6
CONTINUOUS
 62
     1
100
AcDbLine
 10
312.1
 20
120.552063
 30
0.0
 11
312.1
 21
130.552002
 31
0.0
  0
LINE
  5
392
100
AcDbEntity
  8
LAY-6
  6
CONTINUOUS
 62
     1
100
AcDbLine
 10
311.766667
 20
122.552063
 30
0.0
 11
312.1
 21
120.552063
 31
0.0
  0
LINE
  5
393
100
AcDbEntity
  8
LAY-6
  6
CONTINUOUS
 62
     1
100
AcDbLine
 10
312.1
 20
120.552063
 30
0.0
 11
312.433333
 21
122.552063
 31
0.0
  0
LINE
  5
394
100
AcDbEntity
  8
LAY-6
  6
CONTINUOUS
 62
     1
100
AcDbLine
 10
312.433333
 20
128.552002
 30
0.0
 11
312.1
 21
130.552002
 31
0.0
  0
LINE
  5
395
100
AcDbEntity
  8
LAY-6
  6
CONTINUOUS
 62
     1
100
AcDbLine
 10
312.1
 20
130.552002
 30
0.0
 11
311.766667
 21
128.552002
 31
0.0
  0
TEXT
  5
396
100
AcDbEntity
  8
LAY-6
  6
CONTINUOUS
 62
     2
100
AcDbText
 10
255.5
 20
90.052063
 30
0.0
 40
5.0
  1
５０
 50
90.0
 41
0.672
  7
EXCADSTD
 72
     5
 11
255.5
 21
97.384863
 31
0.0
100
AcDbText
  0
LINE
  5
397
100
AcDbEntity
  8
LAY-6
  6
CONTINUOUS
 62
     1
100
AcDbLine
 10
219.721344
 20
69.052063
 30
0.0
 11
257.5
 21
69.052063
 31
0.0
  0
LINE
  5
398
100
AcDbEntity
  8
LAY-6
  6
CONTINUOUS
 62
     1
100
AcDbLine
 10
244.721344
 20
119.052063
 30
0.0
 11
257.5
 21
119.052063
 31
0.0
  0
LINE
  5
399
100
AcDbEntity
  8
LAY-6
  6
CONTINUOUS
 62
     1
100
AcDbLine
 10
256.0
 20
69.052063
 30
0.0
 11
256.0
 21
119.052063
 31
0.0
  0
LINE
  5
39A
100
AcDbEntity
  8
LAY-6
  6
CONTINUOUS
 62
     1
100
AcDbLine
 10
255.666667
 20
71.052063
 30
0.0
 11
256.0
 21
69.052063
 31
0.0
  0
LINE
  5
39B
100
AcDbEntity
  8
LAY-6
  6
CONTINUOUS
 62
     1
100
AcDbLine
 10
256.0
 20
69.052063
 30
0.0
 11
256.333333
 21
71.052063
 31
0.0
  0
LINE
  5
39C
100
AcDbEntity
  8
LAY-6
  6
CONTINUOUS
 62
     1
100
AcDbLine
 10
256.333333
 20
117.052063
 30
0.0
 11
256.0
 21
119.052063
 31
0.0
  0
LINE
  5
39D
100
AcDbEntity
  8
LAY-6
  6
CONTINUOUS
 62
     1
100
AcDbLine
 10
256.0
 20
119.052063
 30
0.0
 11
255.666667
 21
117.052063
 31
0.0
  0
TEXT
  5
39E
100
AcDbEntity
  8
LAY-6
  6
CONTINUOUS
 62
     2
100
AcDbText
 10
255.3
 20
127.302063
 30
0.0
 40
5.0
  1
１.５
 50
90.0
 41
0.595556
  7
EXCADSTD
 72
     5
 11
255.3
 21
137.302063
 31
0.0
100
AcDbText
  0
LINE
  5
39F
100
AcDbEntity
  8
LAY-6
  6
CONTINUOUS
 62
     1
100
AcDbLine
 10
256.0
 20
114.052063
 30
0.0
 11
256.0
 21
125.552063
 31
0.0
  0
LINE
  5
3A0
100
AcDbEntity
  8
LAY-6
  6
CONTINUOUS
 62
     1
100
AcDbLine
 10
256.333333
 20
117.052063
 30
0.0
 11
256.0
 21
119.052063
 31
0.0
  0
LINE
  5
3A1
100
AcDbEntity
  8
LAY-6
  6
CONTINUOUS
 62
     1
100
AcDbLine
 10
256.0
 20
119.052063
 30
0.0
 11
255.666667
 21
117.052063
 31
0.0
  0
LINE
  5
3A2
100
AcDbEntity
  8
LAY-6
  6
CONTINUOUS
 62
     1
100
AcDbLine
 10
255.666667
 20
122.552063
 30
0.0
 11
256.0
 21
120.552063
 31
0.0
  0
LINE
  5
3A3
100
AcDbEntity
  8
LAY-6
  6
CONTINUOUS
 62
     1
100
AcDbLine
 10
256.0
 20
120.552063
 30
0.0
 11
256.333333
 21
122.552063
 31
0.0
  0
TEXT
  5
3A4
100
AcDbEntity
  8
LAY-6
  6
CONTINUOUS
 62
     2
100
AcDbText
 10
190.321344
 20
95.4
 30
0.0
 40
5.0
  1
□５０
 41
0.672
  7
EXCADSTD
 72
     5
 11
202.321344
 21
95.4
 31
0.0
100
AcDbText
  0
LINE
  5
3A5
100
AcDbEntity
  8
LAY-6
  6
CONTINUOUS
 62
     1
100
AcDbLine
 10
169.721344
 20
119.052063
 30
0.0
 11
169.721344
 21
93.5
 31
0.0
  0
LINE
  5
3A6
100
AcDbEntity
  8
LAY-6
  6
CONTINUOUS
 62
     1
100
AcDbLine
 10
219.721344
 20
119.052063
 30
0.0
 11
219.721344
 21
93.5
 31
0.0
  0
LINE
  5
3A7
100
AcDbEntity
  8
LAY-6
  6
CONTINUOUS
 62
     1
100
AcDbLine
 10
169.721344
 20
95.0
 30
0.0
 11
219.721344
 21
95.0
 31
0.0
  0
LINE
  5
3A8
100
AcDbEntity
  8
LAY-6
  6
CONTINUOUS
 62
     1
100
AcDbLine
 10
171.721344
 20
95.333333
 30
0.0
 11
169.721344
 21
95.0
 31
0.0
  0
LINE
  5
3A9
100
AcDbEntity
  8
LAY-6
  6
CONTINUOUS
 62
     1
100
AcDbLine
 10
169.721344
 20
95.0
 30
0.0
 11
171.721344
 21
94.666667
 31
0.0
  0
LINE
  5
3AA
100
AcDbEntity
  8
LAY-6
  6
CONTINUOUS
 62
     1
100
AcDbLine
 10
217.721344
 20
94.666667
 30
0.0
 11
219.721344
 21
95.0
 31
0.0
  0
LINE
  5
3AB
100
AcDbEntity
  8
LAY-6
  6
CONTINUOUS
 62
     1
100
AcDbLine
 10
219.721344
 20
95.0
 30
0.0
 11
217.721344
 21
95.333333
 31
0.0
  0
TEXT
  5
3AC
100
AcDbEntity
  8
LAY-6
  6
CONTINUOUS
 62
     2
100
AcDbText
 10
657.478339
 20
507.3
 30
0.0
 40
5.0
  1
３２
 41
0.672
  7
EXCADSTD
 72
     5
 11
664.811139
 21
507.3
 31
0.0
100
AcDbText
  0
LINE
  5
3AD
100
AcDbEntity
  8
LAY-6
  6
CONTINUOUS
 62
     1
100
AcDbLine
 10
677.478339
 20
495.009753
 30
0.0
 11
677.478339
 21
508.3
 31
0.0
  0
LINE
  5
3AE
100
AcDbEntity
  8
LAY-6
  6
CONTINUOUS
 62
     1
100
AcDbLine
 10
645.478339
 20
495.009753
 30
0.0
 11
645.478339
 21
508.3
 31
0.0
  0
LINE
  5
3AF
100
AcDbEntity
  8
LAY-6
  6
CONTINUOUS
 62
     1
100
AcDbLine
 10
677.478339
 20
506.8
 30
0.0
 11
645.478339
 21
506.8
 31
0.0
  0
LINE
  5
3B0
100
AcDbEntity
  8
LAY-6
  6
CONTINUOUS
 62
     1
100
AcDbLine
 10
675.478339
 20
506.466667
 30
0.0
 11
677.478339
 21
506.8
 31
0.0
  0
LINE
  5
3B1
100
AcDbEntity
  8
LAY-6
  6
CONTINUOUS
 62
     1
100
AcDbLine
 10
677.478339
 20
506.8
 30
0.0
 11
675.478339
 21
507.133333
 31
0.0
  0
LINE
  5
3B2
100
AcDbEntity
  8
LAY-6
  6
CONTINUOUS
 62
     1
100
AcDbLine
 10
647.478339
 20
507.133333
 30
0.0
 11
645.478339
 21
506.8
 31
0.0
  0
LINE
  5
3B3
100
AcDbEntity
  8
LAY-6
  6
CONTINUOUS
 62
     1
100
AcDbLine
 10
645.478339
 20
506.8
 30
0.0
 11
647.478339
 21
506.466667
 31
0.0
  0
TEXT
  5
3B4
100
AcDbEntity
  8
LAY-6
  6
CONTINUOUS
 62
     2
100
AcDbText
 10
696.4
 20
471.509836
 30
0.0
 40
5.0
  1
２１
 50
90.0
 41
0.672
  7
EXCADSTD
 72
     5
 11
696.4
 21
478.842636
 31
0.0
100
AcDbText
  0
LINE
  5
3B5
100
AcDbEntity
  8
LAY-6
  6
CONTINUOUS
 62
     1
100
AcDbLine
 10
666.549999
 20
465.00986
 30
0.0
 11
698.4
 21
465.00986
 31
0.0
  0
LINE
  5
3B6
100
AcDbEntity
  8
LAY-6
  6
CONTINUOUS
 62
     1
100
AcDbLine
 10
696.9
 20
465.00986
 30
0.0
 11
696.9
 21
486.009811
 31
0.0
  0
LINE
  5
3B7
100
AcDbEntity
  8
LAY-6
  6
CONTINUOUS
 62
     1
100
AcDbLine
 10
696.566667
 20
467.00986
 30
0.0
 11
696.9
 21
465.00986
 31
0.0
  0
LINE
  5
3B8
100
AcDbEntity
  8
LAY-6
  6
CONTINUOUS
 62
     1
100
AcDbLine
 10
696.9
 20
465.00986
 30
0.0
 11
697.233333
 21
467.00986
 31
0.0
  0
LINE
  5
3B9
100
AcDbEntity
  8
LAY-6
  6
CONTINUOUS
 62
     1
100
AcDbLine
 10
697.233333
 20
484.009811
 30
0.0
 11
696.9
 21
486.009811
 31
0.0
  0
LINE
  5
3BA
100
AcDbEntity
  8
LAY-6
  6
CONTINUOUS
 62
     1
100
AcDbLine
 10
696.9
 20
486.009811
 30
0.0
 11
696.566667
 21
484.009811
 31
0.0
  0
LINE
  5
3BB
100
AcDbEntity
  8
LAY-6
  6
CONTINUOUS
 62
     1
100
AcDbLine
 10
679.978339
 20
489.009814
 30
0.0
 11
698.4
 21
489.009814
 31
0.0
  0
TEXT
  5
3BC
100
AcDbEntity
  8
LAY-6
  6
CONTINUOUS
 62
     2
100
AcDbText
 10
696.4
 20
504.009851
 30
0.0
 40
5.0
  1
３８
 50
90.0
 41
0.672
  7
EXCADSTD
 72
     5
 11
696.4
 21
511.342651
 31
0.0
100
AcDbText
  0
LINE
  5
3BD
100
AcDbEntity
  8
LAY-6
  6
CONTINUOUS
 62
     1
100
AcDbLine
 10
670.928351
 20
527.009888
 30
0.0
 11
698.4
 21
527.009888
 31
0.0
  0
LINE
  5
3BE
100
AcDbEntity
  8
LAY-6
  6
CONTINUOUS
 62
     1
100
AcDbLine
 10
696.9
 20
489.009814
 30
0.0
 11
696.9
 21
527.009888
 31
0.0
  0
LINE
  5
3BF
100
AcDbEntity
  8
LAY-6
  6
CONTINUOUS
 62
     1
100
AcDbLine
 10
696.566667
 20
491.009814
 30
0.0
 11
696.9
 21
489.009814
 31
0.0
  0
LINE
  5
3C0
100
AcDbEntity
  8
LAY-6
  6
CONTINUOUS
 62
     1
100
AcDbLine
 10
696.9
 20
489.009814
 30
0.0
 11
697.233333
 21
491.009814
 31
0.0
  0
LINE
  5
3C1
100
AcDbEntity
  8
LAY-6
  6
CONTINUOUS
 62
     1
100
AcDbLine
 10
697.233333
 20
525.009888
 30
0.0
 11
696.9
 21
527.009888
 31
0.0
  0
LINE
  5
3C2
100
AcDbEntity
  8
LAY-6
  6
CONTINUOUS
 62
     1
100
AcDbLine
 10
696.9
 20
527.009888
 30
0.0
 11
696.566667
 21
525.009888
 31
0.0
  0
TEXT
  5
3C3
100
AcDbEntity
  8
LAY-6
  6
CONTINUOUS
 62
     2
100
AcDbText
 10
654.178461
 20
391.0
 30
0.0
 40
5.0
  1
４０以上
 41
0.672
  7
EXCADSTD
 72
     5
 11
670.178461
 21
391.0
 31
0.0
100
AcDbText
  0
LINE
  5
3C4
100
AcDbEntity
  8
LAY-6
  6
CONTINUOUS
 62
     1
100
AcDbLine
 10
641.478461
 20
411.6
 30
0.0
 11
641.478461
 21
427.1
 31
0.0
  0
LINE
  5
3C5
100
AcDbEntity
  8
LAY-6
  6
CONTINUOUS
 62
     1
100
AcDbLine
 10
681.478461
 20
411.6
 30
0.0
 11
681.478461
 21
427.1
 31
0.0
  0
LINE
  5
3C6
100
AcDbEntity
  8
LAY-6
  6
CONTINUOUS
 62
     1
100
AcDbLine
 10
641.478461
 20
390.6
 30
0.0
 11
681.478461
 21
390.6
 31
0.0
  0
LINE
  5
3C7
100
AcDbEntity
  8
LAY-6
  6
CONTINUOUS
 62
     1
100
AcDbLine
 10
643.478461
 20
390.933333
 30
0.0
 11
641.478461
 21
390.6
 31
0.0
  0
LINE
  5
3C8
100
AcDbEntity
  8
LAY-6
  6
CONTINUOUS
 62
     1
100
AcDbLine
 10
641.478461
 20
390.6
 30
0.0
 11
643.478461
 21
390.266667
 31
0.0
  0
LINE
  5
3C9
100
AcDbEntity
  8
LAY-6
  6
CONTINUOUS
 62
     1
100
AcDbLine
 10
679.478461
 20
390.266667
 30
0.0
 11
681.478461
 21
390.6
 31
0.0
  0
LINE
  5
3CA
100
AcDbEntity
  8
LAY-6
  6
CONTINUOUS
 62
     1
100
AcDbLine
 10
681.478461
 20
390.6
 30
0.0
 11
679.478461
 21
390.933333
 31
0.0
  0
TEXT
  5
3CB
100
AcDbEntity
  8
LAY-6
  6
CONTINUOUS
 62
     2
100
AcDbText
 10
657.278461
 20
299.1
 30
0.0
 40
5.0
  1
□５０
 41
0.672
  7
EXCADSTD
 72
     5
 11
669.278461
 21
299.1
 31
0.0
100
AcDbText
  0
LINE
  5
3CC
100
AcDbEntity
  8
LAY-6
  6
CONTINUOUS
 62
     1
100
AcDbLine
 10
636.478461
 20
321.051885
 30
0.0
 11
636.478461
 21
297.2
 31
0.0
  0
LINE
  5
3CD
100
AcDbEntity
  8
LAY-6
  6
CONTINUOUS
 62
     1
100
AcDbLine
 10
686.478461
 20
321.051885
 30
0.0
 11
686.478461
 21
297.2
 31
0.0
  0
LINE
  5
3CE
100
AcDbEntity
  8
LAY-6
  6
CONTINUOUS
 62
     1
100
AcDbLine
 10
636.478461
 20
298.7
 30
0.0
 11
686.478461
 21
298.7
 31
0.0
  0
LINE
  5
3CF
100
AcDbEntity
  8
LAY-6
  6
CONTINUOUS
 62
     1
100
AcDbLine
 10
638.478461
 20
299.033333
 30
0.0
 11
636.478461
 21
298.7
 31
0.0
  0
LINE
  5
3D0
100
AcDbEntity
  8
LAY-6
  6
CONTINUOUS
 62
     1
100
AcDbLine
 10
636.478461
 20
298.7
 30
0.0
 11
638.478461
 21
298.366667
 31
0.0
  0
LINE
  5
3D1
100
AcDbEntity
  8
LAY-6
  6
CONTINUOUS
 62
     1
100
AcDbLine
 10
684.478461
 20
298.366667
 30
0.0
 11
686.478461
 21
298.7
 31
0.0
  0
LINE
  5
3D2
100
AcDbEntity
  8
LAY-6
  6
CONTINUOUS
 62
     1
100
AcDbLine
 10
686.478461
 20
298.7
 30
0.0
 11
684.478461
 21
299.033333
 31
0.0
  0
TEXT
  5
3D3
100
AcDbEntity
  8
LAY-6
  6
CONTINUOUS
 62
     2
100
AcDbText
 10
694.9
 20
338.552063
 30
0.0
 40
5.0
  1
２０
 50
90.0
 41
0.672
  7
EXCADSTD
 72
     5
 11
694.9
 21
345.884863
 31
0.0
100
AcDbText
  0
LINE
  5
3D4
100
AcDbEntity
  8
LAY-6
  6
CONTINUOUS
 62
     1
100
AcDbLine
 10
674.478401
 20
352.552063
 30
0.0
 11
696.9
 21
352.552063
 31
0.0
  0
LINE
  5
3D5
100
AcDbEntity
  8
LAY-6
  6
CONTINUOUS
 62
     1
100
AcDbLine
 10
695.4
 20
332.552063
 30
0.0
 11
695.4
 21
352.552063
 31
0.0
  0
LINE
  5
3D6
100
AcDbEntity
  8
LAY-6
  6
CONTINUOUS
 62
     1
100
AcDbLine
 10
695.066667
 20
334.552063
 30
0.0
 11
695.4
 21
332.552063
 31
0.0
  0
LINE
  5
3D7
100
AcDbEntity
  8
LAY-6
  6
CONTINUOUS
 62
     1
100
AcDbLine
 10
695.4
 20
332.552063
 30
0.0
 11
695.733333
 21
334.552063
 31
0.0
  0
LINE
  5
3D8
100
AcDbEntity
  8
LAY-6
  6
CONTINUOUS
 62
     1
100
AcDbLine
 10
695.733333
 20
350.552063
 30
0.0
 11
695.4
 21
352.552063
 31
0.0
  0
LINE
  5
3D9
100
AcDbEntity
  8
LAY-6
  6
CONTINUOUS
 62
     1
100
AcDbLine
 10
695.4
 20
352.552063
 30
0.0
 11
695.066667
 21
350.552063
 31
0.0
  0
TEXT
  5
3DA
100
AcDbEntity
  8
LAY-6
  6
CONTINUOUS
 62
     2
100
AcDbText
 10
668.393858
 20
164.114659
 30
0.0
 40
5.0
  1
φ
 50
58.224622
 41
0.672
  7
EXCADSTD
 72
     5
 11
670.078948
 21
166.83504
 31
0.0
100
AcDbText
  0
TEXT
  5
3DB
100
AcDbEntity
  8
LAY-6
  6
CONTINUOUS
 62
     2
100
AcDbText
 10
670.50022
 20
167.515135
 30
0.0
 40
5.0
  1
６６
 50
58.224622
 41
0.672
  7
EXCADSTD
 72
     5
 11
674.361603
 21
173.748888
 31
0.0
100
AcDbText
  0
LINE
  5
3DC
100
AcDbEntity
  8
LAY-6
  6
CONTINUOUS
 62
     1
100
AcDbLine
 10
678.855948
 20
180.606007
 30
0.0
 11
644.100974
 21
124.498149
 31
0.0
  0
LINE
  5
3DD
100
AcDbEntity
  8
LAY-6
  6
CONTINUOUS
 62
     1
100
AcDbLine
 10
678.08614
 20
178.730239
 30
0.0
 11
678.855948
 21
180.606007
 31
0.0
  0
LINE
  5
3DE
100
AcDbEntity
  8
LAY-6
  6
CONTINUOUS
 62
     1
100
AcDbLine
 10
678.855948
 20
180.606007
 30
0.0
 11
677.519394
 21
179.081299
 31
0.0
  0
LINE
  5
3DF
100
AcDbEntity
  8
LAY-6
  6
CONTINUOUS
 62
     1
100
AcDbLine
 10
644.870782
 20
126.373917
 30
0.0
 11
644.100974
 21
124.498149
 31
0.0
  0
LINE
  5
3E0
100
AcDbEntity
  8
LAY-6
  6
CONTINUOUS
 62
     1
100
AcDbLine
 10
644.100974
 20
124.498149
 30
0.0
 11
645.437528
 21
126.022857
 31
0.0
  0
ARC
  5
3E1
100
AcDbEntity
  8
LAY-6
  6
CONTINUOUS
 62
     1
100
AcDbCircle
 10
661.478461
 20
152.552078
 30
0.0
 40
33.0
100
AcDbArc
 50
49.250946
 51
59.971154
  0
ARC
  5
3E2
100
AcDbEntity
  8
LAY-6
  6
CONTINUOUS
 62
     1
100
AcDbCircle
 10
661.478461
 20
152.552078
 30
0.0
 40
33.0
100
AcDbArc
 50
229.250946
 51
241.27254
  0
TEXT
  5
3E3
100
AcDbEntity
  8
LAY-6
  6
CONTINUOUS
 62
     2
100
AcDbText
 10
697.3
 20
148.252078
 30
0.0
 40
5.0
  1
□５０
 50
90.0
 41
0.672
  7
EXCADSTD
 72
     5
 11
697.3
 21
160.252078
 31
0.0
100
AcDbText
  0
LINE
  5
3E4
100
AcDbEntity
  8
LAY-6
  6
CONTINUOUS
 62
     1
100
AcDbLine
 10
683.01912
 20
177.552078
 30
0.0
 11
698.7
 21
177.552078
 31
0.0
  0
LINE
  5
3E5
100
AcDbEntity
  8
LAY-6
  6
CONTINUOUS
 62
     1
100
AcDbLine
 10
683.01912
 20
127.552078
 30
0.0
 11
698.7
 21
127.552078
 31
0.0
  0
LINE
  5
3E6
100
AcDbEntity
  8
LAY-6
  6
CONTINUOUS
 62
     1
100
AcDbLine
 10
697.2
 20
177.552078
 30
0.0
 11
697.2
 21
127.552078
 31
0.0
  0
LINE
  5
3E7
100
AcDbEntity
  8
LAY-6
  6
CONTINUOUS
 62
     1
100
AcDbLine
 10
697.533333
 20
175.552078
 30
0.0
 11
697.2
 21
177.552078
 31
0.0
  0
LINE
  5
3E8
100
AcDbEntity
  8
LAY-6
  6
CONTINUOUS
 62
     1
100
AcDbLine
 10
697.2
 20
177.552078
 30
0.0
 11
696.866667
 21
175.552078
 31
0.0
  0
LINE
  5
3E9
100
AcDbEntity
  8
LAY-6
  6
CONTINUOUS
 62
     1
100
AcDbLine
 10
696.866667
 20
129.552078
 30
0.0
 11
697.2
 21
127.552078
 31
0.0
  0
LINE
  5
3EA
100
AcDbEntity
  8
LAY-6
  6
CONTINUOUS
 62
     1
100
AcDbLine
 10
697.2
 20
127.552078
 30
0.0
 11
697.533333
 21
129.552078
 31
0.0
  0
TEXT
  5
3EB
100
AcDbEntity
  8
LAY-6
  6
CONTINUOUS
 62
     2
100
AcDbText
 10
642.478461
 20
100.9
 30
0.0
 40
5.0
  1
３０
 41
0.672
  7
EXCADSTD
 72
     5
 11
649.811261
 21
100.9
 31
0.0
100
AcDbText
  0
LINE
  5
3EC
100
AcDbEntity
  8
LAY-6
  6
CONTINUOUS
 62
     1
100
AcDbLine
 10
631.478461
 20
112.552078
 30
0.0
 11
631.478461
 21
98.9
 31
0.0
  0
LINE
  5
3ED
100
AcDbEntity
  8
LAY-6
  6
CONTINUOUS
 62
     1
100
AcDbLine
 10
661.478461
 20
104.0
 30
0.0
 11
661.478461
 21
98.9
 31
0.0
  0
LINE
  5
3EE
100
AcDbEntity
  8
LAY-6
  6
CONTINUOUS
 62
     1
100
AcDbLine
 10
631.478461
 20
100.4
 30
0.0
 11
661.478461
 21
100.4
 31
0.0
  0
LINE
  5
3EF
100
AcDbEntity
  8
LAY-6
  6
CONTINUOUS
 62
     1
100
AcDbLine
 10
633.478461
 20
100.733333
 30
0.0
 11
631.478461
 21
100.4
 31
0.0
  0
LINE
  5
3F0
100
AcDbEntity
  8
LAY-6
  6
CONTINUOUS
 62
     1
100
AcDbLine
 10
631.478461
 20
100.4
 30
0.0
 11
633.478461
 21
100.066667
 31
0.0
  0
LINE
  5
3F1
100
AcDbEntity
  8
LAY-6
  6
CONTINUOUS
 62
     1
100
AcDbLine
 10
659.478461
 20
100.066667
 30
0.0
 11
661.478461
 21
100.4
 31
0.0
  0
LINE
  5
3F2
100
AcDbEntity
  8
LAY-6
  6
CONTINUOUS
 62
     1
100
AcDbLine
 10
661.478461
 20
100.4
 30
0.0
 11
659.478461
 21
100.733333
 31
0.0
  0
TEXT
  5
3F3
100
AcDbEntity
  8
LAY-6
  6
CONTINUOUS
 62
     2
100
AcDbText
 10
682.478461
 20
100.9
 30
0.0
 40
5.0
  1
５０
 41
0.672
  7
EXCADSTD
 72
     5
 11
689.811261
 21
100.9
 31
0.0
100
AcDbText
  0
LINE
  5
3F4
100
AcDbEntity
  8
LAY-6
  6
CONTINUOUS
 62
     1
100
AcDbLine
 10
711.478461
 20
112.552078
 30
0.0
 11
711.478461
 21
98.9
 31
0.0
  0
LINE
  5
3F5
100
AcDbEntity
  8
LAY-6
  6
CONTINUOUS
 62
     1
100
AcDbLine
 10
661.478461
 20
100.4
 30
0.0
 11
711.478461
 21
100.4
 31
0.0
  0
LINE
  5
3F6
100
AcDbEntity
  8
LAY-6
  6
CONTINUOUS
 62
     1
100
AcDbLine
 10
663.478461
 20
100.733333
 30
0.0
 11
661.478461
 21
100.4
 31
0.0
  0
LINE
  5
3F7
100
AcDbEntity
  8
LAY-6
  6
CONTINUOUS
 62
     1
100
AcDbLine
 10
661.478461
 20
100.4
 30
0.0
 11
663.478461
 21
100.066667
 31
0.0
  0
LINE
  5
3F8
100
AcDbEntity
  8
LAY-6
  6
CONTINUOUS
 62
     1
100
AcDbLine
 10
709.478461
 20
100.066667
 30
0.0
 11
711.478461
 21
100.4
 31
0.0
  0
LINE
  5
3F9
100
AcDbEntity
  8
LAY-6
  6
CONTINUOUS
 62
     1
100
AcDbLine
 10
711.478461
 20
100.4
 30
0.0
 11
709.478461
 21
100.733333
 31
0.0
  0
TEXT
  5
3FA
100
AcDbEntity
  8
LAY-6
  6
CONTINUOUS
 62
     2
100
AcDbText
 10
669.478461
 20
91.7
 30
0.0
 40
5.0
  1
８０
 41
0.672
  7
EXCADSTD
 72
     5
 11
676.811261
 21
91.7
 31
0.0
100
AcDbText
  0
LINE
  5
3FB
100
AcDbEntity
  8
LAY-6
  6
CONTINUOUS
 62
     1
100
AcDbLine
 10
631.478461
 20
98.9
 30
0.0
 11
631.478461
 21
89.7
 31
0.0
  0
LINE
  5
3FC
100
AcDbEntity
  8
LAY-6
  6
CONTINUOUS
 62
     1
100
AcDbLine
 10
711.478461
 20
98.9
 30
0.0
 11
711.478461
 21
89.7
 31
0.0
  0
LINE
  5
3FD
100
AcDbEntity
  8
LAY-6
  6
CONTINUOUS
 62
     1
100
AcDbLine
 10
631.478461
 20
91.2
 30
0.0
 11
711.478461
 21
91.2
 31
0.0
  0
LINE
  5
3FE
100
AcDbEntity
  8
LAY-6
  6
CONTINUOUS
 62
     1
100
AcDbLine
 10
633.478461
 20
91.533333
 30
0.0
 11
631.478461
 21
91.2
 31
0.0
  0
LINE
  5
3FF
100
AcDbEntity
  8
LAY-6
  6
CONTINUOUS
 62
     1
100
AcDbLine
 10
631.478461
 20
91.2
 30
0.0
 11
633.478461
 21
90.866667
 31
0.0
  0
LINE
  5
400
100
AcDbEntity
  8
LAY-6
  6
CONTINUOUS
 62
     1
100
AcDbLine
 10
709.478461
 20
90.866667
 30
0.0
 11
711.478461
 21
91.2
 31
0.0
  0
LINE
  5
401
100
AcDbEntity
  8
LAY-6
  6
CONTINUOUS
 62
     1
100
AcDbLine
 10
711.478461
 20
91.2
 30
0.0
 11
709.478461
 21
91.533333
 31
0.0
  0
TEXT
  5
402
100
AcDbEntity
  8
LAY-6
  6
CONTINUOUS
 62
     2
100
AcDbText
 10
724.8
 20
152.452078
 30
0.0
 40
5.0
  1
８０
 50
90.0
 41
0.672
  7
EXCADSTD
 72
     5
 11
724.8
 21
159.784878
 31
0.0
100
AcDbText
  0
LINE
  5
403
100
AcDbEntity
  8
LAY-6
  6
CONTINUOUS
 62
     1
100
AcDbLine
 10
711.478461
 20
192.552078
 30
0.0
 11
726.8
 21
192.552078
 31
0.0
  0
LINE
  5
404
100
AcDbEntity
  8
LAY-6
  6
CONTINUOUS
 62
     1
100
AcDbLine
 10
711.478461
 20
112.552078
 30
0.0
 11
726.8
 21
112.552078
 31
0.0
  0
LINE
  5
405
100
AcDbEntity
  8
LAY-6
  6
CONTINUOUS
 62
     1
100
AcDbLine
 10
725.3
 20
192.552078
 30
0.0
 11
725.3
 21
112.552078
 31
0.0
  0
LINE
  5
406
100
AcDbEntity
  8
LAY-6
  6
CONTINUOUS
 62
     1
100
AcDbLine
 10
725.633333
 20
190.552078
 30
0.0
 11
725.3
 21
192.552078
 31
0.0
  0
LINE
  5
407
100
AcDbEntity
  8
LAY-6
  6
CONTINUOUS
 62
     1
100
AcDbLine
 10
725.3
 20
192.552078
 30
0.0
 11
724.966667
 21
190.552078
 31
0.0
  0
LINE
  5
408
100
AcDbEntity
  8
LAY-6
  6
CONTINUOUS
 62
     1
100
AcDbLine
 10
724.966667
 20
114.552078
 30
0.0
 11
725.3
 21
112.552078
 31
0.0
  0
LINE
  5
409
100
AcDbEntity
  8
LAY-6
  6
CONTINUOUS
 62
     1
100
AcDbLine
 10
725.3
 20
112.552078
 30
0.0
 11
725.633333
 21
114.552078
 31
0.0
  0
INSERT
  5
40A
100
AcDbEntity
  8
LAY-6
  6
CONTINUOUS
 62
     0
100
AcDbBlockReference
  2
SYM-1
 10
667.2
 20
92.7
 30
0.0
  0
POLYLINE
  5
40B
100
AcDbEntity
  8
LAY-6
  6
CONTINUOUS
 62
     1
100
AcDb2dPolyline
 66
     1
 10
0.0
 20
0.0
 30
0.0
 70
   128
  0
VERTEX
  5
40C
100
AcDbEntity
  8
LAY-6
  6
CONTINUOUS
 62
     1
100
AcDbVertex
100
AcDb2dVertex
 10
316.721314
 20
435.809826
 30
0.0
  0
VERTEX
  5
40D
100
AcDbEntity
  8
LAY-6
  6
CONTINUOUS
 62
     1
100
AcDbVertex
100
AcDb2dVertex
 10
356.6
 20
466.3
 30
0.0
  0
VERTEX
  5
40E
100
AcDbEntity
  8
LAY-6
  6
CONTINUOUS
 62
     1
100
AcDbVertex
100
AcDb2dVertex
 10
404.4
 20
466.3
 30
0.0
  0
SEQEND
  5
40F
100
AcDbEntity
  8
LAY-6
  6
CONTINUOUS
 62
     1
  0
LINE
  5
410
100
AcDbEntity
  8
LAY-6
  6
CONTINUOUS
 62
     1
100
AcDbLine
 10
318.10767
 20
437.289396
 30
0.0
 11
316.721314
 21
435.809826
 31
0.0
  0
LINE
  5
411
100
AcDbEntity
  8
LAY-6
  6
CONTINUOUS
 62
     1
100
AcDbLine
 10
316.721314
 20
435.809826
 30
0.0
 11
318.512593
 21
436.75979
 31
0.0
  0
TEXT
  5
412
100
AcDbEntity
  8
LAY-6
  6
CONTINUOUS
 62
     2
100
AcDbText
 10
360.4
 20
466.3
 30
0.0
 40
5.0
  1
４－Ｍ６×１６皿小ネジ
 41
0.672
  7
EXCADSTD
 72
     5
 11
404.4
 21
466.3
 31
0.0
100
AcDbText
  0
POLYLINE
  5
413
100
AcDbEntity
  8
LAY-6
  6
CONTINUOUS
 62
     1
100
AcDb2dPolyline
 66
     1
 10
0.0
 20
0.0
 30
0.0
 70
   128
  0
VERTEX
  5
414
100
AcDbEntity
  8
LAY-6
  6
CONTINUOUS
 62
     1
100
AcDbVertex
100
AcDb2dVertex
 10
316.721344
 20
400.809814
 30
0.0
  0
VERTEX
  5
415
100
AcDbEntity
  8
LAY-6
  6
CONTINUOUS
 62
     1
100
AcDbVertex
100
AcDb2dVertex
 10
356.6
 20
384.1
 30
0.0
  0
VERTEX
  5
416
100
AcDbEntity
  8
LAY-6
  6
CONTINUOUS
 62
     1
100
AcDbVertex
100
AcDb2dVertex
 10
404.6
 20
384.1
 30
0.0
  0
SEQEND
  5
417
100
AcDbEntity
  8
LAY-6
  6
CONTINUOUS
 62
     1
  0
LINE
  5
418
100
AcDbEntity
  8
LAY-6
  6
CONTINUOUS
 62
     1
100
AcDbLine
 10
318.694776
 20
400.344327
 30
0.0
 11
316.721344
 21
400.809814
 31
0.0
  0
LINE
  5
419
100
AcDbEntity
  8
LAY-6
  6
CONTINUOUS
 62
     1
100
AcDbLine
 10
316.721344
 20
400.809814
 30
0.0
 11
318.437135
 21
399.729456
 31
0.0
  0
TEXT
  5
41A
100
AcDbEntity
  8
LAY-6
  6
CONTINUOUS
 62
     2
100
AcDbText
 10
360.6
 20
384.1
 30
0.0
 40
5.0
  1
３－Ｍ６×１６皿小ネジ
 41
0.672
  7
EXCADSTD
 72
     5
 11
404.6
 21
384.1
 31
0.0
100
AcDbText
  0
POLYLINE
  5
41B
100
AcDbEntity
  8
LAY-6
  6
CONTINUOUS
 62
     1
100
AcDb2dPolyline
 66
     1
 10
0.0
 20
0.0
 30
0.0
 70
   128
  0
VERTEX
  5
41C
100
AcDbEntity
  8
LAY-6
  6
CONTINUOUS
 62
     1
100
AcDbVertex
100
AcDb2dVertex
 10
252.221344
 20
159.551941
 30
0.0
  0
VERTEX
  5
41D
100
AcDbEntity
  8
LAY-6
  6
CONTINUOUS
 62
     1
100
AcDbVertex
100
AcDb2dVertex
 10
263.2
 20
175.099878
 30
0.0
  0
VERTEX
  5
41E
100
AcDbEntity
  8
LAY-6
  6
CONTINUOUS
 62
     1
100
AcDbVertex
100
AcDb2dVertex
 10
310.8
 20
175.099878
 30
0.0
  0
SEQEND
  5
41F
100
AcDbEntity
  8
LAY-6
  6
CONTINUOUS
 62
     1
  0
LINE
  5
420
100
AcDbEntity
  8
LAY-6
  6
CONTINUOUS
 62
     1
100
AcDbLine
 10
253.102673
 20
161.377967
 30
0.0
 11
252.221344
 21
159.551941
 31
0.0
  0
LINE
  5
421
100
AcDbEntity
  8
LAY-6
  6
CONTINUOUS
 62
     1
100
AcDbLine
 10
252.221344
 20
159.551941
 30
0.0
 11
253.647258
 21
160.993426
 31
0.0
  0
TEXT
  5
422
100
AcDbEntity
  8
LAY-6
  6
CONTINUOUS
 62
     2
100
AcDbText
 10
266.8
 20
175.099878
 30
0.0
 40
5.0
  1
４－Ｍ６×２０皿小ネジ
 41
0.672
  7
EXCADSTD
 72
     5
 11
310.8
 21
175.099878
 31
0.0
100
AcDbText
  0
POLYLINE
  5
423
100
AcDbEntity
  8
LAY-6
  6
CONTINUOUS
 62
     1
100
AcDb2dPolyline
 66
     1
 10
0.0
 20
0.0
 30
0.0
 70
   128
  0
VERTEX
  5
424
100
AcDbEntity
  8
LAY-6
  6
CONTINUOUS
 62
     1
100
AcDbVertex
100
AcDb2dVertex
 10
693.5
 20
192.552078
 30
0.0
  0
VERTEX
  5
425
100
AcDbEntity
  8
LAY-6
  6
CONTINUOUS
 62
     1
100
AcDbVertex
100
AcDb2dVertex
 10
705.3
 20
207.8
 30
0.0
  0
VERTEX
  5
426
100
AcDbEntity
  8
LAY-6
  6
CONTINUOUS
 62
     1
100
AcDbVertex
100
AcDb2dVertex
 10
757.5
 20
207.8
 30
0.0
  0
SEQEND
  5
427
100
AcDbEntity
  8
LAY-6
  6
CONTINUOUS
 62
     1
  0
LINE
  5
428
100
AcDbEntity
  8
LAY-6
  6
CONTINUOUS
 62
     1
100
AcDbLine
 10
694.460417
 20
194.337774
 30
0.0
 11
693.5
 21
192.552078
 31
0.0
  0
LINE
  5
429
100
AcDbEntity
  8
LAY-6
  6
CONTINUOUS
 62
     1
100
AcDbLine
 10
693.5
 20
192.552078
 30
0.0
 11
694.987647
 21
193.929763
 31
0.0
  0
TEXT
  5
42A
100
AcDbEntity
  8
LAY-6
  6
CONTINUOUS
 62
     2
100
AcDbText
 10
705.5
 20
207.7
 30
0.0
 40
5.0
  1
フロアプレート　　１.５ｔ
 41
0.655621
  7
EXCADSTD
 72
     5
 11
755.5
 21
207.7
 31
0.0
100
AcDbText
  0
TEXT
  5
42B
100
AcDbEntity
  8
LAY-6
  6
CONTINUOUS
 62
     2
100
AcDbText
 10
705.5
 20
202.7
 30
0.0
 40
5.0
  1
    （ＳＵＳ３０４）
 41
0.595556
  7
EXCADSTD
 72
     5
 11
745.5
 21
202.7
 31
0.0
100
AcDbText
  0
INSERT
  5
42C
100
AcDbEntity
  8
LAY-6
  6
CONTINUOUS
 62
     0
100
AcDbBlockReference
  2
SYM-1
 10
738.9
 20
208.7
 30
0.0
  0
CIRCLE
  5
42D
100
AcDbEntity
  8
LAY-6
  6
CONTINUOUS
 62
     1
100
AcDbCircle
 10
629.4
 20
532.1
 30
0.0
 40
4.0
  0
POLYLINE
  5
42E
100
AcDbEntity
  8
LAY-6
  6
CONTINUOUS
 62
     1
100
AcDb2dPolyline
 66
     1
 10
0.0
 20
0.0
 30
0.0
 70
   128
  0
VERTEX
  5
42F
100
AcDbEntity
  8
LAY-6
  6
CONTINUOUS
 62
     1
100
AcDbVertex
100
AcDb2dVertex
 10
652.028387
 20
521.3
 30
0.0
  0
VERTEX
  5
430
100
AcDbEntity
  8
LAY-6
  6
CONTINUOUS
 62
     1
100
AcDbVertex
100
AcDb2dVertex
 10
633.009919
 20
530.37707
 30
0.0
  0
SEQEND
  5
431
100
AcDbEntity
  8
LAY-6
  6
CONTINUOUS
 62
     1
  0
LINE
  5
432
100
AcDbEntity
  8
LAY-6
  6
CONTINUOUS
 62
     1
100
AcDbLine
 10
650.07985
 20
521.860638
 30
0.0
 11
652.028387
 21
521.3
 31
0.0
  0
LINE
  5
433
100
AcDbEntity
  8
LAY-6
  6
CONTINUOUS
 62
     1
100
AcDbLine
 10
652.028387
 20
521.3
 30
0.0
 11
650.367005
 21
522.462291
 31
0.0
  0
TEXT
  5
434
100
AcDbEntity
  8
LAY-6
  6
CONTINUOUS
 62
     2
100
AcDbText
 10
626.571573
 20
529.271573
 30
0.0
 40
5.656854
  1
１
 41
0.84
  7
EXCADSTD
 72
     5
 11
631.097056
 21
529.271573
 31
0.0
100
AcDbText
  0
CIRCLE
  5
435
100
AcDbEntity
  8
LAY-6
  6
CONTINUOUS
 62
     1
100
AcDbCircle
 10
629.2
 20
467.7
 30
0.0
 40
4.0
  0
POLYLINE
  5
436
100
AcDbEntity
  8
LAY-6
  6
CONTINUOUS
 62
     1
100
AcDb2dPolyline
 66
     1
 10
0.0
 20
0.0
 30
0.0
 70
   128
  0
VERTEX
  5
437
100
AcDbEntity
  8
LAY-6
  6
CONTINUOUS
 62
     1
100
AcDbVertex
100
AcDb2dVertex
 10
652.728461
 20
473.109417
 30
0.0
  0
VERTEX
  5
438
100
AcDbEntity
  8
LAY-6
  6
CONTINUOUS
 62
     1
100
AcDbVertex
100
AcDb2dVertex
 10
633.100406
 20
468.587036
 30
0.0
  0
SEQEND
  5
439
100
AcDbEntity
  8
LAY-6
  6
CONTINUOUS
 62
     1
  0
LINE
  5
43A
100
AcDbEntity
  8
LAY-6
  6
CONTINUOUS
 62
     1
100
AcDbLine
 10
650.854363
 20
472.335551
 30
0.0
 11
652.728461
 21
473.109417
 31
0.0
  0
LINE
  5
43B
100
AcDbEntity
  8
LAY-6
  6
CONTINUOUS
 62
     1
100
AcDbLine
 10
652.728461
 20
473.109417
 30
0.0
 11
650.704682
 21
472.985197
 31
0.0
  0
TEXT
  5
43C
100
AcDbEntity
  8
LAY-6
  6
CONTINUOUS
 62
     2
100
AcDbText
 10
626.371573
 20
464.871573
 30
0.0
 40
5.656854
  1
２
 41
0.84
  7
EXCADSTD
 72
     5
 11
630.897056
 21
464.871573
 31
0.0
100
AcDbText
  0
CIRCLE
  5
43D
100
AcDbEntity
  8
LAY-6
  6
CONTINUOUS
 62
     1
100
AcDbCircle
 10
622.4
 20
361.2
 30
0.0
 40
4.0
  0
POLYLINE
  5
43E
100
AcDbEntity
  8
LAY-6
  6
CONTINUOUS
 62
     1
100
AcDb2dPolyline
 66
     1
 10
0.0
 20
0.0
 30
0.0
 70
   128
  0
VERTEX
  5
43F
100
AcDbEntity
  8
LAY-6
  6
CONTINUOUS
 62
     1
100
AcDbVertex
100
AcDb2dVertex
 10
649.401228
 20
345.263227
 30
0.0
  0
VERTEX
  5
440
100
AcDbEntity
  8
LAY-6
  6
CONTINUOUS
 62
     1
100
AcDbVertex
100
AcDb2dVertex
 10
625.844739
 20
359.166832
 30
0.0
  0
SEQEND
  5
441
100
AcDbEntity
  8
LAY-6
  6
CONTINUOUS
 62
     1
  0
LINE
  5
442
100
AcDbEntity
  8
LAY-6
  6
CONTINUOUS
 62
     1
100
AcDbLine
 10
647.509428
 20
345.992749
 30
0.0
 11
649.401228
 21
345.263227
 31
0.0
  0
LINE
  5
443
100
AcDbEntity
  8
LAY-6
  6
CONTINUOUS
 62
     1
100
AcDbLine
 10
649.401228
 20
345.263227
 30
0.0
 11
647.848289
 21
346.566872
 31
0.0
  0
TEXT
  5
444
100
AcDbEntity
  8
LAY-6
  6
CONTINUOUS
 62
     2
100
AcDbText
 10
619.571573
 20
358.371573
 30
0.0
 40
5.656854
  1
３
 41
0.84
  7
EXCADSTD
 72
     5
 11
624.097056
 21
358.371573
 31
0.0
100
AcDbText
  0
CIRCLE
  5
445
100
AcDbEntity
  8
LAY-6
  6
CONTINUOUS
 62
     1
100
AcDbCircle
 10
610.8
 20
303.4
 30
0.0
 40
4.0
  0
POLYLINE
  5
446
100
AcDbEntity
  8
LAY-6
  6
CONTINUOUS
 62
     1
100
AcDb2dPolyline
 66
     1
 10
0.0
 20
0.0
 30
0.0
 70
   128
  0
VERTEX
  5
447
100
AcDbEntity
  8
LAY-6
  6
CONTINUOUS
 62
     1
100
AcDbVertex
100
AcDb2dVertex
 10
636.478461
 20
288.4
 30
0.0
  0
VERTEX
  5
448
100
AcDbEntity
  8
LAY-6
  6
CONTINUOUS
 62
     1
100
AcDbVertex
100
AcDb2dVertex
 10
614.253892
 20
301.382419
 30
0.0
  0
SEQEND
  5
449
100
AcDbEntity
  8
LAY-6
  6
CONTINUOUS
 62
     1
  0
LINE
  5
44A
100
AcDbEntity
  8
LAY-6
  6
CONTINUOUS
 62
     1
100
AcDbLine
 10
634.583383
 20
289.120966
 30
0.0
 11
636.478461
 21
288.4
 31
0.0
  0
LINE
  5
44B
100
AcDbEntity
  8
LAY-6
  6
CONTINUOUS
 62
     1
100
AcDbLine
 10
636.478461
 20
288.4
 30
0.0
 11
634.919647
 21
289.696615
 31
0.0
  0
TEXT
  5
44C
100
AcDbEntity
  8
LAY-6
  6
CONTINUOUS
 62
     2
100
AcDbText
 10
607.971573
 20
300.571573
 30
0.0
 40
5.656854
  1
４
 41
0.84
  7
EXCADSTD
 72
     5
 11
612.497056
 21
300.571573
 31
0.0
100
AcDbText
  0
TEXT
  5
44D
100
AcDbEntity
  8
LAY-6
  6
CONTINUOUS
 62
     2
100
AcDbText
 10
654.278461
 20
419.6
 30
0.0
 40
6.0
  1
ド　ア
 41
0.672
  7
EXCADSTD
 72
     5
 11
668.678461
 21
419.6
 31
0.0
100
AcDbText
  0
TEXT
  5
44E
100
AcDbEntity
  8
LAY-6
  6
CONTINUOUS
 62
     2
100
AcDbText
 10
368.9
 20
424.3
 30
0.0
 40
6.0
  1
上　枠
 41
0.672
  7
EXCADSTD
 72
     5
 11
383.300001
 21
424.3
 31
0.0
100
AcDbText
  0
TEXT
  5
44F
100
AcDbEntity
  8
LAY-6
  6
CONTINUOUS
 62
     2
100
AcDbText
 10
369.4
 20
404.8
 30
0.0
 40
6.0
  1
ド　ア
 41
0.672
  7
EXCADSTD
 72
     5
 11
383.800001
 21
404.8
 31
0.0
100
AcDbText
  0
TEXT
  5
450
100
AcDbEntity
  8
LAY-6
  6
CONTINUOUS
 62
     2
100
AcDbText
 10
364.3
 20
323.3
 30
0.0
 40
6.0
  1
ド　ア
 41
0.672
  7
EXCADSTD
 72
     5
 11
378.700001
 21
323.3
 31
0.0
100
AcDbText
  0
TEXT
  5
451
100
AcDbEntity
  8
LAY-6
  6
CONTINUOUS
 62
     2
100
AcDbText
 10
121.7
 20
172.0
 30
0.0
 40
6.0
  1
竪　枠
 41
0.8
  7
EXCADVERT
 72
     3
 11
121.7
 21
154.0
 31
0.0
100
AcDbText
  0
TEXT
  5
452
100
AcDbEntity
  8
LAY-6
  6
CONTINUOUS
 62
     2
100
AcDbText
 10
120.7
 20
409.2
 30
0.0
 40
6.0
  1
竪　枠
 41
0.8
  7
EXCADVERT
 72
     3
 11
120.7
 21
391.2
 31
0.0
100
AcDbText
  0
INSERT
  5
453
100
AcDbEntity
  8
LAY-6
  6
CONTINUOUS
 62
     0
100
AcDbBlockReference
  2
SYM-2
 10
80.0
 20
357.0
 30
0.0
  0
INSERT
  5
454
100
AcDbEntity
  8
LAY-6
  6
CONTINUOUS
 62
     0
100
AcDbBlockReference
  2
SYM-3
 10
79.0
 20
272.0
 30
0.0
  0
INSERT
  5
455
100
AcDbEntity
  8
LAY-6
  6
CONTINUOUS
 62
     0
100
AcDbBlockReference
  2
SYM-4
 10
599.0
 20
207.0
 30
0.0
  0
INSERT
  5
456
100
AcDbEntity
  8
LAY-6
  6
CONTINUOUS
 62
     0
100
AcDbBlockReference
  2
SYM-5
 10
81.0
 20
567.0
 30
0.0
  0
POLYLINE
  5
457
100
AcDbEntity
  8
LAY-6
  6
CONTINUOUS
 62
     1
100
AcDb2dPolyline
 66
     1
 10
0.0
 20
0.0
 30
0.0
 70
   128
  0
VERTEX
  5
458
100
AcDbEntity
  8
LAY-6
  6
CONTINUOUS
 62
     1
100
AcDbVertex
100
AcDb2dVertex
 10
301.8
 20
546.727417
 30
0.0
  0
VERTEX
  5
459
100
AcDbEntity
  8
LAY-6
  6
CONTINUOUS
 62
     1
100
AcDbVertex
100
AcDb2dVertex
 10
322.7
 20
567.7
 30
0.0
  0
VERTEX
  5
45A
100
AcDbEntity
  8
LAY-6
  6
CONTINUOUS
 62
     1
100
AcDbVertex
100
AcDb2dVertex
 10
368.9
 20
567.7
 30
0.0
  0
SEQEND
  5
45B
100
AcDbEntity
  8
LAY-6
  6
CONTINUOUS
 62
     1
  0
LINE
  5
45C
100
AcDbEntity
  8
LAY-6
  6
CONTINUOUS
 62
     1
100
AcDbLine
 10
302.97565
 20
548.379373
 30
0.0
 11
301.8
 21
546.727417
 31
0.0
  0
LINE
  5
45D
100
AcDbEntity
  8
LAY-6
  6
CONTINUOUS
 62
     1
100
AcDbLine
 10
301.8
 20
546.727417
 30
0.0
 11
303.44787
 21
547.908787
 31
0.0
  0
TEXT
  5
45E
100
AcDbEntity
  8
LAY-6
  6
CONTINUOUS
 62
     2
100
AcDbText
 10
598.3
 20
292.051885
 30
0.0
 40
5.0
  1
５０
 50
90.0
 41
0.672
  7
EXCADSTD
 72
     5
 11
598.3
 21
299.384685
 31
0.0
100
AcDbText
  0
LINE
  5
45F
100
AcDbEntity
  8
LAY-6
  6
CONTINUOUS
 62
     1
100
AcDbLine
 10
636.478461
 20
271.051885
 30
0.0
 11
597.3
 21
271.051885
 31
0.0
  0
LINE
  5
460
100
AcDbEntity
  8
LAY-6
  6
CONTINUOUS
 62
     1
100
AcDbLine
 10
621.478461
 20
321.051885
 30
0.0
 11
597.3
 21
321.051885
 31
0.0
  0
LINE
  5
461
100
AcDbEntity
  8
LAY-6
  6
CONTINUOUS
 62
     1
100
AcDbLine
 10
598.8
 20
271.051885
 30
0.0
 11
598.8
 21
321.051885
 31
0.0
  0
LINE
  5
462
100
AcDbEntity
  8
LAY-6
  6
CONTINUOUS
 62
     1
100
AcDbLine
 10
598.466667
 20
273.051885
 30
0.0
 11
598.8
 21
271.051885
 31
0.0
  0
LINE
  5
463
100
AcDbEntity
  8
LAY-6
  6
CONTINUOUS
 62
     1
100
AcDbLine
 10
598.8
 20
271.051885
 30
0.0
 11
599.133333
 21
273.051885
 31
0.0
  0
LINE
  5
464
100
AcDbEntity
  8
LAY-6
  6
CONTINUOUS
 62
     1
100
AcDbLine
 10
599.133333
 20
319.051885
 30
0.0
 11
598.8
 21
321.051885
 31
0.0
  0
LINE
  5
465
100
AcDbEntity
  8
LAY-6
  6
CONTINUOUS
 62
     1
100
AcDbLine
 10
598.8
 20
321.051885
 30
0.0
 11
598.466667
 21
319.051885
 31
0.0
  0
TEXT
  5
466
100
AcDbEntity
  8
LAY-6
  6
CONTINUOUS
 62
     2
100
AcDbText
 10
598.2
 20
332.50179
 30
0.0
 40
5.0
  1
１.５
 50
90.0
 41
0.595556
  7
EXCADSTD
 72
     5
 11
598.2
 21
342.50179
 31
0.0
100
AcDbText
  0
LINE
  5
467
100
AcDbEntity
  8
LAY-6
  6
CONTINUOUS
 62
     1
100
AcDbLine
 10
621.478461
 20
322.551695
 30
0.0
 11
597.3
 21
322.551695
 31
0.0
  0
LINE
  5
468
100
AcDbEntity
  8
LAY-6
  6
CONTINUOUS
 62
     1
100
AcDbLine
 10
598.8
 20
316.051885
 30
0.0
 11
598.8
 21
327.551695
 31
0.0
  0
LINE
  5
469
100
AcDbEntity
  8
LAY-6
  6
CONTINUOUS
 62
     1
100
AcDbLine
 10
599.133333
 20
319.051885
 30
0.0
 11
598.8
 21
321.051885
 31
0.0
  0
LINE
  5
46A
100
AcDbEntity
  8
LAY-6
  6
CONTINUOUS
 62
     1
100
AcDbLine
 10
598.8
 20
321.051885
 30
0.0
 11
598.466667
 21
319.051885
 31
0.0
  0
LINE
  5
46B
100
AcDbEntity
  8
LAY-6
  6
CONTINUOUS
 62
     1
100
AcDbLine
 10
598.466667
 20
324.551695
 30
0.0
 11
598.8
 21
322.551695
 31
0.0
  0
LINE
  5
46C
100
AcDbEntity
  8
LAY-6
  6
CONTINUOUS
 62
     1
100
AcDbLine
 10
598.8
 20
322.551695
 30
0.0
 11
599.133333
 21
324.551695
 31
0.0
  0
INSERT
  5
46D
100
AcDbEntity
  8
LAY-6
  6
CONTINUOUS
 62
     0
100
AcDbBlockReference
  2
SYM-1
 10
597.2
 20
330.2
 30
0.0
 50
90.0
  0
LINE
  5
46E
100
AcDbEntity
  8
LAY-6
  6
CONTINUOUS
 62
     1
100
AcDbLine
 10
674.4784
 20
332.552063
 30
0.0
 11
696.9
 21
332.552063
 31
0.0
  0
TEXT
  5
46F
100
AcDbEntity
  8
LAY-6
  6
CONTINUOUS
 62
     2
100
AcDbText
 10
709.8
 20
405.280937
 30
0.0
 40
5.0
  1
ＤＨ
 50
90.0
 41
0.672
  7
EXCADSTD
 72
     5
 11
709.8
 21
412.613737
 31
0.0
100
AcDbText
  0
LINE
  5
470
100
AcDbEntity
  8
LAY-6
  6
CONTINUOUS
 62
     1
100
AcDbLine
 10
698.4
 20
486.009811
 30
0.0
 11
711.8
 21
486.009811
 31
0.0
  0
LINE
  5
471
100
AcDbEntity
  8
LAY-6
  6
CONTINUOUS
 62
     1
100
AcDbLine
 10
710.3
 20
332.552063
 30
0.0
 11
710.3
 21
486.009811
 31
0.0
  0
LINE
  5
472
100
AcDbEntity
  8
LAY-6
  6
CONTINUOUS
 62
     1
100
AcDbLine
 10
709.966667
 20
334.552063
 30
0.0
 11
710.3
 21
332.552063
 31
0.0
  0
LINE
  5
473
100
AcDbEntity
  8
LAY-6
  6
CONTINUOUS
 62
     1
100
AcDbLine
 10
710.3
 20
332.552063
 30
0.0
 11
710.633333
 21
334.552063
 31
0.0
  0
LINE
  5
474
100
AcDbEntity
  8
LAY-6
  6
CONTINUOUS
 62
     1
100
AcDbLine
 10
710.633333
 20
484.009811
 30
0.0
 11
710.3
 21
486.009811
 31
0.0
  0
LINE
  5
475
100
AcDbEntity
  8
LAY-6
  6
CONTINUOUS
 62
     1
100
AcDbLine
 10
710.3
 20
486.009811
 30
0.0
 11
709.966667
 21
484.009811
 31
0.0
  0
TEXT
  5
476
100
AcDbEntity
  8
LAY-6
  6
CONTINUOUS
 62
     2
100
AcDbText
 10
709.8
 20
491.009814
 30
0.0
 40
5.0
  1
３
 50
90.0
 41
0.672
  7
EXCADSTD
 72
     5
 11
709.8
 21
494.209814
 31
0.0
100
AcDbText
  0
LINE
  5
477
100
AcDbEntity
  8
LAY-6
  6
CONTINUOUS
 62
     1
100
AcDbLine
 10
710.3
 20
481.009811
 30
0.0
 11
710.3
 21
495.509814
 31
0.0
  0
LINE
  5
478
100
AcDbEntity
  8
LAY-6
  6
CONTINUOUS
 62
     1
100
AcDbLine
 10
710.633333
 20
484.009811
 30
0.0
 11
710.3
 21
486.009811
 31
0.0
  0
LINE
  5
479
100
AcDbEntity
  8
LAY-6
  6
CONTINUOUS
 62
     1
100
AcDbLine
 10
710.3
 20
486.009811
 30
0.0
 11
709.966667
 21
484.009811
 31
0.0
  0
LINE
  5
47A
100
AcDbEntity
  8
LAY-6
  6
CONTINUOUS
 62
     1
100
AcDbLine
 10
709.966667
 20
491.009814
 30
0.0
 11
710.3
 21
489.009814
 31
0.0
  0
LINE
  5
47B
100
AcDbEntity
  8
LAY-6
  6
CONTINUOUS
 62
     1
100
AcDbLine
 10
710.3
 20
489.009814
 30
0.0
 11
710.633333
 21
491.009814
 31
0.0
  0
TEXT
  5
47C
100
AcDbEntity
  8
LAY-6
  6
CONTINUOUS
 62
     2
100
AcDbText
 10
712.5
 20
510.1
 30
0.0
 40
6.0
  1
上　枠
 41
0.672
  7
EXCADSTD
 72
     5
 11
726.900001
 21
510.1
 31
0.0
100
AcDbText
  0
LINE
  5
47D
100
AcDbEntity
  8
LAY-6
  6
CONTINUOUS
 62
     1
100
AcDbLine
 10
391.0
 20
419.809814
 30
0.0
 11
335.7
 21
419.809814
 31
0.0
  0
LINE
  5
47E
100
AcDbEntity
  8
LAY-6
  6
CONTINUOUS
 62
     1
100
AcDbLine
 10
354.5
 20
419.809814
 30
0.0
 11
344.0
 21
419.809814
 31
0.0
  0
LINE
  5
47F
100
AcDbEntity
  8
LAY-6
  6
CONTINUOUS
 62
     1
100
AcDbLine
 10
390.0
 20
416.809814
 30
0.0
 11
329.721344
 21
416.809814
 31
0.0
  0
LINE
  5
480
100
AcDbEntity
  8
LAY-6
  6
CONTINUOUS
 62
     1
100
AcDbLine
 10
354.0
 20
416.809814
 30
0.0
 11
344.0
 21
416.809814
 31
0.0
  0
LINE
  5
481
100
AcDbEntity
  8
LAY-6
  6
CONTINUOUS
 62
     1
100
AcDbLine
 10
316.721344
 20
512.227448
 30
0.0
 11
316.721344
 21
497.1
 31
0.0
  0
LINE
  5
482
100
AcDbEntity
  8
LAY-6
  6
CONTINUOUS
 62
     1
100
AcDbLine
 10
677.478339
 20
486.009811
 30
0.0
 11
698.4
 21
486.009811
 31
0.0
  0
TEXT
  5
483
100
AcDbEntity
  8
LAY-6
  6
CONTINUOUS
 62
     2
100
AcDbText
 10
657.4784
 20
447.4
 30
0.0
 40
5.0
  1
３２
 41
0.672
  7
EXCADSTD
 72
     5
 11
664.8112
 21
447.4
 31
0.0
100
AcDbText
  0
LINE
  5
484
100
AcDbEntity
  8
LAY-6
  6
CONTINUOUS
 62
     1
100
AcDbLine
 10
645.478461
 20
479.509811
 30
0.0
 11
645.478461
 21
445.9
 31
0.0
  0
LINE
  5
485
100
AcDbEntity
  8
LAY-6
  6
CONTINUOUS
 62
     1
100
AcDbLine
 10
677.478339
 20
479.509781
 30
0.0
 11
677.478339
 21
445.9
 31
0.0
  0
LINE
  5
486
100
AcDbEntity
  8
LAY-6
  6
CONTINUOUS
 62
     1
100
AcDbLine
 10
645.478461
 20
446.9
 30
0.0
 11
677.478339
 21
446.9
 31
0.0
  0
LINE
  5
487
100
AcDbEntity
  8
LAY-6
  6
CONTINUOUS
 62
     1
100
AcDbLine
 10
647.478461
 20
447.233333
 30
0.0
 11
645.478461
 21
446.9
 31
0.0
  0
LINE
  5
488
100
AcDbEntity
  8
LAY-6
  6
CONTINUOUS
 62
     1
100
AcDbLine
 10
645.478461
 20
446.9
 30
0.0
 11
647.478461
 21
446.566667
 31
0.0
  0
LINE
  5
489
100
AcDbEntity
  8
LAY-6
  6
CONTINUOUS
 62
     1
100
AcDbLine
 10
675.478339
 20
446.566667
 30
0.0
 11
677.478339
 21
446.9
 31
0.0
  0
LINE
  5
48A
100
AcDbEntity
  8
LAY-6
  6
CONTINUOUS
 62
     1
100
AcDbLine
 10
677.478339
 20
446.9
 30
0.0
 11
675.478339
 21
447.233333
 31
0.0
  0
TEXT
  5
48B
100
AcDbEntity
  8
LAY-6
  6
CONTINUOUS
 62
     2
100
AcDbText
 10
361.6
 20
240.4
 30
0.0
 40
6.0
  1
ド　ア
 41
0.672
  7
EXCADSTD
 72
     5
 11
376.000001
 21
240.4
 31
0.0
100
AcDbText
  0
TEXT
  5
48C
100
AcDbEntity
  8
LAY-6
  6
CONTINUOUS
 62
     2
100
AcDbText
 10
180.721344
 20
212.8
 30
0.0
 40
5.0
  1
２０
 41
0.672
  7
EXCADSTD
 72
     5
 11
188.054144
 21
212.8
 31
0.0
100
AcDbText
  0
LINE
  5
48D
100
AcDbEntity
  8
LAY-6
  6
CONTINUOUS
 62
     1
100
AcDbLine
 10
194.721344
 20
223.552078
 30
0.0
 11
194.721344
 21
210.8
 31
0.0
  0
LINE
  5
48E
100
AcDbEntity
  8
LAY-6
  6
CONTINUOUS
 62
     1
100
AcDbLine
 10
174.721344
 20
212.3
 30
0.0
 11
194.721344
 21
212.3
 31
0.0
  0
LINE
  5
48F
100
AcDbEntity
  8
LAY-6
  6
CONTINUOUS
 62
     1
100
AcDbLine
 10
176.721344
 20
212.633333
 30
0.0
 11
174.721344
 21
212.3
 31
0.0
  0
LINE
  5
490
100
AcDbEntity
  8
LAY-6
  6
CONTINUOUS
 62
     1
100
AcDbLine
 10
174.721344
 20
212.3
 30
0.0
 11
176.721344
 21
211.966667
 31
0.0
  0
LINE
  5
491
100
AcDbEntity
  8
LAY-6
  6
CONTINUOUS
 62
     1
100
AcDbLine
 10
192.721344
 20
211.966667
 30
0.0
 11
194.721344
 21
212.3
 31
0.0
  0
LINE
  5
492
100
AcDbEntity
  8
LAY-6
  6
CONTINUOUS
 62
     1
100
AcDbLine
 10
194.721344
 20
212.3
 30
0.0
 11
192.721344
 21
212.633333
 31
0.0
  0
TEXT
  5
493
100
AcDbEntity
  8
LAY-6
  6
CONTINUOUS
 62
     2
100
AcDbText
 10
241.1
 20
239.552078
 30
0.0
 40
5.0
  1
５
 50
90.0
 41
0.672
  7
EXCADSTD
 72
     5
 11
241.1
 21
242.752078
 31
0.0
100
AcDbText
  0
LINE
  5
494
100
AcDbEntity
  8
LAY-6
  6
CONTINUOUS
 62
     1
100
AcDbLine
 10
227.721344
 20
239.052078
 30
0.0
 11
243.1
 21
239.052078
 31
0.0
  0
LINE
  5
495
100
AcDbEntity
  8
LAY-6
  6
CONTINUOUS
 62
     1
100
AcDbLine
 10
239.5
 20
244.052078
 30
0.0
 11
243.1
 21
244.052078
 31
0.0
  0
LINE
  5
496
100
AcDbEntity
  8
LAY-6
  6
CONTINUOUS
 62
     1
100
AcDbLine
 10
241.6
 20
234.052078
 30
0.0
 11
241.6
 21
244.052078
 31
0.0
  0
LINE
  5
497
100
AcDbEntity
  8
LAY-6
  6
CONTINUOUS
 62
     1
100
AcDbLine
 10
241.933333
 20
237.052078
 30
0.0
 11
241.6
 21
239.052078
 31
0.0
  0
LINE
  5
498
100
AcDbEntity
  8
LAY-6
  6
CONTINUOUS
 62
     1
100
AcDbLine
 10
241.6
 20
239.052078
 30
0.0
 11
241.266667
 21
237.052078
 31
0.0
  0
TEXT
  5
499
100
AcDbEntity
  8
LAY-6
  6
CONTINUOUS
 62
     2
100
AcDbText
 10
241.1
 20
244.552078
 30
0.0
 40
5.0
  1
５
 50
90.0
 41
0.672
  7
EXCADSTD
 72
     5
 11
241.1
 21
247.752078
 31
0.0
100
AcDbText
  0
LINE
  5
49A
100
AcDbEntity
  8
LAY-6
  6
CONTINUOUS
 62
     1
100
AcDbLine
 10
251.721344
 20
249.052078
 30
0.0
 11
240.1
 21
249.052078
 31
0.0
  0
LINE
  5
49B
100
AcDbEntity
  8
LAY-6
  6
CONTINUOUS
 62
     1
100
AcDbLine
 10
241.6
 20
244.052078
 30
0.0
 11
241.6
 21
254.052078
 31
0.0
  0
CIRCLE
  5
49C
100
AcDbEntity
  8
LAY-6
  6
CONTINUOUS
 62
     1
100
AcDbCircle
 10
241.6
 20
244.052078
 30
0.0
 40
1.0
  0
CIRCLE
  5
49D
100
AcDbEntity
  8
LAY-6
  6
CONTINUOUS
 62
     1
100
AcDbCircle
 10
241.6
 20
244.052078
 30
0.0
 40
0.5
  0
LINE
  5
49E
100
AcDbEntity
  8
LAY-6
  6
CONTINUOUS
 62
     1
100
AcDbLine
 10
241.266667
 20
251.052078
 30
0.0
 11
241.6
 21
249.052078
 31
0.0
  0
LINE
  5
49F
100
AcDbEntity
  8
LAY-6
  6
CONTINUOUS
 62
     1
100
AcDbLine
 10
241.6
 20
249.052078
 30
0.0
 11
241.933333
 21
251.052078
 31
0.0
  0
TEXT
  5
4A0
100
AcDbEntity
  8
LAY-6
  6
CONTINUOUS
 62
     2
100
AcDbText
 10
352.1
 20
240.052078
 30
0.0
 40
5.0
  1
２４
 50
90.0
 41
0.672
  7
EXCADSTD
 72
     5
 11
352.1
 21
247.384878
 31
0.0
100
AcDbText
  0
LINE
  5
4A1
100
AcDbEntity
  8
LAY-6
  6
CONTINUOUS
 62
     1
100
AcDbLine
 10
340.221344
 20
256.052078
 30
0.0
 11
354.1
 21
256.052078
 31
0.0
  0
LINE
  5
4A2
100
AcDbEntity
  8
LAY-6
  6
CONTINUOUS
 62
     1
100
AcDbLine
 10
340.221344
 20
232.052078
 30
0.0
 11
354.1
 21
232.052078
 31
0.0
  0
LINE
  5
4A3
100
AcDbEntity
  8
LAY-6
  6
CONTINUOUS
 62
     1
100
AcDbLine
 10
352.6
 20
256.052078
 30
0.0
 11
352.6
 21
232.052078
 31
0.0
  0
LINE
  5
4A4
100
AcDbEntity
  8
LAY-6
  6
CONTINUOUS
 62
     1
100
AcDbLine
 10
352.933333
 20
254.052078
 30
0.0
 11
352.6
 21
256.052078
 31
0.0
  0
LINE
  5
4A5
100
AcDbEntity
  8
LAY-6
  6
CONTINUOUS
 62
     1
100
AcDbLine
 10
352.6
 20
256.052078
 30
0.0
 11
352.266667
 21
254.052078
 31
0.0
  0
LINE
  5
4A6
100
AcDbEntity
  8
LAY-6
  6
CONTINUOUS
 62
     1
100
AcDbLine
 10
352.266667
 20
234.052078
 30
0.0
 11
352.6
 21
232.052078
 31
0.0
  0
LINE
  5
4A7
100
AcDbEntity
  8
LAY-6
  6
CONTINUOUS
 62
     1
100
AcDbLine
 10
352.6
 20
232.052078
 30
0.0
 11
352.933333
 21
234.052078
 31
0.0
  0
TEXT
  5
4A8
100
AcDbEntity
  8
LAY-6
  6
CONTINUOUS
 62
     2
100
AcDbText
 10
308.221344
 20
212.8
 30
0.0
 40
5.0
  1
４０
 41
0.672
  7
EXCADSTD
 72
     5
 11
315.554144
 21
212.8
 31
0.0
100
AcDbText
  0
LINE
  5
4A9
100
AcDbEntity
  8
LAY-6
  6
CONTINUOUS
 62
     1
100
AcDbLine
 10
332.221344
 20
242.452078
 30
0.0
 11
332.221344
 21
210.8
 31
0.0
  0
LINE
  5
4AA
100
AcDbEntity
  8
LAY-6
  6
CONTINUOUS
 62
     1
100
AcDbLine
 10
292.221344
 20
212.3
 30
0.0
 11
332.221344
 21
212.3
 31
0.0
  0
LINE
  5
4AB
100
AcDbEntity
  8
LAY-6
  6
CONTINUOUS
 62
     1
100
AcDbLine
 10
294.221344
 20
212.633333
 30
0.0
 11
292.221344
 21
212.3
 31
0.0
  0
LINE
  5
4AC
100
AcDbEntity
  8
LAY-6
  6
CONTINUOUS
 62
     1
100
AcDbLine
 10
292.221344
 20
212.3
 30
0.0
 11
294.221344
 21
211.966667
 31
0.0
  0
LINE
  5
4AD
100
AcDbEntity
  8
LAY-6
  6
CONTINUOUS
 62
     1
100
AcDbLine
 10
330.221344
 20
211.966667
 30
0.0
 11
332.221344
 21
212.3
 31
0.0
  0
LINE
  5
4AE
100
AcDbEntity
  8
LAY-6
  6
CONTINUOUS
 62
     1
100
AcDbLine
 10
332.221344
 20
212.3
 30
0.0
 11
330.221344
 21
212.633333
 31
0.0
  0
TEXT
  5
4AF
100
AcDbEntity
  8
LAY-6
  6
CONTINUOUS
 62
     2
100
AcDbText
 10
268.221344
 20
212.8
 30
0.0
 40
5.0
  1
４０
 41
0.672
  7
EXCADSTD
 72
     5
 11
275.554144
 21
212.8
 31
0.0
100
AcDbText
  0
LINE
  5
4B0
100
AcDbEntity
  8
LAY-6
  6
CONTINUOUS
 62
     1
100
AcDbLine
 10
292.221344
 20
231.552078
 30
0.0
 11
292.221344
 21
210.8
 31
0.0
  0
LINE
  5
4B1
100
AcDbEntity
  8
LAY-6
  6
CONTINUOUS
 62
     1
100
AcDbLine
 10
252.221344
 20
212.3
 30
0.0
 11
292.221344
 21
212.3
 31
0.0
  0
LINE
  5
4B2
100
AcDbEntity
  8
LAY-6
  6
CONTINUOUS
 62
     1
100
AcDbLine
 10
254.221344
 20
212.633333
 30
0.0
 11
252.221344
 21
212.3
 31
0.0
  0
LINE
  5
4B3
100
AcDbEntity
  8
LAY-6
  6
CONTINUOUS
 62
     1
100
AcDbLine
 10
252.221344
 20
212.3
 30
0.0
 11
254.221344
 21
211.966667
 31
0.0
  0
LINE
  5
4B4
100
AcDbEntity
  8
LAY-6
  6
CONTINUOUS
 62
     1
100
AcDbLine
 10
290.221344
 20
211.966667
 30
0.0
 11
292.221344
 21
212.3
 31
0.0
  0
LINE
  5
4B5
100
AcDbEntity
  8
LAY-6
  6
CONTINUOUS
 62
     1
100
AcDbLine
 10
292.221344
 20
212.3
 30
0.0
 11
290.221344
 21
212.633333
 31
0.0
  0
TEXT
  5
4B6
100
AcDbEntity
  8
LAY-6
  6
CONTINUOUS
 62
     2
100
AcDbText
 10
235.721344
 20
212.8
 30
0.0
 40
5.0
  1
２５
 41
0.672
  7
EXCADSTD
 72
     5
 11
243.054144
 21
212.8
 31
0.0
100
AcDbText
  0
LINE
  5
4B7
100
AcDbEntity
  8
LAY-6
  6
CONTINUOUS
 62
     1
100
AcDbLine
 10
252.221344
 20
243.552078
 30
0.0
 11
252.221344
 21
210.8
 31
0.0
  0
LINE
  5
4B8
100
AcDbEntity
  8
LAY-6
  6
CONTINUOUS
 62
     1
100
AcDbLine
 10
227.221344
 20
212.3
 30
0.0
 11
252.221344
 21
212.3
 31
0.0
  0
LINE
  5
4B9
100
AcDbEntity
  8
LAY-6
  6
CONTINUOUS
 62
     1
100
AcDbLine
 10
229.221344
 20
212.633333
 30
0.0
 11
227.221344
 21
212.3
 31
0.0
  0
LINE
  5
4BA
100
AcDbEntity
  8
LAY-6
  6
CONTINUOUS
 62
     1
100
AcDbLine
 10
227.221344
 20
212.3
 30
0.0
 11
229.221344
 21
211.966667
 31
0.0
  0
LINE
  5
4BB
100
AcDbEntity
  8
LAY-6
  6
CONTINUOUS
 62
     1
100
AcDbLine
 10
250.221344
 20
211.966667
 30
0.0
 11
252.221344
 21
212.3
 31
0.0
  0
LINE
  5
4BC
100
AcDbEntity
  8
LAY-6
  6
CONTINUOUS
 62
     1
100
AcDbLine
 10
252.221344
 20
212.3
 30
0.0
 11
250.221344
 21
212.633333
 31
0.0
  0
TEXT
  5
4BD
100
AcDbEntity
  8
LAY-6
  6
CONTINUOUS
 62
     2
100
AcDbText
 10
203.971344
 20
212.8
 30
0.0
 40
5.0
  1
３２.５
 41
0.616
  7
EXCADSTD
 72
     5
 11
217.971344
 21
212.8
 31
0.0
100
AcDbText
  0
LINE
  5
4BE
100
AcDbEntity
  8
LAY-6
  6
CONTINUOUS
 62
     1
100
AcDbLine
 10
227.221344
 20
231.552078
 30
0.0
 11
227.221344
 21
210.8
 31
0.0
  0
LINE
  5
4BF
100
AcDbEntity
  8
LAY-6
  6
CONTINUOUS
 62
     1
100
AcDbLine
 10
194.721344
 20
212.3
 30
0.0
 11
227.221344
 21
212.3
 31
0.0
  0
LINE
  5
4C0
100
AcDbEntity
  8
LAY-6
  6
CONTINUOUS
 62
     1
100
AcDbLine
 10
196.721344
 20
212.633333
 30
0.0
 11
194.721344
 21
212.3
 31
0.0
  0
LINE
  5
4C1
100
AcDbEntity
  8
LAY-6
  6
CONTINUOUS
 62
     1
100
AcDbLine
 10
194.721344
 20
212.3
 30
0.0
 11
196.721344
 21
211.966667
 31
0.0
  0
LINE
  5
4C2
100
AcDbEntity
  8
LAY-6
  6
CONTINUOUS
 62
     1
100
AcDbLine
 10
225.221344
 20
211.966667
 30
0.0
 11
227.221344
 21
212.3
 31
0.0
  0
LINE
  5
4C3
100
AcDbEntity
  8
LAY-6
  6
CONTINUOUS
 62
     1
100
AcDbLine
 10
227.221344
 20
212.3
 30
0.0
 11
225.221344
 21
212.633333
 31
0.0
  0
TEXT
  5
4C4
100
AcDbEntity
  8
LAY-6
  6
CONTINUOUS
 62
     2
100
AcDbText
 10
311.61
 20
134.752002
 30
0.0
 40
5.0
  1
２０
 50
90.0
 41
0.672
  7
EXCADSTD
 72
     5
 11
311.61
 21
142.084802
 31
0.0
100
AcDbText
  0
LINE
  5
4C5
100
AcDbEntity
  8
LAY-6
  6
CONTINUOUS
 62
     1
100
AcDbLine
 10
312.6
 20
130.552002
 30
0.0
 11
313.61
 21
130.552002
 31
0.0
  0
LINE
  5
4C6
100
AcDbEntity
  8
LAY-6
  6
CONTINUOUS
 62
     1
100
AcDbLine
 10
311.4
 20
150.552002
 30
0.0
 11
313.61
 21
150.552002
 31
0.0
  0
LINE
  5
4C7
100
AcDbEntity
  8
LAY-6
  6
CONTINUOUS
 62
     1
100
AcDbLine
 10
312.11
 20
130.552002
 30
0.0
 11
312.11
 21
150.552002
 31
0.0
  0
LINE
  5
4C8
100
AcDbEntity
  8
LAY-6
  6
CONTINUOUS
 62
     1
100
AcDbLine
 10
311.776667
 20
132.552002
 30
0.0
 11
312.11
 21
130.552002
 31
0.0
  0
LINE
  5
4C9
100
AcDbEntity
  8
LAY-6
  6
CONTINUOUS
 62
     1
100
AcDbLine
 10
312.11
 20
130.552002
 30
0.0
 11
312.443333
 21
132.552002
 31
0.0
  0
LINE
  5
4CA
100
AcDbEntity
  8
LAY-6
  6
CONTINUOUS
 62
     1
100
AcDbLine
 10
312.443333
 20
148.552002
 30
0.0
 11
312.11
 21
150.552002
 31
0.0
  0
LINE
  5
4CB
100
AcDbEntity
  8
LAY-6
  6
CONTINUOUS
 62
     1
100
AcDbLine
 10
312.11
 20
150.552002
 30
0.0
 11
311.776667
 21
148.552002
 31
0.0
  0
TEXT
  5
4CC
100
AcDbEntity
  8
LAY-6
  6
CONTINUOUS
 62
     2
100
AcDbText
 10
360.7
 20
134.1
 30
0.0
 40
6.0
  1
ド　ア
 41
0.672
  7
EXCADSTD
 72
     5
 11
375.100001
 21
134.1
 31
0.0
100
AcDbText
  0
INSERT
  5
4CD
100
AcDbEntity
  8
LAY-6
  6
CONTINUOUS
 62
     0
100
AcDbBlockReference
  2
SYM-1
 10
254.5
 20
125.0
 30
0.0
 50
90.0
  0
LINE
  5
4CE
100
AcDbEntity
  8
LAY-6
  6
CONTINUOUS
 62
     1
100
AcDbLine
 10
256.0
 20
120.552063
 30
0.0
 11
256.0
 21
136.4
 31
0.0
  0
LINE
  5
4CF
100
AcDbEntity
  8
LAY-6
  6
CONTINUOUS
 62
     1
100
AcDbLine
 10
131.721344
 20
120.552063
 30
0.0
 11
147.5
 21
120.552063
 31
0.0
  0
LINE
  5
4D0
100
AcDbEntity
  8
LAY-6
  6
CONTINUOUS
 62
     1
100
AcDbLine
 10
244.6
 20
120.552063
 30
0.0
 11
313.6
 21
120.552063
 31
0.0
  0
TEXT
  5
4D1
100
AcDbEntity
  8
LAY-6
  6
CONTINUOUS
 62
     2
100
AcDbText
 10
361.5
 20
109.4
 30
0.0
 40
6.0
  1
床　面
 41
0.672
  7
EXCADSTD
 72
     5
 11
375.900001
 21
109.4
 31
0.0
100
AcDbText
  0
TEXT
  5
4D2
100
AcDbEntity
  8
LAY-6
  6
CONTINUOUS
 62
     2
100
AcDbText
 10
559.7
 20
310.0
 30
0.0
 40
6.0
  1
床　面
 41
0.672
  7
EXCADSTD
 72
     5
 11
574.100001
 21
310.0
 31
0.0
100
AcDbText
  0
LINE
  5
4D3
100
AcDbEntity
  8
LAY-6
  6
CONTINUOUS
 62
     1
100
AcDbLine
 10
598.8
 20
322.551695
 30
0.0
 11
598.8
 21
342.0
 31
0.0
  0
TEXT
  5
4D4
100
AcDbEntity
  8
LAY-6
  6
CONTINUOUS
 62
     2
100
AcDbText
 10
657.478461
 20
369.0
 30
0.0
 40
5.0
  1
２４
 41
0.672
  7
EXCADSTD
 72
     5
 11
664.811261
 21
369.0
 31
0.0
100
AcDbText
  0
LINE
  5
4D5
100
AcDbEntity
  8
LAY-6
  6
CONTINUOUS
 62
     1
100
AcDbLine
 10
649.478461
 20
351.052063
 30
0.0
 11
649.478461
 21
370.0
 31
0.0
  0
LINE
  5
4D6
100
AcDbEntity
  8
LAY-6
  6
CONTINUOUS
 62
     1
100
AcDbLine
 10
673.478461
 20
351.052063
 30
0.0
 11
673.478461
 21
370.0
 31
0.0
  0
LINE
  5
4D7
100
AcDbEntity
  8
LAY-6
  6
CONTINUOUS
 62
     1
100
AcDbLine
 10
649.478461
 20
368.5
 30
0.0
 11
673.478461
 21
368.5
 31
0.0
  0
LINE
  5
4D8
100
AcDbEntity
  8
LAY-6
  6
CONTINUOUS
 62
     1
100
AcDbLine
 10
651.478461
 20
368.833333
 30
0.0
 11
649.478461
 21
368.5
 31
0.0
  0
LINE
  5
4D9
100
AcDbEntity
  8
LAY-6
  6
CONTINUOUS
 62
     1
100
AcDbLine
 10
649.478461
 20
368.5
 30
0.0
 11
651.478461
 21
368.166667
 31
0.0
  0
LINE
  5
4DA
100
AcDbEntity
  8
LAY-6
  6
CONTINUOUS
 62
     1
100
AcDbLine
 10
671.478461
 20
368.166667
 30
0.0
 11
673.478461
 21
368.5
 31
0.0
  0
LINE
  5
4DB
100
AcDbEntity
  8
LAY-6
  6
CONTINUOUS
 62
     1
100
AcDbLine
 10
673.478461
 20
368.5
 30
0.0
 11
671.478461
 21
368.833333
 31
0.0
  0
TEXT
  5
4DC
100
AcDbEntity
  8
LAY-6
  6
CONTINUOUS
 62
     2
100
AcDbText
 10
709.8
 20
323.552069
 30
0.0
 40
5.0
  1
１０
 50
90.0
 41
0.672
  7
EXCADSTD
 72
     5
 11
709.8
 21
330.884869
 31
0.0
100
AcDbText
  0
LINE
  5
4DD
100
AcDbEntity
  8
LAY-6
  6
CONTINUOUS
 62
     1
100
AcDbLine
 10
681.978461
 20
332.552063
 30
0.0
 11
711.8
 21
332.552063
 31
0.0
  0
LINE
  5
4DE
100
AcDbEntity
  8
LAY-6
  6
CONTINUOUS
 62
     1
100
AcDbLine
 10
710.0
 20
322.552074
 30
0.0
 11
708.8
 21
322.552074
 31
0.0
  0
LINE
  5
4DF
100
AcDbEntity
  8
LAY-6
  6
CONTINUOUS
 62
     1
100
AcDbLine
 10
710.3
 20
332.552063
 30
0.0
 11
710.3
 21
322.552074
 31
0.0
  0
LINE
  5
4E0
100
AcDbEntity
  8
LAY-6
  6
CONTINUOUS
 62
     1
100
AcDbLine
 10
710.633333
 20
330.552063
 30
0.0
 11
710.3
 21
332.552063
 31
0.0
  0
LINE
  5
4E1
100
AcDbEntity
  8
LAY-6
  6
CONTINUOUS
 62
     1
100
AcDbLine
 10
710.3
 20
332.552063
 30
0.0
 11
709.966667
 21
330.552063
 31
0.0
  0
LINE
  5
4E2
100
AcDbEntity
  8
LAY-6
  6
CONTINUOUS
 62
     1
100
AcDbLine
 10
709.966667
 20
324.552074
 30
0.0
 11
710.3
 21
322.552074
 31
0.0
  0
LINE
  5
4E3
100
AcDbEntity
  8
LAY-6
  6
CONTINUOUS
 62
     1
100
AcDbLine
 10
710.3
 20
322.552074
 30
0.0
 11
710.633333
 21
324.552074
 31
0.0
  0
TEXT
  5
4E4
100
AcDbEntity
  8
LAY-6
  6
CONTINUOUS
 62
     2
100
AcDbText
 10
148.6
 20
434.809845
 30
0.0
 40
5.0
  1
３８
 50
90.0
 41
0.672
  7
EXCADSTD
 72
     5
 11
148.6
 21
442.142645
 31
0.0
100
AcDbText
  0
LINE
  5
4E5
100
AcDbEntity
  8
LAY-6
  6
CONTINUOUS
 62
     1
100
AcDbLine
 10
184.771363
 20
457.809875
 30
0.0
 11
147.6
 21
457.809875
 31
0.0
  0
LINE
  5
4E6
100
AcDbEntity
  8
LAY-6
  6
CONTINUOUS
 62
     1
100
AcDbLine
 10
160.221344
 20
419.809814
 30
0.0
 11
147.6
 21
419.809814
 31
0.0
  0
LINE
  5
4E7
100
AcDbEntity
  8
LAY-6
  6
CONTINUOUS
 62
     1
100
AcDbLine
 10
149.1
 20
457.809875
 30
0.0
 11
149.1
 21
419.809814
 31
0.0
  0
LINE
  5
4E8
100
AcDbEntity
  8
LAY-6
  6
CONTINUOUS
 62
     1
100
AcDbLine
 10
149.433333
 20
455.809875
 30
0.0
 11
149.1
 21
457.809875
 31
0.0
  0
LINE
  5
4E9
100
AcDbEntity
  8
LAY-6
  6
CONTINUOUS
 62
     1
100
AcDbLine
 10
149.1
 20
457.809875
 30
0.0
 11
148.766667
 21
455.809875
 31
0.0
  0
LINE
  5
4EA
100
AcDbEntity
  8
LAY-6
  6
CONTINUOUS
 62
     1
100
AcDbLine
 10
148.766667
 20
421.809814
 30
0.0
 11
149.1
 21
419.809814
 31
0.0
  0
LINE
  5
4EB
100
AcDbEntity
  8
LAY-6
  6
CONTINUOUS
 62
     1
100
AcDbLine
 10
149.1
 20
419.809814
 30
0.0
 11
149.433333
 21
421.809814
 31
0.0
  0
TEXT
  5
4EC
100
AcDbEntity
  8
LAY-6
  6
CONTINUOUS
 62
     2
100
AcDbText
 10
148.6
 20
402.309814
 30
0.0
 40
5.0
  1
２１
 50
90.0
 41
0.672
  7
EXCADSTD
 72
     5
 11
148.6
 21
409.642614
 31
0.0
100
AcDbText
  0
LINE
  5
4ED
100
AcDbEntity
  8
LAY-6
  6
CONTINUOUS
 62
     1
100
AcDbLine
 10
178.221329
 20
416.809814
 30
0.0
 11
147.6
 21
416.809814
 31
0.0
  0
LINE
  5
4EE
100
AcDbEntity
  8
LAY-6
  6
CONTINUOUS
 62
     1
100
AcDbLine
 10
194.221344
 20
395.809814
 30
0.0
 11
147.6
 21
395.809814
 31
0.0
  0
LINE
  5
4EF
100
AcDbEntity
  8
LAY-6
  6
CONTINUOUS
 62
     1
100
AcDbLine
 10
149.1
 20
416.809814
 30
0.0
 11
149.1
 21
395.809814
 31
0.0
  0
LINE
  5
4F0
100
AcDbEntity
  8
LAY-6
  6
CONTINUOUS
 62
     1
100
AcDbLine
 10
149.433333
 20
414.809814
 30
0.0
 11
149.1
 21
416.809814
 31
0.0
  0
LINE
  5
4F1
100
AcDbEntity
  8
LAY-6
  6
CONTINUOUS
 62
     1
100
AcDbLine
 10
149.1
 20
416.809814
 30
0.0
 11
148.766667
 21
414.809814
 31
0.0
  0
LINE
  5
4F2
100
AcDbEntity
  8
LAY-6
  6
CONTINUOUS
 62
     1
100
AcDbLine
 10
148.766667
 20
397.809814
 30
0.0
 11
149.1
 21
395.809814
 31
0.0
  0
LINE
  5
4F3
100
AcDbEntity
  8
LAY-6
  6
CONTINUOUS
 62
     1
100
AcDbLine
 10
149.1
 20
395.809814
 30
0.0
 11
149.433333
 21
397.809814
 31
0.0
  0
POLYLINE
  5
4F4
100
AcDbEntity
  8
LAY-6
  6
CONTINUOUS
 62
     1
100
AcDb2dPolyline
 66
     1
 10
0.0
 20
0.0
 30
0.0
 70
   128
  0
VERTEX
  5
4F5
100
AcDbEntity
  8
LAY-6
  6
CONTINUOUS
 62
     1
100
AcDbVertex
100
AcDb2dVertex
 10
325.462423
 20
430.309814
 30
0.0
  0
VERTEX
  5
4F6
100
AcDbEntity
  8
LAY-6
  6
CONTINUOUS
 62
     1
100
AcDbVertex
100
AcDb2dVertex
 10
350.862423
 20
447.509814
 30
0.0
  0
VERTEX
  5
4F7
100
AcDbEntity
  8
LAY-6
  6
CONTINUOUS
 62
     1
100
AcDbVertex
100
AcDb2dVertex
 10
401.462423
 20
447.509814
 30
0.0
  0
SEQEND
  5
4F8
100
AcDbEntity
  8
LAY-6
  6
CONTINUOUS
 62
     1
  0
LINE
  5
4F9
100
AcDbEntity
  8
LAY-6
  6
CONTINUOUS
 62
     1
100
AcDbLine
 10
326.931554
 20
431.707227
 30
0.0
 11
325.462423
 21
430.309814
 31
0.0
  0
LINE
  5
4FA
100
AcDbEntity
  8
LAY-6
  6
CONTINUOUS
 62
     1
100
AcDbLine
 10
325.462423
 20
430.309814
 30
0.0
 11
327.305357
 21
431.155217
 31
0.0
  0
TEXT
  5
4FB
100
AcDbEntity
  8
LAY-6
  6
CONTINUOUS
 62
     2
100
AcDbText
 10
355.962423
 20
447.509814
 30
0.0
 40
5.0
  1
裏板４.５ｔ以上（別途）
 41
0.654222
  7
EXCADSTD
 72
     5
 11
401.962423
 21
447.509814
 31
0.0
100
AcDbText
  0
POLYLINE
  5
4FC
100
AcDbEntity
  8
LAY-6
  6
CONTINUOUS
 62
     1
100
AcDb2dPolyline
 66
     1
 10
0.0
 20
0.0
 30
0.0
 70
   128
  0
VERTEX
  5
4FD
100
AcDbEntity
  8
LAY-6
  6
CONTINUOUS
 62
     1
100
AcDbVertex
100
AcDb2dVertex
 10
326.3
 20
406.309814
 30
0.0
  0
VERTEX
  5
4FE
100
AcDbEntity
  8
LAY-6
  6
CONTINUOUS
 62
     1
100
AcDbVertex
100
AcDb2dVertex
 10
347.1
 20
394.109814
 30
0.0
  0
VERTEX
  5
4FF
100
AcDbEntity
  8
LAY-6
  6
CONTINUOUS
 62
     1
100
AcDbVertex
100
AcDb2dVertex
 10
397.4
 20
394.109814
 30
0.0
  0
SEQEND
  5
500
100
AcDbEntity
  8
LAY-6
  6
CONTINUOUS
 62
     1
  0
LINE
  5
501
100
AcDbEntity
  8
LAY-6
  6
CONTINUOUS
 62
     1
100
AcDbLine
 10
328.19379
 20
405.585474
 30
0.0
 11
326.3
 21
406.309814
 31
0.0
  0
LINE
  5
502
100
AcDbEntity
  8
LAY-6
  6
CONTINUOUS
 62
     1
100
AcDbLine
 10
326.3
 20
406.309814
 30
0.0
 11
327.856502
 21
405.010425
 31
0.0
  0
POLYLINE
  5
503
100
AcDbEntity
  8
LAY-6
  6
CONTINUOUS
 62
     1
100
AcDb2dPolyline
 66
     1
 10
0.0
 20
0.0
 30
0.0
 70
   128
  0
VERTEX
  5
504
100
AcDbEntity
  8
LAY-6
  6
CONTINUOUS
 62
     1
100
AcDbVertex
100
AcDb2dVertex
 10
370.4
 20
152.7
 30
0.0
  0
VERTEX
  5
505
100
AcDbEntity
  8
LAY-6
  6
CONTINUOUS
 62
     1
100
AcDbVertex
100
AcDb2dVertex
 10
377.789007
 20
180.276151
 30
0.0
  0
VERTEX
  5
506
100
AcDbEntity
  8
LAY-6
  6
CONTINUOUS
 62
     1
100
AcDbVertex
100
AcDb2dVertex
 10
427.4
 20
180.276151
 30
0.0
  0
SEQEND
  5
507
100
AcDbEntity
  8
LAY-6
  6
CONTINUOUS
 62
     1
  0
LINE
  5
508
100
AcDbEntity
  8
LAY-6
  6
CONTINUOUS
 62
     1
100
AcDbLine
 10
370.595663
 20
154.718125
 30
0.0
 11
370.4
 21
152.7
 31
0.0
  0
LINE
  5
509
100
AcDbEntity
  8
LAY-6
  6
CONTINUOUS
 62
     1
100
AcDbLine
 10
370.4
 20
152.7
 30
0.0
 11
371.239613
 21
154.545579
 31
0.0
  0
TEXT
  5
50A
100
AcDbEntity
  8
LAY-6
  6
CONTINUOUS
 62
     2
100
AcDbText
 10
380.144504
 20
180.276151
 30
0.0
 40
5.0
  1
裏板４.５ｔ以上（別途）
 41
0.654222
  7
EXCADSTD
 72
     5
 11
426.144504
 21
180.276151
 31
0.0
100
AcDbText
  0
INSERT
  5
50B
100
AcDbEntity
  8
LAY-6
  6
CONTINUOUS
 62
     0
100
AcDbBlockReference
  2
SYM-1
 10
723.6
 20
150.2
 30
0.0
 50
90.0
  0
TEXT
  5
50C
100
AcDbEntity
  8
LAY-6
  6
CONTINUOUS
 62
     2
100
AcDbText
 10
655.478461
 20
535.5
 30
0.0
 40
5.0
  1
φ
 41
0.672
  7
EXCADSTD
 72
     5
 11
658.678461
 21
535.5
 31
0.0
100
AcDbText
  0
TEXT
  5
50D
100
AcDbEntity
  8
LAY-6
  6
CONTINUOUS
 62
     2
100
AcDbText
 10
659.478461
 20
535.5
 30
0.0
 40
5.0
  1
１９
 41
0.672
  7
EXCADSTD
 72
     5
 11
666.811261
 21
535.5
 31
0.0
100
AcDbText
  0
LINE
  5
50E
100
AcDbEntity
  8
LAY-6
  6
CONTINUOUS
 62
     1
100
AcDbLine
 10
651.978461
 20
527.509888
 30
0.0
 11
651.978461
 21
536.5
 31
0.0
  0
LINE
  5
50F
100
AcDbEntity
  8
LAY-6
  6
CONTINUOUS
 62
     1
100
AcDbLine
 10
670.978461
 20
527.509888
 30
0.0
 11
670.978461
 21
536.5
 31
0.0
  0
LINE
  5
510
100
AcDbEntity
  8
LAY-6
  6
CONTINUOUS
 62
     1
100
AcDbLine
 10
651.978461
 20
535.0
 30
0.0
 11
670.978461
 21
535.0
 31
0.0
  0
LINE
  5
511
100
AcDbEntity
  8
LAY-6
  6
CONTINUOUS
 62
     1
100
AcDbLine
 10
653.978461
 20
535.333333
 30
0.0
 11
651.978461
 21
535.0
 31
0.0
  0
LINE
  5
512
100
AcDbEntity
  8
LAY-6
  6
CONTINUOUS
 62
     1
100
AcDbLine
 10
651.978461
 20
535.0
 30
0.0
 11
653.978461
 21
534.666667
 31
0.0
  0
LINE
  5
513
100
AcDbEntity
  8
LAY-6
  6
CONTINUOUS
 62
     1
100
AcDbLine
 10
668.978461
 20
534.666667
 30
0.0
 11
670.978461
 21
535.0
 31
0.0
  0
LINE
  5
514
100
AcDbEntity
  8
LAY-6
  6
CONTINUOUS
 62
     1
100
AcDbLine
 10
670.978461
 20
535.0
 30
0.0
 11
668.978461
 21
535.333333
 31
0.0
  0
TEXT
  5
515
100
AcDbEntity
  8
LAY-6
  6
CONTINUOUS
 62
     2
100
AcDbText
 10
653.106922
 20
457.3
 30
0.0
 40
5.0
  1
φ
 41
0.672
  7
EXCADSTD
 72
     5
 11
656.306922
 21
457.3
 31
0.0
100
AcDbText
  0
TEXT
  5
516
100
AcDbEntity
  8
LAY-6
  6
CONTINUOUS
 62
     2
100
AcDbText
 10
657.106922
 20
457.3
 30
0.0
 40
5.0
  1
１７.５
 41
0.616
  7
EXCADSTD
 72
     5
 11
671.106922
 21
457.3
 31
0.0
100
AcDbText
  0
LINE
  5
517
100
AcDbEntity
  8
LAY-6
  6
CONTINUOUS
 62
     1
100
AcDbLine
 10
652.728461
 20
469.709796
 30
0.0
 11
652.728461
 21
455.4
 31
0.0
  0
LINE
  5
518
100
AcDbEntity
  8
LAY-6
  6
CONTINUOUS
 62
     1
100
AcDbLine
 10
670.228461
 20
470.4
 30
0.0
 11
670.228461
 21
455.4
 31
0.0
  0
LINE
  5
519
100
AcDbEntity
  8
LAY-6
  6
CONTINUOUS
 62
     1
100
AcDbLine
 10
652.728461
 20
456.9
 30
0.0
 11
670.228461
 21
456.9
 31
0.0
  0
LINE
  5
51A
100
AcDbEntity
  8
LAY-6
  6
CONTINUOUS
 62
     1
100
AcDbLine
 10
654.728461
 20
457.233333
 30
0.0
 11
652.728461
 21
456.9
 31
0.0
  0
LINE
  5
51B
100
AcDbEntity
  8
LAY-6
  6
CONTINUOUS
 62
     1
100
AcDbLine
 10
652.728461
 20
456.9
 30
0.0
 11
654.728461
 21
456.566667
 31
0.0
  0
LINE
  5
51C
100
AcDbEntity
  8
LAY-6
  6
CONTINUOUS
 62
     1
100
AcDbLine
 10
668.228461
 20
456.566667
 30
0.0
 11
670.228461
 21
456.9
 31
0.0
  0
LINE
  5
51D
100
AcDbEntity
  8
LAY-6
  6
CONTINUOUS
 62
     1
100
AcDbLine
 10
670.228461
 20
456.9
 30
0.0
 11
668.228461
 21
457.233333
 31
0.0
  0
ARC
  5
51E
100
AcDbEntity
  8
LAY-6
  6
CONTINUOUS
 62
     1
100
AcDbCircle
 10
661.478461
 20
152.552078
 30
0.0
 40
26.999986
100
AcDbArc
 50
315.0
 51
325.994361
  0
ARC
  5
51F
100
AcDbEntity
  8
LAY-6
  6
CONTINUOUS
 62
     1
100
AcDbCircle
 10
661.478461
 20
152.552078
 30
0.0
 40
26.970121
100
AcDbArc
 50
135.0
 51
149.486573
  0
TEXT
  5
520
100
AcDbEntity
  8
LAY-6
  6
CONTINUOUS
 62
     2
100
AcDbText
 10
690.778339
 20
453.5
 30
0.0
 40
5.0
  1
φ
 41
0.672
  7
EXCADSTD
 72
     5
 11
693.978339
 21
453.5
 31
0.0
100
AcDbText
  0
TEXT
  5
521
100
AcDbEntity
  8
LAY-6
  6
CONTINUOUS
 62
     2
100
AcDbText
 10
694.778339
 20
453.5
 30
0.0
 40
5.0
  1
１２.５
 41
0.616
  7
EXCADSTD
 72
     5
 11
708.778339
 21
453.5
 31
0.0
100
AcDbText
  0
LINE
  5
522
100
AcDbEntity
  8
LAY-6
  6
CONTINUOUS
 62
     1
100
AcDbLine
 10
655.228339
 20
485.509811
 30
0.0
 11
655.228339
 21
481.2
 31
0.0
  0
LINE
  5
523
100
AcDbEntity
  8
LAY-6
  6
CONTINUOUS
 62
     1
100
AcDbLine
 10
667.728339
 20
485.509811
 30
0.0
 11
667.728339
 21
481.2
 31
0.0
  0
LINE
  5
524
100
AcDbEntity
  8
LAY-6
  6
CONTINUOUS
 62
     1
100
AcDbLine
 10
655.228339
 20
482.7
 30
0.0
 11
667.728339
 21
482.7
 31
0.0
  0
LINE
  5
525
100
AcDbEntity
  8
LAY-6
  6
CONTINUOUS
 62
     1
100
AcDbLine
 10
657.228339
 20
483.033333
 30
0.0
 11
655.228339
 21
482.7
 31
0.0
  0
LINE
  5
526
100
AcDbEntity
  8
LAY-6
  6
CONTINUOUS
 62
     1
100
AcDbLine
 10
655.228339
 20
482.7
 30
0.0
 11
657.228339
 21
482.366667
 31
0.0
  0
LINE
  5
527
100
AcDbEntity
  8
LAY-6
  6
CONTINUOUS
 62
     1
100
AcDbLine
 10
665.728339
 20
482.366667
 30
0.0
 11
667.728339
 21
482.7
 31
0.0
  0
LINE
  5
528
100
AcDbEntity
  8
LAY-6
  6
CONTINUOUS
 62
     1
100
AcDbLine
 10
667.728339
 20
482.7
 30
0.0
 11
665.728339
 21
483.033333
 31
0.0
  0
POLYLINE
  5
529
100
AcDbEntity
  8
LAY-6
  6
CONTINUOUS
 62
     1
100
AcDb2dPolyline
 66
     1
 10
0.0
 20
0.0
 30
0.0
 70
   128
  0
VERTEX
  5
52A
100
AcDbEntity
  8
LAY-6
  6
CONTINUOUS
 62
     1
100
AcDbVertex
100
AcDb2dVertex
 10
661.53
 20
482.7
 30
0.0
  0
VERTEX
  5
52B
100
AcDbEntity
  8
LAY-6
  6
CONTINUOUS
 62
     1
100
AcDbVertex
100
AcDb2dVertex
 10
691.015
 20
453.215
 30
0.0
  0
VERTEX
  5
52C
100
AcDbEntity
  8
LAY-6
  6
CONTINUOUS
 62
     1
100
AcDbVertex
100
AcDb2dVertex
 10
708.0
 20
453.215
 30
0.0
  0
SEQEND
  5
52D
100
AcDbEntity
  8
LAY-6
  6
CONTINUOUS
 62
     1
  0
LINE
  5
52E
100
AcDbEntity
  8
LAY-6
  6
CONTINUOUS
 62
     1
100
AcDbLine
 10
663.179916
 20
481.521489
 30
0.0
 11
661.53
 21
482.7
 31
0.0
  0
LINE
  5
52F
100
AcDbEntity
  8
LAY-6
  6
CONTINUOUS
 62
     1
100
AcDbLine
 10
661.53
 20
482.7
 30
0.0
 11
662.708511
 21
481.050084
 31
0.0
  0
TEXT
  5
530
100
AcDbEntity
  8
LAY-6
  6
CONTINUOUS
 62
     2
100
AcDbText
 10
322.8
 20
567.7
 30
0.0
 40
5.0
  1
トッププレート　０.８ｔ
 41
0.654222
  7
EXCADSTD
 72
     5
 11
368.8
 21
567.7
 31
0.0
100
AcDbText
  0
INSERT
  5
531
100
AcDbEntity
  8
LAY-6
  6
CONTINUOUS
 62
     0
100
AcDbBlockReference
  2
SYM-1
 10
354.0
 20
568.7
 30
0.0
  0
LINE
  5
532
100
AcDbEntity
  8
LAY-6
  6
CONTINUOUS
 62
     1
100
AcDbLine
 10
215.221344
 20
130.552002
 30
0.0
 11
355.421344
 21
130.552002
 31
0.0
  0
TEXT
  5
533
100
AcDbEntity
  8
LAY-6
  6
CONTINUOUS
 62
     2
100
AcDbText
 10
353.921344
 20
132.552002
 30
0.0
 40
5.0
  1
８
 50
90.0
 41
0.672
  7
EXCADSTD
 72
     5
 11
353.921344
 21
135.752002
 31
0.0
100
AcDbText
  0
LINE
  5
534
100
AcDbEntity
  8
LAY-6
  6
CONTINUOUS
 62
     1
100
AcDbLine
 10
354.421344
 20
130.552002
 30
0.0
 11
354.421344
 21
138.552002
 31
0.0
  0
LINE
  5
535
100
AcDbEntity
  8
LAY-6
  6
CONTINUOUS
 62
     1
100
AcDbLine
 10
354.088011
 20
132.552002
 30
0.0
 11
354.421344
 21
130.552002
 31
0.0
  0
LINE
  5
536
100
AcDbEntity
  8
LAY-6
  6
CONTINUOUS
 62
     1
100
AcDbLine
 10
354.421344
 20
130.552002
 30
0.0
 11
354.754677
 21
132.552002
 31
0.0
  0
LINE
  5
537
100
AcDbEntity
  8
LAY-6
  6
CONTINUOUS
 62
     1
100
AcDbLine
 10
354.754677
 20
136.552002
 30
0.0
 11
354.421344
 21
138.552002
 31
0.0
  0
LINE
  5
538
100
AcDbEntity
  8
LAY-6
  6
CONTINUOUS
 62
     1
100
AcDbLine
 10
354.421344
 20
138.552002
 30
0.0
 11
354.088011
 21
136.552002
 31
0.0
  0
LINE
  5
539
100
AcDbEntity
  8
LAY-6
  6
CONTINUOUS
 62
     1
100
AcDbLine
 10
341.421344
 20
150.552002
 30
0.0
 11
355.421344
 21
150.552002
 31
0.0
  0
LINE
  5
53A
100
AcDbEntity
  8
LAY-6
  6
CONTINUOUS
 62
     1
100
AcDbLine
 10
340.960755
 20
138.552002
 30
0.0
 11
355.421344
 21
138.552002
 31
0.0
  0
TEXT
  5
53B
100
AcDbEntity
  8
LAY-6
  6
CONTINUOUS
 62
     2
100
AcDbText
 10
353.921344
 20
140.552002
 30
0.0
 40
5.0
  1
１２
 50
90.0
 41
0.672
  7
EXCADSTD
 72
     5
 11
353.921344
 21
147.884802
 31
0.0
100
AcDbText
  0
LINE
  5
53C
100
AcDbEntity
  8
LAY-6
  6
CONTINUOUS
 62
     1
100
AcDbLine
 10
354.421344
 20
150.552002
 30
0.0
 11
354.421344
 21
138.552002
 31
0.0
  0
LINE
  5
53D
100
AcDbEntity
  8
LAY-6
  6
CONTINUOUS
 62
     1
100
AcDbLine
 10
354.754677
 20
148.552002
 30
0.0
 11
354.421344
 21
150.552002
 31
0.0
  0
LINE
  5
53E
100
AcDbEntity
  8
LAY-6
  6
CONTINUOUS
 62
     1
100
AcDbLine
 10
354.421344
 20
150.552002
 30
0.0
 11
354.088011
 21
148.552002
 31
0.0
  0
LINE
  5
53F
100
AcDbEntity
  8
LAY-6
  6
CONTINUOUS
 62
     1
100
AcDbLine
 10
354.088011
 20
140.552002
 30
0.0
 11
354.421344
 21
138.552002
 31
0.0
  0
LINE
  5
540
100
AcDbEntity
  8
LAY-6
  6
CONTINUOUS
 62
     1
100
AcDbLine
 10
354.421344
 20
138.552002
 30
0.0
 11
354.754677
 21
140.552002
 31
0.0
  0
LINE
  5
541
100
AcDbEntity
  8
LAY-6
  6
CONTINUOUS
 62
     1
100
AcDbLine
 10
153.721344
 20
547.227417
 30
0.0
 11
153.721344
 21
560.7
 31
0.0
  0
LINE
  5
542
100
AcDbEntity
  8
LAY-6
  6
CONTINUOUS
 62
     1
100
AcDbLine
 10
335.721344
 20
547.227417
 30
0.0
 11
335.721344
 21
560.7
 31
0.0
  0
LINE
  5
543
100
AcDbEntity
  8
LAY-6
  6
CONTINUOUS
 62
     1
100
AcDbLine
 10
153.721344
 20
559.2
 30
0.0
 11
335.721344
 21
559.2
 31
0.0
  0
LINE
  5
544
100
AcDbEntity
  8
LAY-6
  6
CONTINUOUS
 62
     1
100
AcDbLine
 10
155.721344
 20
559.533333
 30
0.0
 11
153.721344
 21
559.2
 31
0.0
  0
LINE
  5
545
100
AcDbEntity
  8
LAY-6
  6
CONTINUOUS
 62
     1
100
AcDbLine
 10
153.721344
 20
559.2
 30
0.0
 11
155.721344
 21
558.866667
 31
0.0
  0
LINE
  5
546
100
AcDbEntity
  8
LAY-6
  6
CONTINUOUS
 62
     1
100
AcDbLine
 10
333.721344
 20
558.866667
 30
0.0
 11
335.721344
 21
559.2
 31
0.0
  0
LINE
  5
547
100
AcDbEntity
  8
LAY-6
  6
CONTINUOUS
 62
     1
100
AcDbLine
 10
335.721344
 20
559.2
 30
0.0
 11
333.721344
 21
559.533333
 31
0.0
  0
TEXT
  5
548
100
AcDbEntity
  8
LAY-6
  6
CONTINUOUS
 62
     2
100
AcDbText
 10
238.721344
 20
559.7
 30
0.0
 40
5.0
  1
１８２
 41
0.672
  7
EXCADSTD
 72
     5
 11
250.721344
 21
559.7
 31
0.0
100
AcDbText
  0
INSERT
  5
549
100
AcDbEntity
  8
LAY-6
  6
CONTINUOUS
 62
     0
100
AcDbBlockReference
  2
SYM-1
 10
236.29
 20
560.66
 30
0.0
  0
LINE
  5
54A
100
AcDbEntity
  8
LAY-6
  6
CONTINUOUS
 62
     1
100
AcDbLine
 10
160.721344
 20
511.727448
 30
0.0
 11
160.721344
 21
486.9
 31
0.0
  0
LINE
  5
54B
100
AcDbEntity
  8
LAY-6
  6
CONTINUOUS
 62
     1
100
AcDbLine
 10
194.721344
 20
511.727448
 30
0.0
 11
194.721344
 21
486.9
 31
0.0
  0
LINE
  5
54C
100
AcDbEntity
  8
LAY-6
  6
CONTINUOUS
 62
     1
100
AcDbLine
 10
160.721344
 20
488.4
 30
0.0
 11
194.721344
 21
488.4
 31
0.0
  0
LINE
  5
54D
100
AcDbEntity
  8
LAY-6
  6
CONTINUOUS
 62
     1
100
AcDbLine
 10
162.721344
 20
488.733333
 30
0.0
 11
160.721344
 21
488.4
 31
0.0
  0
LINE
  5
54E
100
AcDbEntity
  8
LAY-6
  6
CONTINUOUS
 62
     1
100
AcDbLine
 10
160.721344
 20
488.4
 30
0.0
 11
162.721344
 21
488.066667
 31
0.0
  0
LINE
  5
54F
100
AcDbEntity
  8
LAY-6
  6
CONTINUOUS
 62
     1
100
AcDbLine
 10
192.721344
 20
488.066667
 30
0.0
 11
194.721344
 21
488.4
 31
0.0
  0
LINE
  5
550
100
AcDbEntity
  8
LAY-6
  6
CONTINUOUS
 62
     1
100
AcDbLine
 10
194.721344
 20
488.4
 30
0.0
 11
192.721344
 21
488.733333
 31
0.0
  0
TEXT
  5
551
100
AcDbEntity
  8
LAY-6
  6
CONTINUOUS
 62
     2
100
AcDbText
 10
173.721344
 20
488.9
 30
0.0
 40
5.0
  1
３４
 41
0.672
  7
EXCADSTD
 72
     5
 11
181.054144
 21
488.9
 31
0.0
100
AcDbText
  0
LINE
  5
552
100
AcDbEntity
  8
LAY-6
  6
CONTINUOUS
 62
     1
100
AcDbLine
 10
329.721344
 20
511.727448
 30
0.0
 11
329.721344
 21
486.9
 31
0.0
  0
LINE
  5
553
100
AcDbEntity
  8
LAY-6
  6
CONTINUOUS
 62
     1
100
AcDbLine
 10
194.721344
 20
488.4
 30
0.0
 11
329.721344
 21
488.4
 31
0.0
  0
LINE
  5
554
100
AcDbEntity
  8
LAY-6
  6
CONTINUOUS
 62
     1
100
AcDbLine
 10
196.721344
 20
488.733333
 30
0.0
 11
194.721344
 21
488.4
 31
0.0
  0
LINE
  5
555
100
AcDbEntity
  8
LAY-6
  6
CONTINUOUS
 62
     1
100
AcDbLine
 10
194.721344
 20
488.4
 30
0.0
 11
196.721344
 21
488.066667
 31
0.0
  0
LINE
  5
556
100
AcDbEntity
  8
LAY-6
  6
CONTINUOUS
 62
     1
100
AcDbLine
 10
327.721344
 20
488.066667
 30
0.0
 11
329.721344
 21
488.4
 31
0.0
  0
LINE
  5
557
100
AcDbEntity
  8
LAY-6
  6
CONTINUOUS
 62
     1
100
AcDbLine
 10
329.721344
 20
488.4
 30
0.0
 11
327.721344
 21
488.733333
 31
0.0
  0
TEXT
  5
558
100
AcDbEntity
  8
LAY-6
  6
CONTINUOUS
 62
     2
100
AcDbText
 10
256.221344
 20
488.9
 30
0.0
 40
5.0
  1
１３５
 41
0.672
  7
EXCADSTD
 72
     5
 11
268.221344
 21
488.9
 31
0.0
100
AcDbText
  0
TEXT
  5
559
100
AcDbEntity
  8
LAY-6
  6
CONTINUOUS
 62
     2
100
AcDbText
 10
352.0
 20
394.109814
 30
0.0
 40
5.0
  1
裏板４.５ｔ以上（別途）
 41
0.654222
  7
EXCADSTD
 72
     5
 11
398.0
 21
394.109814
 31
0.0
100
AcDbText
  0
LINE
  5
55A
100
AcDbEntity
  8
LAY-6
  6
CONTINUOUS
 62
     1
100
AcDbLine
 10
329.721344
 20
310.65741
 30
0.0
 11
329.721344
 21
286.2
 31
0.0
  0
LINE
  5
55B
100
AcDbEntity
  8
LAY-6
  6
CONTINUOUS
 62
     1
100
AcDbLine
 10
194.721344
 20
287.7
 30
0.0
 11
329.721344
 21
287.7
 31
0.0
  0
LINE
  5
55C
100
AcDbEntity
  8
LAY-6
  6
CONTINUOUS
 62
     1
100
AcDbLine
 10
196.721344
 20
288.033333
 30
0.0
 11
194.721344
 21
287.7
 31
0.0
  0
LINE
  5
55D
100
AcDbEntity
  8
LAY-6
  6
CONTINUOUS
 62
     1
100
AcDbLine
 10
194.721344
 20
287.7
 30
0.0
 11
196.721344
 21
287.366667
 31
0.0
  0
LINE
  5
55E
100
AcDbEntity
  8
LAY-6
  6
CONTINUOUS
 62
     1
100
AcDbLine
 10
327.721344
 20
287.366667
 30
0.0
 11
329.721344
 21
287.7
 31
0.0
  0
LINE
  5
55F
100
AcDbEntity
  8
LAY-6
  6
CONTINUOUS
 62
     1
100
AcDbLine
 10
329.721344
 20
287.7
 30
0.0
 11
327.721344
 21
288.033333
 31
0.0
  0
TEXT
  5
560
100
AcDbEntity
  8
LAY-6
  6
CONTINUOUS
 62
     2
100
AcDbText
 10
256.221344
 20
288.2
 30
0.0
 40
5.0
  1
１３５
 41
0.672
  7
EXCADSTD
 72
     5
 11
268.221344
 21
288.2
 31
0.0
100
AcDbText
  0
LINE
  5
561
100
AcDbEntity
  8
LAY-6
  6
CONTINUOUS
 62
     1
100
AcDbLine
 10
174.721344
 20
234.552078
 30
0.0
 11
174.721344
 21
201.3
 31
0.0
  0
LINE
  5
562
100
AcDbEntity
  8
LAY-6
  6
CONTINUOUS
 62
     1
100
AcDbLine
 10
342.721344
 20
234.552078
 30
0.0
 11
342.721344
 21
201.3
 31
0.0
  0
LINE
  5
563
100
AcDbEntity
  8
LAY-6
  6
CONTINUOUS
 62
     1
100
AcDbLine
 10
174.721344
 20
202.8
 30
0.0
 11
342.721344
 21
202.8
 31
0.0
  0
LINE
  5
564
100
AcDbEntity
  8
LAY-6
  6
CONTINUOUS
 62
     1
100
AcDbLine
 10
176.721344
 20
203.133333
 30
0.0
 11
174.721344
 21
202.8
 31
0.0
  0
LINE
  5
565
100
AcDbEntity
  8
LAY-6
  6
CONTINUOUS
 62
     1
100
AcDbLine
 10
174.721344
 20
202.8
 30
0.0
 11
176.721344
 21
202.466667
 31
0.0
  0
LINE
  5
566
100
AcDbEntity
  8
LAY-6
  6
CONTINUOUS
 62
     1
100
AcDbLine
 10
340.721344
 20
202.466667
 30
0.0
 11
342.721344
 21
202.8
 31
0.0
  0
LINE
  5
567
100
AcDbEntity
  8
LAY-6
  6
CONTINUOUS
 62
     1
100
AcDbLine
 10
342.721344
 20
202.8
 30
0.0
 11
340.721344
 21
203.133333
 31
0.0
  0
TEXT
  5
568
100
AcDbEntity
  8
LAY-6
  6
CONTINUOUS
 62
     2
100
AcDbText
 10
252.721344
 20
203.3
 30
0.0
 40
5.0
  1
１６８
 41
0.672
  7
EXCADSTD
 72
     5
 11
264.721344
 21
203.3
 31
0.0
100
AcDbText
  0
LINE
  5
569
100
AcDbEntity
  8
LAY-9
  6
CONTINUOUS
 62
     1
100
AcDbLine
 10
136.321344
 20
415.209814
 30
0.0
 11
178.721329
 21
415.209814
 31
0.0
  0
LINE
  5
56A
100
AcDbEntity
  8
LAY-9
  6
CONTINUOUS
 62
     1
100
AcDbLine
 10
329.721344
 20
415.209814
 30
0.0
 11
389.538211
 21
415.209814
 31
0.0
  0
POLYLINE
  5
56B
100
AcDbEntity
  8
LAY-9
  6
CONTINUOUS
 62
     1
100
AcDb2dPolyline
 66
     1
 10
0.0
 20
0.0
 30
0.0
 70
   128
  0
VERTEX
  5
56C
100
AcDbEntity
  8
LAY-9
  6
CONTINUOUS
 62
     1
100
AcDbVertex
100
AcDb2dVertex
 10
391.0
 20
419.809814
 30
0.0
  0
VERTEX
  5
56D
100
AcDbEntity
  8
LAY-9
  6
CONTINUOUS
 62
     1
100
AcDbVertex
100
AcDb2dVertex
 10
391.024918
 20
419.882651
 30
0.0
  0
VERTEX
  5
56E
100
AcDbEntity
  8
LAY-9
  6
CONTINUOUS
 62
     1
100
AcDbVertex
100
AcDb2dVertex
 10
391.093618
 20
420.088724
 30
0.0
  0
VERTEX
  5
56F
100
AcDbEntity
  8
LAY-9
  6
CONTINUOUS
 62
     1
100
AcDbVertex
100
AcDb2dVertex
 10
391.197024
 20
420.409371
 30
0.0
  0
VERTEX
  5
570
100
AcDbEntity
  8
LAY-9
  6
CONTINUOUS
 62
     1
100
AcDbVertex
100
AcDb2dVertex
 10
391.326056
 20
420.825933
 30
0.0
  0
VERTEX
  5
571
100
AcDbEntity
  8
LAY-9
  6
CONTINUOUS
 62
     1
100
AcDbVertex
100
AcDb2dVertex
 10
391.471635
 20
421.31975
 30
0.0
  0
VERTEX
  5
572
100
AcDbEntity
  8
LAY-9
  6
CONTINUOUS
 62
     1
100
AcDbVertex
100
AcDb2dVertex
 10
391.624684
 20
421.872162
 30
0.0
  0
VERTEX
  5
573
100
AcDbEntity
  8
LAY-9
  6
CONTINUOUS
 62
     1
100
AcDbVertex
100
AcDb2dVertex
 10
391.776125
 20
422.464509
 30
0.0
  0
VERTEX
  5
574
100
AcDbEntity
  8
LAY-9
  6
CONTINUOUS
 62
     1
100
AcDbVertex
100
AcDb2dVertex
 10
391.916877
 20
423.07813
 30
0.0
  0
VERTEX
  5
575
100
AcDbEntity
  8
LAY-9
  6
CONTINUOUS
 62
     1
100
AcDbVertex
100
AcDb2dVertex
 10
392.037865
 20
423.694367
 30
0.0
  0
VERTEX
  5
576
100
AcDbEntity
  8
LAY-9
  6
CONTINUOUS
 62
     1
100
AcDbVertex
100
AcDb2dVertex
 10
392.130008
 20
424.294559
 30
0.0
  0
VERTEX
  5
577
100
AcDbEntity
  8
LAY-9
  6
CONTINUOUS
 62
     1
100
AcDbVertex
100
AcDb2dVertex
 10
392.184228
 20
424.860046
 30
0.0
  0
VERTEX
  5
578
100
AcDbEntity
  8
LAY-9
  6
CONTINUOUS
 62
     1
100
AcDbVertex
100
AcDb2dVertex
 10
392.194679
 20
425.335674
 30
0.0
  0
VERTEX
  5
579
100
AcDbEntity
  8
LAY-9
  6
CONTINUOUS
 62
     1
100
AcDbVertex
100
AcDb2dVertex
 10
392.169545
 20
425.774812
 30
0.0
  0
VERTEX
  5
57A
100
AcDbEntity
  8
LAY-9
  6
CONTINUOUS
 62
     1
100
AcDbVertex
100
AcDb2dVertex
 10
392.112718
 20
426.185795
 30
0.0
  0
VERTEX
  5
57B
100
AcDbEntity
  8
LAY-9
  6
CONTINUOUS
 62
     1
100
AcDbVertex
100
AcDb2dVertex
 10
392.02809
 20
426.576955
 30
0.0
  0
VERTEX
  5
57C
100
AcDbEntity
  8
LAY-9
  6
CONTINUOUS
 62
     1
100
AcDbVertex
100
AcDb2dVertex
 10
391.919555
 20
426.956626
 30
0.0
  0
VERTEX
  5
57D
100
AcDbEntity
  8
LAY-9
  6
CONTINUOUS
 62
     1
100
AcDbVertex
100
AcDb2dVertex
 10
391.791003
 20
427.333141
 30
0.0
  0
VERTEX
  5
57E
100
AcDbEntity
  8
LAY-9
  6
CONTINUOUS
 62
     1
100
AcDbVertex
100
AcDb2dVertex
 10
391.646327
 20
427.714834
 30
0.0
  0
VERTEX
  5
57F
100
AcDbEntity
  8
LAY-9
  6
CONTINUOUS
 62
     1
100
AcDbVertex
100
AcDb2dVertex
 10
391.489419
 20
428.110038
 30
0.0
  0
VERTEX
  5
580
100
AcDbEntity
  8
LAY-9
  6
CONTINUOUS
 62
     1
100
AcDbVertex
100
AcDb2dVertex
 10
391.324172
 20
428.527085
 30
0.0
  0
VERTEX
  5
581
100
AcDbEntity
  8
LAY-9
  6
CONTINUOUS
 62
     1
100
AcDbVertex
100
AcDb2dVertex
 10
391.154478
 20
428.97431
 30
0.0
  0
VERTEX
  5
582
100
AcDbEntity
  8
LAY-9
  6
CONTINUOUS
 62
     1
100
AcDbVertex
100
AcDb2dVertex
 10
390.984228
 20
429.460046
 30
0.0
  0
VERTEX
  5
583
100
AcDbEntity
  8
LAY-9
  6
CONTINUOUS
 62
     1
100
AcDbVertex
100
AcDb2dVertex
 10
390.82803
 20
429.951992
 30
0.0
  0
VERTEX
  5
584
100
AcDbEntity
  8
LAY-9
  6
CONTINUOUS
 62
     1
100
AcDbVertex
100
AcDb2dVertex
 10
390.676824
 20
430.469511
 30
0.0
  0
VERTEX
  5
585
100
AcDbEntity
  8
LAY-9
  6
CONTINUOUS
 62
     1
100
AcDbVertex
100
AcDb2dVertex
 10
390.532692
 20
430.997342
 30
0.0
  0
VERTEX
  5
586
100
AcDbEntity
  8
LAY-9
  6
CONTINUOUS
 62
     1
100
AcDbVertex
100
AcDb2dVertex
 10
390.397717
 20
431.520227
 30
0.0
  0
VERTEX
  5
587
100
AcDbEntity
  8
LAY-9
  6
CONTINUOUS
 62
     1
100
AcDbVertex
100
AcDb2dVertex
 10
390.273981
 20
432.022904
 30
0.0
  0
VERTEX
  5
588
100
AcDbEntity
  8
LAY-9
  6
CONTINUOUS
 62
     1
100
AcDbVertex
100
AcDb2dVertex
 10
390.163568
 20
432.490114
 30
0.0
  0
VERTEX
  5
589
100
AcDbEntity
  8
LAY-9
  6
CONTINUOUS
 62
     1
100
AcDbVertex
100
AcDb2dVertex
 10
390.068559
 20
432.906596
 30
0.0
  0
VERTEX
  5
58A
100
AcDbEntity
  8
LAY-9
  6
CONTINUOUS
 62
     1
100
AcDbVertex
100
AcDb2dVertex
 10
389.991038
 20
433.25709
 30
0.0
  0
VERTEX
  5
58B
100
AcDbEntity
  8
LAY-9
  6
CONTINUOUS
 62
     1
100
AcDbVertex
100
AcDb2dVertex
 10
389.933088
 20
433.526337
 30
0.0
  0
VERTEX
  5
58C
100
AcDbEntity
  8
LAY-9
  6
CONTINUOUS
 62
     1
100
AcDbVertex
100
AcDb2dVertex
 10
389.89679
 20
433.699075
 30
0.0
  0
VERTEX
  5
58D
100
AcDbEntity
  8
LAY-9
  6
CONTINUOUS
 62
     1
100
AcDbVertex
100
AcDb2dVertex
 10
389.884228
 20
433.760046
 30
0.0
  0
SEQEND
  5
58E
100
AcDbEntity
  8
LAY-9
  6
CONTINUOUS
 62
     1
  0
POLYLINE
  5
58F
100
AcDbEntity
  8
LAY-9
  6
CONTINUOUS
 62
     1
100
AcDb2dPolyline
 66
     1
 10
0.0
 20
0.0
 30
0.0
 70
   128
  0
VERTEX
  5
590
100
AcDbEntity
  8
LAY-9
  6
CONTINUOUS
 62
     1
100
AcDbVertex
100
AcDb2dVertex
 10
390.0
 20
416.809814
 30
0.0
  0
VERTEX
  5
591
100
AcDbEntity
  8
LAY-9
  6
CONTINUOUS
 62
     1
100
AcDbVertex
100
AcDb2dVertex
 10
389.980961
 20
416.728123
 30
0.0
  0
VERTEX
  5
592
100
AcDbEntity
  8
LAY-9
  6
CONTINUOUS
 62
     1
100
AcDbVertex
100
AcDb2dVertex
 10
389.928103
 20
416.49705
 30
0.0
  0
VERTEX
  5
593
100
AcDbEntity
  8
LAY-9
  6
CONTINUOUS
 62
     1
100
AcDbVertex
100
AcDb2dVertex
 10
389.847811
 20
416.137593
 30
0.0
  0
VERTEX
  5
594
100
AcDbEntity
  8
LAY-9
  6
CONTINUOUS
 62
     1
100
AcDbVertex
100
AcDb2dVertex
 10
389.746473
 20
415.670753
 30
0.0
  0
VERTEX
  5
595
100
AcDbEntity
  8
LAY-9
  6
CONTINUOUS
 62
     1
100
AcDbVertex
100
AcDb2dVertex
 10
389.630473
 20
415.117527
 30
0.0
  0
VERTEX
  5
596
100
AcDbEntity
  8
LAY-9
  6
CONTINUOUS
 62
     1
100
AcDbVertex
100
AcDb2dVertex
 10
389.506199
 20
414.498916
 30
0.0
  0
VERTEX
  5
597
100
AcDbEntity
  8
LAY-9
  6
CONTINUOUS
 62
     1
100
AcDbVertex
100
AcDb2dVertex
 10
389.380036
 20
413.835919
 30
0.0
  0
VERTEX
  5
598
100
AcDbEntity
  8
LAY-9
  6
CONTINUOUS
 62
     1
100
AcDbVertex
100
AcDb2dVertex
 10
389.258372
 20
413.149534
 30
0.0
  0
VERTEX
  5
599
100
AcDbEntity
  8
LAY-9
  6
CONTINUOUS
 62
     1
100
AcDbVertex
100
AcDb2dVertex
 10
389.147591
 20
412.460761
 30
0.0
  0
VERTEX
  5
59A
100
AcDbEntity
  8
LAY-9
  6
CONTINUOUS
 62
     1
100
AcDbVertex
100
AcDb2dVertex
 10
389.054081
 20
411.790598
 30
0.0
  0
VERTEX
  5
59B
100
AcDbEntity
  8
LAY-9
  6
CONTINUOUS
 62
     1
100
AcDbVertex
100
AcDb2dVertex
 10
388.984228
 20
411.160046
 30
0.0
  0
VERTEX
  5
59C
100
AcDbEntity
  8
LAY-9
  6
CONTINUOUS
 62
     1
100
AcDbVertex
100
AcDb2dVertex
 10
388.949955
 20
410.708615
 30
0.0
  0
VERTEX
  5
59D
100
AcDbEntity
  8
LAY-9
  6
CONTINUOUS
 62
     1
100
AcDbVertex
100
AcDb2dVertex
 10
388.934152
 20
410.287138
 30
0.0
  0
VERTEX
  5
59E
100
AcDbEntity
  8
LAY-9
  6
CONTINUOUS
 62
     1
100
AcDbVertex
100
AcDb2dVertex
 10
388.937188
 20
409.88906
 30
0.0
  0
VERTEX
  5
59F
100
AcDbEntity
  8
LAY-9
  6
CONTINUOUS
 62
     1
100
AcDbVertex
100
AcDb2dVertex
 10
388.959435
 20
409.507824
 30
0.0
  0
VERTEX
  5
5A0
100
AcDbEntity
  8
LAY-9
  6
CONTINUOUS
 62
     1
100
AcDbVertex
100
AcDb2dVertex
 10
389.001263
 20
409.136875
 30
0.0
  0
VERTEX
  5
5A1
100
AcDbEntity
  8
LAY-9
  6
CONTINUOUS
 62
     1
100
AcDbVertex
100
AcDb2dVertex
 10
389.063045
 20
408.769656
 30
0.0
  0
VERTEX
  5
5A2
100
AcDbEntity
  8
LAY-9
  6
CONTINUOUS
 62
     1
100
AcDbVertex
100
AcDb2dVertex
 10
389.14515
 20
408.39961
 30
0.0
  0
VERTEX
  5
5A3
100
AcDbEntity
  8
LAY-9
  6
CONTINUOUS
 62
     1
100
AcDbVertex
100
AcDb2dVertex
 10
389.24795
 20
408.020183
 30
0.0
  0
VERTEX
  5
5A4
100
AcDbEntity
  8
LAY-9
  6
CONTINUOUS
 62
     1
100
AcDbVertex
100
AcDb2dVertex
 10
389.371816
 20
407.624817
 30
0.0
  0
VERTEX
  5
5A5
100
AcDbEntity
  8
LAY-9
  6
CONTINUOUS
 62
     1
100
AcDbVertex
100
AcDb2dVertex
 10
389.517118
 20
407.206957
 30
0.0
  0
VERTEX
  5
5A6
100
AcDbEntity
  8
LAY-9
  6
CONTINUOUS
 62
     1
100
AcDbVertex
100
AcDb2dVertex
 10
389.684228
 20
406.760046
 30
0.0
  0
VERTEX
  5
5A7
100
AcDbEntity
  8
LAY-9
  6
CONTINUOUS
 62
     1
100
AcDbVertex
100
AcDb2dVertex
 10
389.867439
 20
406.293105
 30
0.0
  0
VERTEX
  5
5A8
100
AcDbEntity
  8
LAY-9
  6
CONTINUOUS
 62
     1
100
AcDbVertex
100
AcDb2dVertex
 10
390.065047
 20
405.805915
 30
0.0
  0
VERTEX
  5
5A9
100
AcDbEntity
  8
LAY-9
  6
CONTINUOUS
 62
     1
100
AcDbVertex
100
AcDb2dVertex
 10
390.270341
 20
405.312114
 30
0.0
  0
VERTEX
  5
5AA
100
AcDbEntity
  8
LAY-9
  6
CONTINUOUS
 62
     1
100
AcDbVertex
100
AcDb2dVertex
 10
390.476611
 20
404.825337
 30
0.0
  0
VERTEX
  5
5AB
100
AcDbEntity
  8
LAY-9
  6
CONTINUOUS
 62
     1
100
AcDbVertex
100
AcDb2dVertex
 10
390.677149
 20
404.359221
 30
0.0
  0
VERTEX
  5
5AC
100
AcDbEntity
  8
LAY-9
  6
CONTINUOUS
 62
     1
100
AcDbVertex
100
AcDb2dVertex
 10
390.865243
 20
403.927403
 30
0.0
  0
VERTEX
  5
5AD
100
AcDbEntity
  8
LAY-9
  6
CONTINUOUS
 62
     1
100
AcDbVertex
100
AcDb2dVertex
 10
391.034185
 20
403.543518
 30
0.0
  0
VERTEX
  5
5AE
100
AcDbEntity
  8
LAY-9
  6
CONTINUOUS
 62
     1
100
AcDbVertex
100
AcDb2dVertex
 10
391.177264
 20
403.221204
 30
0.0
  0
VERTEX
  5
5AF
100
AcDbEntity
  8
LAY-9
  6
CONTINUOUS
 62
     1
100
AcDbVertex
100
AcDb2dVertex
 10
391.287771
 20
402.974096
 30
0.0
  0
VERTEX
  5
5B0
100
AcDbEntity
  8
LAY-9
  6
CONTINUOUS
 62
     1
100
AcDbVertex
100
AcDb2dVertex
 10
391.358995
 20
402.815831
 30
0.0
  0
VERTEX
  5
5B1
100
AcDbEntity
  8
LAY-9
  6
CONTINUOUS
 62
     1
100
AcDbVertex
100
AcDb2dVertex
 10
391.384228
 20
402.760046
 30
0.0
  0
SEQEND
  5
5B2
100
AcDbEntity
  8
LAY-9
  6
CONTINUOUS
 62
     1
  0
LINE
  5
5B3
100
AcDbEntity
  8
LAY-9
  6
CONTINUOUS
 62
     1
100
AcDbLine
 10
160.721313
 20
425.809814
 30
0.0
 11
160.721313
 21
430.309814
 31
0.0
  0
LINE
  5
5B4
100
AcDbEntity
  8
LAY-9
  6
CONTINUOUS
 62
     1
100
AcDbLine
 10
160.721313
 20
430.309814
 30
0.0
 11
180.721313
 21
430.309814
 31
0.0
  0
LINE
  5
5B5
100
AcDbEntity
  8
LAY-9
  6
CONTINUOUS
 62
     1
100
AcDbLine
 10
180.721313
 20
430.309814
 30
0.0
 11
180.721313
 21
425.809814
 31
0.0
  0
LINE
  5
5B6
100
AcDbEntity
  8
LAY-9
  6
CONTINUOUS
 62
     1
100
AcDbLine
 10
329.721344
 20
425.809814
 30
0.0
 11
329.721344
 21
430.309814
 31
0.0
  0
LINE
  5
5B7
100
AcDbEntity
  8
LAY-9
  6
CONTINUOUS
 62
     1
100
AcDbLine
 10
329.721344
 20
430.309814
 30
0.0
 11
310.721344
 21
430.309814
 31
0.0
  0
LINE
  5
5B8
100
AcDbEntity
  8
LAY-9
  6
CONTINUOUS
 62
     1
100
AcDbLine
 10
310.721344
 20
430.309814
 30
0.0
 11
310.721344
 21
425.809814
 31
0.0
  0
LINE
  5
5B9
100
AcDbEntity
  8
LAY-9
  6
CONTINUOUS
 62
     1
100
AcDbLine
 10
171.505569
 20
425.809814
 30
0.0
 11
176.005569
 21
430.309814
 31
0.0
  0
LINE
  5
5BA
100
AcDbEntity
  8
LAY-9
  6
CONTINUOUS
 62
     1
100
AcDbLine
 10
174.333996
 20
425.809814
 30
0.0
 11
178.833996
 21
430.309814
 31
0.0
  0
LINE
  5
5BB
100
AcDbEntity
  8
LAY-9
  6
CONTINUOUS
 62
     1
100
AcDbLine
 10
318.133996
 20
425.809814
 30
0.0
 11
322.633996
 21
430.309814
 31
0.0
  0
LINE
  5
5BC
100
AcDbEntity
  8
LAY-9
  6
CONTINUOUS
 62
     1
100
AcDbLine
 10
320.962423
 20
425.809814
 30
0.0
 11
325.462423
 21
430.309814
 31
0.0
  0
LINE
  5
5BD
100
AcDbEntity
  8
LAY-9
  6
CONTINUOUS
 62
     1
100
AcDbLine
 10
329.721344
 20
410.809814
 30
0.0
 11
329.721344
 21
406.309814
 31
0.0
  0
LINE
  5
5BE
100
AcDbEntity
  8
LAY-9
  6
CONTINUOUS
 62
     1
100
AcDbLine
 10
329.721344
 20
406.309814
 30
0.0
 11
214.721344
 21
406.309814
 31
0.0
  0
LINE
  5
5BF
100
AcDbEntity
  8
LAY-9
  6
CONTINUOUS
 62
     1
100
AcDbLine
 10
214.721344
 20
406.309814
 30
0.0
 11
214.721344
 21
410.809814
 31
0.0
  0
LINE
  5
5C0
100
AcDbEntity
  8
LAY-9
  6
CONTINUOUS
 62
     1
100
AcDbLine
 10
228.361304
 20
406.309814
 30
0.0
 11
232.861304
 21
410.809814
 31
0.0
  0
LINE
  5
5C1
100
AcDbEntity
  8
LAY-9
  6
CONTINUOUS
 62
     1
100
AcDbLine
 10
231.189731
 20
406.309814
 30
0.0
 11
235.689731
 21
410.809814
 31
0.0
  0
LINE
  5
5C2
100
AcDbEntity
  8
LAY-9
  6
CONTINUOUS
 62
     1
100
AcDbLine
 10
256.645575
 20
406.309814
 30
0.0
 11
261.145575
 21
410.809814
 31
0.0
  0
LINE
  5
5C3
100
AcDbEntity
  8
LAY-9
  6
CONTINUOUS
 62
     1
100
AcDbLine
 10
259.474002
 20
406.309814
 30
0.0
 11
263.974002
 21
410.809814
 31
0.0
  0
LINE
  5
5C4
100
AcDbEntity
  8
LAY-9
  6
CONTINUOUS
 62
     1
100
AcDbLine
 10
284.929847
 20
406.309814
 30
0.0
 11
289.429847
 21
410.809814
 31
0.0
  0
LINE
  5
5C5
100
AcDbEntity
  8
LAY-9
  6
CONTINUOUS
 62
     1
100
AcDbLine
 10
287.758274
 20
406.309814
 30
0.0
 11
292.258274
 21
410.809814
 31
0.0
  0
LINE
  5
5C6
100
AcDbEntity
  8
LAY-9
  6
CONTINUOUS
 62
     1
100
AcDbLine
 10
313.214118
 20
406.309814
 30
0.0
 11
317.714118
 21
410.809814
 31
0.0
  0
LINE
  5
5C7
100
AcDbEntity
  8
LAY-9
  6
CONTINUOUS
 62
     1
100
AcDbLine
 10
316.042545
 20
406.309814
 30
0.0
 11
320.542545
 21
410.809814
 31
0.0
  0
LINE
  5
5C8
100
AcDbEntity
  8
LAY-9
  6
CONTINUOUS
 62
     1
100
AcDbLine
 10
136.321344
 20
186.599939
 30
0.0
 11
136.321344
 21
130.552002
 31
0.0
  0
LINE
  5
5C9
100
AcDbEntity
  8
LAY-9
  6
CONTINUOUS
 62
     1
100
AcDbLine
 10
134.721344
 20
186.599939
 30
0.0
 11
134.721344
 21
130.552002
 31
0.0
  0
LINE
  5
5CA
100
AcDbEntity
  8
LAY-9
  6
CONTINUOUS
 62
     1
100
AcDbLine
 10
158.522049
 20
150.552002
 30
0.0
 11
163.022049
 21
155.052002
 31
0.0
  0
LINE
  5
5CB
100
AcDbEntity
  8
LAY-9
  6
CONTINUOUS
 62
     1
100
AcDbLine
 10
161.350476
 20
150.552002
 30
0.0
 11
165.850476
 21
155.052002
 31
0.0
  0
LINE
  5
5CC
100
AcDbEntity
  8
LAY-9
  6
CONTINUOUS
 62
     1
100
AcDbLine
 10
186.80632
 20
150.552002
 30
0.0
 11
191.30632
 21
155.052002
 31
0.0
  0
LINE
  5
5CD
100
AcDbEntity
  8
LAY-9
  6
CONTINUOUS
 62
     1
100
AcDbLine
 10
189.634747
 20
150.552002
 30
0.0
 11
194.134747
 21
155.052002
 31
0.0
  0
LINE
  5
5CE
100
AcDbEntity
  8
LAY-9
  6
CONTINUOUS
 62
     1
100
AcDbLine
 10
215.090591
 20
150.552002
 30
0.0
 11
219.590591
 21
155.052002
 31
0.0
  0
LINE
  5
5CF
100
AcDbEntity
  8
LAY-9
  6
CONTINUOUS
 62
     1
100
AcDbLine
 10
217.919019
 20
150.552002
 30
0.0
 11
222.419019
 21
155.052002
 31
0.0
  0
LINE
  5
5D0
100
AcDbEntity
  8
LAY-9
  6
CONTINUOUS
 62
     1
100
AcDbLine
 10
243.374863
 20
150.552002
 30
0.0
 11
247.874863
 21
155.052002
 31
0.0
  0
LINE
  5
5D1
100
AcDbEntity
  8
LAY-9
  6
CONTINUOUS
 62
     1
100
AcDbLine
 10
246.20329
 20
150.552002
 30
0.0
 11
250.70329
 21
155.052002
 31
0.0
  0
LINE
  5
5D2
100
AcDbEntity
  8
LAY-9
  6
CONTINUOUS
 62
     1
100
AcDbLine
 10
271.659134
 20
150.552002
 30
0.0
 11
276.159134
 21
155.052002
 31
0.0
  0
LINE
  5
5D3
100
AcDbEntity
  8
LAY-9
  6
CONTINUOUS
 62
     1
100
AcDbLine
 10
274.487561
 20
150.552002
 30
0.0
 11
278.987561
 21
155.052002
 31
0.0
  0
LINE
  5
5D4
100
AcDbEntity
  8
LAY-9
  6
CONTINUOUS
 62
     1
100
AcDbLine
 10
299.943405
 20
150.552002
 30
0.0
 11
304.443405
 21
155.052002
 31
0.0
  0
LINE
  5
5D5
100
AcDbEntity
  8
LAY-9
  6
CONTINUOUS
 62
     1
100
AcDbLine
 10
302.771832
 20
150.552002
 30
0.0
 11
307.271832
 21
155.052002
 31
0.0
  0
LINE
  5
5D6
100
AcDbEntity
  8
LAY-9
  6
CONTINUOUS
 62
     1
100
AcDbLine
 10
328.227676
 20
150.552002
 30
0.0
 11
332.727676
 21
155.052002
 31
0.0
  0
LINE
  5
5D7
100
AcDbEntity
  8
LAY-9
  6
CONTINUOUS
 62
     1
100
AcDbLine
 10
331.056104
 20
150.552002
 30
0.0
 11
335.556104
 21
155.052002
 31
0.0
  0
LINE
  5
5D8
100
AcDbEntity
  8
LAY-9
  6
CONTINUOUS
 62
     1
100
AcDbLine
 10
356.511948
 20
150.552002
 30
0.0
 11
361.011948
 21
155.052002
 31
0.0
  0
LINE
  5
5D9
100
AcDbEntity
  8
LAY-9
  6
CONTINUOUS
 62
     1
100
AcDbLine
 10
359.340375
 20
150.552002
 30
0.0
 11
363.840375
 21
155.052002
 31
0.0
  0
LINE
  5
5DA
100
AcDbEntity
  8
LAY-9
  6
CONTINUOUS
 62
     1
100
AcDbLine
 10
134.721344
 20
130.552002
 30
0.0
 11
182.221338
 21
130.552002
 31
0.0
  0
ARC
  5
5DB
100
AcDbEntity
  8
LAY-9
  6
CONTINUOUS
 62
     1
100
AcDbCircle
 10
194.721344
 20
244.052078
 30
0.0
 40
60.0
100
AcDbArc
 50
160.528779
 51
199.471221
  0
LINE
  5
5DC
100
AcDbEntity
  8
LAY-9
  6
CONTINUOUS
 62
     1
100
AcDbLine
 10
645.378461
 20
357.052032
 30
0.0
 11
677.578461
 21
357.052032
 31
0.0
  0
LINE
  5
5DD
100
AcDbEntity
  8
LAY-9
  6
CONTINUOUS
 62
     1
100
AcDbLine
 10
645.378461
 20
352.552063
 30
0.0
 11
677.578461
 21
352.552063
 31
0.0
  0
LINE
  5
5DE
100
AcDbEntity
  8
LAY-9
  6
CONTINUOUS
 62
     1
100
AcDbLine
 10
650.531729
 20
352.552063
 30
0.0
 11
655.031729
 21
357.052063
 31
0.0
  0
LINE
  5
5DF
100
AcDbEntity
  8
LAY-9
  6
CONTINUOUS
 62
     1
100
AcDbLine
 10
653.360156
 20
352.552063
 30
0.0
 11
657.860156
 21
357.052063
 31
0.0
  0
LINE
  5
5E0
100
AcDbEntity
  8
LAY-9
  6
CONTINUOUS
 62
     1
100
AcDbLine
 10
670.330719
 20
352.552063
 30
0.0
 11
674.830719
 21
357.052063
 31
0.0
  0
LINE
  5
5E1
100
AcDbEntity
  8
LAY-9
  6
CONTINUOUS
 62
     1
100
AcDbLine
 10
645.978461
 20
356.984076
 30
0.0
 11
646.046448
 21
357.052063
 31
0.0
  0
LINE
  5
5E2
100
AcDbEntity
  8
LAY-9
  6
CONTINUOUS
 62
     1
100
AcDbLine
 10
673.159146
 20
352.552063
 30
0.0
 11
677.578461
 21
356.971378
 31
0.0
  0
LINE
  5
5E3
100
AcDbEntity
  8
LAY-9
  6
CONTINUOUS
 62
     1
100
AcDbLine
 10
645.378461
 20
359.352032
 30
0.0
 11
677.578461
 21
359.352032
 31
0.0
  0
ARC
  5
5E4
100
AcDbEntity
  8
LAY-9
  6
CONTINUOUS
 62
     1
100
AcDbCircle
 10
645.378461
 20
357.052032
 30
0.0
 40
2.3
100
AcDbArc
 50
90.0
 51
180.0
  0
ARC
  5
5E5
100
AcDbEntity
  8
LAY-9
  6
CONTINUOUS
 62
     1
100
AcDbCircle
 10
677.578461
 20
357.052032
 30
0.0
 40
2.3
100
AcDbArc
 50
0.0
 51
90.0
  0
LINE
  5
5E6
100
AcDbEntity
  8
LAY-9
  6
CONTINUOUS
 62
     1
100
AcDbLine
 10
679.978339
 20
489.009814
 30
0.0
 11
710.3
 21
489.009814
 31
0.0
  0
LINE
  5
5E7
100
AcDbEntity
  8
LAY-9
  6
CONTINUOUS
 62
     1
100
AcDbLine
 10
645.378461
 20
482.109811
 30
0.0
 11
645.378461
 21
464.409811
 31
0.0
  0
LINE
  5
5E8
100
AcDbEntity
  8
LAY-9
  6
CONTINUOUS
 62
     1
100
AcDbLine
 10
677.578461
 20
482.109811
 30
0.0
 11
677.578461
 21
464.409811
 31
0.0
  0
ARC
  5
5E9
100
AcDbEntity
  8
LAY-9
  6
CONTINUOUS
 62
     1
100
AcDbCircle
 10
643.078461
 20
484.409811
 30
0.0
 40
1.6
100
AcDbArc
 50
90.0
 51
180.0
  0
ARC
  5
5EA
100
AcDbEntity
  8
LAY-9
  6
CONTINUOUS
 62
     1
100
AcDbCircle
 10
679.878461
 20
484.409811
 30
0.0
 40
1.6
100
AcDbArc
 50
0.0
 51
90.0
  0
LINE
  5
5EB
100
AcDbEntity
  8
LAY-9
  6
CONTINUOUS
 62
     1
100
AcDbLine
 10
645.378461
 20
464.409811
 30
0.0
 11
643.078461
 21
464.409811
 31
0.0
  0
LINE
  5
5EC
100
AcDbEntity
  8
LAY-9
  6
CONTINUOUS
 62
     1
100
AcDbLine
 10
677.578461
 20
464.409811
 30
0.0
 11
679.878461
 21
464.409811
 31
0.0
  0
ARC
  5
5ED
100
AcDbEntity
  8
LAY-9
  6
CONTINUOUS
 62
     1
100
AcDbCircle
 10
645.378461
 20
482.109811
 30
0.0
 40
2.3
100
AcDbArc
 50
90.0
 51
180.0
  0
ARC
  5
5EE
100
AcDbEntity
  8
LAY-9
  6
CONTINUOUS
 62
     1
100
AcDbCircle
 10
677.578461
 20
482.109811
 30
0.0
 40
2.3
100
AcDbArc
 50
0.0
 51
90.0
  0
LINE
  5
5EF
100
AcDbEntity
  8
LAY-9
  6
CONTINUOUS
 62
     1
100
AcDbLine
 10
643.078461
 20
484.409811
 30
0.0
 11
645.478339
 21
484.409811
 31
0.0
  0
LINE
  5
5F0
100
AcDbEntity
  8
LAY-9
  6
CONTINUOUS
 62
     1
100
AcDbLine
 10
677.478339
 20
484.409811
 30
0.0
 11
679.878461
 21
484.409811
 31
0.0
  0
LINE
  5
5F1
100
AcDbEntity
  8
LAY-9
  6
CONTINUOUS
 62
     1
100
AcDbLine
 10
645.378461
 20
482.109811
 30
0.0
 11
645.478339
 21
482.109811
 31
0.0
  0
LINE
  5
5F2
100
AcDbEntity
  8
LAY-9
  6
CONTINUOUS
 62
     1
100
AcDbLine
 10
677.478339
 20
482.109811
 30
0.0
 11
677.578461
 21
482.109811
 31
0.0
  0
LINE
  5
5F3
100
AcDbEntity
  8
LAY-9
  6
CONTINUOUS
 62
     1
100
AcDbLine
 10
641.478461
 20
484.409811
 30
0.0
 11
641.478461
 21
411.6
 31
0.0
  0
LINE
  5
5F4
100
AcDbEntity
  8
LAY-9
  6
CONTINUOUS
 62
     1
100
AcDbLine
 10
681.478461
 20
484.409811
 30
0.0
 11
681.478461
 21
411.6
 31
0.0
  0
LINE
  5
5F5
100
AcDbEntity
  8
LAY-9
  6
CONTINUOUS
 62
     1
100
AcDbLine
 10
679.878461
 20
484.409811
 30
0.0
 11
679.878461
 21
411.6
 31
0.0
  0
LINE
  5
5F6
100
AcDbEntity
  8
LAY-9
  6
CONTINUOUS
 62
     1
100
AcDbLine
 10
643.078461
 20
484.409811
 30
0.0
 11
643.078461
 21
411.6
 31
0.0
  0
LINE
  5
5F7
100
AcDbEntity
  8
LAY-9
  6
CONTINUOUS
 62
     1
100
AcDbLine
 10
136.321344
 20
415.209814
 30
0.0
 11
136.321344
 21
370.0
 31
0.0
  0
LINE
  5
5F8
100
AcDbEntity
  8
LAY-9
  6
CONTINUOUS
 62
     1
100
AcDbLine
 10
134.721344
 20
416.809814
 30
0.0
 11
134.721344
 21
370.0
 31
0.0
  0
LINE
  5
5F9
100
AcDbEntity
  8
LAY-9
  6
CONTINUOUS
 62
     1
100
AcDbLine
 10
131.721344
 20
419.809814
 30
0.0
 11
131.721344
 21
370.0
 31
0.0
  0
ARC
  5
5FA
100
AcDbEntity
  8
LAY-9
  6
CONTINUOUS
 62
     1
100
AcDbCircle
 10
194.721344
 20
327.15741
 30
0.0
 40
60.0
100
AcDbArc
 50
160.528779
 51
199.471221
  0
LINE
  5
5FB
100
AcDbEntity
  8
LAY-9
  6
CONTINUOUS
 62
     1
100
AcDbLine
 10
138.152802
 20
347.15741
 30
0.0
 11
385.760229
 21
347.15741
 31
0.0
  0
LINE
  5
5FC
100
AcDbEntity
  8
LAY-9
  6
CONTINUOUS
 62
     1
100
AcDbLine
 10
138.152802
 20
307.15741
 30
0.0
 11
385.760229
 21
307.15741
 31
0.0
  0
POLYLINE
  5
5FD
100
AcDbEntity
  8
LAY-9
  6
CONTINUOUS
 62
     1
100
AcDb2dPolyline
 66
     1
 10
0.0
 20
0.0
 30
0.0
 70
   128
  0
VERTEX
  5
5FE
100
AcDbEntity
  8
LAY-9
  6
CONTINUOUS
 62
     1
100
AcDbVertex
100
AcDb2dVertex
 10
385.760229
 20
347.15741
 30
0.0
  0
VERTEX
  5
5FF
100
AcDbEntity
  8
LAY-9
  6
CONTINUOUS
 62
     1
100
AcDbVertex
100
AcDb2dVertex
 10
385.827992
 20
347.001725
 30
0.0
  0
VERTEX
  5
600
100
AcDbEntity
  8
LAY-9
  6
CONTINUOUS
 62
     1
100
AcDbVertex
100
AcDb2dVertex
 10
386.014094
 20
346.560078
 30
0.0
  0
VERTEX
  5
601
100
AcDbEntity
  8
LAY-9
  6
CONTINUOUS
 62
     1
100
AcDbVertex
100
AcDb2dVertex
 10
386.292752
 20
345.87058
 30
0.0
  0
VERTEX
  5
602
100
AcDbEntity
  8
LAY-9
  6
CONTINUOUS
 62
     1
100
AcDbVertex
100
AcDb2dVertex
 10
386.638185
 20
344.971342
 30
0.0
  0
VERTEX
  5
603
100
AcDbEntity
  8
LAY-9
  6
CONTINUOUS
 62
     1
100
AcDbVertex
100
AcDb2dVertex
 10
387.024611
 20
343.900477
 30
0.0
  0
VERTEX
  5
604
100
AcDbEntity
  8
LAY-9
  6
CONTINUOUS
 62
     1
100
AcDbVertex
100
AcDb2dVertex
 10
387.426247
 20
342.696094
 30
0.0
  0
VERTEX
  5
605
100
AcDbEntity
  8
LAY-9
  6
CONTINUOUS
 62
     1
100
AcDbVertex
100
AcDb2dVertex
 10
387.817313
 20
341.396307
 30
0.0
  0
VERTEX
  5
606
100
AcDbEntity
  8
LAY-9
  6
CONTINUOUS
 62
     1
100
AcDbVertex
100
AcDb2dVertex
 10
388.172026
 20
340.039225
 30
0.0
  0
VERTEX
  5
607
100
AcDbEntity
  8
LAY-9
  6
CONTINUOUS
 62
     1
100
AcDbVertex
100
AcDb2dVertex
 10
388.464604
 20
338.662961
 30
0.0
  0
VERTEX
  5
608
100
AcDbEntity
  8
LAY-9
  6
CONTINUOUS
 62
     1
100
AcDbVertex
100
AcDb2dVertex
 10
388.669266
 20
337.305627
 30
0.0
  0
VERTEX
  5
609
100
AcDbEntity
  8
LAY-9
  6
CONTINUOUS
 62
     1
100
AcDbVertex
100
AcDb2dVertex
 10
388.760229
 20
336.005332
 30
0.0
  0
VERTEX
  5
60A
100
AcDbEntity
  8
LAY-9
  6
CONTINUOUS
 62
     1
100
AcDbVertex
100
AcDb2dVertex
 10
388.736357
 20
335.01118
 30
0.0
  0
VERTEX
  5
60B
100
AcDbEntity
  8
LAY-9
  6
CONTINUOUS
 62
     1
100
AcDbVertex
100
AcDb2dVertex
 10
388.629395
 20
334.074
 30
0.0
  0
VERTEX
  5
60C
100
AcDbEntity
  8
LAY-9
  6
CONTINUOUS
 62
     1
100
AcDbVertex
100
AcDb2dVertex
 10
388.448632
 20
333.187745
 30
0.0
  0
VERTEX
  5
60D
100
AcDbEntity
  8
LAY-9
  6
CONTINUOUS
 62
     1
100
AcDbVertex
100
AcDb2dVertex
 10
388.203355
 20
332.346367
 30
0.0
  0
VERTEX
  5
60E
100
AcDbEntity
  8
LAY-9
  6
CONTINUOUS
 62
     1
100
AcDbVertex
100
AcDb2dVertex
 10
387.902852
 20
331.543819
 30
0.0
  0
VERTEX
  5
60F
100
AcDbEntity
  8
LAY-9
  6
CONTINUOUS
 62
     1
100
AcDbVertex
100
AcDb2dVertex
 10
387.556412
 20
330.774055
 30
0.0
  0
VERTEX
  5
610
100
AcDbEntity
  8
LAY-9
  6
CONTINUOUS
 62
     1
100
AcDbVertex
100
AcDb2dVertex
 10
387.173323
 20
330.031027
 30
0.0
  0
VERTEX
  5
611
100
AcDbEntity
  8
LAY-9
  6
CONTINUOUS
 62
     1
100
AcDbVertex
100
AcDb2dVertex
 10
386.762871
 20
329.308687
 30
0.0
  0
VERTEX
  5
612
100
AcDbEntity
  8
LAY-9
  6
CONTINUOUS
 62
     1
100
AcDbVertex
100
AcDb2dVertex
 10
386.334347
 20
328.60099
 30
0.0
  0
VERTEX
  5
613
100
AcDbEntity
  8
LAY-9
  6
CONTINUOUS
 62
     1
100
AcDbVertex
100
AcDb2dVertex
 10
385.897037
 20
327.901887
 30
0.0
  0
VERTEX
  5
614
100
AcDbEntity
  8
LAY-9
  6
CONTINUOUS
 62
     1
100
AcDbVertex
100
AcDb2dVertex
 10
385.460229
 20
327.205332
 30
0.0
  0
VERTEX
  5
615
100
AcDbEntity
  8
LAY-9
  6
CONTINUOUS
 62
     1
100
AcDbVertex
100
AcDb2dVertex
 10
385.054279
 20
326.541289
 30
0.0
  0
VERTEX
  5
616
100
AcDbEntity
  8
LAY-9
  6
CONTINUOUS
 62
     1
100
AcDbVertex
100
AcDb2dVertex
 10
384.662967
 20
325.869448
 30
0.0
  0
VERTEX
  5
617
100
AcDbEntity
  8
LAY-9
  6
CONTINUOUS
 62
     1
100
AcDbVertex
100
AcDb2dVertex
 10
384.292112
 20
325.185163
 30
0.0
  0
VERTEX
  5
618
100
AcDbEntity
  8
LAY-9
  6
CONTINUOUS
 62
     1
100
AcDbVertex
100
AcDb2dVertex
 10
383.947535
 20
324.483788
 30
0.0
  0
VERTEX
  5
619
100
AcDbEntity
  8
LAY-9
  6
CONTINUOUS
 62
     1
100
AcDbVertex
100
AcDb2dVertex
 10
383.635057
 20
323.760676
 30
0.0
  0
VERTEX
  5
61A
100
AcDbEntity
  8
LAY-9
  6
CONTINUOUS
 62
     1
100
AcDbVertex
100
AcDb2dVertex
 10
383.360499
 20
323.011181
 30
0.0
  0
VERTEX
  5
61B
100
AcDbEntity
  8
LAY-9
  6
CONTINUOUS
 62
     1
100
AcDbVertex
100
AcDb2dVertex
 10
383.129682
 20
322.230656
 30
0.0
  0
VERTEX
  5
61C
100
AcDbEntity
  8
LAY-9
  6
CONTINUOUS
 62
     1
100
AcDbVertex
100
AcDb2dVertex
 10
382.948425
 20
321.414455
 30
0.0
  0
VERTEX
  5
61D
100
AcDbEntity
  8
LAY-9
  6
CONTINUOUS
 62
     1
100
AcDbVertex
100
AcDb2dVertex
 10
382.82255
 20
320.557931
 30
0.0
  0
VERTEX
  5
61E
100
AcDbEntity
  8
LAY-9
  6
CONTINUOUS
 62
     1
100
AcDbVertex
100
AcDb2dVertex
 10
382.757878
 20
319.656439
 30
0.0
  0
VERTEX
  5
61F
100
AcDbEntity
  8
LAY-9
  6
CONTINUOUS
 62
     1
100
AcDbVertex
100
AcDb2dVertex
 10
382.760229
 20
318.705332
 30
0.0
  0
VERTEX
  5
620
100
AcDbEntity
  8
LAY-9
  6
CONTINUOUS
 62
     1
100
AcDbVertex
100
AcDb2dVertex
 10
382.871897
 20
317.355665
 30
0.0
  0
VERTEX
  5
621
100
AcDbEntity
  8
LAY-9
  6
CONTINUOUS
 62
     1
100
AcDbVertex
100
AcDb2dVertex
 10
383.089395
 20
315.948156
 30
0.0
  0
VERTEX
  5
622
100
AcDbEntity
  8
LAY-9
  6
CONTINUOUS
 62
     1
100
AcDbVertex
100
AcDb2dVertex
 10
383.388185
 20
314.522076
 30
0.0
  0
VERTEX
  5
623
100
AcDbEntity
  8
LAY-9
  6
CONTINUOUS
 62
     1
100
AcDbVertex
100
AcDb2dVertex
 10
383.743726
 20
313.116696
 30
0.0
  0
VERTEX
  5
624
100
AcDbEntity
  8
LAY-9
  6
CONTINUOUS
 62
     1
100
AcDbVertex
100
AcDb2dVertex
 10
384.131479
 20
311.771287
 30
0.0
  0
VERTEX
  5
625
100
AcDbEntity
  8
LAY-9
  6
CONTINUOUS
 62
     1
100
AcDbVertex
100
AcDb2dVertex
 10
384.526904
 20
310.525121
 30
0.0
  0
VERTEX
  5
626
100
AcDbEntity
  8
LAY-9
  6
CONTINUOUS
 62
     1
100
AcDbVertex
100
AcDb2dVertex
 10
384.905462
 20
309.417468
 30
0.0
  0
VERTEX
  5
627
100
AcDbEntity
  8
LAY-9
  6
CONTINUOUS
 62
     1
100
AcDbVertex
100
AcDb2dVertex
 10
385.242613
 20
308.487599
 30
0.0
  0
VERTEX
  5
628
100
AcDbEntity
  8
LAY-9
  6
CONTINUOUS
 62
     1
100
AcDbVertex
100
AcDb2dVertex
 10
385.513818
 20
307.774786
 30
0.0
  0
VERTEX
  5
629
100
AcDbEntity
  8
LAY-9
  6
CONTINUOUS
 62
     1
100
AcDbVertex
100
AcDb2dVertex
 10
385.694536
 20
307.318299
 30
0.0
  0
VERTEX
  5
62A
100
AcDbEntity
  8
LAY-9
  6
CONTINUOUS
 62
     1
100
AcDbVertex
100
AcDb2dVertex
 10
385.760229
 20
307.15741
 30
0.0
  0
SEQEND
  5
62B
100
AcDbEntity
  8
LAY-9
  6
CONTINUOUS
 62
     1
  0
LINE
  5
62C
100
AcDbEntity
  8
LAY-9
  6
DIVIDE
 62
     1
100
AcDbLine
 10
636.5
 20
411.6
 30
0.0
 11
686.3
 21
411.6
 31
0.0
  0
LINE
  5
62D
100
AcDbEntity
  8
LAY-9
  6
DIVIDE
 62
     1
100
AcDbLine
 10
636.5
 20
406.6
 30
0.0
 11
686.3
 21
406.6
 31
0.0
  0
LINE
  5
62E
100
AcDbEntity
  8
LAY-9
  6
CONTINUOUS
 62
     1
100
AcDbLine
 10
359.8
 20
419.809814
 30
0.0
 11
391.0
 21
419.809814
 31
0.0
  0
LINE
  5
62F
100
AcDbEntity
  8
LAY-9
  6
CONTINUOUS
 62
     1
100
AcDbLine
 10
358.8
 20
416.809814
 30
0.0
 11
390.0
 21
416.809814
 31
0.0
  0
LINE
  5
630
100
AcDbEntity
  8
LAY-9
  6
CONTINUOUS
 62
     1
100
AcDbLine
 10
134.721344
 20
416.809814
 30
0.0
 11
178.721329
 21
416.809814
 31
0.0
  0
LINE
  5
631
100
AcDbEntity
  8
LAY-9
  6
CONTINUOUS
 62
     1
100
AcDbLine
 10
131.721344
 20
419.809814
 30
0.0
 11
153.721344
 21
419.809814
 31
0.0
  0
LINE
  5
632
100
AcDbEntity
  8
LAY-9
  6
CONTINUOUS
 62
     1
100
AcDbLine
 10
643.078461
 20
486.009811
 30
0.0
 11
645.478461
 21
486.009811
 31
0.0
  0
LINE
  5
633
100
AcDbEntity
  8
LAY-9
  6
CONTINUOUS
 62
     1
100
AcDbLine
 10
678.83
 20
486.009811
 30
0.0
 11
679.878461
 21
486.009811
 31
0.0
  0
LINE
  5
634
100
AcDbEntity
  8
LAY-9
  6
CONTINUOUS
 62
     1
100
AcDbLine
 10
138.152802
 20
264.052078
 30
0.0
 11
385.760229
 21
264.052078
 31
0.0
  0
LINE
  5
635
100
AcDbEntity
  8
LAY-9
  6
CONTINUOUS
 62
     1
100
AcDbLine
 10
138.152802
 20
224.052078
 30
0.0
 11
385.760229
 21
224.052078
 31
0.0
  0
POLYLINE
  5
636
100
AcDbEntity
  8
LAY-9
  6
CONTINUOUS
 62
     1
100
AcDb2dPolyline
 66
     1
 10
0.0
 20
0.0
 30
0.0
 70
   128
  0
VERTEX
  5
637
100
AcDbEntity
  8
LAY-9
  6
CONTINUOUS
 62
     1
100
AcDbVertex
100
AcDb2dVertex
 10
385.760229
 20
264.052078
 30
0.0
  0
VERTEX
  5
638
100
AcDbEntity
  8
LAY-9
  6
CONTINUOUS
 62
     1
100
AcDbVertex
100
AcDb2dVertex
 10
385.827992
 20
263.896393
 30
0.0
  0
VERTEX
  5
639
100
AcDbEntity
  8
LAY-9
  6
CONTINUOUS
 62
     1
100
AcDbVertex
100
AcDb2dVertex
 10
386.014094
 20
263.454746
 30
0.0
  0
VERTEX
  5
63A
100
AcDbEntity
  8
LAY-9
  6
CONTINUOUS
 62
     1
100
AcDbVertex
100
AcDb2dVertex
 10
386.292752
 20
262.765248
 30
0.0
  0
VERTEX
  5
63B
100
AcDbEntity
  8
LAY-9
  6
CONTINUOUS
 62
     1
100
AcDbVertex
100
AcDb2dVertex
 10
386.638185
 20
261.86601
 30
0.0
  0
VERTEX
  5
63C
100
AcDbEntity
  8
LAY-9
  6
CONTINUOUS
 62
     1
100
AcDbVertex
100
AcDb2dVertex
 10
387.024611
 20
260.795145
 30
0.0
  0
VERTEX
  5
63D
100
AcDbEntity
  8
LAY-9
  6
CONTINUOUS
 62
     1
100
AcDbVertex
100
AcDb2dVertex
 10
387.426247
 20
259.590762
 30
0.0
  0
VERTEX
  5
63E
100
AcDbEntity
  8
LAY-9
  6
CONTINUOUS
 62
     1
100
AcDbVertex
100
AcDb2dVertex
 10
387.817313
 20
258.290975
 30
0.0
  0
VERTEX
  5
63F
100
AcDbEntity
  8
LAY-9
  6
CONTINUOUS
 62
     1
100
AcDbVertex
100
AcDb2dVertex
 10
388.172026
 20
256.933893
 30
0.0
  0
VERTEX
  5
640
100
AcDbEntity
  8
LAY-9
  6
CONTINUOUS
 62
     1
100
AcDbVertex
100
AcDb2dVertex
 10
388.464604
 20
255.557629
 30
0.0
  0
VERTEX
  5
641
100
AcDbEntity
  8
LAY-9
  6
CONTINUOUS
 62
     1
100
AcDbVertex
100
AcDb2dVertex
 10
388.669266
 20
254.200295
 30
0.0
  0
VERTEX
  5
642
100
AcDbEntity
  8
LAY-9
  6
CONTINUOUS
 62
     1
100
AcDbVertex
100
AcDb2dVertex
 10
388.760229
 20
252.9
 30
0.0
  0
VERTEX
  5
643
100
AcDbEntity
  8
LAY-9
  6
CONTINUOUS
 62
     1
100
AcDbVertex
100
AcDb2dVertex
 10
388.736357
 20
251.905848
 30
0.0
  0
VERTEX
  5
644
100
AcDbEntity
  8
LAY-9
  6
CONTINUOUS
 62
     1
100
AcDbVertex
100
AcDb2dVertex
 10
388.629395
 20
250.968668
 30
0.0
  0
VERTEX
  5
645
100
AcDbEntity
  8
LAY-9
  6
CONTINUOUS
 62
     1
100
AcDbVertex
100
AcDb2dVertex
 10
388.448632
 20
250.082413
 30
0.0
  0
VERTEX
  5
646
100
AcDbEntity
  8
LAY-9
  6
CONTINUOUS
 62
     1
100
AcDbVertex
100
AcDb2dVertex
 10
388.203355
 20
249.241035
 30
0.0
  0
VERTEX
  5
647
100
AcDbEntity
  8
LAY-9
  6
CONTINUOUS
 62
     1
100
AcDbVertex
100
AcDb2dVertex
 10
387.902852
 20
248.438487
 30
0.0
  0
VERTEX
  5
648
100
AcDbEntity
  8
LAY-9
  6
CONTINUOUS
 62
     1
100
AcDbVertex
100
AcDb2dVertex
 10
387.556412
 20
247.668723
 30
0.0
  0
VERTEX
  5
649
100
AcDbEntity
  8
LAY-9
  6
CONTINUOUS
 62
     1
100
AcDbVertex
100
AcDb2dVertex
 10
387.173323
 20
246.925695
 30
0.0
  0
VERTEX
  5
64A
100
AcDbEntity
  8
LAY-9
  6
CONTINUOUS
 62
     1
100
AcDbVertex
100
AcDb2dVertex
 10
386.762871
 20
246.203355
 30
0.0
  0
VERTEX
  5
64B
100
AcDbEntity
  8
LAY-9
  6
CONTINUOUS
 62
     1
100
AcDbVertex
100
AcDb2dVertex
 10
386.334347
 20
245.495658
 30
0.0
  0
VERTEX
  5
64C
100
AcDbEntity
  8
LAY-9
  6
CONTINUOUS
 62
     1
100
AcDbVertex
100
AcDb2dVertex
 10
385.897037
 20
244.796555
 30
0.0
  0
VERTEX
  5
64D
100
AcDbEntity
  8
LAY-9
  6
CONTINUOUS
 62
     1
100
AcDbVertex
100
AcDb2dVertex
 10
385.460229
 20
244.1
 30
0.0
  0
VERTEX
  5
64E
100
AcDbEntity
  8
LAY-9
  6
CONTINUOUS
 62
     1
100
AcDbVertex
100
AcDb2dVertex
 10
385.054279
 20
243.435957
 30
0.0
  0
VERTEX
  5
64F
100
AcDbEntity
  8
LAY-9
  6
CONTINUOUS
 62
     1
100
AcDbVertex
100
AcDb2dVertex
 10
384.662967
 20
242.764116
 30
0.0
  0
VERTEX
  5
650
100
AcDbEntity
  8
LAY-9
  6
CONTINUOUS
 62
     1
100
AcDbVertex
100
AcDb2dVertex
 10
384.292112
 20
242.079831
 30
0.0
  0
VERTEX
  5
651
100
AcDbEntity
  8
LAY-9
  6
CONTINUOUS
 62
     1
100
AcDbVertex
100
AcDb2dVertex
 10
383.947535
 20
241.378456
 30
0.0
  0
VERTEX
  5
652
100
AcDbEntity
  8
LAY-9
  6
CONTINUOUS
 62
     1
100
AcDbVertex
100
AcDb2dVertex
 10
383.635057
 20
240.655344
 30
0.0
  0
VERTEX
  5
653
100
AcDbEntity
  8
LAY-9
  6
CONTINUOUS
 62
     1
100
AcDbVertex
100
AcDb2dVertex
 10
383.360499
 20
239.905849
 30
0.0
  0
VERTEX
  5
654
100
AcDbEntity
  8
LAY-9
  6
CONTINUOUS
 62
     1
100
AcDbVertex
100
AcDb2dVertex
 10
383.129682
 20
239.125324
 30
0.0
  0
VERTEX
  5
655
100
AcDbEntity
  8
LAY-9
  6
CONTINUOUS
 62
     1
100
AcDbVertex
100
AcDb2dVertex
 10
382.948425
 20
238.309123
 30
0.0
  0
VERTEX
  5
656
100
AcDbEntity
  8
LAY-9
  6
CONTINUOUS
 62
     1
100
AcDbVertex
100
AcDb2dVertex
 10
382.82255
 20
237.452599
 30
0.0
  0
VERTEX
  5
657
100
AcDbEntity
  8
LAY-9
  6
CONTINUOUS
 62
     1
100
AcDbVertex
100
AcDb2dVertex
 10
382.757878
 20
236.551107
 30
0.0
  0
VERTEX
  5
658
100
AcDbEntity
  8
LAY-9
  6
CONTINUOUS
 62
     1
100
AcDbVertex
100
AcDb2dVertex
 10
382.760229
 20
235.6
 30
0.0
  0
VERTEX
  5
659
100
AcDbEntity
  8
LAY-9
  6
CONTINUOUS
 62
     1
100
AcDbVertex
100
AcDb2dVertex
 10
382.871897
 20
234.250333
 30
0.0
  0
VERTEX
  5
65A
100
AcDbEntity
  8
LAY-9
  6
CONTINUOUS
 62
     1
100
AcDbVertex
100
AcDb2dVertex
 10
383.089395
 20
232.842824
 30
0.0
  0
VERTEX
  5
65B
100
AcDbEntity
  8
LAY-9
  6
CONTINUOUS
 62
     1
100
AcDbVertex
100
AcDb2dVertex
 10
383.388185
 20
231.416744
 30
0.0
  0
VERTEX
  5
65C
100
AcDbEntity
  8
LAY-9
  6
CONTINUOUS
 62
     1
100
AcDbVertex
100
AcDb2dVertex
 10
383.743726
 20
230.011364
 30
0.0
  0
VERTEX
  5
65D
100
AcDbEntity
  8
LAY-9
  6
CONTINUOUS
 62
     1
100
AcDbVertex
100
AcDb2dVertex
 10
384.131479
 20
228.665955
 30
0.0
  0
VERTEX
  5
65E
100
AcDbEntity
  8
LAY-9
  6
CONTINUOUS
 62
     1
100
AcDbVertex
100
AcDb2dVertex
 10
384.526904
 20
227.419789
 30
0.0
  0
VERTEX
  5
65F
100
AcDbEntity
  8
LAY-9
  6
CONTINUOUS
 62
     1
100
AcDbVertex
100
AcDb2dVertex
 10
384.905462
 20
226.312136
 30
0.0
  0
VERTEX
  5
660
100
AcDbEntity
  8
LAY-9
  6
CONTINUOUS
 62
     1
100
AcDbVertex
100
AcDb2dVertex
 10
385.242613
 20
225.382267
 30
0.0
  0
VERTEX
  5
661
100
AcDbEntity
  8
LAY-9
  6
CONTINUOUS
 62
     1
100
AcDbVertex
100
AcDb2dVertex
 10
385.513818
 20
224.669454
 30
0.0
  0
VERTEX
  5
662
100
AcDbEntity
  8
LAY-9
  6
CONTINUOUS
 62
     1
100
AcDbVertex
100
AcDb2dVertex
 10
385.694536
 20
224.212967
 30
0.0
  0
VERTEX
  5
663
100
AcDbEntity
  8
LAY-9
  6
CONTINUOUS
 62
     1
100
AcDbVertex
100
AcDb2dVertex
 10
385.760229
 20
224.052078
 30
0.0
  0
SEQEND
  5
664
100
AcDbEntity
  8
LAY-9
  6
CONTINUOUS
 62
     1
  0
LINE
  5
665
100
AcDbEntity
  8
LAY-9
  6
CONTINUOUS
 62
     1
100
AcDbLine
 10
136.321344
 20
150.552002
 30
0.0
 11
385.540584
 21
150.552002
 31
0.0
  0
LINE
  5
666
100
AcDbEntity
  8
LAY-9
  6
CONTINUOUS
 62
     1
100
AcDbLine
 10
136.321344
 20
155.052002
 30
0.0
 11
387.03866
 21
155.052002
 31
0.0
  0
LINE
  5
667
100
AcDbEntity
  8
LAY-9
  6
CONTINUOUS
 62
     1
100
AcDbLine
 10
136.321344
 20
157.352002
 30
0.0
 11
387.536816
 21
157.352002
 31
0.0
  0
POLYLINE
  5
668
100
AcDbEntity
  8
LAY-9
  6
CONTINUOUS
 62
     1
100
AcDb2dPolyline
 66
     1
 10
0.0
 20
0.0
 30
0.0
 70
   128
  0
VERTEX
  5
669
100
AcDbEntity
  8
LAY-9
  6
CONTINUOUS
 62
     1
100
AcDbVertex
100
AcDb2dVertex
 10
385.7
 20
130.552002
 30
0.0
  0
VERTEX
  5
66A
100
AcDbEntity
  8
LAY-9
  6
CONTINUOUS
 62
     1
100
AcDbVertex
100
AcDb2dVertex
 10
385.664045
 20
130.684161
 30
0.0
  0
VERTEX
  5
66B
100
AcDbEntity
  8
LAY-9
  6
CONTINUOUS
 62
     1
100
AcDbVertex
100
AcDb2dVertex
 10
385.564281
 20
131.06
 30
0.0
  0
VERTEX
  5
66C
100
AcDbEntity
  8
LAY-9
  6
CONTINUOUS
 62
     1
100
AcDbVertex
100
AcDb2dVertex
 10
385.412859
 20
131.648559
 30
0.0
  0
VERTEX
  5
66D
100
AcDbEntity
  8
LAY-9
  6
CONTINUOUS
 62
     1
100
AcDbVertex
100
AcDb2dVertex
 10
385.221931
 20
132.418881
 30
0.0
  0
VERTEX
  5
66E
100
AcDbEntity
  8
LAY-9
  6
CONTINUOUS
 62
     1
100
AcDbVertex
100
AcDb2dVertex
 10
385.003649
 20
133.340005
 30
0.0
  0
VERTEX
  5
66F
100
AcDbEntity
  8
LAY-9
  6
CONTINUOUS
 62
     1
100
AcDbVertex
100
AcDb2dVertex
 10
384.770164
 20
134.380975
 30
0.0
  0
VERTEX
  5
670
100
AcDbEntity
  8
LAY-9
  6
CONTINUOUS
 62
     1
100
AcDbVertex
100
AcDb2dVertex
 10
384.533627
 20
135.51083
 30
0.0
  0
VERTEX
  5
671
100
AcDbEntity
  8
LAY-9
  6
CONTINUOUS
 62
     1
100
AcDbVertex
100
AcDb2dVertex
 10
384.306191
 20
136.698613
 30
0.0
  0
VERTEX
  5
672
100
AcDbEntity
  8
LAY-9
  6
CONTINUOUS
 62
     1
100
AcDbVertex
100
AcDb2dVertex
 10
384.100007
 20
137.913365
 30
0.0
  0
VERTEX
  5
673
100
AcDbEntity
  8
LAY-9
  6
CONTINUOUS
 62
     1
100
AcDbVertex
100
AcDb2dVertex
 10
383.927226
 20
139.124126
 30
0.0
  0
VERTEX
  5
674
100
AcDbEntity
  8
LAY-9
  6
CONTINUOUS
 62
     1
100
AcDbVertex
100
AcDb2dVertex
 10
383.8
 20
140.299939
 30
0.0
  0
VERTEX
  5
675
100
AcDbEntity
  8
LAY-9
  6
CONTINUOUS
 62
     1
100
AcDbVertex
100
AcDb2dVertex
 10
383.728821
 20
141.392372
 30
0.0
  0
VERTEX
  5
676
100
AcDbEntity
  8
LAY-9
  6
CONTINUOUS
 62
     1
100
AcDbVertex
100
AcDb2dVertex
 10
383.709446
 20
142.426505
 30
0.0
  0
VERTEX
  5
677
100
AcDbEntity
  8
LAY-9
  6
CONTINUOUS
 62
     1
100
AcDbVertex
100
AcDb2dVertex
 10
383.738443
 20
143.407124
 30
0.0
  0
VERTEX
  5
678
100
AcDbEntity
  8
LAY-9
  6
CONTINUOUS
 62
     1
100
AcDbVertex
100
AcDb2dVertex
 10
383.812381
 20
144.339016
 30
0.0
  0
VERTEX
  5
679
100
AcDbEntity
  8
LAY-9
  6
CONTINUOUS
 62
     1
100
AcDbVertex
100
AcDb2dVertex
 10
383.927828
 20
145.226967
 30
0.0
  0
VERTEX
  5
67A
100
AcDbEntity
  8
LAY-9
  6
CONTINUOUS
 62
     1
100
AcDbVertex
100
AcDb2dVertex
 10
384.081351
 20
146.075763
 30
0.0
  0
VERTEX
  5
67B
100
AcDbEntity
  8
LAY-9
  6
CONTINUOUS
 62
     1
100
AcDbVertex
100
AcDb2dVertex
 10
384.269519
 20
146.890191
 30
0.0
  0
VERTEX
  5
67C
100
AcDbEntity
  8
LAY-9
  6
CONTINUOUS
 62
     1
100
AcDbVertex
100
AcDb2dVertex
 10
384.4889
 20
147.675036
 30
0.0
  0
VERTEX
  5
67D
100
AcDbEntity
  8
LAY-9
  6
CONTINUOUS
 62
     1
100
AcDbVertex
100
AcDb2dVertex
 10
384.736061
 20
148.435085
 30
0.0
  0
VERTEX
  5
67E
100
AcDbEntity
  8
LAY-9
  6
CONTINUOUS
 62
     1
100
AcDbVertex
100
AcDb2dVertex
 10
385.007572
 20
149.175124
 30
0.0
  0
VERTEX
  5
67F
100
AcDbEntity
  8
LAY-9
  6
CONTINUOUS
 62
     1
100
AcDbVertex
100
AcDb2dVertex
 10
385.3
 20
149.899939
 30
0.0
  0
VERTEX
  5
680
100
AcDbEntity
  8
LAY-9
  6
CONTINUOUS
 62
     1
100
AcDbVertex
100
AcDb2dVertex
 10
385.599105
 20
150.592783
 30
0.0
  0
VERTEX
  5
681
100
AcDbEntity
  8
LAY-9
  6
CONTINUOUS
 62
     1
100
AcDbVertex
100
AcDb2dVertex
 10
385.906466
 20
151.285005
 30
0.0
  0
VERTEX
  5
682
100
AcDbEntity
  8
LAY-9
  6
CONTINUOUS
 62
     1
100
AcDbVertex
100
AcDb2dVertex
 10
386.213937
 20
151.985774
 30
0.0
  0
VERTEX
  5
683
100
AcDbEntity
  8
LAY-9
  6
CONTINUOUS
 62
     1
100
AcDbVertex
100
AcDb2dVertex
 10
386.51337
 20
152.704259
 30
0.0
  0
VERTEX
  5
684
100
AcDbEntity
  8
LAY-9
  6
CONTINUOUS
 62
     1
100
AcDbVertex
100
AcDb2dVertex
 10
386.796619
 20
153.449629
 30
0.0
  0
VERTEX
  5
685
100
AcDbEntity
  8
LAY-9
  6
CONTINUOUS
 62
     1
100
AcDbVertex
100
AcDb2dVertex
 10
387.055536
 20
154.231055
 30
0.0
  0
VERTEX
  5
686
100
AcDbEntity
  8
LAY-9
  6
CONTINUOUS
 62
     1
100
AcDbVertex
100
AcDb2dVertex
 10
387.281974
 20
155.057705
 30
0.0
  0
VERTEX
  5
687
100
AcDbEntity
  8
LAY-9
  6
CONTINUOUS
 62
     1
100
AcDbVertex
100
AcDb2dVertex
 10
387.467787
 20
155.938749
 30
0.0
  0
VERTEX
  5
688
100
AcDbEntity
  8
LAY-9
  6
CONTINUOUS
 62
     1
100
AcDbVertex
100
AcDb2dVertex
 10
387.604827
 20
156.883357
 30
0.0
  0
VERTEX
  5
689
100
AcDbEntity
  8
LAY-9
  6
CONTINUOUS
 62
     1
100
AcDbVertex
100
AcDb2dVertex
 10
387.684947
 20
157.900697
 30
0.0
  0
VERTEX
  5
68A
100
AcDbEntity
  8
LAY-9
  6
CONTINUOUS
 62
     1
100
AcDbVertex
100
AcDb2dVertex
 10
387.7
 20
158.999939
 30
0.0
  0
VERTEX
  5
68B
100
AcDbEntity
  8
LAY-9
  6
CONTINUOUS
 62
     1
100
AcDbVertex
100
AcDb2dVertex
 10
387.679443
 20
159.620872
 30
0.0
  0
VERTEX
  5
68C
100
AcDbEntity
  8
LAY-9
  6
CONTINUOUS
 62
     1
100
AcDbVertex
100
AcDb2dVertex
 10
387.641987
 20
160.252958
 30
0.0
  0
VERTEX
  5
68D
100
AcDbEntity
  8
LAY-9
  6
CONTINUOUS
 62
     1
100
AcDbVertex
100
AcDb2dVertex
 10
387.591605
 20
160.881386
 30
0.0
  0
VERTEX
  5
68E
100
AcDbEntity
  8
LAY-9
  6
CONTINUOUS
 62
     1
100
AcDbVertex
100
AcDb2dVertex
 10
387.53227
 20
161.491347
 30
0.0
  0
VERTEX
  5
68F
100
AcDbEntity
  8
LAY-9
  6
CONTINUOUS
 62
     1
100
AcDbVertex
100
AcDb2dVertex
 10
387.467956
 20
162.068031
 30
0.0
  0
VERTEX
  5
690
100
AcDbEntity
  8
LAY-9
  6
CONTINUOUS
 62
     1
100
AcDbVertex
100
AcDb2dVertex
 10
387.402635
 20
162.596627
 30
0.0
  0
VERTEX
  5
691
100
AcDbEntity
  8
LAY-9
  6
CONTINUOUS
 62
     1
100
AcDbVertex
100
AcDb2dVertex
 10
387.340282
 20
163.062326
 30
0.0
  0
VERTEX
  5
692
100
AcDbEntity
  8
LAY-9
  6
CONTINUOUS
 62
     1
100
AcDbVertex
100
AcDb2dVertex
 10
387.284868
 20
163.450316
 30
0.0
  0
VERTEX
  5
693
100
AcDbEntity
  8
LAY-9
  6
CONTINUOUS
 62
     1
100
AcDbVertex
100
AcDb2dVertex
 10
387.240368
 20
163.745789
 30
0.0
  0
VERTEX
  5
694
100
AcDbEntity
  8
LAY-9
  6
CONTINUOUS
 62
     1
100
AcDbVertex
100
AcDb2dVertex
 10
387.210754
 20
163.933933
 30
0.0
  0
VERTEX
  5
695
100
AcDbEntity
  8
LAY-9
  6
CONTINUOUS
 62
     1
100
AcDbVertex
100
AcDb2dVertex
 10
387.2
 20
163.999939
 30
0.0
  0
SEQEND
  5
696
100
AcDbEntity
  8
LAY-9
  6
CONTINUOUS
 62
     1
  0
LINE
  5
697
100
AcDbEntity
  8
LAY-9
  6
CONTINUOUS
 62
     1
100
AcDbLine
 10
207.221351
 20
130.552002
 30
0.0
 11
385.7
 21
130.552002
 31
0.0
  0
LINE
  5
698
100
AcDbEntity
  8
LAY-9
  6
CONTINUOUS
 62
     1
100
AcDbLine
 10
131.721344
 20
186.599939
 30
0.0
 11
131.721344
 21
109.552002
 31
0.0
  0
LINE
  5
699
100
AcDbEntity
  8
LAY-9
  6
CONTINUOUS
 62
     1
100
AcDbLine
 10
131.721344
 20
120.552063
 30
0.0
 11
147.5
 21
120.552063
 31
0.0
  0
POLYLINE
  5
69A
100
AcDbEntity
  8
LAY-9
  6
CONTINUOUS
 62
     1
100
AcDb2dPolyline
 66
     1
 10
0.0
 20
0.0
 30
0.0
 70
   128
  0
VERTEX
  5
69B
100
AcDbEntity
  8
LAY-9
  6
CONTINUOUS
 62
     1
100
AcDbVertex
100
AcDb2dVertex
 10
388.7
 20
120.552063
 30
0.0
  0
VERTEX
  5
69C
100
AcDbEntity
  8
LAY-9
  6
CONTINUOUS
 62
     1
100
AcDbVertex
100
AcDb2dVertex
 10
388.742904
 20
120.447917
 30
0.0
  0
VERTEX
  5
69D
100
AcDbEntity
  8
LAY-9
  6
CONTINUOUS
 62
     1
100
AcDbVertex
100
AcDb2dVertex
 10
388.861066
 20
120.153165
 30
0.0
  0
VERTEX
  5
69E
100
AcDbEntity
  8
LAY-9
  6
CONTINUOUS
 62
     1
100
AcDbVertex
100
AcDb2dVertex
 10
389.038662
 20
119.694333
 30
0.0
  0
VERTEX
  5
69F
100
AcDbEntity
  8
LAY-9
  6
CONTINUOUS
 62
     1
100
AcDbVertex
100
AcDb2dVertex
 10
389.259865
 20
119.097948
 30
0.0
  0
VERTEX
  5
6A0
100
AcDbEntity
  8
LAY-9
  6
CONTINUOUS
 62
     1
100
AcDbVertex
100
AcDb2dVertex
 10
389.508851
 20
118.390536
 30
0.0
  0
VERTEX
  5
6A1
100
AcDbEntity
  8
LAY-9
  6
CONTINUOUS
 62
     1
100
AcDbVertex
100
AcDb2dVertex
 10
389.769795
 20
117.598624
 30
0.0
  0
VERTEX
  5
6A2
100
AcDbEntity
  8
LAY-9
  6
CONTINUOUS
 62
     1
100
AcDbVertex
100
AcDb2dVertex
 10
390.026871
 20
116.748739
 30
0.0
  0
VERTEX
  5
6A3
100
AcDbEntity
  8
LAY-9
  6
CONTINUOUS
 62
     1
100
AcDbVertex
100
AcDb2dVertex
 10
390.264255
 20
115.867407
 30
0.0
  0
VERTEX
  5
6A4
100
AcDbEntity
  8
LAY-9
  6
CONTINUOUS
 62
     1
100
AcDbVertex
100
AcDb2dVertex
 10
390.466121
 20
114.981155
 30
0.0
  0
VERTEX
  5
6A5
100
AcDbEntity
  8
LAY-9
  6
CONTINUOUS
 62
     1
100
AcDbVertex
100
AcDb2dVertex
 10
390.616644
 20
114.116511
 30
0.0
  0
VERTEX
  5
6A6
100
AcDbEntity
  8
LAY-9
  6
CONTINUOUS
 62
     1
100
AcDbVertex
100
AcDb2dVertex
 10
390.7
 20
113.3
 30
0.0
  0
VERTEX
  5
6A7
100
AcDbEntity
  8
LAY-9
  6
CONTINUOUS
 62
     1
100
AcDbVertex
100
AcDb2dVertex
 10
390.706927
 20
112.597909
 30
0.0
  0
VERTEX
  5
6A8
100
AcDbEntity
  8
LAY-9
  6
CONTINUOUS
 62
     1
100
AcDbVertex
100
AcDb2dVertex
 10
390.650905
 20
111.948972
 30
0.0
  0
VERTEX
  5
6A9
100
AcDbEntity
  8
LAY-9
  6
CONTINUOUS
 62
     1
100
AcDbVertex
100
AcDb2dVertex
 10
390.541545
 20
111.341064
 30
0.0
  0
VERTEX
  5
6AA
100
AcDbEntity
  8
LAY-9
  6
CONTINUOUS
 62
     1
100
AcDbVertex
100
AcDb2dVertex
 10
390.388459
 20
110.762062
 30
0.0
  0
VERTEX
  5
6AB
100
AcDbEntity
  8
LAY-9
  6
CONTINUOUS
 62
     1
100
AcDbVertex
100
AcDb2dVertex
 10
390.201261
 20
110.199842
 30
0.0
  0
VERTEX
  5
6AC
100
AcDbEntity
  8
LAY-9
  6
CONTINUOUS
 62
     1
100
AcDbVertex
100
AcDb2dVertex
 10
389.989562
 20
109.642279
 30
0.0
  0
VERTEX
  5
6AD
100
AcDbEntity
  8
LAY-9
  6
CONTINUOUS
 62
     1
100
AcDbVertex
100
AcDb2dVertex
 10
389.762976
 20
109.07725
 30
0.0
  0
VERTEX
  5
6AE
100
AcDbEntity
  8
LAY-9
  6
CONTINUOUS
 62
     1
100
AcDbVertex
100
AcDb2dVertex
 10
389.531114
 20
108.492632
 30
0.0
  0
VERTEX
  5
6AF
100
AcDbEntity
  8
LAY-9
  6
CONTINUOUS
 62
     1
100
AcDbVertex
100
AcDb2dVertex
 10
389.303589
 20
107.8763
 30
0.0
  0
VERTEX
  5
6B0
100
AcDbEntity
  8
LAY-9
  6
CONTINUOUS
 62
     1
100
AcDbVertex
100
AcDb2dVertex
 10
389.090013
 20
107.216131
 30
0.0
  0
VERTEX
  5
6B1
100
AcDbEntity
  8
LAY-9
  6
CONTINUOUS
 62
     1
100
AcDbVertex
100
AcDb2dVertex
 10
388.9
 20
106.5
 30
0.0
  0
VERTEX
  5
6B2
100
AcDbEntity
  8
LAY-9
  6
CONTINUOUS
 62
     1
100
AcDbVertex
100
AcDb2dVertex
 10
388.725152
 20
105.630685
 30
0.0
  0
VERTEX
  5
6B3
100
AcDbEntity
  8
LAY-9
  6
CONTINUOUS
 62
     1
100
AcDbVertex
100
AcDb2dVertex
 10
388.587094
 20
104.706222
 30
0.0
  0
VERTEX
  5
6B4
100
AcDbEntity
  8
LAY-9
  6
CONTINUOUS
 62
     1
100
AcDbVertex
100
AcDb2dVertex
 10
388.481582
 20
103.755675
 30
0.0
  0
VERTEX
  5
6B5
100
AcDbEntity
  8
LAY-9
  6
CONTINUOUS
 62
     1
100
AcDbVertex
100
AcDb2dVertex
 10
388.404373
 20
102.808109
 30
0.0
  0
VERTEX
  5
6B6
100
AcDbEntity
  8
LAY-9
  6
CONTINUOUS
 62
     1
100
AcDbVertex
100
AcDb2dVertex
 10
388.351225
 20
101.892588
 30
0.0
  0
VERTEX
  5
6B7
100
AcDbEntity
  8
LAY-9
  6
CONTINUOUS
 62
     1
100
AcDbVertex
100
AcDb2dVertex
 10
388.317894
 20
101.038176
 30
0.0
  0
VERTEX
  5
6B8
100
AcDbEntity
  8
LAY-9
  6
CONTINUOUS
 62
     1
100
AcDbVertex
100
AcDb2dVertex
 10
388.300137
 20
100.273937
 30
0.0
  0
VERTEX
  5
6B9
100
AcDbEntity
  8
LAY-9
  6
CONTINUOUS
 62
     1
100
AcDbVertex
100
AcDb2dVertex
 10
388.293713
 20
99.628936
 30
0.0
  0
VERTEX
  5
6BA
100
AcDbEntity
  8
LAY-9
  6
CONTINUOUS
 62
     1
100
AcDbVertex
100
AcDb2dVertex
 10
388.294377
 20
99.132237
 30
0.0
  0
VERTEX
  5
6BB
100
AcDbEntity
  8
LAY-9
  6
CONTINUOUS
 62
     1
100
AcDbVertex
100
AcDb2dVertex
 10
388.297887
 20
98.812903
 30
0.0
  0
VERTEX
  5
6BC
100
AcDbEntity
  8
LAY-9
  6
CONTINUOUS
 62
     1
100
AcDbVertex
100
AcDb2dVertex
 10
388.3
 20
98.7
 30
0.0
  0
SEQEND
  5
6BD
100
AcDbEntity
  8
LAY-9
  6
CONTINUOUS
 62
     1
  0
LINE
  5
6BE
100
AcDbEntity
  8
LAY-9
  6
CONTINUOUS
 62
     1
100
AcDbLine
 10
287.4
 20
120.552063
 30
0.0
 11
388.7
 21
120.552063
 31
0.0
  0
LINE
  5
6BF
100
AcDbEntity
  8
LAY-9
  6
CONTINUOUS
 62
     1
100
AcDbLine
 10
621.478461
 20
322.551695
 30
0.0
 11
552.328656
 21
322.551695
 31
0.0
  0
LINE
  5
6C0
100
AcDbEntity
  8
LAY-9
  6
CONTINUOUS
 62
     1
100
AcDbLine
 10
701.478461
 20
322.552074
 30
0.0
 11
743.328656
 21
322.552074
 31
0.0
  0
POLYLINE
  5
6C1
100
AcDbEntity
  8
LAY-9
  6
CONTINUOUS
 62
     1
100
AcDb2dPolyline
 66
     1
 10
0.0
 20
0.0
 30
0.0
 70
   128
  0
VERTEX
  5
6C2
100
AcDbEntity
  8
LAY-9
  6
CONTINUOUS
 62
     1
100
AcDbVertex
100
AcDb2dVertex
 10
552.328656
 20
322.551695
 30
0.0
  0
VERTEX
  5
6C3
100
AcDbEntity
  8
LAY-9
  6
CONTINUOUS
 62
     1
100
AcDbVertex
100
AcDb2dVertex
 10
552.360444
 20
322.438691
 30
0.0
  0
VERTEX
  5
6C4
100
AcDbEntity
  8
LAY-9
  6
CONTINUOUS
 62
     1
100
AcDbVertex
100
AcDb2dVertex
 10
552.448052
 20
322.117933
 30
0.0
  0
VERTEX
  5
6C5
100
AcDbEntity
  8
LAY-9
  6
CONTINUOUS
 62
     1
100
AcDbVertex
100
AcDb2dVertex
 10
552.579845
 20
321.616798
 30
0.0
  0
VERTEX
  5
6C6
100
AcDbEntity
  8
LAY-9
  6
CONTINUOUS
 62
     1
100
AcDbVertex
100
AcDb2dVertex
 10
552.744188
 20
320.962666
 30
0.0
  0
VERTEX
  5
6C7
100
AcDbEntity
  8
LAY-9
  6
CONTINUOUS
 62
     1
100
AcDbVertex
100
AcDb2dVertex
 10
552.929447
 20
320.182915
 30
0.0
  0
VERTEX
  5
6C8
100
AcDbEntity
  8
LAY-9
  6
CONTINUOUS
 62
     1
100
AcDbVertex
100
AcDb2dVertex
 10
553.123985
 20
319.304925
 30
0.0
  0
VERTEX
  5
6C9
100
AcDbEntity
  8
LAY-9
  6
CONTINUOUS
 62
     1
100
AcDbVertex
100
AcDb2dVertex
 10
553.316168
 20
318.356073
 30
0.0
  0
VERTEX
  5
6CA
100
AcDbEntity
  8
LAY-9
  6
CONTINUOUS
 62
     1
100
AcDbVertex
100
AcDb2dVertex
 10
553.494362
 20
317.36374
 30
0.0
  0
VERTEX
  5
6CB
100
AcDbEntity
  8
LAY-9
  6
CONTINUOUS
 62
     1
100
AcDbVertex
100
AcDb2dVertex
 10
553.646931
 20
316.355302
 30
0.0
  0
VERTEX
  5
6CC
100
AcDbEntity
  8
LAY-9
  6
CONTINUOUS
 62
     1
100
AcDbVertex
100
AcDb2dVertex
 10
553.762241
 20
315.35814
 30
0.0
  0
VERTEX
  5
6CD
100
AcDbEntity
  8
LAY-9
  6
CONTINUOUS
 62
     1
100
AcDbVertex
100
AcDb2dVertex
 10
553.828656
 20
314.399632
 30
0.0
  0
VERTEX
  5
6CE
100
AcDbEntity
  8
LAY-9
  6
CONTINUOUS
 62
     1
100
AcDbVertex
100
AcDb2dVertex
 10
553.84011
 20
313.671876
 30
0.0
  0
VERTEX
  5
6CF
100
AcDbEntity
  8
LAY-9
  6
CONTINUOUS
 62
     1
100
AcDbVertex
100
AcDb2dVertex
 10
553.814769
 20
312.983039
 30
0.0
  0
VERTEX
  5
6D0
100
AcDbEntity
  8
LAY-9
  6
CONTINUOUS
 62
     1
100
AcDbVertex
100
AcDb2dVertex
 10
553.755046
 20
312.329271
 30
0.0
  0
VERTEX
  5
6D1
100
AcDbEntity
  8
LAY-9
  6
CONTINUOUS
 62
     1
100
AcDbVertex
100
AcDb2dVertex
 10
553.663348
 20
311.706722
 30
0.0
  0
VERTEX
  5
6D2
100
AcDbEntity
  8
LAY-9
  6
CONTINUOUS
 62
     1
100
AcDbVertex
100
AcDb2dVertex
 10
553.542087
 20
311.111542
 30
0.0
  0
VERTEX
  5
6D3
100
AcDbEntity
  8
LAY-9
  6
CONTINUOUS
 62
     1
100
AcDbVertex
100
AcDb2dVertex
 10
553.393672
 20
310.539882
 30
0.0
  0
VERTEX
  5
6D4
100
AcDbEntity
  8
LAY-9
  6
CONTINUOUS
 62
     1
100
AcDbVertex
100
AcDb2dVertex
 10
553.220515
 20
309.987891
 30
0.0
  0
VERTEX
  5
6D5
100
AcDbEntity
  8
LAY-9
  6
CONTINUOUS
 62
     1
100
AcDbVertex
100
AcDb2dVertex
 10
553.025024
 20
309.451721
 30
0.0
  0
VERTEX
  5
6D6
100
AcDbEntity
  8
LAY-9
  6
CONTINUOUS
 62
     1
100
AcDbVertex
100
AcDb2dVertex
 10
552.809611
 20
308.927521
 30
0.0
  0
VERTEX
  5
6D7
100
AcDbEntity
  8
LAY-9
  6
CONTINUOUS
 62
     1
100
AcDbVertex
100
AcDb2dVertex
 10
552.576685
 20
308.411441
 30
0.0
  0
VERTEX
  5
6D8
100
AcDbEntity
  8
LAY-9
  6
CONTINUOUS
 62
     1
100
AcDbVertex
100
AcDb2dVertex
 10
552.328656
 20
307.899632
 30
0.0
  0
VERTEX
  5
6D9
100
AcDbEntity
  8
LAY-9
  6
CONTINUOUS
 62
     1
100
AcDbVertex
100
AcDb2dVertex
 10
552.054454
 20
307.360399
 30
0.0
  0
VERTEX
  5
6DA
100
AcDbEntity
  8
LAY-9
  6
CONTINUOUS
 62
     1
100
AcDbVertex
100
AcDb2dVertex
 10
551.775196
 20
306.817569
 30
0.0
  0
VERTEX
  5
6DB
100
AcDbEntity
  8
LAY-9
  6
CONTINUOUS
 62
     1
100
AcDbVertex
100
AcDb2dVertex
 10
551.499938
 20
306.267079
 30
0.0
  0
VERTEX
  5
6DC
100
AcDbEntity
  8
LAY-9
  6
CONTINUOUS
 62
     1
100
AcDbVertex
100
AcDb2dVertex
 10
551.237737
 20
305.704863
 30
0.0
  0
VERTEX
  5
6DD
100
AcDbEntity
  8
LAY-9
  6
CONTINUOUS
 62
     1
100
AcDbVertex
100
AcDb2dVertex
 10
550.997649
 20
305.126858
 30
0.0
  0
VERTEX
  5
6DE
100
AcDbEntity
  8
LAY-9
  6
CONTINUOUS
 62
     1
100
AcDbVertex
100
AcDb2dVertex
 10
550.78873
 20
304.528998
 30
0.0
  0
VERTEX
  5
6DF
100
AcDbEntity
  8
LAY-9
  6
CONTINUOUS
 62
     1
100
AcDbVertex
100
AcDb2dVertex
 10
550.620037
 20
303.90722
 30
0.0
  0
VERTEX
  5
6E0
100
AcDbEntity
  8
LAY-9
  6
CONTINUOUS
 62
     1
100
AcDbVertex
100
AcDb2dVertex
 10
550.500627
 20
303.257459
 30
0.0
  0
VERTEX
  5
6E1
100
AcDbEntity
  8
LAY-9
  6
CONTINUOUS
 62
     1
100
AcDbVertex
100
AcDb2dVertex
 10
550.439556
 20
302.57565
 30
0.0
  0
VERTEX
  5
6E2
100
AcDbEntity
  8
LAY-9
  6
CONTINUOUS
 62
     1
100
AcDbVertex
100
AcDb2dVertex
 10
550.44588
 20
301.857729
 30
0.0
  0
VERTEX
  5
6E3
100
AcDbEntity
  8
LAY-9
  6
CONTINUOUS
 62
     1
100
AcDbVertex
100
AcDb2dVertex
 10
550.528656
 20
301.099632
 30
0.0
  0
VERTEX
  5
6E4
100
AcDbEntity
  8
LAY-9
  6
CONTINUOUS
 62
     1
100
AcDbVertex
100
AcDb2dVertex
 10
550.681428
 20
300.346324
 30
0.0
  0
VERTEX
  5
6E5
100
AcDbEntity
  8
LAY-9
  6
CONTINUOUS
 62
     1
100
AcDbVertex
100
AcDb2dVertex
 10
550.894757
 20
299.57286
 30
0.0
  0
VERTEX
  5
6E6
100
AcDbEntity
  8
LAY-9
  6
CONTINUOUS
 62
     1
100
AcDbVertex
100
AcDb2dVertex
 10
551.15282
 20
298.798604
 30
0.0
  0
VERTEX
  5
6E7
100
AcDbEntity
  8
LAY-9
  6
CONTINUOUS
 62
     1
100
AcDbVertex
100
AcDb2dVertex
 10
551.439791
 20
298.042918
 30
0.0
  0
VERTEX
  5
6E8
100
AcDbEntity
  8
LAY-9
  6
CONTINUOUS
 62
     1
100
AcDbVertex
100
AcDb2dVertex
 10
551.739843
 20
297.325166
 30
0.0
  0
VERTEX
  5
6E9
100
AcDbEntity
  8
LAY-9
  6
CONTINUOUS
 62
     1
100
AcDbVertex
100
AcDb2dVertex
 10
552.037152
 20
296.664712
 30
0.0
  0
VERTEX
  5
6EA
100
AcDbEntity
  8
LAY-9
  6
CONTINUOUS
 62
     1
100
AcDbVertex
100
AcDb2dVertex
 10
552.315892
 20
296.080919
 30
0.0
  0
VERTEX
  5
6EB
100
AcDbEntity
  8
LAY-9
  6
CONTINUOUS
 62
     1
100
AcDbVertex
100
AcDb2dVertex
 10
552.560238
 20
295.593151
 30
0.0
  0
VERTEX
  5
6EC
100
AcDbEntity
  8
LAY-9
  6
CONTINUOUS
 62
     1
100
AcDbVertex
100
AcDb2dVertex
 10
552.754364
 20
295.220772
 30
0.0
  0
VERTEX
  5
6ED
100
AcDbEntity
  8
LAY-9
  6
CONTINUOUS
 62
     1
100
AcDbVertex
100
AcDb2dVertex
 10
552.882446
 20
294.983144
 30
0.0
  0
VERTEX
  5
6EE
100
AcDbEntity
  8
LAY-9
  6
CONTINUOUS
 62
     1
100
AcDbVertex
100
AcDb2dVertex
 10
552.928656
 20
294.899632
 30
0.0
  0
SEQEND
  5
6EF
100
AcDbEntity
  8
LAY-9
  6
CONTINUOUS
 62
     1
  0
POLYLINE
  5
6F0
100
AcDbEntity
  8
LAY-9
  6
CONTINUOUS
 62
     1
100
AcDb2dPolyline
 66
     1
 10
0.0
 20
0.0
 30
0.0
 70
   128
  0
VERTEX
  5
6F1
100
AcDbEntity
  8
LAY-9
  6
CONTINUOUS
 62
     1
100
AcDbVertex
100
AcDb2dVertex
 10
743.328656
 20
322.552074
 30
0.0
  0
VERTEX
  5
6F2
100
AcDbEntity
  8
LAY-9
  6
CONTINUOUS
 62
     1
100
AcDbVertex
100
AcDb2dVertex
 10
743.360444
 20
322.439071
 30
0.0
  0
VERTEX
  5
6F3
100
AcDbEntity
  8
LAY-9
  6
CONTINUOUS
 62
     1
100
AcDbVertex
100
AcDb2dVertex
 10
743.448052
 20
322.118312
 30
0.0
  0
VERTEX
  5
6F4
100
AcDbEntity
  8
LAY-9
  6
CONTINUOUS
 62
     1
100
AcDbVertex
100
AcDb2dVertex
 10
743.579845
 20
321.617178
 30
0.0
  0
VERTEX
  5
6F5
100
AcDbEntity
  8
LAY-9
  6
CONTINUOUS
 62
     1
100
AcDbVertex
100
AcDb2dVertex
 10
743.744188
 20
320.963046
 30
0.0
  0
VERTEX
  5
6F6
100
AcDbEntity
  8
LAY-9
  6
CONTINUOUS
 62
     1
100
AcDbVertex
100
AcDb2dVertex
 10
743.929447
 20
320.183295
 30
0.0
  0
VERTEX
  5
6F7
100
AcDbEntity
  8
LAY-9
  6
CONTINUOUS
 62
     1
100
AcDbVertex
100
AcDb2dVertex
 10
744.123985
 20
319.305305
 30
0.0
  0
VERTEX
  5
6F8
100
AcDbEntity
  8
LAY-9
  6
CONTINUOUS
 62
     1
100
AcDbVertex
100
AcDb2dVertex
 10
744.316168
 20
318.356453
 30
0.0
  0
VERTEX
  5
6F9
100
AcDbEntity
  8
LAY-9
  6
CONTINUOUS
 62
     1
100
AcDbVertex
100
AcDb2dVertex
 10
744.494362
 20
317.364119
 30
0.0
  0
VERTEX
  5
6FA
100
AcDbEntity
  8
LAY-9
  6
CONTINUOUS
 62
     1
100
AcDbVertex
100
AcDb2dVertex
 10
744.646931
 20
316.355682
 30
0.0
  0
VERTEX
  5
6FB
100
AcDbEntity
  8
LAY-9
  6
CONTINUOUS
 62
     1
100
AcDbVertex
100
AcDb2dVertex
 10
744.762241
 20
315.35852
 30
0.0
  0
VERTEX
  5
6FC
100
AcDbEntity
  8
LAY-9
  6
CONTINUOUS
 62
     1
100
AcDbVertex
100
AcDb2dVertex
 10
744.828656
 20
314.400011
 30
0.0
  0
VERTEX
  5
6FD
100
AcDbEntity
  8
LAY-9
  6
CONTINUOUS
 62
     1
100
AcDbVertex
100
AcDb2dVertex
 10
744.84011
 20
313.672256
 30
0.0
  0
VERTEX
  5
6FE
100
AcDbEntity
  8
LAY-9
  6
CONTINUOUS
 62
     1
100
AcDbVertex
100
AcDb2dVertex
 10
744.814769
 20
312.983419
 30
0.0
  0
VERTEX
  5
6FF
100
AcDbEntity
  8
LAY-9
  6
CONTINUOUS
 62
     1
100
AcDbVertex
100
AcDb2dVertex
 10
744.755046
 20
312.32965
 30
0.0
  0
VERTEX
  5
700
100
AcDbEntity
  8
LAY-9
  6
CONTINUOUS
 62
     1
100
AcDbVertex
100
AcDb2dVertex
 10
744.663348
 20
311.707101
 30
0.0
  0
VERTEX
  5
701
100
AcDbEntity
  8
LAY-9
  6
CONTINUOUS
 62
     1
100
AcDbVertex
100
AcDb2dVertex
 10
744.542087
 20
311.111921
 30
0.0
  0
VERTEX
  5
702
100
AcDbEntity
  8
LAY-9
  6
CONTINUOUS
 62
     1
100
AcDbVertex
100
AcDb2dVertex
 10
744.393672
 20
310.540261
 30
0.0
  0
VERTEX
  5
703
100
AcDbEntity
  8
LAY-9
  6
CONTINUOUS
 62
     1
100
AcDbVertex
100
AcDb2dVertex
 10
744.220515
 20
309.988271
 30
0.0
  0
VERTEX
  5
704
100
AcDbEntity
  8
LAY-9
  6
CONTINUOUS
 62
     1
100
AcDbVertex
100
AcDb2dVertex
 10
744.025024
 20
309.4521
 30
0.0
  0
VERTEX
  5
705
100
AcDbEntity
  8
LAY-9
  6
CONTINUOUS
 62
     1
100
AcDbVertex
100
AcDb2dVertex
 10
743.809611
 20
308.9279
 30
0.0
  0
VERTEX
  5
706
100
AcDbEntity
  8
LAY-9
  6
CONTINUOUS
 62
     1
100
AcDbVertex
100
AcDb2dVertex
 10
743.576685
 20
308.411821
 30
0.0
  0
VERTEX
  5
707
100
AcDbEntity
  8
LAY-9
  6
CONTINUOUS
 62
     1
100
AcDbVertex
100
AcDb2dVertex
 10
743.328656
 20
307.900011
 30
0.0
  0
VERTEX
  5
708
100
AcDbEntity
  8
LAY-9
  6
CONTINUOUS
 62
     1
100
AcDbVertex
100
AcDb2dVertex
 10
743.054454
 20
307.360778
 30
0.0
  0
VERTEX
  5
709
100
AcDbEntity
  8
LAY-9
  6
CONTINUOUS
 62
     1
100
AcDbVertex
100
AcDb2dVertex
 10
742.775196
 20
306.817949
 30
0.0
  0
VERTEX
  5
70A
100
AcDbEntity
  8
LAY-9
  6
CONTINUOUS
 62
     1
100
AcDbVertex
100
AcDb2dVertex
 10
742.499938
 20
306.267459
 30
0.0
  0
VERTEX
  5
70B
100
AcDbEntity
  8
LAY-9
  6
CONTINUOUS
 62
     1
100
AcDbVertex
100
AcDb2dVertex
 10
742.237737
 20
305.705243
 30
0.0
  0
VERTEX
  5
70C
100
AcDbEntity
  8
LAY-9
  6
CONTINUOUS
 62
     1
100
AcDbVertex
100
AcDb2dVertex
 10
741.997649
 20
305.127238
 30
0.0
  0
VERTEX
  5
70D
100
AcDbEntity
  8
LAY-9
  6
CONTINUOUS
 62
     1
100
AcDbVertex
100
AcDb2dVertex
 10
741.78873
 20
304.529378
 30
0.0
  0
VERTEX
  5
70E
100
AcDbEntity
  8
LAY-9
  6
CONTINUOUS
 62
     1
100
AcDbVertex
100
AcDb2dVertex
 10
741.620037
 20
303.9076
 30
0.0
  0
VERTEX
  5
70F
100
AcDbEntity
  8
LAY-9
  6
CONTINUOUS
 62
     1
100
AcDbVertex
100
AcDb2dVertex
 10
741.500627
 20
303.257838
 30
0.0
  0
VERTEX
  5
710
100
AcDbEntity
  8
LAY-9
  6
CONTINUOUS
 62
     1
100
AcDbVertex
100
AcDb2dVertex
 10
741.439556
 20
302.576029
 30
0.0
  0
VERTEX
  5
711
100
AcDbEntity
  8
LAY-9
  6
CONTINUOUS
 62
     1
100
AcDbVertex
100
AcDb2dVertex
 10
741.44588
 20
301.858109
 30
0.0
  0
VERTEX
  5
712
100
AcDbEntity
  8
LAY-9
  6
CONTINUOUS
 62
     1
100
AcDbVertex
100
AcDb2dVertex
 10
741.528656
 20
301.100011
 30
0.0
  0
VERTEX
  5
713
100
AcDbEntity
  8
LAY-9
  6
CONTINUOUS
 62
     1
100
AcDbVertex
100
AcDb2dVertex
 10
741.681428
 20
300.346704
 30
0.0
  0
VERTEX
  5
714
100
AcDbEntity
  8
LAY-9
  6
CONTINUOUS
 62
     1
100
AcDbVertex
100
AcDb2dVertex
 10
741.894757
 20
299.57324
 30
0.0
  0
VERTEX
  5
715
100
AcDbEntity
  8
LAY-9
  6
CONTINUOUS
 62
     1
100
AcDbVertex
100
AcDb2dVertex
 10
742.15282
 20
298.798983
 30
0.0
  0
VERTEX
  5
716
100
AcDbEntity
  8
LAY-9
  6
CONTINUOUS
 62
     1
100
AcDbVertex
100
AcDb2dVertex
 10
742.439791
 20
298.043297
 30
0.0
  0
VERTEX
  5
717
100
AcDbEntity
  8
LAY-9
  6
CONTINUOUS
 62
     1
100
AcDbVertex
100
AcDb2dVertex
 10
742.739843
 20
297.325546
 30
0.0
  0
VERTEX
  5
718
100
AcDbEntity
  8
LAY-9
  6
CONTINUOUS
 62
     1
100
AcDbVertex
100
AcDb2dVertex
 10
743.037152
 20
296.665091
 30
0.0
  0
VERTEX
  5
719
100
AcDbEntity
  8
LAY-9
  6
CONTINUOUS
 62
     1
100
AcDbVertex
100
AcDb2dVertex
 10
743.315892
 20
296.081299
 30
0.0
  0
VERTEX
  5
71A
100
AcDbEntity
  8
LAY-9
  6
CONTINUOUS
 62
     1
100
AcDbVertex
100
AcDb2dVertex
 10
743.560238
 20
295.593531
 30
0.0
  0
VERTEX
  5
71B
100
AcDbEntity
  8
LAY-9
  6
CONTINUOUS
 62
     1
100
AcDbVertex
100
AcDb2dVertex
 10
743.754364
 20
295.221151
 30
0.0
  0
VERTEX
  5
71C
100
AcDbEntity
  8
LAY-9
  6
CONTINUOUS
 62
     1
100
AcDbVertex
100
AcDb2dVertex
 10
743.882446
 20
294.983524
 30
0.0
  0
VERTEX
  5
71D
100
AcDbEntity
  8
LAY-9
  6
CONTINUOUS
 62
     1
100
AcDbVertex
100
AcDb2dVertex
 10
743.928656
 20
294.900011
 30
0.0
  0
SEQEND
  5
71E
100
AcDbEntity
  8
LAY-9
  6
CONTINUOUS
 62
     1
  0
LINE
  5
71F
100
AcDbEntity
  8
LAY-9
  6
CONTINUOUS
 62
     1
100
AcDbLine
 10
681.478461
 20
406.6
 30
0.0
 11
681.478461
 21
332.552005
 31
0.0
  0
LINE
  5
720
100
AcDbEntity
  8
LAY-9
  6
CONTINUOUS
 62
     1
100
AcDbLine
 10
681.478461
 20
332.552005
 30
0.0
 11
679.878461
 21
332.552005
 31
0.0
  0
LINE
  5
721
100
AcDbEntity
  8
LAY-9
  6
CONTINUOUS
 62
     1
100
AcDbLine
 10
641.478461
 20
406.6
 30
0.0
 11
641.478461
 21
332.552005
 31
0.0
  0
LINE
  5
722
100
AcDbEntity
  8
LAY-9
  6
CONTINUOUS
 62
     1
100
AcDbLine
 10
641.478461
 20
332.552005
 30
0.0
 11
643.078461
 21
332.552005
 31
0.0
  0
LINE
  5
723
100
AcDbEntity
  8
LAY-9
  6
CONTINUOUS
 62
     1
100
AcDbLine
 10
677.578461
 20
357.052032
 30
0.0
 11
677.578461
 21
332.552105
 31
0.0
  0
LINE
  5
724
100
AcDbEntity
  8
LAY-9
  6
CONTINUOUS
 62
     1
100
AcDbLine
 10
679.878461
 20
332.552105
 30
0.0
 11
677.578461
 21
332.552105
 31
0.0
  0
LINE
  5
725
100
AcDbEntity
  8
LAY-9
  6
CONTINUOUS
 62
     1
100
AcDbLine
 10
679.878461
 20
406.6
 30
0.0
 11
679.878461
 21
332.552005
 31
0.0
  0
LINE
  5
726
100
AcDbEntity
  8
LAY-9
  6
CONTINUOUS
 62
     1
100
AcDbLine
 10
645.378461
 20
357.052032
 30
0.0
 11
645.378461
 21
332.552005
 31
0.0
  0
LINE
  5
727
100
AcDbEntity
  8
LAY-9
  6
CONTINUOUS
 62
     1
100
AcDbLine
 10
645.378461
 20
332.552005
 30
0.0
 11
643.078461
 21
332.552005
 31
0.0
  0
LINE
  5
728
100
AcDbEntity
  8
LAY-9
  6
CONTINUOUS
 62
     1
100
AcDbLine
 10
643.078461
 20
406.6
 30
0.0
 11
643.078461
 21
332.552005
 31
0.0
  0
LINE
  5
729
100
AcDbEntity
  8
LAY-9
  6
CONTINUOUS
 62
     1
100
AcDbLine
 10
642.978339
 20
489.009784
 30
0.0
 11
632.0
 21
489.009784
 31
0.0
  0
LINE
  5
72A
100
AcDbEntity
  8
LAY-9
  6
CONTINUOUS
 62
     1
100
AcDbLine
 10
131.721344
 20
120.552063
 30
0.0
 11
164.8
 21
120.552063
 31
0.0
  0
LINE
  5
72B
100
AcDbEntity
  8
LAY-10
  6
CONTINUOUS
 62
     5
100
AcDbLine
 10
15.0
 20
15.0
 30
0.0
 11
826.0
 21
15.0
 31
0.0
  0
LINE
  5
72C
100
AcDbEntity
  8
LAY-10
  6
CONTINUOUS
 62
     5
100
AcDbLine
 10
826.0
 20
15.0
 30
0.0
 11
826.0
 21
579.0
 31
0.0
  0
LINE
  5
72D
100
AcDbEntity
  8
LAY-10
  6
CONTINUOUS
 62
     5
100
AcDbLine
 10
15.0
 20
15.0
 30
0.0
 11
15.0
 21
579.0
 31
0.0
  0
LINE
  5
72E
100
AcDbEntity
  8
LAY-10
  6
CONTINUOUS
 62
     5
100
AcDbLine
 10
15.0
 20
579.0
 30
0.0
 11
826.0
 21
579.0
 31
0.0
  0
LINE
  5
72F
100
AcDbEntity
  8
LAY-10
  6
CONTINUOUS
 62
     5
100
AcDbLine
 10
15.0
 20
40.0
 30
0.0
 11
826.0
 21
40.0
 31
0.0
  0
LINE
  5
730
100
AcDbEntity
  8
LAY-10
  6
CONTINUOUS
 62
     1
100
AcDbLine
 10
224.0
 20
40.0
 30
0.0
 11
224.0
 21
15.0
 31
0.0
  0
LINE
  5
731
100
AcDbEntity
  8
LAY-10
  6
CONTINUOUS
 62
     1
100
AcDbLine
 10
249.5
 20
40.0
 30
0.0
 11
249.5
 21
15.0
 31
0.0
  0
LINE
  5
732
100
AcDbEntity
  8
LAY-10
  6
CONTINUOUS
 62
     1
100
AcDbLine
 10
275.0
 20
40.0
 30
0.0
 11
275.0
 21
15.0
 31
0.0
  0
LINE
  5
733
100
AcDbEntity
  8
LAY-10
  6
CONTINUOUS
 62
     1
100
AcDbLine
 10
300.5
 20
40.0
 30
0.0
 11
300.5
 21
15.0
 31
0.0
  0
LINE
  5
734
100
AcDbEntity
  8
LAY-10
  6
CONTINUOUS
 62
     1
100
AcDbLine
 10
326.0
 20
40.0
 30
0.0
 11
326.0
 21
15.0
 31
0.0
  0
LINE
  5
735
100
AcDbEntity
  8
LAY-10
  6
CONTINUOUS
 62
     1
100
AcDbLine
 10
377.0
 20
40.0
 30
0.0
 11
377.0
 21
15.0
 31
0.0
  0
LINE
  5
736
100
AcDbEntity
  8
LAY-10
  6
CONTINUOUS
 62
     1
100
AcDbLine
 10
738.0
 20
40.0
 30
0.0
 11
738.0
 21
15.0
 31
0.0
  0
LINE
  5
737
100
AcDbEntity
  8
LAY-10
  6
CONTINUOUS
 62
     1
100
AcDbLine
 10
224.0
 20
32.0
 30
0.0
 11
377.0
 21
32.0
 31
0.0
  0
TEXT
  5
738
100
AcDbEntity
  8
LAY-10
  6
CONTINUOUS
 62
     4
100
AcDbText
 10
227.5
 20
33.0
 30
0.0
 40
6.0
  1
検　  図
 41
0.57856
  7
EXCADSTD
 72
     5
 11
246.700001
 21
33.0
 31
0.0
100
AcDbText
  0
TEXT
  5
739
100
AcDbEntity
  8
LAY-10
  6
CONTINUOUS
 62
     4
100
AcDbText
 10
253.2
 20
33.0
 30
0.0
 40
6.0
  1
担　　当
 41
0.672
  7
EXCADSTD
 72
     5
 11
272.400001
 21
33.0
 31
0.0
100
AcDbText
  0
TEXT
  5
73A
100
AcDbEntity
  8
LAY-10
  6
CONTINUOUS
 62
     4
100
AcDbText
 10
278.4
 20
33.0
 30
0.0
 40
6.0
  1
製　　図
 41
0.672
  7
EXCADSTD
 72
     5
 11
297.600001
 21
33.0
 31
0.0
100
AcDbText
  0
TEXT
  5
73B
100
AcDbEntity
  8
LAY-10
  6
CONTINUOUS
 62
     4
100
AcDbText
 10
303.9
 20
33.0
 30
0.0
 40
6.0
  1
尺　　度
 41
0.672
  7
EXCADSTD
 72
     5
 11
323.100001
 21
33.0
 31
0.0
100
AcDbText
  0
TEXT
  5
73C
100
AcDbEntity
  8
LAY-10
  6
CONTINUOUS
 62
     4
100
AcDbText
 10
339.5
 20
33.0
 30
0.0
 40
6.0
  1
作成年月日
 41
0.672
  7
EXCADSTD
 72
     5
 11
363.500001
 21
33.0
 31
0.0
100
AcDbText
  0
TEXT
  5
73D
100
AcDbEntity
  8
LAY-10
  6
CONTINUOUS
 62
   134
100
AcDbText
 10
42.98
 20
20.91
 30
0.0
 40
13.0
  1
日本ドアーチエック製造株式会社
 41
0.653908
  7
EXCADSTD
 72
     5
 11
194.779994
 21
20.91
 31
0.0
100
AcDbText
  0
LINE
  5
73E
100
AcDbEntity
  8
LAY-10
  6
CONTINUOUS
 62
     1
100
AcDbLine
 10
841.0
 20
0.0
 30
0.0
 11
841.0
 21
2.0
 31
0.0
  0
LINE
  5
73F
100
AcDbEntity
  8
LAY-10
  6
CONTINUOUS
 62
     1
100
AcDbLine
 10
841.0
 20
592.0
 30
0.0
 11
841.0
 21
594.0
 31
0.0
  0
LINE
  5
740
100
AcDbEntity
  8
LAY-10
  6
CONTINUOUS
 62
     1
100
AcDbLine
 10
841.0
 20
594.0
 30
0.0
 11
839.0
 21
594.0
 31
0.0
  0
LINE
  5
741
100
AcDbEntity
  8
LAY-10
  6
CONTINUOUS
 62
     1
100
AcDbLine
 10
2.0
 20
594.0
 30
0.0
 11
0.0
 21
594.0
 31
0.0
  0
LINE
  5
742
100
AcDbEntity
  8
LAY-10
  6
CONTINUOUS
 62
     1
100
AcDbLine
 10
0.0
 20
594.0
 30
0.0
 11
0.0
 21
592.0
 31
0.0
  0
LINE
  5
743
100
AcDbEntity
  8
LAY-10
  6
CONTINUOUS
 62
     1
100
AcDbLine
 10
0.0
 20
2.0
 30
0.0
 11
0.0
 21
0.0
 31
0.0
  0
LINE
  5
744
100
AcDbEntity
  8
LAY-10
  6
CONTINUOUS
 62
     1
100
AcDbLine
 10
0.0
 20
0.0
 30
0.0
 11
2.0
 21
0.0
 31
0.0
  0
LINE
  5
745
100
AcDbEntity
  8
LAY-10
  6
CONTINUOUS
 62
     1
100
AcDbLine
 10
839.0
 20
0.0
 30
0.0
 11
841.0
 21
0.0
 31
0.0
  0
TEXT
  5
746
100
AcDbEntity
  8
LAY-10
  6
CONTINUOUS
 62
     4
100
AcDbText
 10
383.0
 20
33.0
 30
0.0
 40
6.0
  1
図 面 名
 41
0.57856
  7
EXCADSTD
 72
     5
 11
402.200001
 21
33.0
 31
0.0
100
AcDbText
  0
TEXT
  5
747
100
AcDbEntity
  8
LAY-10
  6
CONTINUOUS
 62
     4
100
AcDbText
 10
744.0
 20
33.0
 30
0.0
 40
6.0
  1
図面番号
 41
0.672
  7
EXCADSTD
 72
     5
 11
763.200001
 21
33.0
 31
0.0
100
AcDbText
  0
TEXT
  5
748
100
AcDbEntity
  8
LAY-10
  6
CONTINUOUS
 62
     2
100
AcDbText
 10
306.5
 20
20.2
 30
0.0
 40
6.0
  1
１／１
 41
0.672
  7
EXCADSTD
 72
     5
 11
320.900001
 21
20.2
 31
0.0
100
AcDbText
  0
TEXT
  5
749
100
AcDbEntity
  8
LAY-10
  6
CONTINUOUS
 62
     2
100
AcDbText
 10
406.828367
 20
19.274519
 30
0.0
 40
10.0
  1
ピボットヒンジ　ＴＣ－１２０(本体埋込型 )　納まり図
 41
0.655621
  7
EXCADSTD
 72
     5
 11
606.828367
 21
19.274519
 31
0.0
100
AcDbText
  0
ENDSEC
  0
SECTION
  2
OBJECTS
  0
DICTIONARY
  5
19
100
AcDbDictionary
  3
ACAD_GROUP
350
1A
  3
ACAD_MLINESTYLE
350
1B
  0
DICTIONARY
  5
1A
102
{ACAD_REACTORS
330
19
102
}
100
AcDbDictionary
  0
DICTIONARY
  5
1B
102
{ACAD_REACTORS
330
19
102
}
100
AcDbDictionary
  3
STANDARD
350
1C
  0
MLINESTYLE
  5
1C
102
{ACAD_REACTORS
330
1B
102
}
100
AcDbMlineStyle
  2
Standard
 70
     0
  3

 62
     0
 51
90.0
 52
90.0
 71
     2
 49
0.5
 62
   256
  6
ByLayer
 49
-0.5
 62
   256
  6
ByLayer
  0
ENDSEC
  0
EOF
