  0
SECTION
  2
HEADER
  9
$ACADVER
  1
AC1014
  9
$ACADMAINTVER
 70
     0
  9
$DWGCODEPAGE
  3
ANSI_932
  9
$INSBASE
 10
0.0
 20
0.0
 30
0.0
  9
$EXTMIN
 10
0.0
 20
0.0
 30
0.0
  9
$EXTMAX
 10
594.0
 20
420.0
 30
0.0
  9
$LIMMIN
 10
0.0
 20
0.0
  9
$LIMMAX
 10
594.0
 20
420.0
  9
$ORTHOMODE
 70
     0
  9
$REGENMODE
 70
     1
  9
$FILLMODE
 70
     1
  9
$QTEXTMODE
 70
     0
  9
$MIRRTEXT
 70
     1
  9
$DRAGMODE
 70
     2
  9
$LTSCALE
 40
1.0
  9
$OSMODE
 70
     0
  9
$ATTMODE
 70
     1
  9
$TEXTSIZE
 40
0.2
  9
$TRACEWID
 40
0.05
  9
$TEXTSTYLE
  7
STANDARD
  9
$CLAYER
  8
LAY-10
  9
$CELTYPE
  6
CONTINUOUS
  9
$CECOLOR
 62
   256
  9
$CELTSCALE
 40
1.0
  9
$DELOBJ
 70
     1
  9
$DISPSILH
 70
     0
  9
$DIMSCALE
 40
1.0
  9
$DIMASZ
 40
0.18
  9
$DIMEXO
 40
0.0625
  9
$DIMDLI
 40
0.38
  9
$DIMRND
 40
0.0
  9
$DIMDLE
 40
0.0
  9
$DIMEXE
 40
0.18
  9
$DIMTP
 40
0.0
  9
$DIMTM
 40
0.0
  9
$DIMTXT
 40
0.18
  9
$DIMCEN
 40
0.09
  9
$DIMTSZ
 40
0.0
  9
$DIMTOL
 70
     0
  9
$DIMLIM
 70
     0
  9
$DIMTIH
 70
     1
  9
$DIMTOH
 70
     1
  9
$DIMSE1
 70
     0
  9
$DIMSE2
 70
     0
  9
$DIMTAD
 70
     0
  9
$DIMZIN
 70
     0
  9
$DIMBLK
  1

  9
$DIMASO
 70
     1
  9
$DIMSHO
 70
     1
  9
$DIMPOST
  1

  9
$DIMAPOST
  1

  9
$DIMALT
 70
     0
  9
$DIMALTD
 70
     2
  9
$DIMALTF
 40
25.4
  9
$DIMLFAC
 40
1.0
  9
$DIMTOFL
 70
     0
  9
$DIMTVP
 40
0.0
  9
$DIMTIX
 70
     0
  9
$DIMSOXD
 70
     0
  9
$DIMSAH
 70
     0
  9
$DIMBLK1
  1

  9
$DIMBLK2
  1

  9
$DIMSTYLE
  2
STANDARD
  9
$DIMCLRD
 70
     0
  9
$DIMCLRE
 70
     0
  9
$DIMCLRT
 70
     0
  9
$DIMTFAC
 40
1.0
  9
$DIMGAP
 40
0.09
  9
$DIMJUST
 70
     0
  9
$DIMSD1
 70
     0
  9
$DIMSD2
 70
     0
  9
$DIMTOLJ
 70
     1
  9
$DIMTZIN
 70
     0
  9
$DIMALTZ
 70
     0
  9
$DIMALTTZ
 70
     0
  9
$DIMFIT
 70
     3
  9
$DIMUPT
 70
     0
  9
$DIMUNIT
 70
     2
  9
$DIMDEC
 70
     4
  9
$DIMTDEC
 70
     4
  9
$DIMALTU
 70
     2
  9
$DIMALTTD
 70
     2
  9
$DIMTXSTY
  7
STANDARD
  9
$DIMAUNIT
 70
     0
  9
$LUNITS
 70
     2
  9
$LUPREC
 70
     4
  9
$SKETCHINC
 40
0.1
  9
$FILLETRAD
 40
0.0
  9
$AUNITS
 70
     0
  9
$AUPREC
 70
     0
  9
$MENU
  1
acad
  9
$ELEVATION
 40
0.0
  9
$PELEVATION
 40
0.0
  9
$THICKNESS
 40
0.0
  9
$LIMCHECK
 70
     0
  9
$BLIPMODE
 70
     1
  9
$CHAMFERA
 40
0.0
  9
$CHAMFERB
 40
0.0
  9
$CHAMFERC
 40
0.0
  9
$CHAMFERD
 40
0.0
  9
$SKPOLY
 70
     0
  9
$TDCREATE
 40
2455606.825290463
  9
$TDUPDATE
 40
2455606.825290463
  9
$TDINDWG
 40
0.0000000000
  9
$TDUSRTIMER
 40
0.0000000000
  9
$USRTIMER
 70
     1
  9
$ANGBASE
 50
0.0
  9
$ANGDIR
 70
     0
  9
$PDMODE
 70
     0
  9
$PDSIZE
 40
0.0
  9
$PLINEWID
 40
0.0
  9
$COORDS
 70
     1
  9
$SPLFRAME
 70
     0
  9
$SPLINETYPE
 70
     6
  9
$SPLINESEGS
 70
     8
  9
$ATTDIA
 70
     0
  9
$ATTREQ
 70
     1
  9
$HANDLING
 70
     1
  9
$HANDSEED
  5
70C
  9
$SURFTAB1
 70
     6
  9
$SURFTAB2
 70
     6
  9
$SURFTYPE
 70
     6
  9
$SURFU
 70
     6
  9
$SURFV
 70
     6
  9
$UCSNAME
  2

  9
$UCSORG
 10
0.0
 20
0.0
 30
0.0
  9
$UCSXDIR
 10
1.0
 20
0.0
 30
0.0
  9
$UCSYDIR
 10
0.0
 20
1.0
 30
0.0
  9
$PUCSNAME
  2

  9
$PUCSORG
 10
0.0
 20
0.0
 30
0.0
  9
$PUCSXDIR
 10
1.0
 20
0.0
 30
0.0
  9
$PUCSYDIR
 10
0.0
 20
1.0
 30
0.0
  9
$USERI1
 70
     0
  9
$USERI2
 70
     0
  9
$USERI3
 70
     0
  9
$USERI4
 70
     0
  9
$USERI5
 70
     0
  9
$USERR1
 40
0.0
  9
$USERR2
 40
0.0
  9
$USERR3
 40
0.0
  9
$USERR4
 40
0.0
  9
$USERR5
 40
0.0
  9
$WORLDVIEW
 70
     1
  9
$SHADEDGE
 70
     3
  9
$SHADEDIF
 70
    70
  9
$TILEMODE
 70
     1
  9
$MAXACTVP
 70
    16
  9
$PINSBASE
 10
0.0
 20
0.0
 30
0.0
  9
$PLIMCHECK
 70
     0
  9
$PEXTMIN
 10
1.000000E+20
 20
1.000000E+20
 30
1.000000E+20
  9
$PEXTMAX
 10
-1.000000E+20
 20
-1.000000E+20
 30
-1.000000E+20
  9
$PLIMMIN
 10
0.0
 20
0.0
  9
$PLIMMAX
 10
12.0
 20
9.0
  9
$UNITMODE
 70
     0
  9
$VISRETAIN
 70
     0
  9
$PLINEGEN
 70
     1
  9
$PSLTSCALE
 70
     0
  9
$TREEDEPTH
 70
  3020
  9
$PICKSTYLE
 70
     1
  9
$CMLSTYLE
  2
Standard
  9
$CMLJUST
 70
     0
  9
$CMLSCALE
 40
1.0
  9
$PROXYGRAPHICS
 70
     0
  9
$MEASUREMENT
 70
     0
  0
ENDSEC
  0
SECTION
  2
CLASSES
  0
CLASS
  1
LWPOLYLINE
  2
AcDbPolyline
  3
"AutoCAD"
 90
        0
280
     0
281
     1
  0
CLASS
  1
IMAGE
  2
AcDbRasterImage
  3
ISM
 90
      127
280
     0
281
     1
  0
CLASS
  1
OLE2FRAME
  2
AcDbOle2Frame
  3
""
 90
        0
280
     0
281
     1
  0
CLASS
  1
HATCH
  2
AcDbHatch
  3
"ACAD_SEDONA"
 90
        0
280
     0
281
     1
  0
CLASS
  1
DICTIONARYVAR
  2
AcDbDictionaryVar
  3
"AutoCAD"
 90
        0
280
     0
281
     0
  0
CLASS
  1
RASTERVARIABLES
  2
AcDbRasterVariables
  3
ISM
 90
        0
280
     0
281
     0
  0
CLASS
  1
IMAGEDEF
  2
AcDbRasterImageDef
  3
ISM
 90
        0
280
     0
281
     0
  0
CLASS
  1
IMAGEDEF_REACTOR
  2
AcDbRasterImageDefReactor
  3
ISM
 90
        1
280
     0
281
     0
  0
CLASS
  1
IDBUFFER
  2
AcDbIdBuffer
  3
"Acad"
 90
        0
280
     0
281
     0
  0
CLASS
  1
SPATIAL_FILTER
  2
AcDbSpatialFilter
  3
"Acad"
 90
        0
280
     0
281
     0
  0
CLASS
  1
XRECORD
  2
AcDbXrecord
  3
"<Built In>"
 90
        0
280
     0
281
     0
  0
CLASS
  1
SORTENTSTABLE
  2
AcDbSortentsTable
  3
"AutoCAD"
 90
        0
280
     0
281
     0
  0
CLASS
  1
LAYER_INDEX
  2
AcDbLayerIndex
  3
"Acad"
 90
        0
280
     0
281
     0
  0
CLASS
  1
SPATIAL_INDEX
  2
AcDbSpatialIndex
  3
"Acad"
 90
        0
280
     0
281
     0
  0
CLASS
  1
OBJECT_PTR
  2
CAseDLPNTableRecord
  3
"ASE-LPNTableRecord"
 90
        1
280
     0
281
     0
  0
CLASS
  1
LAYOUT
  2
AcDbLayout
  3
"AutoCAD 2000"
 90
        0
280
     0
281
     0
  0
CLASS
  1
PLOTSETTINGS
  2
AcDbPlotSettings
  3
"AutoCAD 2000"
 90
        0
280
     0
281
     0
  0
CLASS
  1
ACDBDICTIONARYWDFLT
  2
AcDbDictionaryWithDefault
  3
"AutoCAD 2000"
 90
        0
280
     0
281
     0
  0
CLASS
  1
ACDBPLACEHOLDER
  2
AcDbPlaceHolder
  3
"AutoCAD 2000"
 90
        0
280
     0
281
     0
  0
CLASS
  1
VBA_PROJECT
  2
AcDbVbaProject
  3
"acadvba"
 90
        0
280
     0
281
     0
  0
CLASS
  1
WIPEOUT
  2
AcDbWipeout
  3
WipeOut|AutoCAD Express Tool|expresstools@autodesk.com
 90
      127
280
     0
281
     1
  0
CLASS
  1
WIPEOUTVARIABLES
  2
AcDbWipeoutVariables
  3
WipeOut|AutoCAD Express Tool|expresstools@autodesk.com
 90
        0
280
     0
281
     0
  0
CLASS
  1
RTEXT
  2
RText
  3
RText|AutoCAD Express Tool|expresstools@autodesk.com
 90
        0
280
     0
281
     1
  0
CLASS
  1
ARCALIGNEDTEXT
  2
AcDbArcAlignedText
  3
ATEXT|AutoCAD Express Tool|expresstools@autodesk.com
 90
        0
280
     0
281
     1
  0
ENDSEC
  0
SECTION
  2
TABLES
  0
TABLE
  2
VPORT
  5
7
100
AcDbSymbolTable
 70
     1
  0
VPORT
  5
15
100
AcDbSymbolTableRecord
100
AcDbViewportTableRecord
  2
*ACTIVE
 70
     0
 10
0.0
 20
0.0
 11
1.0
 21
1.0
 12
297.0
 22
210.0
 13
0.0
 23
0.0
 14
1.0
 24
1.0
 15
0.0
 25
0.0
 16
0.0
 26
0.0
 36
1.0
 17
0.0
 27
0.0
 37
0.0
 40
420.0
 41
1.722533
 42
50.0
 43
0.0
 44
0.0
 50
0.0
 51
0.0
 71
     0
 72
   100
 73
     1
 74
     1
 75
     0
 76
     0
 77
     0
 78
     0
  0
ENDTAB
  0
TABLE
  2
LTYPE
  5
4
100
AcDbSymbolTable
 70
     9
  0
LTYPE
  5
11
100
AcDbSymbolTableRecord
100
AcDbLinetypeTableRecord
  2
BYBLOCK
 70
    64
  3

 72
    65
 73
     0
 40
0.0
  0
LTYPE
  5
12
100
AcDbSymbolTableRecord
100
AcDbLinetypeTableRecord
  2
BYLAYER
 70
    64
  3

 72
    65
 73
     0
 40
0.0
  0
LTYPE
  5
13
100
AcDbSymbolTableRecord
100
AcDbLinetypeTableRecord
  2
CONTINUOUS
 70
    64
  3
実線
 72
    65
 73
     0
 40
0.0
  0
LTYPE
  5
1D
100
AcDbSymbolTableRecord
100
AcDbLinetypeTableRecord
  2
DASHED
 70
    64
  3
Dashed __ __ __ __ __ __ __ __ __ __ __ __ __ _
 72
    65
 73
     2
 40
19.05
 49
12.7
 74
     0
 49
-6.35
 74
     0
  0
LTYPE
  5
1E
100
AcDbSymbolTableRecord
100
AcDbLinetypeTableRecord
  2
DASHED2
 70
    64
  3
Dashed (.5x) _ _ _ _ _ _ _ _ _ _ _ _ _ _ _ _ _ 
 72
    65
 73
     2
 40
9.525
 49
6.35
 74
     0
 49
-3.175
 74
     0
  0
LTYPE
  5
1F
100
AcDbSymbolTableRecord
100
AcDbLinetypeTableRecord
  2
DASHDOT
 70
    64
  3
Dash dot __ . __ . __ . __ . __ . __ . __ . __
 72
    65
 73
     4
 40
25.4
 49
12.7
 74
     0
 49
-6.35
 74
     0
 49
0.0
 74
     0
 49
-6.35
 74
     0
  0
LTYPE
  5
20
100
AcDbSymbolTableRecord
100
AcDbLinetypeTableRecord
  2
DIVIDE
 70
    64
  3
Divide ____ . . ____ . . ____ . . ____ . . ____
 72
    65
 73
     6
 40
31.75
 49
12.7
 74
     0
 49
-6.35
 74
     0
 49
0.0
 74
     0
 49
-6.35
 74
     0
 49
0.0
 74
     0
 49
-6.35
 74
     0
  0
LTYPE
  5
21
100
AcDbSymbolTableRecord
100
AcDbLinetypeTableRecord
  2
ACAD_ISO06W100
 70
    64
  3
ISO long-dash triple-dot ____ ... ____ ... ____
 72
    65
 73
     8
 40
36.0
 49
24.0
 74
     0
 49
-3.0
 74
     0
 49
0.0
 74
     0
 49
-3.0
 74
     0
 49
0.0
 74
     0
 49
-3.0
 74
     0
 49
0.0
 74
     0
 49
-3.0
 74
     0
  0
LTYPE
  5
22
100
AcDbSymbolTableRecord
100
AcDbLinetypeTableRecord
  2
ACAD_ISO15W100
 70
    64
  3
ISO double-dash triple-dot __ __ . . . __ __ . .
 72
    65
 73
    10
 40
39.0
 49
12.0
 74
     0
 49
-3.0
 74
     0
 49
12.0
 74
     0
 49
-3.0
 74
     0
 49
0.0
 74
     0
 49
-3.0
 74
     0
 49
0.0
 74
     0
 49
-3.0
 74
     0
 49
0.0
 74
     0
 49
-3.0
 74
     0
  0
ENDTAB
  0
TABLE
  2
LAYER
  5
2
100
AcDbSymbolTable
 70
    10
  0
LAYER
  5
14
100
AcDbSymbolTableRecord
100
AcDbLayerTableRecord
  2
0
 70
     0
 62
     7
  6
CONTINUOUS
  0
LAYER
  5
25
100
AcDbSymbolTableRecord
100
AcDbLayerTableRecord
  2
LAY-1
 70
    64
 62
     1
  6
CONTINUOUS
  0
LAYER
  5
26
100
AcDbSymbolTableRecord
100
AcDbLayerTableRecord
  2
LAY-2
 70
    64
 62
     3
  6
CONTINUOUS
  0
LAYER
  5
27
100
AcDbSymbolTableRecord
100
AcDbLayerTableRecord
  2
LAY-3
 70
    64
 62
     3
  6
CONTINUOUS
  0
LAYER
  5
28
100
AcDbSymbolTableRecord
100
AcDbLayerTableRecord
  2
LAY-4
 70
    64
 62
     3
  6
CONTINUOUS
  0
LAYER
  5
29
100
AcDbSymbolTableRecord
100
AcDbLayerTableRecord
  2
LAY-5
 70
    64
 62
     1
  6
DASHDOT
  0
LAYER
  5
2A
100
AcDbSymbolTableRecord
100
AcDbLayerTableRecord
  2
LAY-6
 70
    64
 62
     1
  6
CONTINUOUS
  0
LAYER
  5
2B
100
AcDbSymbolTableRecord
100
AcDbLayerTableRecord
  2
LAY-7
 70
    64
 62
     3
  6
CONTINUOUS
  0
LAYER
  5
2C
100
AcDbSymbolTableRecord
100
AcDbLayerTableRecord
  2
LAY-10
 70
    64
 62
     5
  6
CONTINUOUS
  0
LAYER
  5
2D
100
AcDbSymbolTableRecord
100
AcDbLayerTableRecord
  2
LAY-15
 70
    64
 62
     3
  6
CONTINUOUS
  0
ENDTAB
  0
TABLE
  2
STYLE
  5
3
100
AcDbSymbolTable
 70
     3
  0
STYLE
  5
17
100
AcDbSymbolTableRecord
100
AcDbTextStyleTableRecord
  2
STANDARD
 70
     0
 40
0.0
 41
1.0
 50
0.0
 71
     0
 42
0.0
  3
monotxt
  4
extfont
  0
STYLE
  5
23
100
AcDbSymbolTableRecord
100
AcDbTextStyleTableRecord
  2
EXCADSTD
 70
    64
 40
0.0
 41
1.0
 50
0.0
 71
     0
 42
0.2
  3
monotxt
  4
extfont
  0
STYLE
  5
24
100
AcDbSymbolTableRecord
100
AcDbTextStyleTableRecord
  2
EXCADVERT
 70
    68
 40
0.0
 41
1.0
 50
0.0
 71
     0
 42
0.286885
  3
monotxt
  4
extfont
  0
ENDTAB
  0
TABLE
  2
VIEW
  5
5
100
AcDbSymbolTable
 70
     0
  0
ENDTAB
  0
TABLE
  2
UCS
  5
6
100
AcDbSymbolTable
 70
     0
  0
ENDTAB
  0
TABLE
  2
APPID
  5
8
100
AcDbSymbolTable
 70
     1
  0
APPID
  5
16
100
AcDbSymbolTableRecord
100
AcDbRegAppTableRecord
  2
ACAD
 70
     0
  0
ENDTAB
  0
TABLE
  2
DIMSTYLE
  5
9
100
AcDbSymbolTable
 70
     1
  0
DIMSTYLE
105
18
100
AcDbSymbolTableRecord
100
AcDbDimStyleTableRecord
  2
STANDARD
 70
     0
  3

  4

  5

  6

  7

 40
1.0
 41
0.18
 42
0.0625
 43
0.38
 44
0.18
 45
0.0
 46
0.0
 47
0.0
 48
0.0
 71
     0
 72
     0
 73
     1
 74
     1
 75
     0
 76
     0
 77
     0
 78
     0
140
0.18
141
0.09
142
0.0
143
25.4
144
1.0
145
0.0
146
1.0
147
0.09
170
     0
171
     2
172
     1
173
     0
174
     0
175
     0
176
     0
177
     0
178
     0
270
     2
271
     4
272
     4
273
     2
274
     2
275
     0
280
     0
281
     0
282
     0
283
     1
284
     0
285
     0
286
     0
287
     3
288
     0
340
17
  0
ENDTAB
  0
TABLE
  2
BLOCK_RECORD
  5
1
100
AcDbSymbolTable
 70
    14
  0
BLOCK_RECORD
  5
A
100
AcDbSymbolTableRecord
100
AcDbBlockTableRecord
  2
*MODEL_SPACE
  0
BLOCK_RECORD
  5
B
100
AcDbSymbolTableRecord
100
AcDbBlockTableRecord
  2
*PAPER_SPACE
  0
BLOCK_RECORD
  5
2E
100
AcDbSymbolTableRecord
100
AcDbBlockTableRecord
  2
_EX_NORM
  0
BLOCK_RECORD
  5
2F
100
AcDbSymbolTableRecord
100
AcDbBlockTableRecord
  2
_EX_BNORM
  0
BLOCK_RECORD
  5
30
100
AcDbSymbolTableRecord
100
AcDbBlockTableRecord
  2
_EX_BCIR
  0
BLOCK_RECORD
  5
31
100
AcDbSymbolTableRecord
100
AcDbBlockTableRecord
  2
_EX_RCIVIL
  0
BLOCK_RECORD
  5
32
100
AcDbSymbolTableRecord
100
AcDbBlockTableRecord
  2
_EX_SLANT
  0
BLOCK_RECORD
  5
33
100
AcDbSymbolTableRecord
100
AcDbBlockTableRecord
  2
_EX_NONE
  0
BLOCK_RECORD
  5
34
100
AcDbSymbolTableRecord
100
AcDbBlockTableRecord
  2
_EX_CIVIL
  0
BLOCK_RECORD
  5
35
100
AcDbSymbolTableRecord
100
AcDbBlockTableRecord
  2
_EX_WCIR
  0
BLOCK_RECORD
  5
36
100
AcDbSymbolTableRecord
100
AcDbBlockTableRecord
  2
_EX_WCIR2
  0
BLOCK_RECORD
  5
37
100
AcDbSymbolTableRecord
100
AcDbBlockTableRecord
  2
_EX_WNORM
  0
BLOCK_RECORD
  5
38
100
AcDbSymbolTableRecord
100
AcDbBlockTableRecord
  2
_EX_NNORM
  0
BLOCK_RECORD
  5
39
100
AcDbSymbolTableRecord
100
AcDbBlockTableRecord
  2
_EX_BBOX
  0
BLOCK_RECORD
  5
3A
100
AcDbSymbolTableRecord
100
AcDbBlockTableRecord
  2
_EX_WBOX
  0
BLOCK_RECORD
  5
3B
100
AcDbSymbolTableRecord
100
AcDbBlockTableRecord
  2
_EX_INTEGRAL
  0
ENDTAB
  0
ENDSEC
  0
SECTION
  2
BLOCKS
  0
BLOCK
  5
D
100
AcDbEntity
  8
0
100
AcDbBlockBegin
  2
*MODEL_SPACE
 70
     0
 10
0.0
 20
0.0
 30
0.0
  3
*MODEL_SPACE
  1

  0
ENDBLK
  5
E
100
AcDbEntity
  8
0
100
AcDbBlockEnd
  0
BLOCK
  5
F
100
AcDbEntity
 67
     1
  8
0
100
AcDbBlockBegin
  2
*PAPER_SPACE
 70
     0
 10
0.0
 20
0.0
 30
0.0
  3
*PAPER_SPACE
  1

  0
ENDBLK
  5
10
100
AcDbEntity
 67
     1
  8
0
100
AcDbBlockEnd
  0
BLOCK
  5
3C
100
AcDbEntity
  8
0
100
AcDbBlockBegin
  2
_EX_NORM
 70
     0
 10
0.0
 20
0.0
 30
0.0
  3
_EX_NORM
  1

  0
LINE
  5
3D
100
AcDbEntity
  8
0
  6
CONTINUOUS
 62
     0
100
AcDbLine
 10
0.0
 20
0.0
 30
0.0
 11
-1.0
 21
0.0
 31
0.0
  0
LINE
  5
3E
100
AcDbEntity
  8
0
  6
CONTINUOUS
 62
     0
100
AcDbLine
 10
0.0
 20
0.0
 30
0.0
 11
-1.0
 21
0.166667
 31
0.0
  0
LINE
  5
3F
100
AcDbEntity
  8
0
  6
CONTINUOUS
 62
     0
100
AcDbLine
 10
0.0
 20
0.0
 30
0.0
 11
-1.0
 21
-0.166667
 31
0.0
  0
ENDBLK
  5
40
100
AcDbEntity
  8
0
100
AcDbBlockEnd
  0
BLOCK
  5
41
100
AcDbEntity
  8
0
100
AcDbBlockBegin
  2
_EX_BNORM
 70
     0
 10
0.0
 20
0.0
 30
0.0
  3
_EX_BNORM
  1

  0
LINE
  5
42
100
AcDbEntity
  8
0
  6
CONTINUOUS
 62
     0
100
AcDbLine
 10
0.0
 20
0.0
 30
0.0
 11
-1.0
 21
0.0
 31
0.0
  0
LINE
  5
43
100
AcDbEntity
  8
0
  6
CONTINUOUS
 62
     0
100
AcDbLine
 10
0.0
 20
0.0
 30
0.0
 11
-1.0
 21
0.166667
 31
0.0
  0
LINE
  5
44
100
AcDbEntity
  8
0
  6
CONTINUOUS
 62
     0
100
AcDbLine
 10
0.0
 20
0.0
 30
0.0
 11
-1.0
 21
-0.166667
 31
0.0
  0
LINE
  5
45
100
AcDbEntity
  8
0
  6
CONTINUOUS
 62
     0
100
AcDbLine
 10
0.0
 20
0.0
 30
0.0
 11
-1.0
 21
0.083333
 31
0.0
  0
LINE
  5
46
100
AcDbEntity
  8
0
  6
CONTINUOUS
 62
     0
100
AcDbLine
 10
0.0
 20
0.0
 30
0.0
 11
-1.0
 21
-0.083333
 31
0.0
  0
LINE
  5
47
100
AcDbEntity
  8
0
  6
CONTINUOUS
 62
     0
100
AcDbLine
 10
-1.0
 20
0.166667
 30
0.0
 11
-1.0
 21
-0.166667
 31
0.0
  0
ENDBLK
  5
48
100
AcDbEntity
  8
0
100
AcDbBlockEnd
  0
BLOCK
  5
49
100
AcDbEntity
  8
0
100
AcDbBlockBegin
  2
_EX_BCIR
 70
     0
 10
0.0
 20
0.0
 30
0.0
  3
_EX_BCIR
  1

  0
LINE
  5
4A
100
AcDbEntity
  8
0
  6
CONTINUOUS
 62
     0
100
AcDbLine
 10
0.0
 20
0.0
 30
0.0
 11
-1.0
 21
0.0
 31
0.0
  0
CIRCLE
  5
4B
100
AcDbEntity
  8
0
  6
CONTINUOUS
 62
     0
100
AcDbCircle
 10
0.0
 20
0.0
 30
0.0
 40
0.5
  0
CIRCLE
  5
4C
100
AcDbEntity
  8
0
  6
CONTINUOUS
 62
     0
100
AcDbCircle
 10
0.0
 20
0.0
 30
0.0
 40
0.25
  0
ENDBLK
  5
4D
100
AcDbEntity
  8
0
100
AcDbBlockEnd
  0
BLOCK
  5
4E
100
AcDbEntity
  8
0
100
AcDbBlockBegin
  2
_EX_RCIVIL
 70
     0
 10
0.0
 20
0.0
 30
0.0
  3
_EX_RCIVIL
  1

  0
LINE
  5
4F
100
AcDbEntity
  8
0
  6
CONTINUOUS
 62
     0
100
AcDbLine
 10
0.0
 20
0.0
 30
0.0
 11
-1.0
 21
0.0
 31
0.0
  0
LINE
  5
50
100
AcDbEntity
  8
0
  6
CONTINUOUS
 62
     0
100
AcDbLine
 10
-1.0
 20
-0.25
 30
0.0
 11
0.0
 21
-0.25
 31
0.0
  0
LINE
  5
51
100
AcDbEntity
  8
0
  6
CONTINUOUS
 62
     0
100
AcDbLine
 10
-1.0
 20
-0.125
 30
0.0
 11
0.0
 21
-0.125
 31
0.0
  0
ENDBLK
  5
52
100
AcDbEntity
  8
0
100
AcDbBlockEnd
  0
BLOCK
  5
53
100
AcDbEntity
  8
0
100
AcDbBlockBegin
  2
_EX_SLANT
 70
     0
 10
0.0
 20
0.0
 30
0.0
  3
_EX_SLANT
  1

  0
LINE
  5
54
100
AcDbEntity
  8
0
  6
CONTINUOUS
 62
     0
100
AcDbLine
 10
0.0
 20
0.0
 30
0.0
 11
-1.0
 21
0.0
 31
0.0
  0
LINE
  5
55
100
AcDbEntity
  8
0
  6
CONTINUOUS
 62
     0
100
AcDbLine
 10
0.707107
 20
0.707107
 30
0.0
 11
-0.707107
 21
-0.707107
 31
0.0
  0
ENDBLK
  5
56
100
AcDbEntity
  8
0
100
AcDbBlockEnd
  0
BLOCK
  5
57
100
AcDbEntity
  8
0
100
AcDbBlockBegin
  2
_EX_NONE
 70
     0
 10
0.0
 20
0.0
 30
0.0
  3
_EX_NONE
  1

  0
LINE
  5
58
100
AcDbEntity
  8
0
  6
CONTINUOUS
 62
     0
100
AcDbLine
 10
0.0
 20
0.0
 30
0.0
 11
-1.0
 21
0.0
 31
0.0
  0
ENDBLK
  5
59
100
AcDbEntity
  8
0
100
AcDbBlockEnd
  0
BLOCK
  5
5A
100
AcDbEntity
  8
0
100
AcDbBlockBegin
  2
_EX_CIVIL
 70
     0
 10
0.0
 20
0.0
 30
0.0
  3
_EX_CIVIL
  1

  0
LINE
  5
5B
100
AcDbEntity
  8
0
  6
CONTINUOUS
 62
     0
100
AcDbLine
 10
0.0
 20
0.0
 30
0.0
 11
-1.0
 21
0.0
 31
0.0
  0
LINE
  5
5C
100
AcDbEntity
  8
0
  6
CONTINUOUS
 62
     0
100
AcDbLine
 10
-1.0
 20
0.25
 30
0.0
 11
0.0
 21
0.25
 31
0.0
  0
LINE
  5
5D
100
AcDbEntity
  8
0
  6
CONTINUOUS
 62
     0
100
AcDbLine
 10
-1.0
 20
0.125
 30
0.0
 11
0.0
 21
0.125
 31
0.0
  0
ENDBLK
  5
5E
100
AcDbEntity
  8
0
100
AcDbBlockEnd
  0
BLOCK
  5
5F
100
AcDbEntity
  8
0
100
AcDbBlockBegin
  2
_EX_WCIR
 70
     0
 10
0.0
 20
0.0
 30
0.0
  3
_EX_WCIR
  1

  0
LINE
  5
60
100
AcDbEntity
  8
0
  6
CONTINUOUS
 62
     0
100
AcDbLine
 10
0.0
 20
0.0
 30
0.0
 11
-1.0
 21
0.0
 31
0.0
  0
CIRCLE
  5
61
100
AcDbEntity
  8
0
  6
CONTINUOUS
 62
     0
100
AcDbCircle
 10
0.0
 20
0.0
 30
0.0
 40
0.5
  0
ENDBLK
  5
62
100
AcDbEntity
  8
0
100
AcDbBlockEnd
  0
BLOCK
  5
63
100
AcDbEntity
  8
0
100
AcDbBlockBegin
  2
_EX_WCIR2
 70
     0
 10
0.0
 20
0.0
 30
0.0
  3
_EX_WCIR2
  1

  0
LINE
  5
64
100
AcDbEntity
  8
0
  6
CONTINUOUS
 62
     0
100
AcDbLine
 10
-0.5
 20
0.0
 30
0.0
 11
-1.0
 21
0.0
 31
0.0
  0
CIRCLE
  5
65
100
AcDbEntity
  8
0
  6
CONTINUOUS
 62
     0
100
AcDbCircle
 10
0.0
 20
0.0
 30
0.0
 40
0.5
  0
ENDBLK
  5
66
100
AcDbEntity
  8
0
100
AcDbBlockEnd
  0
BLOCK
  5
67
100
AcDbEntity
  8
0
100
AcDbBlockBegin
  2
_EX_WNORM
 70
     0
 10
0.0
 20
0.0
 30
0.0
  3
_EX_WNORM
  1

  0
LINE
  5
68
100
AcDbEntity
  8
0
  6
CONTINUOUS
 62
     0
100
AcDbLine
 10
-1.0
 20
0.0
 30
0.0
 11
-1.0
 21
0.0
 31
0.0
  0
LINE
  5
69
100
AcDbEntity
  8
0
  6
CONTINUOUS
 62
     0
100
AcDbLine
 10
0.0
 20
0.0
 30
0.0
 11
-1.0
 21
0.166667
 31
0.0
  0
LINE
  5
6A
100
AcDbEntity
  8
0
  6
CONTINUOUS
 62
     0
100
AcDbLine
 10
0.0
 20
0.0
 30
0.0
 11
-1.0
 21
-0.166667
 31
0.0
  0
LINE
  5
6B
100
AcDbEntity
  8
0
  6
CONTINUOUS
 62
     0
100
AcDbLine
 10
-1.0
 20
0.166667
 30
0.0
 11
-1.0
 21
-0.166667
 31
0.0
  0
ENDBLK
  5
6C
100
AcDbEntity
  8
0
100
AcDbBlockEnd
  0
BLOCK
  5
6D
100
AcDbEntity
  8
0
100
AcDbBlockBegin
  2
_EX_NNORM
 70
     0
 10
0.0
 20
0.0
 30
0.0
  3
_EX_NNORM
  1

  0
LINE
  5
6E
100
AcDbEntity
  8
0
  6
CONTINUOUS
 62
     0
100
AcDbLine
 10
0.0
 20
0.0
 30
0.0
 11
-1.0
 21
0.0
 31
0.0
  0
LINE
  5
6F
100
AcDbEntity
  8
0
  6
CONTINUOUS
 62
     0
100
AcDbLine
 10
0.0
 20
0.0
 30
0.0
 11
-1.0
 21
0.166667
 31
0.0
  0
LINE
  5
70
100
AcDbEntity
  8
0
  6
CONTINUOUS
 62
     0
100
AcDbLine
 10
0.0
 20
0.0
 30
0.0
 11
-1.0
 21
-0.166667
 31
0.0
  0
LINE
  5
71
100
AcDbEntity
  8
0
  6
CONTINUOUS
 62
     0
100
AcDbLine
 10
-1.0
 20
0.166667
 30
0.0
 11
-1.0
 21
-0.166667
 31
0.0
  0
ENDBLK
  5
72
100
AcDbEntity
  8
0
100
AcDbBlockEnd
  0
BLOCK
  5
73
100
AcDbEntity
  8
0
100
AcDbBlockBegin
  2
_EX_BBOX
 70
     0
 10
0.0
 20
0.0
 30
0.0
  3
_EX_BBOX
  1

  0
LINE
  5
74
100
AcDbEntity
  8
0
  6
CONTINUOUS
 62
     0
100
AcDbLine
 10
0.0
 20
0.0
 30
0.0
 11
-1.0
 21
0.0
 31
0.0
  0
LINE
  5
75
100
AcDbEntity
  8
0
  6
CONTINUOUS
 62
     0
100
AcDbLine
 10
-0.5
 20
0.5
 30
0.0
 11
0.5
 21
0.5
 31
0.0
  0
LINE
  5
76
100
AcDbEntity
  8
0
  6
CONTINUOUS
 62
     0
100
AcDbLine
 10
0.5
 20
0.5
 30
0.0
 11
0.5
 21
-0.5
 31
0.0
  0
LINE
  5
77
100
AcDbEntity
  8
0
  6
CONTINUOUS
 62
     0
100
AcDbLine
 10
0.5
 20
-0.5
 30
0.0
 11
-0.5
 21
-0.5
 31
0.0
  0
LINE
  5
78
100
AcDbEntity
  8
0
  6
CONTINUOUS
 62
     0
100
AcDbLine
 10
-0.5
 20
-0.5
 30
0.0
 11
-0.5
 21
0.5
 31
0.0
  0
LINE
  5
79
100
AcDbEntity
  8
0
  6
CONTINUOUS
 62
     0
100
AcDbLine
 10
-0.25
 20
0.25
 30
0.0
 11
0.25
 21
0.25
 31
0.0
  0
LINE
  5
7A
100
AcDbEntity
  8
0
  6
CONTINUOUS
 62
     0
100
AcDbLine
 10
0.25
 20
0.25
 30
0.0
 11
0.25
 21
-0.25
 31
0.0
  0
LINE
  5
7B
100
AcDbEntity
  8
0
  6
CONTINUOUS
 62
     0
100
AcDbLine
 10
0.25
 20
-0.25
 30
0.0
 11
-0.25
 21
-0.25
 31
0.0
  0
LINE
  5
7C
100
AcDbEntity
  8
0
  6
CONTINUOUS
 62
     0
100
AcDbLine
 10
-0.25
 20
-0.25
 30
0.0
 11
-0.25
 21
0.25
 31
0.0
  0
ENDBLK
  5
7D
100
AcDbEntity
  8
0
100
AcDbBlockEnd
  0
BLOCK
  5
7E
100
AcDbEntity
  8
0
100
AcDbBlockBegin
  2
_EX_WBOX
 70
     0
 10
0.0
 20
0.0
 30
0.0
  3
_EX_WBOX
  1

  0
LINE
  5
7F
100
AcDbEntity
  8
0
  6
CONTINUOUS
 62
     0
100
AcDbLine
 10
-0.5
 20
0.0
 30
0.0
 11
-1.0
 21
0.0
 31
0.0
  0
LINE
  5
80
100
AcDbEntity
  8
0
  6
CONTINUOUS
 62
     0
100
AcDbLine
 10
-0.5
 20
0.5
 30
0.0
 11
0.5
 21
0.5
 31
0.0
  0
LINE
  5
81
100
AcDbEntity
  8
0
  6
CONTINUOUS
 62
     0
100
AcDbLine
 10
0.5
 20
0.5
 30
0.0
 11
0.5
 21
-0.5
 31
0.0
  0
LINE
  5
82
100
AcDbEntity
  8
0
  6
CONTINUOUS
 62
     0
100
AcDbLine
 10
0.5
 20
-0.5
 30
0.0
 11
-0.5
 21
-0.5
 31
0.0
  0
LINE
  5
83
100
AcDbEntity
  8
0
  6
CONTINUOUS
 62
     0
100
AcDbLine
 10
-0.5
 20
-0.5
 30
0.0
 11
-0.5
 21
0.5
 31
0.0
  0
ENDBLK
  5
84
100
AcDbEntity
  8
0
100
AcDbBlockEnd
  0
BLOCK
  5
85
100
AcDbEntity
  8
0
100
AcDbBlockBegin
  2
_EX_INTEGRAL
 70
     0
 10
0.0
 20
0.0
 30
0.0
  3
_EX_INTEGRAL
  1

  0
LINE
  5
86
100
AcDbEntity
  8
0
  6
CONTINUOUS
 62
     0
100
AcDbLine
 10
0.0
 20
0.0
 30
0.0
 11
-1.0
 21
0.0
 31
0.0
  0
ARC
  5
87
100
AcDbEntity
  8
0
  6
CONTINUOUS
 62
     0
100
AcDbCircle
 10
0.542115
 20
0.164992
 30
0.0
 40
0.56667
100
AcDbArc
 50
73.07249
 51
196.927513
  0
ARC
  5
88
100
AcDbEntity
  8
0
  6
CONTINUOUS
 62
     0
100
AcDbCircle
 10
-0.542115
 20
-0.164992
 30
0.0
 40
0.56667
100
AcDbArc
 50
253.072487
 51
16.927513
  0
ENDBLK
  5
89
100
AcDbEntity
  8
0
100
AcDbBlockEnd
  0
ENDSEC
  0
SECTION
  2
ENTITIES
  0
ARC
  5
8A
100
AcDbEntity
  8
LAY-1
  6
CONTINUOUS
 62
     1
100
AcDbCircle
 10
336.6
 20
337.4
 30
0.0
 40
1.6
100
AcDbArc
 50
90.0
 51
180.0
  0
ARC
  5
8B
100
AcDbEntity
  8
LAY-1
  6
CONTINUOUS
 62
     1
100
AcDbCircle
 10
336.6
 20
315.6
 30
0.0
 40
1.6
100
AcDbArc
 50
180.0
 51
270.0
  0
LINE
  5
8C
100
AcDbEntity
  8
LAY-1
  6
CONTINUOUS
 62
     1
100
AcDbLine
 10
350.0
 20
339.0
 30
0.0
 11
336.6
 21
339.0
 31
0.0
  0
LINE
  5
8D
100
AcDbEntity
  8
LAY-1
  6
CONTINUOUS
 62
     1
100
AcDbLine
 10
350.0
 20
337.4
 30
0.0
 11
336.6
 21
337.4
 31
0.0
  0
LINE
  5
8E
100
AcDbEntity
  8
LAY-1
  6
CONTINUOUS
 62
     1
100
AcDbLine
 10
350.0
 20
337.4
 30
0.0
 11
350.0
 21
339.0
 31
0.0
  0
LINE
  5
8F
100
AcDbEntity
  8
LAY-1
  6
CONTINUOUS
 62
     1
100
AcDbLine
 10
336.6
 20
315.6
 30
0.0
 11
336.6
 21
320.5
 31
0.0
  0
LINE
  5
90
100
AcDbEntity
  8
LAY-1
  6
CONTINUOUS
 62
     1
100
AcDbLine
 10
336.6
 20
329.5
 30
0.0
 11
336.6
 21
337.4
 31
0.0
  0
LINE
  5
91
100
AcDbEntity
  8
LAY-1
  6
CONTINUOUS
 62
     1
100
AcDbLine
 10
335.0
 20
315.6
 30
0.0
 11
335.0
 21
320.5
 31
0.0
  0
LINE
  5
92
100
AcDbEntity
  8
LAY-1
  6
CONTINUOUS
 62
     1
100
AcDbLine
 10
335.0
 20
329.5
 30
0.0
 11
335.0
 21
337.4
 31
0.0
  0
LINE
  5
93
100
AcDbEntity
  8
LAY-1
  6
CONTINUOUS
 62
     1
100
AcDbLine
 10
341.9
 20
302.0
 30
0.0
 11
341.9
 21
294.4
 31
0.0
  0
LINE
  5
94
100
AcDbEntity
  8
LAY-1
  6
CONTINUOUS
 62
     1
100
AcDbLine
 10
341.9
 20
294.4
 30
0.0
 11
339.6
 21
294.4
 31
0.0
  0
LINE
  5
95
100
AcDbEntity
  8
LAY-1
  6
CONTINUOUS
 62
     1
100
AcDbLine
 10
325.5
 20
254.6
 30
0.0
 11
387.4
 21
254.6
 31
0.0
  0
LINE
  5
96
100
AcDbEntity
  8
LAY-1
  6
CONTINUOUS
 62
     1
100
AcDbLine
 10
325.5
 20
250.1
 30
0.0
 11
387.4
 21
250.1
 31
0.0
  0
LINE
  5
97
100
AcDbEntity
  8
LAY-1
  6
CONTINUOUS
 62
     1
100
AcDbLine
 10
338.0
 20
311.0
 30
0.0
 11
338.0
 21
254.6
 31
0.0
  0
LINE
  5
98
100
AcDbEntity
  8
LAY-1
  6
CONTINUOUS
 62
     1
100
AcDbLine
 10
339.6
 20
254.6
 30
0.0
 11
339.6
 21
302.0
 31
0.0
  0
LINE
  5
99
100
AcDbEntity
  8
LAY-1
  6
CONTINUOUS
 62
     1
100
AcDbLine
 10
338.0
 20
250.1
 30
0.0
 11
338.0
 21
164.0
 31
0.0
  0
LINE
  5
9A
100
AcDbEntity
  8
LAY-1
  6
CONTINUOUS
 62
     1
100
AcDbLine
 10
335.0
 20
173.0
 30
0.0
 11
335.0
 21
250.1
 31
0.0
  0
LINE
  5
9B
100
AcDbEntity
  8
LAY-1
  6
CONTINUOUS
 62
     1
100
AcDbLine
 10
370.1
 20
294.4
 30
0.0
 11
370.1
 21
307.1
 31
0.0
  0
LINE
  5
9C
100
AcDbEntity
  8
LAY-1
  6
CONTINUOUS
 62
     1
100
AcDbLine
 10
372.4
 20
294.4
 30
0.0
 11
370.1
 21
294.4
 31
0.0
  0
ARC
  5
9D
100
AcDbEntity
  8
LAY-1
  6
CONTINUOUS
 62
     1
100
AcDbCircle
 10
370.1
 20
307.1
 30
0.0
 40
2.3
100
AcDbArc
 50
0.0
 51
90.0
  0
LINE
  5
9E
100
AcDbEntity
  8
LAY-1
  6
CONTINUOUS
 62
     1
100
AcDbLine
 10
370.1
 20
307.1
 30
0.0
 11
364.0
 21
307.1
 31
0.0
  0
LINE
  5
9F
100
AcDbEntity
  8
LAY-1
  6
CONTINUOUS
 62
     1
100
AcDbLine
 10
372.4
 20
254.6
 30
0.0
 11
372.4
 21
309.4
 31
0.0
  0
LINE
  5
A0
100
AcDbEntity
  8
LAY-1
  6
CONTINUOUS
 62
     1
100
AcDbLine
 10
372.4
 20
309.4
 30
0.0
 11
364.0
 21
309.4
 31
0.0
  0
LINE
  5
A1
100
AcDbEntity
  8
LAY-1
  6
CONTINUOUS
 62
     1
100
AcDbLine
 10
374.0
 20
254.6
 30
0.0
 11
374.0
 21
309.4
 31
0.0
  0
ARC
  5
A2
100
AcDbEntity
  8
LAY-1
  6
CONTINUOUS
 62
     1
100
AcDbCircle
 10
372.4
 20
309.4
 30
0.0
 40
1.6
100
AcDbArc
 50
0.0
 51
90.0
  0
LINE
  5
A3
100
AcDbEntity
  8
LAY-1
  6
CONTINUOUS
 62
     1
100
AcDbLine
 10
338.0
 20
311.0
 30
0.0
 11
372.4
 21
311.0
 31
0.0
  0
ARC
  5
A4
100
AcDbEntity
  8
LAY-1
  6
CONTINUOUS
 62
     1
100
AcDbCircle
 10
379.1
 20
300.6
 30
0.0
 40
1.6
100
AcDbArc
 50
180.0
 51
270.0
  0
ARC
  5
A5
100
AcDbEntity
  8
LAY-1
  6
CONTINUOUS
 62
     1
100
AcDbCircle
 10
377.5
 20
314.0
 30
0.0
 40
1.6
100
AcDbArc
 50
0.0
 51
90.0
  0
LINE
  5
A6
100
AcDbEntity
  8
LAY-1
  6
CONTINUOUS
 62
     1
100
AcDbLine
 10
377.5
 20
314.0
 30
0.0
 11
377.5
 21
254.4
 31
0.0
  0
LINE
  5
A7
100
AcDbEntity
  8
LAY-1
  6
CONTINUOUS
 62
     1
100
AcDbLine
 10
398.7
 20
300.6
 30
0.0
 11
379.1
 21
300.6
 31
0.0
  0
LINE
  5
A8
100
AcDbEntity
  8
LAY-1
  6
CONTINUOUS
 62
     1
100
AcDbLine
 10
398.7
 20
299.0
 30
0.0
 11
379.0
 21
299.0
 31
0.0
  0
LINE
  5
A9
100
AcDbEntity
  8
LAY-1
  6
CONTINUOUS
 62
     1
100
AcDbLine
 10
379.1
 20
300.6
 30
0.0
 11
379.1
 21
320.5
 31
0.0
  0
LINE
  5
AA
100
AcDbEntity
  8
LAY-1
  6
CONTINUOUS
 62
     1
100
AcDbLine
 10
379.1
 20
315.6
 30
0.0
 11
336.6
 21
315.6
 31
0.0
  0
LINE
  5
AB
100
AcDbEntity
  8
LAY-1
  6
CONTINUOUS
 62
     1
100
AcDbLine
 10
336.6
 20
320.5
 30
0.0
 11
379.1
 21
320.5
 31
0.0
  0
LINE
  5
AC
100
AcDbEntity
  8
LAY-1
  6
CONTINUOUS
 62
     1
100
AcDbLine
 10
336.6
 20
315.6
 30
0.0
 11
379.1
 21
320.5
 31
0.0
  0
LINE
  5
AD
100
AcDbEntity
  8
LAY-1
  6
DASHED2
 62
     1
100
AcDbLine
 10
335.0
 20
123.0
 30
0.0
 11
335.0
 21
138.0
 31
0.0
  0
LINE
  5
AE
100
AcDbEntity
  8
LAY-1
  6
CONTINUOUS
 62
     1
100
AcDbLine
 10
435.0
 20
138.0
 30
0.0
 11
268.8
 21
138.0
 31
0.0
  0
POLYLINE
  5
AF
100
AcDbEntity
  8
LAY-1
  6
CONTINUOUS
 62
     1
100
AcDb2dPolyline
 66
     1
 10
0.0
 20
0.0
 30
0.0
 70
   128
  0
VERTEX
  5
B0
100
AcDbEntity
  8
LAY-1
  6
CONTINUOUS
 62
     1
100
AcDbVertex
100
AcDb2dVertex
 10
435.0
 20
138.0
 30
0.0
  0
VERTEX
  5
B1
100
AcDbEntity
  8
LAY-1
  6
CONTINUOUS
 62
     1
100
AcDbVertex
100
AcDb2dVertex
 10
435.015343
 20
137.97425
 30
0.0
  0
VERTEX
  5
B2
100
AcDbEntity
  8
LAY-1
  6
CONTINUOUS
 62
     1
100
AcDbVertex
100
AcDb2dVertex
 10
435.057881
 20
137.90092
 30
0.0
  0
VERTEX
  5
B3
100
AcDbEntity
  8
LAY-1
  6
CONTINUOUS
 62
     1
100
AcDbVertex
100
AcDb2dVertex
 10
435.122374
 20
137.785889
 30
0.0
  0
VERTEX
  5
B4
100
AcDbEntity
  8
LAY-1
  6
CONTINUOUS
 62
     1
100
AcDbVertex
100
AcDb2dVertex
 10
435.203582
 20
137.635037
 30
0.0
  0
VERTEX
  5
B5
100
AcDbEntity
  8
LAY-1
  6
CONTINUOUS
 62
     1
100
AcDbVertex
100
AcDb2dVertex
 10
435.296268
 20
137.454245
 30
0.0
  0
VERTEX
  5
B6
100
AcDbEntity
  8
LAY-1
  6
CONTINUOUS
 62
     1
100
AcDbVertex
100
AcDb2dVertex
 10
435.395191
 20
137.249392
 30
0.0
  0
VERTEX
  5
B7
100
AcDbEntity
  8
LAY-1
  6
CONTINUOUS
 62
     1
100
AcDbVertex
100
AcDb2dVertex
 10
435.495112
 20
137.026357
 30
0.0
  0
VERTEX
  5
B8
100
AcDbEntity
  8
LAY-1
  6
CONTINUOUS
 62
     1
100
AcDbVertex
100
AcDb2dVertex
 10
435.590793
 20
136.79102
 30
0.0
  0
VERTEX
  5
B9
100
AcDbEntity
  8
LAY-1
  6
CONTINUOUS
 62
     1
100
AcDbVertex
100
AcDb2dVertex
 10
435.676994
 20
136.549262
 30
0.0
  0
VERTEX
  5
BA
100
AcDbEntity
  8
LAY-1
  6
CONTINUOUS
 62
     1
100
AcDbVertex
100
AcDb2dVertex
 10
435.748476
 20
136.306962
 30
0.0
  0
VERTEX
  5
BB
100
AcDbEntity
  8
LAY-1
  6
CONTINUOUS
 62
     1
100
AcDbVertex
100
AcDb2dVertex
 10
435.8
 20
136.07
 30
0.0
  0
VERTEX
  5
BC
100
AcDbEntity
  8
LAY-1
  6
CONTINUOUS
 62
     1
100
AcDbVertex
100
AcDb2dVertex
 10
435.829165
 20
135.822557
 30
0.0
  0
VERTEX
  5
BD
100
AcDbEntity
  8
LAY-1
  6
CONTINUOUS
 62
     1
100
AcDbVertex
100
AcDb2dVertex
 10
435.832522
 20
135.587311
 30
0.0
  0
VERTEX
  5
BE
100
AcDbEntity
  8
LAY-1
  6
CONTINUOUS
 62
     1
100
AcDbVertex
100
AcDb2dVertex
 10
435.814366
 20
135.363054
 30
0.0
  0
VERTEX
  5
BF
100
AcDbEntity
  8
LAY-1
  6
CONTINUOUS
 62
     1
100
AcDbVertex
100
AcDb2dVertex
 10
435.778992
 20
135.148583
 30
0.0
  0
VERTEX
  5
C0
100
AcDbEntity
  8
LAY-1
  6
CONTINUOUS
 62
     1
100
AcDbVertex
100
AcDb2dVertex
 10
435.730694
 20
134.942691
 30
0.0
  0
VERTEX
  5
C1
100
AcDbEntity
  8
LAY-1
  6
CONTINUOUS
 62
     1
100
AcDbVertex
100
AcDb2dVertex
 10
435.673766
 20
134.744173
 30
0.0
  0
VERTEX
  5
C2
100
AcDbEntity
  8
LAY-1
  6
CONTINUOUS
 62
     1
100
AcDbVertex
100
AcDb2dVertex
 10
435.612504
 20
134.551823
 30
0.0
  0
VERTEX
  5
C3
100
AcDbEntity
  8
LAY-1
  6
CONTINUOUS
 62
     1
100
AcDbVertex
100
AcDb2dVertex
 10
435.551202
 20
134.364437
 30
0.0
  0
VERTEX
  5
C4
100
AcDbEntity
  8
LAY-1
  6
CONTINUOUS
 62
     1
100
AcDbVertex
100
AcDb2dVertex
 10
435.494154
 20
134.180808
 30
0.0
  0
VERTEX
  5
C5
100
AcDbEntity
  8
LAY-1
  6
CONTINUOUS
 62
     1
100
AcDbVertex
100
AcDb2dVertex
 10
435.445655
 20
133.99973
 30
0.0
  0
VERTEX
  5
C6
100
AcDbEntity
  8
LAY-1
  6
CONTINUOUS
 62
     1
100
AcDbVertex
100
AcDb2dVertex
 10
435.41
 20
133.82
 30
0.0
  0
VERTEX
  5
C7
100
AcDbEntity
  8
LAY-1
  6
CONTINUOUS
 62
     1
100
AcDbVertex
100
AcDb2dVertex
 10
435.393583
 20
133.683904
 30
0.0
  0
VERTEX
  5
C8
100
AcDbEntity
  8
LAY-1
  6
CONTINUOUS
 62
     1
100
AcDbVertex
100
AcDb2dVertex
 10
435.385364
 20
133.54681
 30
0.0
  0
VERTEX
  5
C9
100
AcDbEntity
  8
LAY-1
  6
CONTINUOUS
 62
     1
100
AcDbVertex
100
AcDb2dVertex
 10
435.383705
 20
133.407638
 30
0.0
  0
VERTEX
  5
CA
100
AcDbEntity
  8
LAY-1
  6
CONTINUOUS
 62
     1
100
AcDbVertex
100
AcDb2dVertex
 10
435.386967
 20
133.265311
 30
0.0
  0
VERTEX
  5
CB
100
AcDbEntity
  8
LAY-1
  6
CONTINUOUS
 62
     1
100
AcDbVertex
100
AcDb2dVertex
 10
435.393513
 20
133.118748
 30
0.0
  0
VERTEX
  5
CC
100
AcDbEntity
  8
LAY-1
  6
CONTINUOUS
 62
     1
100
AcDbVertex
100
AcDb2dVertex
 10
435.401704
 20
132.96687
 30
0.0
  0
VERTEX
  5
CD
100
AcDbEntity
  8
LAY-1
  6
CONTINUOUS
 62
     1
100
AcDbVertex
100
AcDb2dVertex
 10
435.409903
 20
132.808599
 30
0.0
  0
VERTEX
  5
CE
100
AcDbEntity
  8
LAY-1
  6
CONTINUOUS
 62
     1
100
AcDbVertex
100
AcDb2dVertex
 10
435.41647
 20
132.642856
 30
0.0
  0
VERTEX
  5
CF
100
AcDbEntity
  8
LAY-1
  6
CONTINUOUS
 62
     1
100
AcDbVertex
100
AcDb2dVertex
 10
435.419767
 20
132.468561
 30
0.0
  0
VERTEX
  5
D0
100
AcDbEntity
  8
LAY-1
  6
CONTINUOUS
 62
     1
100
AcDbVertex
100
AcDb2dVertex
 10
435.418156
 20
132.284635
 30
0.0
  0
VERTEX
  5
D1
100
AcDbEntity
  8
LAY-1
  6
CONTINUOUS
 62
     1
100
AcDbVertex
100
AcDb2dVertex
 10
435.41
 20
132.09
 30
0.0
  0
VERTEX
  5
D2
100
AcDbEntity
  8
LAY-1
  6
CONTINUOUS
 62
     1
100
AcDbVertex
100
AcDb2dVertex
 10
435.39388
 20
131.88109
 30
0.0
  0
VERTEX
  5
D3
100
AcDbEntity
  8
LAY-1
  6
CONTINUOUS
 62
     1
100
AcDbVertex
100
AcDb2dVertex
 10
435.371035
 20
131.665572
 30
0.0
  0
VERTEX
  5
D4
100
AcDbEntity
  8
LAY-1
  6
CONTINUOUS
 62
     1
100
AcDbVertex
100
AcDb2dVertex
 10
435.343207
 20
131.449031
 30
0.0
  0
VERTEX
  5
D5
100
AcDbEntity
  8
LAY-1
  6
CONTINUOUS
 62
     1
100
AcDbVertex
100
AcDb2dVertex
 10
435.312136
 20
131.237051
 30
0.0
  0
VERTEX
  5
D6
100
AcDbEntity
  8
LAY-1
  6
CONTINUOUS
 62
     1
100
AcDbVertex
100
AcDb2dVertex
 10
435.279562
 20
131.035217
 30
0.0
  0
VERTEX
  5
D7
100
AcDbEntity
  8
LAY-1
  6
CONTINUOUS
 62
     1
100
AcDbVertex
100
AcDb2dVertex
 10
435.247224
 20
130.849114
 30
0.0
  0
VERTEX
  5
D8
100
AcDbEntity
  8
LAY-1
  6
CONTINUOUS
 62
     1
100
AcDbVertex
100
AcDb2dVertex
 10
435.216864
 20
130.684324
 30
0.0
  0
VERTEX
  5
D9
100
AcDbEntity
  8
LAY-1
  6
CONTINUOUS
 62
     1
100
AcDbVertex
100
AcDb2dVertex
 10
435.190221
 20
130.546434
 30
0.0
  0
VERTEX
  5
DA
100
AcDbEntity
  8
LAY-1
  6
CONTINUOUS
 62
     1
100
AcDbVertex
100
AcDb2dVertex
 10
435.169036
 20
130.441027
 30
0.0
  0
VERTEX
  5
DB
100
AcDbEntity
  8
LAY-1
  6
CONTINUOUS
 62
     1
100
AcDbVertex
100
AcDb2dVertex
 10
435.155049
 20
130.373687
 30
0.0
  0
VERTEX
  5
DC
100
AcDbEntity
  8
LAY-1
  6
CONTINUOUS
 62
     1
100
AcDbVertex
100
AcDb2dVertex
 10
435.15
 20
130.35
 30
0.0
  0
SEQEND
  5
DD
100
AcDbEntity
  8
LAY-1
  6
CONTINUOUS
 62
     1
  0
POLYLINE
  5
DE
100
AcDbEntity
  8
LAY-1
  6
CONTINUOUS
 62
     1
100
AcDb2dPolyline
 66
     1
 10
0.0
 20
0.0
 30
0.0
 70
   128
  0
VERTEX
  5
DF
100
AcDbEntity
  8
LAY-1
  6
CONTINUOUS
 62
     1
100
AcDbVertex
100
AcDb2dVertex
 10
268.8
 20
138.0
 30
0.0
  0
VERTEX
  5
E0
100
AcDbEntity
  8
LAY-1
  6
CONTINUOUS
 62
     1
100
AcDbVertex
100
AcDb2dVertex
 10
268.784804
 20
137.950627
 30
0.0
  0
VERTEX
  5
E1
100
AcDbEntity
  8
LAY-1
  6
CONTINUOUS
 62
     1
100
AcDbVertex
100
AcDb2dVertex
 10
268.743675
 20
137.811151
 30
0.0
  0
VERTEX
  5
E2
100
AcDbEntity
  8
LAY-1
  6
CONTINUOUS
 62
     1
100
AcDbVertex
100
AcDb2dVertex
 10
268.6833
 20
137.594534
 30
0.0
  0
VERTEX
  5
E3
100
AcDbEntity
  8
LAY-1
  6
CONTINUOUS
 62
     1
100
AcDbVertex
100
AcDb2dVertex
 10
268.610367
 20
137.313738
 30
0.0
  0
VERTEX
  5
E4
100
AcDbEntity
  8
LAY-1
  6
CONTINUOUS
 62
     1
100
AcDbVertex
100
AcDb2dVertex
 10
268.531565
 20
136.981726
 30
0.0
  0
VERTEX
  5
E5
100
AcDbEntity
  8
LAY-1
  6
CONTINUOUS
 62
     1
100
AcDbVertex
100
AcDb2dVertex
 10
268.45358
 20
136.611459
 30
0.0
  0
VERTEX
  5
E6
100
AcDbEntity
  8
LAY-1
  6
CONTINUOUS
 62
     1
100
AcDbVertex
100
AcDb2dVertex
 10
268.383102
 20
136.215901
 30
0.0
  0
VERTEX
  5
E7
100
AcDbEntity
  8
LAY-1
  6
CONTINUOUS
 62
     1
100
AcDbVertex
100
AcDb2dVertex
 10
268.326816
 20
135.808014
 30
0.0
  0
VERTEX
  5
E8
100
AcDbEntity
  8
LAY-1
  6
CONTINUOUS
 62
     1
100
AcDbVertex
100
AcDb2dVertex
 10
268.291412
 20
135.40076
 30
0.0
  0
VERTEX
  5
E9
100
AcDbEntity
  8
LAY-1
  6
CONTINUOUS
 62
     1
100
AcDbVertex
100
AcDb2dVertex
 10
268.283578
 20
135.007101
 30
0.0
  0
VERTEX
  5
EA
100
AcDbEntity
  8
LAY-1
  6
CONTINUOUS
 62
     1
100
AcDbVertex
100
AcDb2dVertex
 10
268.31
 20
134.64
 30
0.0
  0
VERTEX
  5
EB
100
AcDbEntity
  8
LAY-1
  6
CONTINUOUS
 62
     1
100
AcDbVertex
100
AcDb2dVertex
 10
268.364578
 20
134.348807
 30
0.0
  0
VERTEX
  5
EC
100
AcDbEntity
  8
LAY-1
  6
CONTINUOUS
 62
     1
100
AcDbVertex
100
AcDb2dVertex
 10
268.44418
 20
134.08202
 30
0.0
  0
VERTEX
  5
ED
100
AcDbEntity
  8
LAY-1
  6
CONTINUOUS
 62
     1
100
AcDbVertex
100
AcDb2dVertex
 10
268.542583
 20
133.833886
 30
0.0
  0
VERTEX
  5
EE
100
AcDbEntity
  8
LAY-1
  6
CONTINUOUS
 62
     1
100
AcDbVertex
100
AcDb2dVertex
 10
268.653566
 20
133.598653
 30
0.0
  0
VERTEX
  5
EF
100
AcDbEntity
  8
LAY-1
  6
CONTINUOUS
 62
     1
100
AcDbVertex
100
AcDb2dVertex
 10
268.770906
 20
133.370567
 30
0.0
  0
VERTEX
  5
F0
100
AcDbEntity
  8
LAY-1
  6
CONTINUOUS
 62
     1
100
AcDbVertex
100
AcDb2dVertex
 10
268.888381
 20
133.143877
 30
0.0
  0
VERTEX
  5
F1
100
AcDbEntity
  8
LAY-1
  6
CONTINUOUS
 62
     1
100
AcDbVertex
100
AcDb2dVertex
 10
268.999768
 20
132.912828
 30
0.0
  0
VERTEX
  5
F2
100
AcDbEntity
  8
LAY-1
  6
CONTINUOUS
 62
     1
100
AcDbVertex
100
AcDb2dVertex
 10
269.098846
 20
132.671669
 30
0.0
  0
VERTEX
  5
F3
100
AcDbEntity
  8
LAY-1
  6
CONTINUOUS
 62
     1
100
AcDbVertex
100
AcDb2dVertex
 10
269.179392
 20
132.414647
 30
0.0
  0
VERTEX
  5
F4
100
AcDbEntity
  8
LAY-1
  6
CONTINUOUS
 62
     1
100
AcDbVertex
100
AcDb2dVertex
 10
269.235184
 20
132.136008
 30
0.0
  0
VERTEX
  5
F5
100
AcDbEntity
  8
LAY-1
  6
CONTINUOUS
 62
     1
100
AcDbVertex
100
AcDb2dVertex
 10
269.26
 20
131.83
 30
0.0
  0
VERTEX
  5
F6
100
AcDbEntity
  8
LAY-1
  6
CONTINUOUS
 62
     1
100
AcDbVertex
100
AcDb2dVertex
 10
269.254016
 20
131.55385
 30
0.0
  0
VERTEX
  5
F7
100
AcDbEntity
  8
LAY-1
  6
CONTINUOUS
 62
     1
100
AcDbVertex
100
AcDb2dVertex
 10
269.227077
 20
131.263532
 30
0.0
  0
VERTEX
  5
F8
100
AcDbEntity
  8
LAY-1
  6
CONTINUOUS
 62
     1
100
AcDbVertex
100
AcDb2dVertex
 10
269.18372
 20
130.967571
 30
0.0
  0
VERTEX
  5
F9
100
AcDbEntity
  8
LAY-1
  6
CONTINUOUS
 62
     1
100
AcDbVertex
100
AcDb2dVertex
 10
269.128479
 20
130.674496
 30
0.0
  0
VERTEX
  5
FA
100
AcDbEntity
  8
LAY-1
  6
CONTINUOUS
 62
     1
100
AcDbVertex
100
AcDb2dVertex
 10
269.065889
 20
130.392832
 30
0.0
  0
VERTEX
  5
FB
100
AcDbEntity
  8
LAY-1
  6
CONTINUOUS
 62
     1
100
AcDbVertex
100
AcDb2dVertex
 10
269.000486
 20
130.131106
 30
0.0
  0
VERTEX
  5
FC
100
AcDbEntity
  8
LAY-1
  6
CONTINUOUS
 62
     1
100
AcDbVertex
100
AcDb2dVertex
 10
268.936805
 20
129.897846
 30
0.0
  0
VERTEX
  5
FD
100
AcDbEntity
  8
LAY-1
  6
CONTINUOUS
 62
     1
100
AcDbVertex
100
AcDb2dVertex
 10
268.879381
 20
129.701579
 30
0.0
  0
VERTEX
  5
FE
100
AcDbEntity
  8
LAY-1
  6
CONTINUOUS
 62
     1
100
AcDbVertex
100
AcDb2dVertex
 10
268.832748
 20
129.550831
 30
0.0
  0
VERTEX
  5
FF
100
AcDbEntity
  8
LAY-1
  6
CONTINUOUS
 62
     1
100
AcDbVertex
100
AcDb2dVertex
 10
268.801443
 20
129.454129
 30
0.0
  0
VERTEX
  5
100
100
AcDbEntity
  8
LAY-1
  6
CONTINUOUS
 62
     1
100
AcDbVertex
100
AcDb2dVertex
 10
268.79
 20
129.42
 30
0.0
  0
SEQEND
  5
101
100
AcDbEntity
  8
LAY-1
  6
CONTINUOUS
 62
     1
  0
LINE
  5
102
100
AcDbEntity
  8
LAY-1
  6
CONTINUOUS
 62
     1
100
AcDbLine
 10
377.5
 20
138.0
 30
0.0
 11
377.5
 21
250.4
 31
0.0
  0
LINE
  5
103
100
AcDbEntity
  8
LAY-1
  6
DASHED2
 62
     1
100
AcDbLine
 10
377.5
 20
123.0
 30
0.0
 11
377.5
 21
138.0
 31
0.0
  0
LINE
  5
104
100
AcDbEntity
  8
LAY-1
  6
DASHED2
 62
     1
100
AcDbLine
 10
377.5
 20
123.0
 30
0.0
 11
335.0
 21
123.0
 31
0.0
  0
LINE
  5
105
100
AcDbEntity
  8
LAY-1
  6
CONTINUOUS
 62
     1
100
AcDbLine
 10
338.0
 20
144.0
 30
0.0
 11
339.6
 21
144.0
 31
0.0
  0
LINE
  5
106
100
AcDbEntity
  8
LAY-1
  6
CONTINUOUS
 62
     1
100
AcDbLine
 10
372.4
 20
144.0
 30
0.0
 11
372.4
 21
250.1
 31
0.0
  0
LINE
  5
107
100
AcDbEntity
  8
LAY-1
  6
CONTINUOUS
 62
     1
100
AcDbLine
 10
374.0
 20
144.0
 30
0.0
 11
374.0
 21
250.1
 31
0.0
  0
LINE
  5
108
100
AcDbEntity
  8
LAY-1
  6
CONTINUOUS
 62
     1
100
AcDbLine
 10
372.4
 20
144.0
 30
0.0
 11
374.0
 21
144.0
 31
0.0
  0
ARC
  5
109
100
AcDbEntity
  8
LAY-1
  6
CONTINUOUS
 62
     1
100
AcDbCircle
 10
341.9
 20
170.5
 30
0.0
 40
2.3
100
AcDbArc
 50
90.0
 51
180.0
  0
ARC
  5
10A
100
AcDbEntity
  8
LAY-1
  6
CONTINUOUS
 62
     1
100
AcDbCircle
 10
370.1
 20
170.5
 30
0.0
 40
2.3
100
AcDbArc
 50
0.0
 51
90.0
  0
LINE
  5
10B
100
AcDbEntity
  8
LAY-1
  6
CONTINUOUS
 62
     1
100
AcDbLine
 10
370.1
 20
172.8
 30
0.0
 11
341.9
 21
172.8
 31
0.0
  0
LINE
  5
10C
100
AcDbEntity
  8
LAY-1
  6
CONTINUOUS
 62
     1
100
AcDbLine
 10
374.0
 20
166.0
 30
0.0
 11
374.1
 21
166.0
 31
0.0
  0
LINE
  5
10D
100
AcDbEntity
  8
LAY-1
  6
CONTINUOUS
 62
     1
100
AcDbLine
 10
341.9
 20
166.0
 30
0.0
 11
370.1
 21
166.0
 31
0.0
  0
LINE
  5
10E
100
AcDbEntity
  8
LAY-1
  6
CONTINUOUS
 62
     1
100
AcDbLine
 10
370.1
 20
170.5
 30
0.0
 11
341.9
 21
170.5
 31
0.0
  0
LINE
  5
10F
100
AcDbEntity
  8
LAY-1
  6
CONTINUOUS
 62
     1
100
AcDbLine
 10
341.9
 20
166.0
 30
0.0
 11
370.1
 21
170.5
 31
0.0
  0
LINE
  5
110
100
AcDbEntity
  8
LAY-1
  6
CONTINUOUS
 62
     1
100
AcDbLine
 10
339.6
 20
166.0
 30
0.0
 11
339.6
 21
250.1
 31
0.0
  0
LINE
  5
111
100
AcDbEntity
  8
LAY-1
  6
CONTINUOUS
 62
     1
100
AcDbLine
 10
338.0
 20
151.0
 30
0.0
 11
338.0
 21
144.0
 31
0.0
  0
LINE
  5
112
100
AcDbEntity
  8
LAY-1
  6
CONTINUOUS
 62
     1
100
AcDbLine
 10
339.6
 20
144.0
 30
0.0
 11
339.6
 21
151.0
 31
0.0
  0
LINE
  5
113
100
AcDbEntity
  8
LAY-1
  6
CONTINUOUS
 62
     1
100
AcDbLine
 10
370.1
 20
149.0
 30
0.0
 11
370.1
 21
170.5
 31
0.0
  0
LINE
  5
114
100
AcDbEntity
  8
LAY-1
  6
CONTINUOUS
 62
     1
100
AcDbLine
 10
370.1
 20
149.0
 30
0.0
 11
372.4
 21
149.0
 31
0.0
  0
LINE
  5
115
100
AcDbEntity
  8
LAY-1
  6
CONTINUOUS
 62
     1
100
AcDbLine
 10
341.9
 20
149.0
 30
0.0
 11
341.9
 21
151.0
 31
0.0
  0
LINE
  5
116
100
AcDbEntity
  8
LAY-1
  6
CONTINUOUS
 62
     1
100
AcDbLine
 10
341.9
 20
166.0
 30
0.0
 11
341.9
 21
170.5
 31
0.0
  0
LINE
  5
117
100
AcDbEntity
  8
LAY-1
  6
CONTINUOUS
 62
     1
100
AcDbLine
 10
341.9
 20
149.0
 30
0.0
 11
339.6
 21
149.0
 31
0.0
  0
LINE
  5
118
100
AcDbEntity
  8
LAY-1
  6
CONTINUOUS
 62
     1
100
AcDbLine
 10
341.9
 20
297.5
 30
0.0
 11
370.1
 21
302.0
 31
0.0
  0
LINE
  5
119
100
AcDbEntity
  8
LAY-1
  6
CONTINUOUS
 62
     1
100
AcDbLine
 10
341.9
 20
302.0
 30
0.0
 11
370.1
 21
302.0
 31
0.0
  0
LINE
  5
11A
100
AcDbEntity
  8
LAY-1
  6
CONTINUOUS
 62
     1
100
AcDbLine
 10
370.1
 20
297.5
 30
0.0
 11
341.9
 21
297.5
 31
0.0
  0
LINE
  5
11B
100
AcDbEntity
  8
LAY-1
  6
CONTINUOUS
 62
     1
100
AcDbLine
 10
483.0
 20
250.1
 30
0.0
 11
544.9
 21
250.1
 31
0.0
  0
LINE
  5
11C
100
AcDbEntity
  8
LAY-1
  6
CONTINUOUS
 62
     1
100
AcDbLine
 10
492.5
 20
173.0
 30
0.0
 11
492.5
 21
250.1
 31
0.0
  0
LINE
  5
11D
100
AcDbEntity
  8
LAY-1
  6
DASHED2
 62
     1
100
AcDbLine
 10
492.5
 20
123.0
 30
0.0
 11
492.5
 21
138.0
 31
0.0
  0
LINE
  5
11E
100
AcDbEntity
  8
LAY-1
  6
CONTINUOUS
 62
     1
100
AcDbLine
 10
535.0
 20
138.0
 30
0.0
 11
535.0
 21
250.4
 31
0.0
  0
LINE
  5
11F
100
AcDbEntity
  8
LAY-1
  6
DASHED2
 62
     1
100
AcDbLine
 10
535.0
 20
123.0
 30
0.0
 11
535.0
 21
138.0
 31
0.0
  0
LINE
  5
120
100
AcDbEntity
  8
LAY-1
  6
DASHED2
 62
     1
100
AcDbLine
 10
535.0
 20
123.0
 30
0.0
 11
492.5
 21
123.0
 31
0.0
  0
POLYLINE
  5
121
100
AcDbEntity
  8
LAY-1
  6
CONTINUOUS
 62
     1
100
AcDb2dPolyline
 66
     1
 10
0.0
 20
0.0
 30
0.0
 70
   128
  0
VERTEX
  5
122
100
AcDbEntity
  8
LAY-1
  6
CONTINUOUS
 62
     1
100
AcDbVertex
100
AcDb2dVertex
 10
553.0
 20
138.0
 30
0.0
  0
VERTEX
  5
123
100
AcDbEntity
  8
LAY-1
  6
CONTINUOUS
 62
     1
100
AcDbVertex
100
AcDb2dVertex
 10
553.015343
 20
137.97425
 30
0.0
  0
VERTEX
  5
124
100
AcDbEntity
  8
LAY-1
  6
CONTINUOUS
 62
     1
100
AcDbVertex
100
AcDb2dVertex
 10
553.057881
 20
137.90092
 30
0.0
  0
VERTEX
  5
125
100
AcDbEntity
  8
LAY-1
  6
CONTINUOUS
 62
     1
100
AcDbVertex
100
AcDb2dVertex
 10
553.122374
 20
137.785889
 30
0.0
  0
VERTEX
  5
126
100
AcDbEntity
  8
LAY-1
  6
CONTINUOUS
 62
     1
100
AcDbVertex
100
AcDb2dVertex
 10
553.203582
 20
137.635037
 30
0.0
  0
VERTEX
  5
127
100
AcDbEntity
  8
LAY-1
  6
CONTINUOUS
 62
     1
100
AcDbVertex
100
AcDb2dVertex
 10
553.296268
 20
137.454245
 30
0.0
  0
VERTEX
  5
128
100
AcDbEntity
  8
LAY-1
  6
CONTINUOUS
 62
     1
100
AcDbVertex
100
AcDb2dVertex
 10
553.395191
 20
137.249392
 30
0.0
  0
VERTEX
  5
129
100
AcDbEntity
  8
LAY-1
  6
CONTINUOUS
 62
     1
100
AcDbVertex
100
AcDb2dVertex
 10
553.495112
 20
137.026357
 30
0.0
  0
VERTEX
  5
12A
100
AcDbEntity
  8
LAY-1
  6
CONTINUOUS
 62
     1
100
AcDbVertex
100
AcDb2dVertex
 10
553.590793
 20
136.79102
 30
0.0
  0
VERTEX
  5
12B
100
AcDbEntity
  8
LAY-1
  6
CONTINUOUS
 62
     1
100
AcDbVertex
100
AcDb2dVertex
 10
553.676994
 20
136.549262
 30
0.0
  0
VERTEX
  5
12C
100
AcDbEntity
  8
LAY-1
  6
CONTINUOUS
 62
     1
100
AcDbVertex
100
AcDb2dVertex
 10
553.748476
 20
136.306962
 30
0.0
  0
VERTEX
  5
12D
100
AcDbEntity
  8
LAY-1
  6
CONTINUOUS
 62
     1
100
AcDbVertex
100
AcDb2dVertex
 10
553.8
 20
136.07
 30
0.0
  0
VERTEX
  5
12E
100
AcDbEntity
  8
LAY-1
  6
CONTINUOUS
 62
     1
100
AcDbVertex
100
AcDb2dVertex
 10
553.829165
 20
135.822557
 30
0.0
  0
VERTEX
  5
12F
100
AcDbEntity
  8
LAY-1
  6
CONTINUOUS
 62
     1
100
AcDbVertex
100
AcDb2dVertex
 10
553.832522
 20
135.587311
 30
0.0
  0
VERTEX
  5
130
100
AcDbEntity
  8
LAY-1
  6
CONTINUOUS
 62
     1
100
AcDbVertex
100
AcDb2dVertex
 10
553.814366
 20
135.363054
 30
0.0
  0
VERTEX
  5
131
100
AcDbEntity
  8
LAY-1
  6
CONTINUOUS
 62
     1
100
AcDbVertex
100
AcDb2dVertex
 10
553.778992
 20
135.148583
 30
0.0
  0
VERTEX
  5
132
100
AcDbEntity
  8
LAY-1
  6
CONTINUOUS
 62
     1
100
AcDbVertex
100
AcDb2dVertex
 10
553.730694
 20
134.942691
 30
0.0
  0
VERTEX
  5
133
100
AcDbEntity
  8
LAY-1
  6
CONTINUOUS
 62
     1
100
AcDbVertex
100
AcDb2dVertex
 10
553.673766
 20
134.744173
 30
0.0
  0
VERTEX
  5
134
100
AcDbEntity
  8
LAY-1
  6
CONTINUOUS
 62
     1
100
AcDbVertex
100
AcDb2dVertex
 10
553.612504
 20
134.551823
 30
0.0
  0
VERTEX
  5
135
100
AcDbEntity
  8
LAY-1
  6
CONTINUOUS
 62
     1
100
AcDbVertex
100
AcDb2dVertex
 10
553.551202
 20
134.364437
 30
0.0
  0
VERTEX
  5
136
100
AcDbEntity
  8
LAY-1
  6
CONTINUOUS
 62
     1
100
AcDbVertex
100
AcDb2dVertex
 10
553.494154
 20
134.180808
 30
0.0
  0
VERTEX
  5
137
100
AcDbEntity
  8
LAY-1
  6
CONTINUOUS
 62
     1
100
AcDbVertex
100
AcDb2dVertex
 10
553.445655
 20
133.99973
 30
0.0
  0
VERTEX
  5
138
100
AcDbEntity
  8
LAY-1
  6
CONTINUOUS
 62
     1
100
AcDbVertex
100
AcDb2dVertex
 10
553.41
 20
133.82
 30
0.0
  0
VERTEX
  5
139
100
AcDbEntity
  8
LAY-1
  6
CONTINUOUS
 62
     1
100
AcDbVertex
100
AcDb2dVertex
 10
553.393583
 20
133.683904
 30
0.0
  0
VERTEX
  5
13A
100
AcDbEntity
  8
LAY-1
  6
CONTINUOUS
 62
     1
100
AcDbVertex
100
AcDb2dVertex
 10
553.385364
 20
133.54681
 30
0.0
  0
VERTEX
  5
13B
100
AcDbEntity
  8
LAY-1
  6
CONTINUOUS
 62
     1
100
AcDbVertex
100
AcDb2dVertex
 10
553.383705
 20
133.407638
 30
0.0
  0
VERTEX
  5
13C
100
AcDbEntity
  8
LAY-1
  6
CONTINUOUS
 62
     1
100
AcDbVertex
100
AcDb2dVertex
 10
553.386967
 20
133.265311
 30
0.0
  0
VERTEX
  5
13D
100
AcDbEntity
  8
LAY-1
  6
CONTINUOUS
 62
     1
100
AcDbVertex
100
AcDb2dVertex
 10
553.393513
 20
133.118748
 30
0.0
  0
VERTEX
  5
13E
100
AcDbEntity
  8
LAY-1
  6
CONTINUOUS
 62
     1
100
AcDbVertex
100
AcDb2dVertex
 10
553.401704
 20
132.96687
 30
0.0
  0
VERTEX
  5
13F
100
AcDbEntity
  8
LAY-1
  6
CONTINUOUS
 62
     1
100
AcDbVertex
100
AcDb2dVertex
 10
553.409903
 20
132.808599
 30
0.0
  0
VERTEX
  5
140
100
AcDbEntity
  8
LAY-1
  6
CONTINUOUS
 62
     1
100
AcDbVertex
100
AcDb2dVertex
 10
553.41647
 20
132.642856
 30
0.0
  0
VERTEX
  5
141
100
AcDbEntity
  8
LAY-1
  6
CONTINUOUS
 62
     1
100
AcDbVertex
100
AcDb2dVertex
 10
553.419767
 20
132.468561
 30
0.0
  0
VERTEX
  5
142
100
AcDbEntity
  8
LAY-1
  6
CONTINUOUS
 62
     1
100
AcDbVertex
100
AcDb2dVertex
 10
553.418156
 20
132.284635
 30
0.0
  0
VERTEX
  5
143
100
AcDbEntity
  8
LAY-1
  6
CONTINUOUS
 62
     1
100
AcDbVertex
100
AcDb2dVertex
 10
553.41
 20
132.09
 30
0.0
  0
VERTEX
  5
144
100
AcDbEntity
  8
LAY-1
  6
CONTINUOUS
 62
     1
100
AcDbVertex
100
AcDb2dVertex
 10
553.39388
 20
131.88109
 30
0.0
  0
VERTEX
  5
145
100
AcDbEntity
  8
LAY-1
  6
CONTINUOUS
 62
     1
100
AcDbVertex
100
AcDb2dVertex
 10
553.371035
 20
131.665572
 30
0.0
  0
VERTEX
  5
146
100
AcDbEntity
  8
LAY-1
  6
CONTINUOUS
 62
     1
100
AcDbVertex
100
AcDb2dVertex
 10
553.343207
 20
131.449031
 30
0.0
  0
VERTEX
  5
147
100
AcDbEntity
  8
LAY-1
  6
CONTINUOUS
 62
     1
100
AcDbVertex
100
AcDb2dVertex
 10
553.312136
 20
131.237051
 30
0.0
  0
VERTEX
  5
148
100
AcDbEntity
  8
LAY-1
  6
CONTINUOUS
 62
     1
100
AcDbVertex
100
AcDb2dVertex
 10
553.279562
 20
131.035217
 30
0.0
  0
VERTEX
  5
149
100
AcDbEntity
  8
LAY-1
  6
CONTINUOUS
 62
     1
100
AcDbVertex
100
AcDb2dVertex
 10
553.247224
 20
130.849114
 30
0.0
  0
VERTEX
  5
14A
100
AcDbEntity
  8
LAY-1
  6
CONTINUOUS
 62
     1
100
AcDbVertex
100
AcDb2dVertex
 10
553.216864
 20
130.684324
 30
0.0
  0
VERTEX
  5
14B
100
AcDbEntity
  8
LAY-1
  6
CONTINUOUS
 62
     1
100
AcDbVertex
100
AcDb2dVertex
 10
553.190221
 20
130.546434
 30
0.0
  0
VERTEX
  5
14C
100
AcDbEntity
  8
LAY-1
  6
CONTINUOUS
 62
     1
100
AcDbVertex
100
AcDb2dVertex
 10
553.169036
 20
130.441027
 30
0.0
  0
VERTEX
  5
14D
100
AcDbEntity
  8
LAY-1
  6
CONTINUOUS
 62
     1
100
AcDbVertex
100
AcDb2dVertex
 10
553.155049
 20
130.373687
 30
0.0
  0
VERTEX
  5
14E
100
AcDbEntity
  8
LAY-1
  6
CONTINUOUS
 62
     1
100
AcDbVertex
100
AcDb2dVertex
 10
553.15
 20
130.35
 30
0.0
  0
SEQEND
  5
14F
100
AcDbEntity
  8
LAY-1
  6
CONTINUOUS
 62
     1
  0
POLYLINE
  5
150
100
AcDbEntity
  8
LAY-1
  6
CONTINUOUS
 62
     1
100
AcDb2dPolyline
 66
     1
 10
0.0
 20
0.0
 30
0.0
 70
   128
  0
VERTEX
  5
151
100
AcDbEntity
  8
LAY-1
  6
CONTINUOUS
 62
     1
100
AcDbVertex
100
AcDb2dVertex
 10
452.1
 20
138.0
 30
0.0
  0
VERTEX
  5
152
100
AcDbEntity
  8
LAY-1
  6
CONTINUOUS
 62
     1
100
AcDbVertex
100
AcDb2dVertex
 10
452.084804
 20
137.950627
 30
0.0
  0
VERTEX
  5
153
100
AcDbEntity
  8
LAY-1
  6
CONTINUOUS
 62
     1
100
AcDbVertex
100
AcDb2dVertex
 10
452.043675
 20
137.811151
 30
0.0
  0
VERTEX
  5
154
100
AcDbEntity
  8
LAY-1
  6
CONTINUOUS
 62
     1
100
AcDbVertex
100
AcDb2dVertex
 10
451.9833
 20
137.594534
 30
0.0
  0
VERTEX
  5
155
100
AcDbEntity
  8
LAY-1
  6
CONTINUOUS
 62
     1
100
AcDbVertex
100
AcDb2dVertex
 10
451.910367
 20
137.313738
 30
0.0
  0
VERTEX
  5
156
100
AcDbEntity
  8
LAY-1
  6
CONTINUOUS
 62
     1
100
AcDbVertex
100
AcDb2dVertex
 10
451.831565
 20
136.981726
 30
0.0
  0
VERTEX
  5
157
100
AcDbEntity
  8
LAY-1
  6
CONTINUOUS
 62
     1
100
AcDbVertex
100
AcDb2dVertex
 10
451.75358
 20
136.611459
 30
0.0
  0
VERTEX
  5
158
100
AcDbEntity
  8
LAY-1
  6
CONTINUOUS
 62
     1
100
AcDbVertex
100
AcDb2dVertex
 10
451.683102
 20
136.215901
 30
0.0
  0
VERTEX
  5
159
100
AcDbEntity
  8
LAY-1
  6
CONTINUOUS
 62
     1
100
AcDbVertex
100
AcDb2dVertex
 10
451.626816
 20
135.808014
 30
0.0
  0
VERTEX
  5
15A
100
AcDbEntity
  8
LAY-1
  6
CONTINUOUS
 62
     1
100
AcDbVertex
100
AcDb2dVertex
 10
451.591412
 20
135.40076
 30
0.0
  0
VERTEX
  5
15B
100
AcDbEntity
  8
LAY-1
  6
CONTINUOUS
 62
     1
100
AcDbVertex
100
AcDb2dVertex
 10
451.583578
 20
135.007101
 30
0.0
  0
VERTEX
  5
15C
100
AcDbEntity
  8
LAY-1
  6
CONTINUOUS
 62
     1
100
AcDbVertex
100
AcDb2dVertex
 10
451.61
 20
134.64
 30
0.0
  0
VERTEX
  5
15D
100
AcDbEntity
  8
LAY-1
  6
CONTINUOUS
 62
     1
100
AcDbVertex
100
AcDb2dVertex
 10
451.664578
 20
134.348807
 30
0.0
  0
VERTEX
  5
15E
100
AcDbEntity
  8
LAY-1
  6
CONTINUOUS
 62
     1
100
AcDbVertex
100
AcDb2dVertex
 10
451.74418
 20
134.08202
 30
0.0
  0
VERTEX
  5
15F
100
AcDbEntity
  8
LAY-1
  6
CONTINUOUS
 62
     1
100
AcDbVertex
100
AcDb2dVertex
 10
451.842583
 20
133.833886
 30
0.0
  0
VERTEX
  5
160
100
AcDbEntity
  8
LAY-1
  6
CONTINUOUS
 62
     1
100
AcDbVertex
100
AcDb2dVertex
 10
451.953566
 20
133.598653
 30
0.0
  0
VERTEX
  5
161
100
AcDbEntity
  8
LAY-1
  6
CONTINUOUS
 62
     1
100
AcDbVertex
100
AcDb2dVertex
 10
452.070906
 20
133.370567
 30
0.0
  0
VERTEX
  5
162
100
AcDbEntity
  8
LAY-1
  6
CONTINUOUS
 62
     1
100
AcDbVertex
100
AcDb2dVertex
 10
452.188381
 20
133.143877
 30
0.0
  0
VERTEX
  5
163
100
AcDbEntity
  8
LAY-1
  6
CONTINUOUS
 62
     1
100
AcDbVertex
100
AcDb2dVertex
 10
452.299768
 20
132.912828
 30
0.0
  0
VERTEX
  5
164
100
AcDbEntity
  8
LAY-1
  6
CONTINUOUS
 62
     1
100
AcDbVertex
100
AcDb2dVertex
 10
452.398846
 20
132.671669
 30
0.0
  0
VERTEX
  5
165
100
AcDbEntity
  8
LAY-1
  6
CONTINUOUS
 62
     1
100
AcDbVertex
100
AcDb2dVertex
 10
452.479392
 20
132.414647
 30
0.0
  0
VERTEX
  5
166
100
AcDbEntity
  8
LAY-1
  6
CONTINUOUS
 62
     1
100
AcDbVertex
100
AcDb2dVertex
 10
452.535184
 20
132.136008
 30
0.0
  0
VERTEX
  5
167
100
AcDbEntity
  8
LAY-1
  6
CONTINUOUS
 62
     1
100
AcDbVertex
100
AcDb2dVertex
 10
452.56
 20
131.83
 30
0.0
  0
VERTEX
  5
168
100
AcDbEntity
  8
LAY-1
  6
CONTINUOUS
 62
     1
100
AcDbVertex
100
AcDb2dVertex
 10
452.554016
 20
131.55385
 30
0.0
  0
VERTEX
  5
169
100
AcDbEntity
  8
LAY-1
  6
CONTINUOUS
 62
     1
100
AcDbVertex
100
AcDb2dVertex
 10
452.527077
 20
131.263532
 30
0.0
  0
VERTEX
  5
16A
100
AcDbEntity
  8
LAY-1
  6
CONTINUOUS
 62
     1
100
AcDbVertex
100
AcDb2dVertex
 10
452.48372
 20
130.967571
 30
0.0
  0
VERTEX
  5
16B
100
AcDbEntity
  8
LAY-1
  6
CONTINUOUS
 62
     1
100
AcDbVertex
100
AcDb2dVertex
 10
452.428479
 20
130.674496
 30
0.0
  0
VERTEX
  5
16C
100
AcDbEntity
  8
LAY-1
  6
CONTINUOUS
 62
     1
100
AcDbVertex
100
AcDb2dVertex
 10
452.365889
 20
130.392832
 30
0.0
  0
VERTEX
  5
16D
100
AcDbEntity
  8
LAY-1
  6
CONTINUOUS
 62
     1
100
AcDbVertex
100
AcDb2dVertex
 10
452.300486
 20
130.131106
 30
0.0
  0
VERTEX
  5
16E
100
AcDbEntity
  8
LAY-1
  6
CONTINUOUS
 62
     1
100
AcDbVertex
100
AcDb2dVertex
 10
452.236805
 20
129.897846
 30
0.0
  0
VERTEX
  5
16F
100
AcDbEntity
  8
LAY-1
  6
CONTINUOUS
 62
     1
100
AcDbVertex
100
AcDb2dVertex
 10
452.179381
 20
129.701579
 30
0.0
  0
VERTEX
  5
170
100
AcDbEntity
  8
LAY-1
  6
CONTINUOUS
 62
     1
100
AcDbVertex
100
AcDb2dVertex
 10
452.132748
 20
129.550831
 30
0.0
  0
VERTEX
  5
171
100
AcDbEntity
  8
LAY-1
  6
CONTINUOUS
 62
     1
100
AcDbVertex
100
AcDb2dVertex
 10
452.101443
 20
129.454129
 30
0.0
  0
VERTEX
  5
172
100
AcDbEntity
  8
LAY-1
  6
CONTINUOUS
 62
     1
100
AcDbVertex
100
AcDb2dVertex
 10
452.09
 20
129.42
 30
0.0
  0
SEQEND
  5
173
100
AcDbEntity
  8
LAY-1
  6
CONTINUOUS
 62
     1
  0
LINE
  5
174
100
AcDbEntity
  8
LAY-1
  6
CONTINUOUS
 62
     1
100
AcDbLine
 10
553.0
 20
138.0
 30
0.0
 11
452.1
 21
138.0
 31
0.0
  0
LINE
  5
175
100
AcDbEntity
  8
LAY-1
  6
CONTINUOUS
 62
     1
100
AcDbLine
 10
335.0
 20
254.6
 30
0.0
 11
335.0
 21
295.0
 31
0.0
  0
LINE
  5
176
100
AcDbEntity
  8
LAY-1
  6
CONTINUOUS
 62
     1
100
AcDbLine
 10
85.6
 20
322.6
 30
0.0
 11
85.6
 21
336.0
 31
0.0
  0
LINE
  5
177
100
AcDbEntity
  8
LAY-1
  6
CONTINUOUS
 62
     1
100
AcDbLine
 10
85.6
 20
336.0
 30
0.0
 11
84.0
 21
336.0
 31
0.0
  0
LINE
  5
178
100
AcDbEntity
  8
LAY-1
  6
CONTINUOUS
 62
     1
100
AcDbLine
 10
107.4
 20
322.6
 30
0.0
 11
85.6
 21
322.6
 31
0.0
  0
LINE
  5
179
100
AcDbEntity
  8
LAY-1
  6
CONTINUOUS
 62
     1
100
AcDbLine
 10
84.0
 20
322.6
 30
0.0
 11
84.0
 21
336.0
 31
0.0
  0
ARC
  5
17A
100
AcDbEntity
  8
LAY-1
  6
CONTINUOUS
 62
     1
100
AcDbCircle
 10
85.6
 20
322.6
 30
0.0
 40
1.6
100
AcDbArc
 50
180.0
 51
270.0
  0
ARC
  5
17B
100
AcDbEntity
  8
LAY-1
  6
CONTINUOUS
 62
     1
100
AcDbCircle
 10
107.4
 20
322.6
 30
0.0
 40
1.6
100
AcDbArc
 50
270.0
 51
0.0
  0
LINE
  5
17C
100
AcDbEntity
  8
LAY-1
  6
CONTINUOUS
 62
     1
100
AcDbLine
 10
85.6
 20
202.6
 30
0.0
 11
85.6
 21
216.0
 31
0.0
  0
LINE
  5
17D
100
AcDbEntity
  8
LAY-1
  6
CONTINUOUS
 62
     1
100
AcDbLine
 10
85.6
 20
216.0
 30
0.0
 11
84.0
 21
216.0
 31
0.0
  0
LINE
  5
17E
100
AcDbEntity
  8
LAY-1
  6
CONTINUOUS
 62
     1
100
AcDbLine
 10
107.4
 20
202.6
 30
0.0
 11
85.6
 21
202.6
 31
0.0
  0
LINE
  5
17F
100
AcDbEntity
  8
LAY-1
  6
CONTINUOUS
 62
     1
100
AcDbLine
 10
84.0
 20
202.6
 30
0.0
 11
84.0
 21
216.0
 31
0.0
  0
ARC
  5
180
100
AcDbEntity
  8
LAY-1
  6
CONTINUOUS
 62
     1
100
AcDbCircle
 10
85.6
 20
202.6
 30
0.0
 40
1.6
100
AcDbArc
 50
180.0
 51
270.0
  0
LINE
  5
181
100
AcDbEntity
  8
LAY-1
  6
CONTINUOUS
 62
     1
100
AcDbLine
 10
107.4
 20
201.0
 30
0.0
 11
85.6
 21
201.0
 31
0.0
  0
ARC
  5
182
100
AcDbEntity
  8
LAY-1
  6
CONTINUOUS
 62
     1
100
AcDbCircle
 10
107.4
 20
202.6
 30
0.0
 40
1.6
100
AcDbArc
 50
270.0
 51
0.0
  0
ARC
  5
183
100
AcDbEntity
  8
LAY-1
  6
CONTINUOUS
 62
     1
100
AcDbCircle
 10
113.6
 20
205.6
 30
0.0
 40
1.6
100
AcDbArc
 50
180.0
 51
270.0
  0
LINE
  5
184
100
AcDbEntity
  8
LAY-1
  6
CONTINUOUS
 62
     1
100
AcDbLine
 10
85.6
 20
82.6
 30
0.0
 11
85.6
 21
96.0
 31
0.0
  0
LINE
  5
185
100
AcDbEntity
  8
LAY-1
  6
CONTINUOUS
 62
     1
100
AcDbLine
 10
85.6
 20
96.0
 30
0.0
 11
84.0
 21
96.0
 31
0.0
  0
LINE
  5
186
100
AcDbEntity
  8
LAY-1
  6
CONTINUOUS
 62
     1
100
AcDbLine
 10
84.0
 20
82.6
 30
0.0
 11
84.0
 21
96.0
 31
0.0
  0
ARC
  5
187
100
AcDbEntity
  8
LAY-1
  6
CONTINUOUS
 62
     1
100
AcDbCircle
 10
85.6
 20
82.6
 30
0.0
 40
1.6
100
AcDbArc
 50
180.0
 51
270.0
  0
LINE
  5
188
100
AcDbEntity
  8
LAY-1
  6
CONTINUOUS
 62
     1
100
AcDbLine
 10
107.4
 20
81.0
 30
0.0
 11
85.6
 21
81.0
 31
0.0
  0
ARC
  5
189
100
AcDbEntity
  8
LAY-1
  6
CONTINUOUS
 62
     1
100
AcDbCircle
 10
107.4
 20
82.6
 30
0.0
 40
1.6
100
AcDbArc
 50
270.0
 51
0.0
  0
ARC
  5
18A
100
AcDbEntity
  8
LAY-1
  6
CONTINUOUS
 62
     1
100
AcDbCircle
 10
113.6
 20
85.6
 30
0.0
 40
1.6
100
AcDbArc
 50
180.0
 51
270.0
  0
LINE
  5
18B
100
AcDbEntity
  8
LAY-1
  6
CONTINUOUS
 62
     1
100
AcDbLine
 10
107.4
 20
82.6
 30
0.0
 11
102.5
 21
82.6
 31
0.0
  0
LINE
  5
18C
100
AcDbEntity
  8
LAY-1
  6
CONTINUOUS
 62
     1
100
AcDbLine
 10
94.5
 20
82.6
 30
0.0
 11
85.6
 21
82.6
 31
0.0
  0
LINE
  5
18D
100
AcDbEntity
  8
LAY-1
  6
CONTINUOUS
 62
     1
100
AcDbLine
 10
119.0
 20
204.0
 30
0.0
 11
113.6
 21
204.0
 31
0.0
  0
LINE
  5
18E
100
AcDbEntity
  8
LAY-1
  6
CONTINUOUS
 62
     1
100
AcDbLine
 10
121.0
 20
205.6
 30
0.0
 11
113.6
 21
205.6
 31
0.0
  0
LINE
  5
18F
100
AcDbEntity
  8
LAY-1
  6
CONTINUOUS
 62
     1
100
AcDbLine
 10
121.0
 20
207.9
 30
0.0
 11
115.9
 21
207.9
 31
0.0
  0
ARC
  5
190
100
AcDbEntity
  8
LAY-1
  6
CONTINUOUS
 62
     1
100
AcDbCircle
 10
115.9
 20
207.9
 30
0.0
 40
2.3
100
AcDbArc
 50
180.0
 51
270.0
  0
LINE
  5
191
100
AcDbEntity
  8
LAY-1
  6
CONTINUOUS
 62
     1
100
AcDbLine
 10
235.0
 20
205.6
 30
0.0
 11
141.0
 21
205.6
 31
0.0
  0
LINE
  5
192
100
AcDbEntity
  8
LAY-1
  6
CONTINUOUS
 62
     1
100
AcDbLine
 10
235.0
 20
204.0
 30
0.0
 11
143.0
 21
204.0
 31
0.0
  0
LINE
  5
193
100
AcDbEntity
  8
LAY-1
  6
CONTINUOUS
 62
     1
100
AcDbLine
 10
235.0
 20
321.0
 30
0.0
 11
85.6
 21
321.0
 31
0.0
  0
LINE
  5
194
100
AcDbEntity
  8
LAY-1
  6
CONTINUOUS
 62
     1
100
AcDbLine
 10
235.0
 20
84.0
 30
0.0
 11
143.0
 21
84.0
 31
0.0
  0
LINE
  5
195
100
AcDbEntity
  8
LAY-1
  6
CONTINUOUS
 62
     1
100
AcDbLine
 10
116.5
 20
84.0
 30
0.0
 11
113.6
 21
84.0
 31
0.0
  0
LINE
  5
196
100
AcDbEntity
  8
LAY-1
  6
CONTINUOUS
 62
     1
100
AcDbLine
 10
118.5
 20
87.9
 30
0.0
 11
115.9
 21
87.9
 31
0.0
  0
LINE
  5
197
100
AcDbEntity
  8
LAY-1
  6
CONTINUOUS
 62
     1
100
AcDbLine
 10
118.5
 20
85.6
 30
0.0
 11
113.6
 21
85.6
 31
0.0
  0
LINE
  5
198
100
AcDbEntity
  8
LAY-1
  6
CONTINUOUS
 62
     1
100
AcDbLine
 10
235.0
 20
85.6
 30
0.0
 11
141.5
 21
85.6
 31
0.0
  0
ARC
  5
199
100
AcDbEntity
  8
LAY-1
  6
CONTINUOUS
 62
     1
100
AcDbCircle
 10
115.9
 20
87.9
 30
0.0
 40
2.3
100
AcDbArc
 50
180.0
 51
270.0
  0
ARC
  5
19A
100
AcDbEntity
  8
LAY-1
  6
CONTINUOUS
 62
     1
100
AcDbCircle
 10
113.6
 20
238.4
 30
0.0
 40
1.6
100
AcDbArc
 50
90.0
 51
180.0
  0
LINE
  5
19B
100
AcDbEntity
  8
LAY-1
  6
CONTINUOUS
 62
     1
100
AcDbLine
 10
112.0
 20
205.6
 30
0.0
 11
112.0
 21
238.4
 31
0.0
  0
LINE
  5
19C
100
AcDbEntity
  8
LAY-1
  6
CONTINUOUS
 62
     1
100
AcDbLine
 10
113.6
 20
238.4
 30
0.0
 11
113.6
 21
205.6
 31
0.0
  0
LINE
  5
19D
100
AcDbEntity
  8
LAY-1
  6
CONTINUOUS
 62
     1
100
AcDbLine
 10
128.6
 20
236.1
 30
0.0
 11
128.6
 21
238.4
 31
0.0
  0
LINE
  5
19E
100
AcDbEntity
  8
LAY-1
  6
CONTINUOUS
 62
     1
100
AcDbLine
 10
115.9
 20
236.1
 30
0.0
 11
128.6
 21
236.1
 31
0.0
  0
LINE
  5
19F
100
AcDbEntity
  8
LAY-1
  6
CONTINUOUS
 62
     1
100
AcDbLine
 10
115.9
 20
236.1
 30
0.0
 11
115.9
 21
207.9
 31
0.0
  0
ARC
  5
1A0
100
AcDbEntity
  8
LAY-1
  6
CONTINUOUS
 62
     1
100
AcDbCircle
 10
115.9
 20
236.1
 30
0.0
 40
2.3
100
AcDbArc
 50
90.0
 51
180.0
  0
LINE
  5
1A1
100
AcDbEntity
  8
LAY-1
  6
CONTINUOUS
 62
     1
100
AcDbLine
 10
235.0
 20
240.0
 30
0.0
 11
113.6
 21
240.0
 31
0.0
  0
LINE
  5
1A2
100
AcDbEntity
  8
LAY-1
  6
CONTINUOUS
 62
     1
100
AcDbLine
 10
235.0
 20
238.4
 30
0.0
 11
113.6
 21
238.4
 31
0.0
  0
LINE
  5
1A3
100
AcDbEntity
  8
LAY-1
  6
CONTINUOUS
 62
     1
100
AcDbLine
 10
122.4
 20
245.1
 30
0.0
 11
109.0
 21
245.1
 31
0.0
  0
ARC
  5
1A4
100
AcDbEntity
  8
LAY-1
  6
CONTINUOUS
 62
     1
100
AcDbCircle
 10
109.0
 20
243.5
 30
0.0
 40
1.6
100
AcDbArc
 50
90.0
 51
180.0
  0
ARC
  5
1A5
100
AcDbEntity
  8
LAY-1
  6
CONTINUOUS
 62
     1
100
AcDbCircle
 10
122.4
 20
245.1
 30
0.0
 40
1.6
100
AcDbArc
 50
270.0
 51
0.0
  0
LINE
  5
1A6
100
AcDbEntity
  8
LAY-1
  6
CONTINUOUS
 62
     1
100
AcDbLine
 10
122.4
 20
245.1
 30
0.0
 11
122.4
 21
264.3
 31
0.0
  0
LINE
  5
1A7
100
AcDbEntity
  8
LAY-1
  6
CONTINUOUS
 62
     1
100
AcDbLine
 10
124.0
 20
245.1
 30
0.0
 11
124.0
 21
264.3
 31
0.0
  0
LINE
  5
1A8
100
AcDbEntity
  8
LAY-1
  6
CONTINUOUS
 62
     1
100
AcDbLine
 10
109.0
 20
202.6
 30
0.0
 11
109.0
 21
243.5
 31
0.0
  0
LINE
  5
1A9
100
AcDbEntity
  8
LAY-1
  6
CONTINUOUS
 62
     1
100
AcDbLine
 10
107.4
 20
202.6
 30
0.0
 11
107.4
 21
243.5
 31
0.0
  0
LINE
  5
1AA
100
AcDbEntity
  8
LAY-1
  6
CONTINUOUS
 62
     1
100
AcDbLine
 10
235.0
 20
243.5
 30
0.0
 11
109.0
 21
243.5
 31
0.0
  0
LINE
  5
1AB
100
AcDbEntity
  8
LAY-1
  6
CONTINUOUS
 62
     1
100
AcDbLine
 10
235.0
 20
252.5
 30
0.0
 11
235.0
 21
192.6
 31
0.0
  0
ARC
  5
1AC
100
AcDbEntity
  8
LAY-1
  6
CONTINUOUS
 62
     1
100
AcDbCircle
 10
113.6
 20
118.4
 30
0.0
 40
1.6
100
AcDbArc
 50
90.0
 51
180.0
  0
LINE
  5
1AD
100
AcDbEntity
  8
LAY-1
  6
CONTINUOUS
 62
     1
100
AcDbLine
 10
112.0
 20
85.6
 30
0.0
 11
112.0
 21
118.4
 31
0.0
  0
LINE
  5
1AE
100
AcDbEntity
  8
LAY-1
  6
CONTINUOUS
 62
     1
100
AcDbLine
 10
235.0
 20
120.0
 30
0.0
 11
113.6
 21
120.0
 31
0.0
  0
LINE
  5
1AF
100
AcDbEntity
  8
LAY-1
  6
CONTINUOUS
 62
     1
100
AcDbLine
 10
113.6
 20
85.6
 30
0.0
 11
113.6
 21
118.4
 31
0.0
  0
LINE
  5
1B0
100
AcDbEntity
  8
LAY-1
  6
CONTINUOUS
 62
     1
100
AcDbLine
 10
235.0
 20
118.4
 30
0.0
 11
113.6
 21
118.4
 31
0.0
  0
LINE
  5
1B1
100
AcDbEntity
  8
LAY-1
  6
CONTINUOUS
 62
     1
100
AcDbLine
 10
128.6
 20
116.1
 30
0.0
 11
128.6
 21
118.4
 31
0.0
  0
LINE
  5
1B2
100
AcDbEntity
  8
LAY-1
  6
CONTINUOUS
 62
     1
100
AcDbLine
 10
128.6
 20
116.1
 30
0.0
 11
115.9
 21
116.1
 31
0.0
  0
LINE
  5
1B3
100
AcDbEntity
  8
LAY-1
  6
CONTINUOUS
 62
     1
100
AcDbLine
 10
115.9
 20
87.9
 30
0.0
 11
115.9
 21
116.1
 31
0.0
  0
ARC
  5
1B4
100
AcDbEntity
  8
LAY-1
  6
CONTINUOUS
 62
     1
100
AcDbCircle
 10
115.9
 20
116.1
 30
0.0
 40
2.3
100
AcDbArc
 50
90.0
 51
180.0
  0
LINE
  5
1B5
100
AcDbEntity
  8
LAY-1
  6
CONTINUOUS
 62
     1
100
AcDbLine
 10
122.4
 20
125.1
 30
0.0
 11
122.4
 21
142.8
 31
0.0
  0
LINE
  5
1B6
100
AcDbEntity
  8
LAY-1
  6
CONTINUOUS
 62
     1
100
AcDbLine
 10
109.0
 20
82.6
 30
0.0
 11
109.0
 21
123.5
 31
0.0
  0
ARC
  5
1B7
100
AcDbEntity
  8
LAY-1
  6
CONTINUOUS
 62
     1
100
AcDbCircle
 10
109.0
 20
123.5
 30
0.0
 40
1.6
100
AcDbArc
 50
90.0
 51
180.0
  0
LINE
  5
1B8
100
AcDbEntity
  8
LAY-1
  6
CONTINUOUS
 62
     1
100
AcDbLine
 10
124.0
 20
125.1
 30
0.0
 11
124.0
 21
142.8
 31
0.0
  0
ARC
  5
1B9
100
AcDbEntity
  8
LAY-1
  6
CONTINUOUS
 62
     1
100
AcDbCircle
 10
122.4
 20
125.1
 30
0.0
 40
1.6
100
AcDbArc
 50
270.0
 51
0.0
  0
LINE
  5
1BA
100
AcDbEntity
  8
LAY-1
  6
CONTINUOUS
 62
     1
100
AcDbLine
 10
107.4
 20
82.6
 30
0.0
 11
107.4
 21
125.1
 31
0.0
  0
LINE
  5
1BB
100
AcDbEntity
  8
LAY-1
  6
CONTINUOUS
 62
     1
100
AcDbLine
 10
122.4
 20
125.1
 30
0.0
 11
102.5
 21
125.1
 31
0.0
  0
LINE
  5
1BC
100
AcDbEntity
  8
LAY-1
  6
CONTINUOUS
 62
     1
100
AcDbLine
 10
102.5
 20
82.6
 30
0.0
 11
107.4
 21
125.1
 31
0.0
  0
LINE
  5
1BD
100
AcDbEntity
  8
LAY-1
  6
CONTINUOUS
 62
     1
100
AcDbLine
 10
102.5
 20
82.6
 30
0.0
 11
102.5
 21
125.1
 31
0.0
  0
LINE
  5
1BE
100
AcDbEntity
  8
LAY-1
  6
CONTINUOUS
 62
     1
100
AcDbLine
 10
235.0
 20
132.9
 30
0.0
 11
235.0
 21
71.1
 31
0.0
  0
LINE
  5
1BF
100
AcDbEntity
  8
LAY-1
  6
CONTINUOUS
 62
     1
100
AcDbLine
 10
235.0
 20
123.5
 30
0.0
 11
109.0
 21
123.5
 31
0.0
  0
LINE
  5
1C0
100
AcDbEntity
  8
LAY-1
  6
CONTINUOUS
 62
     1
100
AcDbLine
 10
122.4
 20
365.1
 30
0.0
 11
122.4
 21
384.3
 31
0.0
  0
LINE
  5
1C1
100
AcDbEntity
  8
LAY-1
  6
CONTINUOUS
 62
     1
100
AcDbLine
 10
122.4
 20
365.1
 30
0.0
 11
109.0
 21
365.1
 31
0.0
  0
ARC
  5
1C2
100
AcDbEntity
  8
LAY-1
  6
CONTINUOUS
 62
     1
100
AcDbCircle
 10
109.0
 20
363.5
 30
0.0
 40
1.6
100
AcDbArc
 50
90.0
 51
180.0
  0
LINE
  5
1C3
100
AcDbEntity
  8
LAY-1
  6
CONTINUOUS
 62
     1
100
AcDbLine
 10
124.0
 20
365.1
 30
0.0
 11
124.0
 21
384.3
 31
0.0
  0
ARC
  5
1C4
100
AcDbEntity
  8
LAY-1
  6
CONTINUOUS
 62
     1
100
AcDbCircle
 10
122.4
 20
365.1
 30
0.0
 40
1.6
100
AcDbArc
 50
270.0
 51
0.0
  0
LINE
  5
1C5
100
AcDbEntity
  8
LAY-1
  6
CONTINUOUS
 62
     1
100
AcDbLine
 10
109.0
 20
322.6
 30
0.0
 11
109.0
 21
363.5
 31
0.0
  0
LINE
  5
1C6
100
AcDbEntity
  8
LAY-1
  6
CONTINUOUS
 62
     1
100
AcDbLine
 10
107.4
 20
322.6
 30
0.0
 11
107.4
 21
363.5
 31
0.0
  0
LINE
  5
1C7
100
AcDbEntity
  8
LAY-1
  6
CONTINUOUS
 62
     1
100
AcDbLine
 10
235.0
 20
363.5
 30
0.0
 11
109.0
 21
363.5
 31
0.0
  0
LINE
  5
1C8
100
AcDbEntity
  8
LAY-1
  6
CONTINUOUS
 62
     1
100
AcDbLine
 10
235.0
 20
372.8
 30
0.0
 11
235.0
 21
309.7
 31
0.0
  0
LINE
  5
1C9
100
AcDbEntity
  8
LAY-1
  6
CONTINUOUS
 62
     1
100
AcDbLine
 10
377.5
 20
314.0
 30
0.0
 11
336.6
 21
314.0
 31
0.0
  0
LINE
  5
1CA
100
AcDbEntity
  8
LAY-2
  6
CONTINUOUS
 62
     3
100
AcDbLine
 10
344.0
 20
320.5
 30
0.0
 11
344.0
 21
329.5
 31
0.0
  0
LINE
  5
1CB
100
AcDbEntity
  8
LAY-2
  6
CONTINUOUS
 62
     3
100
AcDbLine
 10
335.0
 20
331.0
 30
0.0
 11
335.0
 21
315.0
 31
0.0
  0
LINE
  5
1CC
100
AcDbEntity
  8
LAY-2
  6
CONTINUOUS
 62
     3
100
AcDbLine
 10
335.0
 20
329.5
 30
0.0
 11
364.0
 21
329.5
 31
0.0
  0
LINE
  5
1CD
100
AcDbEntity
  8
LAY-2
  6
CONTINUOUS
 62
     3
100
AcDbLine
 10
335.0
 20
320.5
 30
0.0
 11
364.0
 21
320.5
 31
0.0
  0
LINE
  5
1CE
100
AcDbEntity
  8
LAY-2
  6
CONTINUOUS
 62
     3
100
AcDbLine
 10
364.0
 20
320.5
 30
0.0
 11
364.0
 21
329.5
 31
0.0
  0
LINE
  5
1CF
100
AcDbEntity
  8
LAY-2
  6
CONTINUOUS
 62
     3
100
AcDbLine
 10
305.0
 20
316.5
 30
0.0
 11
305.0
 21
331.0
 31
0.0
  0
ARC
  5
1D0
100
AcDbEntity
  8
LAY-2
  6
CONTINUOUS
 62
     3
100
AcDbCircle
 10
306.5
 20
316.5
 30
0.0
 40
1.5
100
AcDbArc
 50
180.0
 51
270.0
  0
LINE
  5
1D1
100
AcDbEntity
  8
LAY-2
  6
CONTINUOUS
 62
     3
100
AcDbLine
 10
335.0
 20
331.0
 30
0.0
 11
305.0
 21
331.0
 31
0.0
  0
LINE
  5
1D2
100
AcDbEntity
  8
LAY-2
  6
CONTINUOUS
 62
     3
100
AcDbLine
 10
335.0
 20
315.0
 30
0.0
 11
306.5
 21
315.0
 31
0.0
  0
LINE
  5
1D3
100
AcDbEntity
  8
LAY-2
  6
CONTINUOUS
 62
     3
100
AcDbLine
 10
141.0
 20
321.0
 30
0.0
 11
141.0
 21
330.0
 31
0.0
  0
ARC
  5
1D4
100
AcDbEntity
  8
LAY-2
  6
CONTINUOUS
 62
     3
100
AcDbCircle
 10
141.0
 20
330.0
 30
0.0
 40
20.0
100
AcDbArc
 50
90.0
 51
180.0
  0
LINE
  5
1D5
100
AcDbEntity
  8
LAY-2
  6
CONTINUOUS
 62
     3
100
AcDbLine
 10
121.0
 20
321.0
 30
0.0
 11
121.0
 21
330.0
 31
0.0
  0
LINE
  5
1D6
100
AcDbEntity
  8
LAY-2
  6
CONTINUOUS
 62
     3
100
AcDbLine
 10
206.0
 20
350.0
 30
0.0
 11
141.0
 21
350.0
 31
0.0
  0
ARC
  5
1D7
100
AcDbEntity
  8
LAY-2
  6
CONTINUOUS
 62
     3
100
AcDbCircle
 10
206.0
 20
345.0
 30
0.0
 40
5.0
100
AcDbArc
 50
0.0
 51
90.0
  0
LINE
  5
1D8
100
AcDbEntity
  8
LAY-2
  6
CONTINUOUS
 62
     3
100
AcDbLine
 10
206.0
 20
330.0
 30
0.0
 11
141.0
 21
330.0
 31
0.0
  0
LINE
  5
1D9
100
AcDbEntity
  8
LAY-2
  6
CONTINUOUS
 62
     3
100
AcDbLine
 10
211.0
 20
335.0
 30
0.0
 11
211.0
 21
345.0
 31
0.0
  0
ARC
  5
1DA
100
AcDbEntity
  8
LAY-2
  6
CONTINUOUS
 62
     3
100
AcDbCircle
 10
206.0
 20
335.0
 30
0.0
 40
5.0
100
AcDbArc
 50
270.0
 51
0.0
  0
CIRCLE
  5
1DB
100
AcDbEntity
  8
LAY-2
  6
CONTINUOUS
 62
     3
100
AcDbCircle
 10
128.0
 20
306.0
 30
0.0
 40
6.25
  0
CIRCLE
  5
1DC
100
AcDbEntity
  8
LAY-2
  6
CONTINUOUS
 62
     3
100
AcDbCircle
 10
131.0
 20
337.0
 30
0.0
 40
2.1
  0
CIRCLE
  5
1DD
100
AcDbEntity
  8
LAY-2
  6
CONTINUOUS
 62
     1
100
AcDbCircle
 10
131.0
 20
337.0
 30
0.0
 40
2.5
  0
CIRCLE
  5
1DE
100
AcDbEntity
  8
LAY-2
  6
CONTINUOUS
 62
     3
100
AcDbCircle
 10
151.0
 20
343.0
 30
0.0
 40
2.1
  0
CIRCLE
  5
1DF
100
AcDbEntity
  8
LAY-2
  6
CONTINUOUS
 62
     1
100
AcDbCircle
 10
151.0
 20
343.0
 30
0.0
 40
2.5
  0
CIRCLE
  5
1E0
100
AcDbEntity
  8
LAY-2
  6
CONTINUOUS
 62
     3
100
AcDbCircle
 10
181.0
 20
337.0
 30
0.0
 40
2.1
  0
CIRCLE
  5
1E1
100
AcDbEntity
  8
LAY-2
  6
CONTINUOUS
 62
     1
100
AcDbCircle
 10
181.0
 20
337.0
 30
0.0
 40
2.5
  0
CIRCLE
  5
1E2
100
AcDbEntity
  8
LAY-2
  6
CONTINUOUS
 62
     3
100
AcDbCircle
 10
201.0
 20
343.0
 30
0.0
 40
2.1
  0
CIRCLE
  5
1E3
100
AcDbEntity
  8
LAY-2
  6
CONTINUOUS
 62
     1
100
AcDbCircle
 10
201.0
 20
343.0
 30
0.0
 40
2.5
  0
ARC
  5
1E4
100
AcDbEntity
  8
LAY-2
  6
CONTINUOUS
 62
     3
100
AcDbCircle
 10
128.0
 20
306.0
 30
0.0
 40
15.0
100
AcDbArc
 50
157.380135
 51
0.0
  0
LINE
  5
1E5
100
AcDbEntity
  8
LAY-2
  6
CONTINUOUS
 62
     3
100
AcDbLine
 10
143.0
 20
306.0
 30
0.0
 11
143.0
 21
321.0
 31
0.0
  0
LINE
  5
1E6
100
AcDbEntity
  8
LAY-2
  6
CONTINUOUS
 62
     3
100
AcDbLine
 10
118.0
 20
321.0
 30
0.0
 11
143.0
 21
321.0
 31
0.0
  0
LINE
  5
1E7
100
AcDbEntity
  8
LAY-2
  6
CONTINUOUS
 62
     3
100
AcDbLine
 10
114.153846
 20
311.769231
 30
0.0
 11
118.0
 21
321.0
 31
0.0
  0
CIRCLE
  5
1E8
100
AcDbEntity
  8
LAY-2
  6
CONTINUOUS
 62
     3
100
AcDbCircle
 10
128.0
 20
306.0
 30
0.0
 40
7.0
  0
CIRCLE
  5
1E9
100
AcDbEntity
  8
LAY-2
  6
DASHED2
 62
     3
100
AcDbCircle
 10
128.0
 20
306.0
 30
0.0
 40
7.75
  0
LINE
  5
1EA
100
AcDbEntity
  8
LAY-3
  6
CONTINUOUS
 62
     3
100
AcDbLine
 10
344.0
 20
302.0
 30
0.0
 11
344.0
 21
311.0
 31
0.0
  0
LINE
  5
1EB
100
AcDbEntity
  8
LAY-3
  6
CONTINUOUS
 62
     3
100
AcDbLine
 10
338.0
 20
311.0
 30
0.0
 11
338.0
 21
295.0
 31
0.0
  0
LINE
  5
1EC
100
AcDbEntity
  8
LAY-3
  6
CONTINUOUS
 62
     3
100
AcDbLine
 10
364.0
 20
302.0
 30
0.0
 11
364.0
 21
311.0
 31
0.0
  0
LINE
  5
1ED
100
AcDbEntity
  8
LAY-3
  6
CONTINUOUS
 62
     3
100
AcDbLine
 10
364.0
 20
302.0
 30
0.0
 11
338.0
 21
302.0
 31
0.0
  0
LINE
  5
1EE
100
AcDbEntity
  8
LAY-3
  6
CONTINUOUS
 62
     3
100
AcDbLine
 10
364.0
 20
311.0
 30
0.0
 11
305.0
 21
311.0
 31
0.0
  0
LINE
  5
1EF
100
AcDbEntity
  8
LAY-3
  6
CONTINUOUS
 62
     3
100
AcDbLine
 10
305.0
 20
296.5
 30
0.0
 11
305.0
 21
311.0
 31
0.0
  0
ARC
  5
1F0
100
AcDbEntity
  8
LAY-3
  6
CONTINUOUS
 62
     3
100
AcDbCircle
 10
306.5
 20
296.5
 30
0.0
 40
1.5
100
AcDbArc
 50
180.0
 51
270.0
  0
LINE
  5
1F1
100
AcDbEntity
  8
LAY-3
  6
CONTINUOUS
 62
     3
100
AcDbLine
 10
338.0
 20
311.0
 30
0.0
 11
338.0
 21
295.0
 31
0.0
  0
LINE
  5
1F2
100
AcDbEntity
  8
LAY-3
  6
CONTINUOUS
 62
     3
100
AcDbLine
 10
338.0
 20
295.0
 30
0.0
 11
306.5
 21
295.0
 31
0.0
  0
CIRCLE
  5
1F3
100
AcDbEntity
  8
LAY-3
  6
CONTINUOUS
 62
     3
100
AcDbCircle
 10
128.0
 20
186.0
 30
0.0
 40
7.5
  0
CIRCLE
  5
1F4
100
AcDbEntity
  8
LAY-3
  6
CONTINUOUS
 62
     1
100
AcDbCircle
 10
128.0
 20
186.0
 30
0.0
 40
8.0
  0
CIRCLE
  5
1F5
100
AcDbEntity
  8
LAY-3
  6
DASHED2
 62
     3
100
AcDbCircle
 10
128.0
 20
186.0
 30
0.0
 40
9.5
  0
LINE
  5
1F6
100
AcDbEntity
  8
LAY-3
  6
CONTINUOUS
 62
     3
100
AcDbLine
 10
143.0
 20
186.0
 30
0.0
 11
143.0
 21
204.0
 31
0.0
  0
LINE
  5
1F7
100
AcDbEntity
  8
LAY-3
  6
CONTINUOUS
 62
     3
100
AcDbLine
 10
114.055728
 20
191.527864
 30
0.0
 11
119.0
 21
204.0
 31
0.0
  0
ARC
  5
1F8
100
AcDbEntity
  8
LAY-3
  6
CONTINUOUS
 62
     3
100
AcDbCircle
 10
128.0
 20
186.0
 30
0.0
 40
15.0
100
AcDbArc
 50
158.375366
 51
0.0
  0
LINE
  5
1F9
100
AcDbEntity
  8
LAY-3
  6
CONTINUOUS
 62
     3
100
AcDbLine
 10
141.0
 20
204.0
 30
0.0
 11
141.0
 21
210.0
 31
0.0
  0
LINE
  5
1FA
100
AcDbEntity
  8
LAY-3
  6
CONTINUOUS
 62
     3
100
AcDbLine
 10
119.0
 20
204.0
 30
0.0
 11
143.0
 21
204.0
 31
0.0
  0
LINE
  5
1FB
100
AcDbEntity
  8
LAY-3
  6
CONTINUOUS
 62
     3
100
AcDbLine
 10
121.0
 20
204.0
 30
0.0
 11
121.0
 21
220.0
 31
0.0
  0
ARC
  5
1FC
100
AcDbEntity
  8
LAY-3
  6
CONTINUOUS
 62
     3
100
AcDbCircle
 10
131.0
 20
220.0
 30
0.0
 40
10.0
100
AcDbArc
 50
90.0
 51
180.0
  0
LINE
  5
1FD
100
AcDbEntity
  8
LAY-3
  6
CONTINUOUS
 62
     3
100
AcDbLine
 10
206.0
 20
230.0
 30
0.0
 11
131.0
 21
230.0
 31
0.0
  0
ARC
  5
1FE
100
AcDbEntity
  8
LAY-3
  6
CONTINUOUS
 62
     3
100
AcDbCircle
 10
206.0
 20
225.0
 30
0.0
 40
5.0
100
AcDbArc
 50
0.0
 51
90.0
  0
LINE
  5
1FF
100
AcDbEntity
  8
LAY-3
  6
CONTINUOUS
 62
     3
100
AcDbLine
 10
206.0
 20
210.0
 30
0.0
 11
141.0
 21
210.0
 31
0.0
  0
LINE
  5
200
100
AcDbEntity
  8
LAY-3
  6
CONTINUOUS
 62
     3
100
AcDbLine
 10
211.0
 20
215.0
 30
0.0
 11
211.0
 21
225.0
 31
0.0
  0
ARC
  5
201
100
AcDbEntity
  8
LAY-3
  6
CONTINUOUS
 62
     3
100
AcDbCircle
 10
206.0
 20
215.0
 30
0.0
 40
5.0
100
AcDbArc
 50
270.0
 51
0.0
  0
CIRCLE
  5
202
100
AcDbEntity
  8
LAY-3
  6
CONTINUOUS
 62
     3
100
AcDbCircle
 10
131.0
 20
217.0
 30
0.0
 40
2.75
  0
CIRCLE
  5
203
100
AcDbEntity
  8
LAY-3
  6
CONTINUOUS
 62
     3
100
AcDbCircle
 10
131.0
 20
217.0
 30
0.0
 40
5.25
  0
CIRCLE
  5
204
100
AcDbEntity
  8
LAY-3
  6
CONTINUOUS
 62
     3
100
AcDbCircle
 10
151.0
 20
223.0
 30
0.0
 40
2.75
  0
CIRCLE
  5
205
100
AcDbEntity
  8
LAY-3
  6
CONTINUOUS
 62
     3
100
AcDbCircle
 10
151.0
 20
223.0
 30
0.0
 40
5.25
  0
CIRCLE
  5
206
100
AcDbEntity
  8
LAY-3
  6
CONTINUOUS
 62
     3
100
AcDbCircle
 10
181.0
 20
217.0
 30
0.0
 40
2.75
  0
CIRCLE
  5
207
100
AcDbEntity
  8
LAY-3
  6
CONTINUOUS
 62
     3
100
AcDbCircle
 10
181.0
 20
217.0
 30
0.0
 40
5.25
  0
CIRCLE
  5
208
100
AcDbEntity
  8
LAY-3
  6
CONTINUOUS
 62
     3
100
AcDbCircle
 10
201.0
 20
223.0
 30
0.0
 40
2.75
  0
CIRCLE
  5
209
100
AcDbEntity
  8
LAY-3
  6
CONTINUOUS
 62
     3
100
AcDbCircle
 10
201.0
 20
223.0
 30
0.0
 40
5.25
  0
LINE
  5
20A
100
AcDbEntity
  8
LAY-3
  6
CONTINUOUS
 62
     3
100
AcDbLine
 10
319.25
 20
292.510137
 30
0.0
 11
319.25
 21
294.0
 31
0.0
  0
LINE
  5
20B
100
AcDbEntity
  8
LAY-3
  6
CONTINUOUS
 62
     3
100
AcDbLine
 10
320.75
 20
292.510137
 30
0.0
 11
320.75
 21
294.0
 31
0.0
  0
LINE
  5
20C
100
AcDbEntity
  8
LAY-3
  6
CONTINUOUS
 62
     3
100
AcDbLine
 10
320.75
 20
294.0
 30
0.0
 11
319.25
 21
294.0
 31
0.0
  0
ARC
  5
20D
100
AcDbEntity
  8
LAY-3
  6
CONTINUOUS
 62
     3
100
AcDbCircle
 10
320.0
 20
309.5
 30
0.0
 40
17.0
100
AcDbArc
 50
238.533024
 51
267.471424
  0
ARC
  5
20E
100
AcDbEntity
  8
LAY-3
  6
CONTINUOUS
 62
     3
100
AcDbCircle
 10
320.0
 20
309.5
 30
0.0
 40
17.0
100
AcDbArc
 50
272.528576
 51
301.466976
  0
LINE
  5
20F
100
AcDbEntity
  8
LAY-3
  6
CONTINUOUS
 62
     3
100
AcDbLine
 10
326.25
 20
315.0
 30
0.0
 11
326.25
 21
311.0
 31
0.0
  0
LINE
  5
210
100
AcDbEntity
  8
LAY-3
  6
CONTINUOUS
 62
     3
100
AcDbLine
 10
313.75
 20
315.0
 30
0.0
 11
313.75
 21
311.0
 31
0.0
  0
LINE
  5
211
100
AcDbEntity
  8
LAY-3
  6
DASHED2
 62
     3
100
AcDbLine
 10
115.767214
 20
193.538664
 30
0.0
 11
115.312864
 21
193.342281
 31
0.0
  0
LINE
  5
212
100
AcDbEntity
  8
LAY-3
  6
DASHED2
 62
     3
100
AcDbLine
 10
113.924593
 20
188.890573
 30
0.0
 11
113.72821
 21
189.344923
 31
0.0
  0
LINE
  5
213
100
AcDbEntity
  8
LAY-3
  6
DASHED2
 62
     3
100
AcDbLine
 10
115.312864
 20
193.342281
 30
0.0
 11
113.72821
 21
189.344923
 31
0.0
  0
LINE
  5
214
100
AcDbEntity
  8
LAY-3
  6
DASHED2
 62
     3
100
AcDbLine
 10
113.924593
 20
188.890573
 30
0.0
 11
122.198194
 21
185.610707
 31
0.0
  0
LINE
  5
215
100
AcDbEntity
  8
LAY-3
  6
DASHED2
 62
     3
100
AcDbLine
 10
122.198194
 20
185.610707
 30
0.0
 11
123.171801
 21
186.031527
 31
0.0
  0
LINE
  5
216
100
AcDbEntity
  8
LAY-3
  6
DASHED2
 62
     1
100
AcDbLine
 10
113.72821
 20
189.344923
 30
0.0
 11
122.652544
 21
185.80709
 31
0.0
  0
LINE
  5
217
100
AcDbEntity
  8
LAY-3
  6
DASHED2
 62
     1
100
AcDbLine
 10
115.312864
 20
193.342281
 30
0.0
 11
124.237198
 21
189.804448
 31
0.0
  0
LINE
  5
218
100
AcDbEntity
  8
LAY-3
  6
DASHED2
 62
     3
100
AcDbLine
 10
115.767214
 20
193.538664
 30
0.0
 11
124.040816
 21
190.258798
 31
0.0
  0
LINE
  5
219
100
AcDbEntity
  8
LAY-3
  6
DASHED2
 62
     3
100
AcDbLine
 10
124.040816
 20
190.258798
 30
0.0
 11
124.461636
 21
189.285191
 31
0.0
  0
LINE
  5
21A
100
AcDbEntity
  8
LAY-3
  6
DASHED2
 62
     3
100
AcDbLine
 10
124.461636
 20
189.285191
 30
0.0
 11
123.171801
 21
186.031527
 31
0.0
  0
LINE
  5
21B
100
AcDbEntity
  8
LAY-4
  6
CONTINUOUS
 62
     3
100
AcDbLine
 10
368.0
 20
166.0
 30
0.0
 11
338.0
 21
166.0
 31
0.0
  0
LINE
  5
21C
100
AcDbEntity
  8
LAY-4
  6
CONTINUOUS
 62
     3
100
AcDbLine
 10
368.0
 20
151.0
 30
0.0
 11
368.0
 21
166.0
 31
0.0
  0
LINE
  5
21D
100
AcDbEntity
  8
LAY-4
  6
CONTINUOUS
 62
     3
100
AcDbLine
 10
344.0
 20
151.0
 30
0.0
 11
344.0
 21
166.0
 31
0.0
  0
LINE
  5
21E
100
AcDbEntity
  8
LAY-4
  6
CONTINUOUS
 62
     3
100
AcDbLine
 10
363.5
 20
174.0
 30
0.0
 11
358.5
 21
174.0
 31
0.0
  0
LINE
  5
21F
100
AcDbEntity
  8
LAY-4
  6
CONTINUOUS
 62
     3
100
AcDbLine
 10
353.5
 20
174.0
 30
0.0
 11
348.5
 21
174.0
 31
0.0
  0
LINE
  5
220
100
AcDbEntity
  8
LAY-4
  6
CONTINUOUS
 62
     3
100
AcDbLine
 10
348.5
 20
172.8
 30
0.0
 11
348.5
 21
174.0
 31
0.0
  0
LINE
  5
221
100
AcDbEntity
  8
LAY-4
  6
CONTINUOUS
 62
     1
100
AcDbLine
 10
348.85
 20
172.8
 30
0.0
 11
348.85
 21
174.0
 31
0.0
  0
LINE
  5
222
100
AcDbEntity
  8
LAY-4
  6
CONTINUOUS
 62
     1
100
AcDbLine
 10
353.15
 20
172.8
 30
0.0
 11
353.15
 21
174.0
 31
0.0
  0
LINE
  5
223
100
AcDbEntity
  8
LAY-4
  6
CONTINUOUS
 62
     3
100
AcDbLine
 10
353.5
 20
172.8
 30
0.0
 11
353.5
 21
174.0
 31
0.0
  0
LINE
  5
224
100
AcDbEntity
  8
LAY-4
  6
CONTINUOUS
 62
     3
100
AcDbLine
 10
358.5
 20
172.8
 30
0.0
 11
358.5
 21
174.0
 31
0.0
  0
LINE
  5
225
100
AcDbEntity
  8
LAY-4
  6
CONTINUOUS
 62
     1
100
AcDbLine
 10
358.85
 20
172.8
 30
0.0
 11
358.85
 21
174.0
 31
0.0
  0
LINE
  5
226
100
AcDbEntity
  8
LAY-4
  6
CONTINUOUS
 62
     1
100
AcDbLine
 10
363.15
 20
172.8
 30
0.0
 11
363.15
 21
174.0
 31
0.0
  0
LINE
  5
227
100
AcDbEntity
  8
LAY-4
  6
CONTINUOUS
 62
     3
100
AcDbLine
 10
363.5
 20
172.8
 30
0.0
 11
363.5
 21
174.0
 31
0.0
  0
LINE
  5
228
100
AcDbEntity
  8
LAY-4
  6
DASHED2
 62
     3
100
AcDbLine
 10
348.5
 20
156.5
 30
0.0
 11
353.5
 21
156.5
 31
0.0
  0
LINE
  5
229
100
AcDbEntity
  8
LAY-4
  6
DASHED2
 62
     3
100
AcDbLine
 10
356.0
 20
154.0
 30
0.0
 11
346.0
 21
154.0
 31
0.0
  0
LINE
  5
22A
100
AcDbEntity
  8
LAY-4
  6
DASHED2
 62
     3
100
AcDbLine
 10
346.0
 20
154.0
 30
0.0
 11
348.5
 21
156.5
 31
0.0
  0
LINE
  5
22B
100
AcDbEntity
  8
LAY-4
  6
DASHED2
 62
     3
100
AcDbLine
 10
356.0
 20
154.0
 30
0.0
 11
353.5
 21
156.5
 31
0.0
  0
LINE
  5
22C
100
AcDbEntity
  8
LAY-4
  6
DASHED2
 62
     3
100
AcDbLine
 10
358.5
 20
156.5
 30
0.0
 11
363.5
 21
156.5
 31
0.0
  0
LINE
  5
22D
100
AcDbEntity
  8
LAY-4
  6
DASHED2
 62
     3
100
AcDbLine
 10
366.0
 20
154.0
 30
0.0
 11
356.0
 21
154.0
 31
0.0
  0
LINE
  5
22E
100
AcDbEntity
  8
LAY-4
  6
DASHED2
 62
     3
100
AcDbLine
 10
356.0
 20
154.0
 30
0.0
 11
358.5
 21
156.5
 31
0.0
  0
LINE
  5
22F
100
AcDbEntity
  8
LAY-4
  6
DASHED2
 62
     3
100
AcDbLine
 10
366.0
 20
154.0
 30
0.0
 11
363.5
 21
156.5
 31
0.0
  0
LINE
  5
230
100
AcDbEntity
  8
LAY-4
  6
DASHED2
 62
     3
100
AcDbLine
 10
366.0
 20
154.0
 30
0.0
 11
346.0
 21
154.0
 31
0.0
  0
LINE
  5
231
100
AcDbEntity
  8
LAY-4
  6
DASHED2
 62
     3
100
AcDbLine
 10
346.0
 20
154.0
 30
0.0
 11
346.0
 21
151.0
 31
0.0
  0
LINE
  5
232
100
AcDbEntity
  8
LAY-4
  6
DASHED2
 62
     3
100
AcDbLine
 10
356.0
 20
154.0
 30
0.0
 11
356.0
 21
151.0
 31
0.0
  0
LINE
  5
233
100
AcDbEntity
  8
LAY-4
  6
DASHED2
 62
     3
100
AcDbLine
 10
366.0
 20
154.0
 30
0.0
 11
366.0
 21
151.0
 31
0.0
  0
LINE
  5
234
100
AcDbEntity
  8
LAY-4
  6
DASHED2
 62
     3
100
AcDbLine
 10
363.5
 20
156.5
 30
0.0
 11
363.5
 21
172.8
 31
0.0
  0
LINE
  5
235
100
AcDbEntity
  8
LAY-4
  6
DASHED2
 62
     1
100
AcDbLine
 10
363.15
 20
156.5
 30
0.0
 11
363.15
 21
172.8
 31
0.0
  0
LINE
  5
236
100
AcDbEntity
  8
LAY-4
  6
DASHED2
 62
     1
100
AcDbLine
 10
358.85
 20
156.5
 30
0.0
 11
358.85
 21
172.8
 31
0.0
  0
LINE
  5
237
100
AcDbEntity
  8
LAY-4
  6
DASHED2
 62
     3
100
AcDbLine
 10
358.5
 20
156.5
 30
0.0
 11
358.5
 21
172.8
 31
0.0
  0
LINE
  5
238
100
AcDbEntity
  8
LAY-4
  6
DASHED2
 62
     3
100
AcDbLine
 10
353.5
 20
156.5
 30
0.0
 11
353.5
 21
172.8
 31
0.0
  0
LINE
  5
239
100
AcDbEntity
  8
LAY-4
  6
DASHED2
 62
     1
100
AcDbLine
 10
353.15
 20
156.5
 30
0.0
 11
353.15
 21
172.8
 31
0.0
  0
LINE
  5
23A
100
AcDbEntity
  8
LAY-4
  6
DASHED2
 62
     1
100
AcDbLine
 10
348.85
 20
156.5
 30
0.0
 11
348.85
 21
172.8
 31
0.0
  0
LINE
  5
23B
100
AcDbEntity
  8
LAY-4
  6
DASHED2
 62
     3
100
AcDbLine
 10
348.5
 20
156.5
 30
0.0
 11
348.5
 21
172.8
 31
0.0
  0
LINE
  5
23C
100
AcDbEntity
  8
LAY-4
  6
CONTINUOUS
 62
     3
100
AcDbLine
 10
338.0
 20
177.0
 30
0.0
 11
306.0
 21
177.0
 31
0.0
  0
ARC
  5
23D
100
AcDbEntity
  8
LAY-4
  6
CONTINUOUS
 62
     3
100
AcDbCircle
 10
306.0
 20
176.0
 30
0.0
 40
1.0
100
AcDbArc
 50
90.0
 51
180.0
  0
LINE
  5
23E
100
AcDbEntity
  8
LAY-4
  6
CONTINUOUS
 62
     3
100
AcDbLine
 10
305.0
 20
151.0
 30
0.0
 11
305.0
 21
176.3
 31
0.0
  0
LINE
  5
23F
100
AcDbEntity
  8
LAY-4
  6
CONTINUOUS
 62
     3
100
AcDbLine
 10
338.0
 20
177.0
 30
0.0
 11
338.0
 21
151.0
 31
0.0
  0
LINE
  5
240
100
AcDbEntity
  8
LAY-4
  6
CONTINUOUS
 62
     3
100
AcDbLine
 10
368.0
 20
151.0
 30
0.0
 11
305.0
 21
151.0
 31
0.0
  0
LINE
  5
241
100
AcDbEntity
  8
LAY-4
  6
CONTINUOUS
 62
     3
100
AcDbLine
 10
118.5
 20
84.0
 30
0.0
 11
118.5
 21
104.0
 31
0.0
  0
ARC
  5
242
100
AcDbEntity
  8
LAY-4
  6
CONTINUOUS
 62
     3
100
AcDbCircle
 10
128.5
 20
104.0
 30
0.0
 40
10.0
100
AcDbArc
 50
90.0
 51
180.0
  0
LINE
  5
243
100
AcDbEntity
  8
LAY-4
  6
CONTINUOUS
 62
     3
100
AcDbLine
 10
143.0
 20
66.0
 30
0.0
 11
143.0
 21
84.0
 31
0.0
  0
ARC
  5
244
100
AcDbEntity
  8
LAY-4
  6
CONTINUOUS
 62
     3
100
AcDbCircle
 10
128.0
 20
66.0
 30
0.0
 40
15.0
100
AcDbArc
 50
180.0
 51
0.0
  0
LINE
  5
245
100
AcDbEntity
  8
LAY-4
  6
CONTINUOUS
 62
     3
100
AcDbLine
 10
118.5
 20
84.0
 30
0.0
 11
143.0
 21
84.0
 31
0.0
  0
LINE
  5
246
100
AcDbEntity
  8
LAY-4
  6
CONTINUOUS
 62
     3
100
AcDbLine
 10
141.5
 20
84.0
 30
0.0
 11
141.5
 21
90.0
 31
0.0
  0
LINE
  5
247
100
AcDbEntity
  8
LAY-4
  6
CONTINUOUS
 62
     3
100
AcDbLine
 10
203.5
 20
114.0
 30
0.0
 11
128.5
 21
114.0
 31
0.0
  0
ARC
  5
248
100
AcDbEntity
  8
LAY-4
  6
CONTINUOUS
 62
     3
100
AcDbCircle
 10
203.5
 20
109.0
 30
0.0
 40
5.0
100
AcDbArc
 50
0.0
 51
90.0
  0
LINE
  5
249
100
AcDbEntity
  8
LAY-4
  6
CONTINUOUS
 62
     3
100
AcDbLine
 10
203.5
 20
90.0
 30
0.0
 11
141.5
 21
90.0
 31
0.0
  0
LINE
  5
24A
100
AcDbEntity
  8
LAY-4
  6
CONTINUOUS
 62
     3
100
AcDbLine
 10
208.5
 20
95.0
 30
0.0
 11
208.5
 21
109.0
 31
0.0
  0
ARC
  5
24B
100
AcDbEntity
  8
LAY-4
  6
CONTINUOUS
 62
     3
100
AcDbCircle
 10
203.5
 20
95.0
 30
0.0
 40
5.0
100
AcDbArc
 50
270.0
 51
0.0
  0
LINE
  5
24C
100
AcDbEntity
  8
LAY-4
  6
CONTINUOUS
 62
     3
100
AcDbLine
 10
116.5
 20
84.0
 30
0.0
 11
142.376471
 21
84.0
 31
0.0
  0
CIRCLE
  5
24D
100
AcDbEntity
  8
LAY-4
  6
CONTINUOUS
 62
     3
100
AcDbCircle
 10
198.5
 20
107.0
 30
0.0
 40
2.75
  0
CIRCLE
  5
24E
100
AcDbEntity
  8
LAY-4
  6
DASHED2
 62
     3
100
AcDbCircle
 10
198.5
 20
107.0
 30
0.0
 40
5.25
  0
CIRCLE
  5
24F
100
AcDbEntity
  8
LAY-4
  6
CONTINUOUS
 62
     3
100
AcDbCircle
 10
178.5
 20
97.0
 30
0.0
 40
2.75
  0
CIRCLE
  5
250
100
AcDbEntity
  8
LAY-4
  6
DASHED2
 62
     3
100
AcDbCircle
 10
178.5
 20
97.0
 30
0.0
 40
5.25
  0
CIRCLE
  5
251
100
AcDbEntity
  8
LAY-4
  6
CONTINUOUS
 62
     3
100
AcDbCircle
 10
148.5
 20
107.0
 30
0.0
 40
2.75
  0
CIRCLE
  5
252
100
AcDbEntity
  8
LAY-4
  6
DASHED2
 62
     3
100
AcDbCircle
 10
148.5
 20
107.0
 30
0.0
 40
5.25
  0
CIRCLE
  5
253
100
AcDbEntity
  8
LAY-4
  6
CONTINUOUS
 62
     3
100
AcDbCircle
 10
128.5
 20
97.0
 30
0.0
 40
2.75
  0
CIRCLE
  5
254
100
AcDbEntity
  8
LAY-4
  6
DASHED2
 62
     3
100
AcDbCircle
 10
128.5
 20
97.0
 30
0.0
 40
5.25
  0
LINE
  5
255
100
AcDbEntity
  8
LAY-4
  6
CONTINUOUS
 62
     3
100
AcDbLine
 10
113.0
 20
84.0
 30
0.0
 11
142.376471
 21
84.0
 31
0.0
  0
LINE
  5
256
100
AcDbEntity
  8
LAY-4
  6
CONTINUOUS
 62
     3
100
AcDbLine
 10
113.0
 20
66.0
 30
0.0
 11
113.0
 21
84.0
 31
0.0
  0
LINE
  5
257
100
AcDbEntity
  8
LAY-5
  6
DASHDOT
 62
     1
100
AcDbLine
 10
320.0
 20
279.0
 30
0.0
 11
320.0
 21
349.0
 31
0.0
  0
LINE
  5
258
100
AcDbEntity
  8
LAY-5
  6
DASHDOT
 62
     1
100
AcDbLine
 10
351.0
 20
146.6
 30
0.0
 11
351.0
 21
175.4
 31
0.0
  0
LINE
  5
259
100
AcDbEntity
  8
LAY-5
  6
DASHDOT
 62
     1
100
AcDbLine
 10
357.0
 20
290.2
 30
0.0
 11
357.0
 21
336.1
 31
0.0
  0
LINE
  5
25A
100
AcDbEntity
  8
LAY-5
  6
DASHDOT
 62
     1
100
AcDbLine
 10
351.0
 20
290.8
 30
0.0
 11
351.0
 21
335.8
 31
0.0
  0
LINE
  5
25B
100
AcDbEntity
  8
LAY-5
  6
DASHDOT
 62
     1
100
AcDbLine
 10
320.0
 20
125.9
 30
0.0
 11
320.0
 21
187.4
 31
0.0
  0
LINE
  5
25C
100
AcDbEntity
  8
LAY-5
  6
DASHDOT
 62
     1
100
AcDbLine
 10
477.5
 20
125.9
 30
0.0
 11
477.5
 21
234.1
 31
0.0
  0
LINE
  5
25D
100
AcDbEntity
  8
LAY-5
  6
DASHDOT
 62
     1
100
AcDbLine
 10
361.0
 20
146.6
 30
0.0
 11
361.0
 21
177.5
 31
0.0
  0
LINE
  5
25E
100
AcDbEntity
  8
LAY-5
  6
DASHDOT
 62
     1
100
AcDbLine
 10
356.4
 20
189.0
 30
0.0
 11
345.6
 21
189.0
 31
0.0
  0
LINE
  5
25F
100
AcDbEntity
  8
LAY-5
  6
DASHDOT
 62
     1
100
AcDbLine
 10
351.0
 20
183.6
 30
0.0
 11
351.0
 21
194.4
 31
0.0
  0
LINE
  5
260
100
AcDbEntity
  8
LAY-5
  6
DASHDOT
 62
     1
100
AcDbLine
 10
361.0
 20
198.6
 30
0.0
 11
361.0
 21
209.4
 31
0.0
  0
LINE
  5
261
100
AcDbEntity
  8
LAY-5
  6
DASHDOT
 62
     1
100
AcDbLine
 10
366.4
 20
204.0
 30
0.0
 11
355.6
 21
204.0
 31
0.0
  0
LINE
  5
262
100
AcDbEntity
  8
LAY-5
  6
DASHDOT
 62
     1
100
AcDbLine
 10
366.4
 20
174.0
 30
0.0
 11
355.6
 21
174.0
 31
0.0
  0
LINE
  5
263
100
AcDbEntity
  8
LAY-5
  6
DASHDOT
 62
     1
100
AcDbLine
 10
356.4
 20
159.0
 30
0.0
 11
345.6
 21
159.0
 31
0.0
  0
LINE
  5
264
100
AcDbEntity
  8
LAY-5
  6
DASHDOT
 62
     1
100
AcDbLine
 10
515.1
 20
189.0
 30
0.0
 11
501.9
 21
189.0
 31
0.0
  0
LINE
  5
265
100
AcDbEntity
  8
LAY-5
  6
CONTINUOUS
 62
     1
100
AcDbLine
 10
525.1
 20
204.0
 30
0.0
 11
511.9
 21
204.0
 31
0.0
  0
LINE
  5
266
100
AcDbEntity
  8
LAY-5
  6
DASHDOT
 62
     1
100
AcDbLine
 10
525.1
 20
174.0
 30
0.0
 11
511.9
 21
174.0
 31
0.0
  0
LINE
  5
267
100
AcDbEntity
  8
LAY-5
  6
DASHDOT
 62
     1
100
AcDbLine
 10
518.5
 20
167.4
 30
0.0
 11
518.5
 21
210.6
 31
0.0
  0
LINE
  5
268
100
AcDbEntity
  8
LAY-5
  6
DASHDOT
 62
     1
100
AcDbLine
 10
515.1
 20
159.0
 30
0.0
 11
501.9
 21
159.0
 31
0.0
  0
LINE
  5
269
100
AcDbEntity
  8
LAY-5
  6
DASHDOT
 62
     1
100
AcDbLine
 10
508.5
 20
152.4
 30
0.0
 11
508.5
 21
195.6
 31
0.0
  0
LINE
  5
26A
100
AcDbEntity
  8
LAY-5
  6
DASHDOT
 62
     1
100
AcDbLine
 10
208.5
 20
223.0
 30
0.0
 11
189.7
 21
223.0
 31
0.0
  0
LINE
  5
26B
100
AcDbEntity
  8
LAY-5
  6
DASHDOT
 62
     1
100
AcDbLine
 10
128.0
 20
363.3
 30
0.0
 11
128.0
 21
278.1
 31
0.0
  0
LINE
  5
26C
100
AcDbEntity
  8
LAY-5
  6
DASHDOT
 62
     1
100
AcDbLine
 10
110.3
 20
106.809525
 30
0.0
 11
88.3
 21
106.809525
 31
0.0
  0
LINE
  5
26D
100
AcDbEntity
  8
LAY-5
  6
DASHDOT
 62
     1
100
AcDbLine
 10
110.3
 20
96.809525
 30
0.0
 11
88.8
 21
96.809525
 31
0.0
  0
LINE
  5
26E
100
AcDbEntity
  8
LAY-5
  6
DASHDOT
 62
     1
100
AcDbLine
 10
194.0
 20
217.0
 30
0.0
 11
167.7
 21
217.0
 31
0.0
  0
LINE
  5
26F
100
AcDbEntity
  8
LAY-5
  6
DASHDOT
 62
     1
100
AcDbLine
 10
159.2
 20
223.0
 30
0.0
 11
141.8
 21
223.0
 31
0.0
  0
LINE
  5
270
100
AcDbEntity
  8
LAY-5
  6
DASHDOT
 62
     1
100
AcDbLine
 10
138.3
 20
217.0
 30
0.0
 11
123.2
 21
217.0
 31
0.0
  0
LINE
  5
271
100
AcDbEntity
  8
LAY-5
  6
DASHDOT
 62
     1
100
AcDbLine
 10
131.0
 20
209.0
 30
0.0
 11
131.0
 21
226.3
 31
0.0
  0
LINE
  5
272
100
AcDbEntity
  8
LAY-5
  6
DASHDOT
 62
     1
100
AcDbLine
 10
151.0
 20
214.8
 30
0.0
 11
151.0
 21
231.1
 31
0.0
  0
LINE
  5
273
100
AcDbEntity
  8
LAY-5
  6
DASHDOT
 62
     1
100
AcDbLine
 10
181.0
 20
210.0
 30
0.0
 11
181.0
 21
224.2
 31
0.0
  0
LINE
  5
274
100
AcDbEntity
  8
LAY-5
  6
DASHDOT
 62
     1
100
AcDbLine
 10
201.0
 20
216.2
 30
0.0
 11
201.0
 21
230.0
 31
0.0
  0
LINE
  5
275
100
AcDbEntity
  8
LAY-5
  6
DASHDOT
 62
     1
100
AcDbLine
 10
128.0
 20
186.0
 30
0.0
 11
111.707881
 21
192.45861
 31
0.0
  0
LINE
  5
276
100
AcDbEntity
  8
LAY-5
  6
DASHDOT
 62
     1
100
AcDbLine
 10
101.5
 20
306.0
 30
0.0
 11
182.0
 21
306.0
 31
0.0
  0
LINE
  5
277
100
AcDbEntity
  8
LAY-5
  6
DASHDOT
 62
     1
100
AcDbLine
 10
103.1
 20
186.0
 30
0.0
 11
171.7
 21
186.0
 31
0.0
  0
LINE
  5
278
100
AcDbEntity
  8
LAY-5
  6
DASHDOT
 62
     1
100
AcDbLine
 10
128.5
 20
90.7
 30
0.0
 11
128.5
 21
109.0
 31
0.0
  0
LINE
  5
279
100
AcDbEntity
  8
LAY-5
  6
DASHDOT
 62
     1
100
AcDbLine
 10
148.5
 20
101.0
 30
0.0
 11
148.5
 21
112.7
 31
0.0
  0
LINE
  5
27A
100
AcDbEntity
  8
LAY-5
  6
DASHDOT
 62
     1
100
AcDbLine
 10
178.5
 20
91.4
 30
0.0
 11
178.5
 21
114.0
 31
0.0
  0
LINE
  5
27B
100
AcDbEntity
  8
LAY-5
  6
DASHDOT
 62
     1
100
AcDbLine
 10
198.5
 20
98.4
 30
0.0
 11
198.5
 21
114.0
 31
0.0
  0
LINE
  5
27C
100
AcDbEntity
  8
LAY-5
  6
DASHDOT
 62
     1
100
AcDbLine
 10
156.0
 20
107.0
 30
0.0
 11
141.5
 21
107.0
 31
0.0
  0
LINE
  5
27D
100
AcDbEntity
  8
LAY-5
  6
DASHDOT
 62
     1
100
AcDbLine
 10
194.5
 20
97.0
 30
0.0
 11
170.2
 21
97.0
 31
0.0
  0
LINE
  5
27E
100
AcDbEntity
  8
LAY-5
  6
DASHDOT
 62
     1
100
AcDbLine
 10
137.4
 20
97.0
 30
0.0
 11
118.5
 21
97.0
 31
0.0
  0
LINE
  5
27F
100
AcDbEntity
  8
LAY-5
  6
DASHDOT
 62
     1
100
AcDbLine
 10
206.1
 20
107.0
 30
0.0
 11
188.6
 21
107.0
 31
0.0
  0
LINE
  5
280
100
AcDbEntity
  8
LAY-5
  6
DASHDOT
 62
     1
100
AcDbLine
 10
172.8
 20
66.0
 30
0.0
 11
82.0
 21
66.0
 31
0.0
  0
LINE
  5
281
100
AcDbEntity
  8
LAY-5
  6
DASHDOT
 62
     1
100
AcDbLine
 10
131.0
 20
330.0
 30
0.0
 11
131.0
 21
344.2
 31
0.0
  0
LINE
  5
282
100
AcDbEntity
  8
LAY-5
  6
DASHDOT
 62
     1
100
AcDbLine
 10
151.0
 20
337.3
 30
0.0
 11
151.0
 21
350.0
 31
0.0
  0
LINE
  5
283
100
AcDbEntity
  8
LAY-5
  6
DASHDOT
 62
     1
100
AcDbLine
 10
181.0
 20
331.5
 30
0.0
 11
181.0
 21
343.9
 31
0.0
  0
LINE
  5
284
100
AcDbEntity
  8
LAY-5
  6
DASHDOT
 62
     1
100
AcDbLine
 10
201.0
 20
335.0
 30
0.0
 11
201.0
 21
349.4
 31
0.0
  0
LINE
  5
285
100
AcDbEntity
  8
LAY-5
  6
DASHDOT
 62
     1
100
AcDbLine
 10
137.9
 20
337.0
 30
0.0
 11
124.5
 21
337.0
 31
0.0
  0
LINE
  5
286
100
AcDbEntity
  8
LAY-5
  6
DASHDOT
 62
     1
100
AcDbLine
 10
211.0
 20
343.0
 30
0.0
 11
190.8
 21
343.0
 31
0.0
  0
LINE
  5
287
100
AcDbEntity
  8
LAY-5
  6
DASHDOT
 62
     1
100
AcDbLine
 10
158.8
 20
343.0
 30
0.0
 11
141.7
 21
343.0
 31
0.0
  0
LINE
  5
288
100
AcDbEntity
  8
LAY-5
  6
DASHDOT
 62
     1
100
AcDbLine
 10
194.9
 20
337.0
 30
0.0
 11
172.2
 21
337.0
 31
0.0
  0
LINE
  5
289
100
AcDbEntity
  8
LAY-5
  6
DASHDOT
 62
     1
100
AcDbLine
 10
128.0
 20
66.0
 30
0.0
 11
128.0
 21
21.7
 31
0.0
  0
LINE
  5
28A
100
AcDbEntity
  8
LAY-5
  6
DASHDOT
 62
     1
100
AcDbLine
 10
128.0
 20
36.5
 30
0.0
 11
128.0
 21
87.6
 31
0.0
  0
LINE
  5
28B
100
AcDbEntity
  8
LAY-5
  6
DASHDOT
 62
     1
100
AcDbLine
 10
128.0
 20
234.4
 30
0.0
 11
128.0
 21
162.0
 31
0.0
  0
TEXT
  5
28C
100
AcDbEntity
  8
LAY-6
  6
CONTINUOUS
 62
     2
100
AcDbText
 10
321.2
 20
31.1
 30
0.0
 40
6.0
  1
ピボットヒンジ
 41
0.672
  7
EXCADSTD
 72
     5
 11
354.800001
 21
31.1
 31
0.0
100
AcDbText
  0
CIRCLE
  5
28D
100
AcDbEntity
  8
LAY-6
  6
CONTINUOUS
 62
     2
100
AcDbCircle
 10
572.31
 20
17.018041
 30
0.0
 40
7.351422
  0
TEXT
  5
28E
100
AcDbEntity
  8
LAY-6
  6
CONTINUOUS
 62
     2
100
AcDbText
 10
567.79
 20
18.254172
 30
0.0
 40
5.0
  1
開 発
 41
0.595556
  7
EXCADSTD
 72
     5
 11
577.79
 21
18.254172
 31
0.0
100
AcDbText
  0
LINE
  5
28F
100
AcDbEntity
  8
LAY-6
  6
CONTINUOUS
 62
     2
100
AcDbLine
 10
565.057504
 20
18.22
 30
0.0
 11
579.562496
 21
18.22
 31
0.0
  0
TEXT
  5
290
100
AcDbEntity
  8
LAY-6
  6
CONTINUOUS
 62
     2
100
AcDbText
 10
566.78
 20
10.54
 30
0.0
 40
8.0
  1
筒井
 41
0.672
  7
EXCADSTD
 72
     5
 11
578.51248
 21
10.54
 31
0.0
100
AcDbText
  0
TEXT
  5
291
100
AcDbEntity
  8
LAY-6
  6
CONTINUOUS
 62
     2
100
AcDbText
 10
192.5
 20
211.5
 30
0.0
 40
5.0
  1
７
 50
90.0
 41
0.672
  7
EXCADSTD
 72
     5
 11
192.5
 21
214.7
 31
0.0
100
AcDbText
  0
LINE
  5
292
100
AcDbEntity
  8
LAY-6
  6
CONTINUOUS
 62
     1
100
AcDbLine
 10
193.0
 20
210.0
 30
0.0
 11
193.0
 21
217.0
 31
0.0
  0
LINE
  5
293
100
AcDbEntity
  8
LAY-6
  6
CONTINUOUS
 62
     1
100
AcDbLine
 10
192.666667
 20
212.0
 30
0.0
 11
193.0
 21
210.0
 31
0.0
  0
LINE
  5
294
100
AcDbEntity
  8
LAY-6
  6
CONTINUOUS
 62
     1
100
AcDbLine
 10
193.0
 20
210.0
 30
0.0
 11
193.333333
 21
212.0
 31
0.0
  0
LINE
  5
295
100
AcDbEntity
  8
LAY-6
  6
CONTINUOUS
 62
     1
100
AcDbLine
 10
193.333333
 20
215.0
 30
0.0
 11
193.0
 21
217.0
 31
0.0
  0
LINE
  5
296
100
AcDbEntity
  8
LAY-6
  6
CONTINUOUS
 62
     1
100
AcDbLine
 10
193.0
 20
217.0
 30
0.0
 11
192.666667
 21
215.0
 31
0.0
  0
TEXT
  5
297
100
AcDbEntity
  8
LAY-6
  6
CONTINUOUS
 62
     2
100
AcDbText
 10
192.5
 20
218.0
 30
0.0
 40
5.0
  1
６
 50
90.0
 41
0.672
  7
EXCADSTD
 72
     5
 11
192.5
 21
221.2
 31
0.0
100
AcDbText
  0
LINE
  5
298
100
AcDbEntity
  8
LAY-6
  6
CONTINUOUS
 62
     1
100
AcDbLine
 10
193.0
 20
217.0
 30
0.0
 11
193.0
 21
228.0
 31
0.0
  0
LINE
  5
299
100
AcDbEntity
  8
LAY-6
  6
CONTINUOUS
 62
     1
100
AcDbLine
 10
192.666667
 20
225.0
 30
0.0
 11
193.0
 21
223.0
 31
0.0
  0
LINE
  5
29A
100
AcDbEntity
  8
LAY-6
  6
CONTINUOUS
 62
     1
100
AcDbLine
 10
193.0
 20
223.0
 30
0.0
 11
193.333333
 21
225.0
 31
0.0
  0
LINE
  5
29B
100
AcDbEntity
  8
LAY-6
  6
CONTINUOUS
 62
     1
100
AcDbLine
 10
112.0
 20
231.8
 30
0.0
 11
112.0
 21
228.9
 31
0.0
  0
LINE
  5
29C
100
AcDbEntity
  8
LAY-6
  6
CONTINUOUS
 62
     1
100
AcDbLine
 10
128.0
 20
231.8
 30
0.0
 11
128.0
 21
228.9
 31
0.0
  0
TEXT
  5
29D
100
AcDbEntity
  8
LAY-6
  6
CONTINUOUS
 62
     2
100
AcDbText
 10
116.8
 20
230.9
 30
0.0
 40
5.0
  1
１６
 41
0.672
  7
EXCADSTD
 72
     5
 11
124.1328
 21
230.9
 31
0.0
100
AcDbText
  0
LINE
  5
29E
100
AcDbEntity
  8
LAY-6
  6
CONTINUOUS
 62
     1
100
AcDbLine
 10
112.0
 20
230.4
 30
0.0
 11
128.0
 21
230.4
 31
0.0
  0
LINE
  5
29F
100
AcDbEntity
  8
LAY-6
  6
CONTINUOUS
 62
     1
100
AcDbLine
 10
114.0
 20
230.733333
 30
0.0
 11
112.0
 21
230.4
 31
0.0
  0
LINE
  5
2A0
100
AcDbEntity
  8
LAY-6
  6
CONTINUOUS
 62
     1
100
AcDbLine
 10
112.0
 20
230.4
 30
0.0
 11
114.0
 21
230.066667
 31
0.0
  0
LINE
  5
2A1
100
AcDbEntity
  8
LAY-6
  6
CONTINUOUS
 62
     1
100
AcDbLine
 10
126.0
 20
230.066667
 30
0.0
 11
128.0
 21
230.4
 31
0.0
  0
LINE
  5
2A2
100
AcDbEntity
  8
LAY-6
  6
CONTINUOUS
 62
     1
100
AcDbLine
 10
128.0
 20
230.4
 30
0.0
 11
126.0
 21
230.733333
 31
0.0
  0
LINE
  5
2A3
100
AcDbEntity
  8
LAY-6
  6
CONTINUOUS
 62
     1
100
AcDbLine
 10
320.0
 20
293.0
 30
0.0
 11
320.0
 21
278.8
 31
0.0
  0
LINE
  5
2A4
100
AcDbEntity
  8
LAY-6
  6
CONTINUOUS
 62
     1
100
AcDbLine
 10
338.0
 20
294.5
 30
0.0
 11
338.0
 21
278.8
 31
0.0
  0
TEXT
  5
2A5
100
AcDbEntity
  8
LAY-6
  6
CONTINUOUS
 62
     2
100
AcDbText
 10
325.0
 20
280.8
 30
0.0
 40
5.0
  1
１８
 41
0.672
  7
EXCADSTD
 72
     5
 11
332.3328
 21
280.8
 31
0.0
100
AcDbText
  0
LINE
  5
2A6
100
AcDbEntity
  8
LAY-6
  6
CONTINUOUS
 62
     1
100
AcDbLine
 10
320.0
 20
280.3
 30
0.0
 11
338.0
 21
280.3
 31
0.0
  0
LINE
  5
2A7
100
AcDbEntity
  8
LAY-6
  6
CONTINUOUS
 62
     1
100
AcDbLine
 10
322.0
 20
280.633333
 30
0.0
 11
320.0
 21
280.3
 31
0.0
  0
LINE
  5
2A8
100
AcDbEntity
  8
LAY-6
  6
CONTINUOUS
 62
     1
100
AcDbLine
 10
320.0
 20
280.3
 30
0.0
 11
322.0
 21
279.966667
 31
0.0
  0
LINE
  5
2A9
100
AcDbEntity
  8
LAY-6
  6
CONTINUOUS
 62
     1
100
AcDbLine
 10
336.0
 20
279.966667
 30
0.0
 11
338.0
 21
280.3
 31
0.0
  0
LINE
  5
2AA
100
AcDbEntity
  8
LAY-6
  6
CONTINUOUS
 62
     1
100
AcDbLine
 10
338.0
 20
280.3
 30
0.0
 11
336.0
 21
280.633333
 31
0.0
  0
LINE
  5
2AB
100
AcDbEntity
  8
LAY-6
  6
CONTINUOUS
 62
     1
100
AcDbLine
 10
364.0
 20
301.5
 30
0.0
 11
364.0
 21
278.8
 31
0.0
  0
TEXT
  5
2AC
100
AcDbEntity
  8
LAY-6
  6
CONTINUOUS
 62
     2
100
AcDbText
 10
347.0
 20
280.8
 30
0.0
 40
5.0
  1
２６
 41
0.672
  7
EXCADSTD
 72
     5
 11
354.3328
 21
280.8
 31
0.0
100
AcDbText
  0
LINE
  5
2AD
100
AcDbEntity
  8
LAY-6
  6
CONTINUOUS
 62
     1
100
AcDbLine
 10
338.0
 20
280.3
 30
0.0
 11
364.0
 21
280.3
 31
0.0
  0
LINE
  5
2AE
100
AcDbEntity
  8
LAY-6
  6
CONTINUOUS
 62
     1
100
AcDbLine
 10
340.0
 20
280.633333
 30
0.0
 11
338.0
 21
280.3
 31
0.0
  0
LINE
  5
2AF
100
AcDbEntity
  8
LAY-6
  6
CONTINUOUS
 62
     1
100
AcDbLine
 10
338.0
 20
280.3
 30
0.0
 11
340.0
 21
279.966667
 31
0.0
  0
LINE
  5
2B0
100
AcDbEntity
  8
LAY-6
  6
CONTINUOUS
 62
     1
100
AcDbLine
 10
362.0
 20
279.966667
 30
0.0
 11
364.0
 21
280.3
 31
0.0
  0
LINE
  5
2B1
100
AcDbEntity
  8
LAY-6
  6
CONTINUOUS
 62
     1
100
AcDbLine
 10
364.0
 20
280.3
 30
0.0
 11
362.0
 21
280.633333
 31
0.0
  0
LINE
  5
2B2
100
AcDbEntity
  8
LAY-6
  6
CONTINUOUS
 62
     1
100
AcDbLine
 10
320.0
 20
331.5
 30
0.0
 11
320.0
 21
350.0
 31
0.0
  0
LINE
  5
2B3
100
AcDbEntity
  8
LAY-6
  6
CONTINUOUS
 62
     1
100
AcDbLine
 10
335.0
 20
331.5
 30
0.0
 11
335.0
 21
350.0
 31
0.0
  0
TEXT
  5
2B4
100
AcDbEntity
  8
LAY-6
  6
CONTINUOUS
 62
     2
100
AcDbText
 10
323.5
 20
349.0
 30
0.0
 40
5.0
  1
１５
 41
0.672
  7
EXCADSTD
 72
     5
 11
330.8328
 21
349.0
 31
0.0
100
AcDbText
  0
LINE
  5
2B5
100
AcDbEntity
  8
LAY-6
  6
CONTINUOUS
 62
     1
100
AcDbLine
 10
320.0
 20
348.5
 30
0.0
 11
335.0
 21
348.5
 31
0.0
  0
LINE
  5
2B6
100
AcDbEntity
  8
LAY-6
  6
CONTINUOUS
 62
     1
100
AcDbLine
 10
322.0
 20
348.833333
 30
0.0
 11
320.0
 21
348.5
 31
0.0
  0
LINE
  5
2B7
100
AcDbEntity
  8
LAY-6
  6
CONTINUOUS
 62
     1
100
AcDbLine
 10
320.0
 20
348.5
 30
0.0
 11
322.0
 21
348.166667
 31
0.0
  0
LINE
  5
2B8
100
AcDbEntity
  8
LAY-6
  6
CONTINUOUS
 62
     1
100
AcDbLine
 10
333.0
 20
348.166667
 30
0.0
 11
335.0
 21
348.5
 31
0.0
  0
LINE
  5
2B9
100
AcDbEntity
  8
LAY-6
  6
CONTINUOUS
 62
     1
100
AcDbLine
 10
335.0
 20
348.5
 30
0.0
 11
333.0
 21
348.833333
 31
0.0
  0
LINE
  5
2BA
100
AcDbEntity
  8
LAY-6
  6
CONTINUOUS
 62
     1
100
AcDbLine
 10
364.0
 20
330.0
 30
0.0
 11
364.0
 21
350.0
 31
0.0
  0
TEXT
  5
2BB
100
AcDbEntity
  8
LAY-6
  6
CONTINUOUS
 62
     2
100
AcDbText
 10
345.5
 20
349.0
 30
0.0
 40
5.0
  1
２９
 41
0.672
  7
EXCADSTD
 72
     5
 11
352.8328
 21
349.0
 31
0.0
100
AcDbText
  0
LINE
  5
2BC
100
AcDbEntity
  8
LAY-6
  6
CONTINUOUS
 62
     1
100
AcDbLine
 10
335.0
 20
348.5
 30
0.0
 11
364.0
 21
348.5
 31
0.0
  0
LINE
  5
2BD
100
AcDbEntity
  8
LAY-6
  6
CONTINUOUS
 62
     1
100
AcDbLine
 10
337.0
 20
348.833333
 30
0.0
 11
335.0
 21
348.5
 31
0.0
  0
LINE
  5
2BE
100
AcDbEntity
  8
LAY-6
  6
CONTINUOUS
 62
     1
100
AcDbLine
 10
335.0
 20
348.5
 30
0.0
 11
337.0
 21
348.166667
 31
0.0
  0
LINE
  5
2BF
100
AcDbEntity
  8
LAY-6
  6
CONTINUOUS
 62
     1
100
AcDbLine
 10
362.0
 20
348.166667
 30
0.0
 11
364.0
 21
348.5
 31
0.0
  0
LINE
  5
2C0
100
AcDbEntity
  8
LAY-6
  6
CONTINUOUS
 62
     1
100
AcDbLine
 10
364.0
 20
348.5
 30
0.0
 11
362.0
 21
348.833333
 31
0.0
  0
LINE
  5
2C1
100
AcDbEntity
  8
LAY-6
  6
CONTINUOUS
 62
     1
100
AcDbLine
 10
305.0
 20
331.0
 30
0.0
 11
287.8
 21
331.0
 31
0.0
  0
LINE
  5
2C2
100
AcDbEntity
  8
LAY-6
  6
CONTINUOUS
 62
     1
100
AcDbLine
 10
305.0
 20
315.0
 30
0.0
 11
287.8
 21
315.0
 31
0.0
  0
TEXT
  5
2C3
100
AcDbEntity
  8
LAY-6
  6
CONTINUOUS
 62
     2
100
AcDbText
 10
288.8
 20
319.0
 30
0.0
 40
5.0
  1
１６
 50
90.0
 41
0.672
  7
EXCADSTD
 72
     5
 11
288.8
 21
326.3328
 31
0.0
100
AcDbText
  0
LINE
  5
2C4
100
AcDbEntity
  8
LAY-6
  6
CONTINUOUS
 62
     1
100
AcDbLine
 10
289.3
 20
331.0
 30
0.0
 11
289.3
 21
315.0
 31
0.0
  0
LINE
  5
2C5
100
AcDbEntity
  8
LAY-6
  6
CONTINUOUS
 62
     1
100
AcDbLine
 10
289.633333
 20
329.0
 30
0.0
 11
289.3
 21
331.0
 31
0.0
  0
LINE
  5
2C6
100
AcDbEntity
  8
LAY-6
  6
CONTINUOUS
 62
     1
100
AcDbLine
 10
289.3
 20
331.0
 30
0.0
 11
288.966667
 21
329.0
 31
0.0
  0
LINE
  5
2C7
100
AcDbEntity
  8
LAY-6
  6
CONTINUOUS
 62
     1
100
AcDbLine
 10
288.966667
 20
317.0
 30
0.0
 11
289.3
 21
315.0
 31
0.0
  0
LINE
  5
2C8
100
AcDbEntity
  8
LAY-6
  6
CONTINUOUS
 62
     1
100
AcDbLine
 10
289.3
 20
315.0
 30
0.0
 11
289.633333
 21
317.0
 31
0.0
  0
LINE
  5
2C9
100
AcDbEntity
  8
LAY-6
  6
CONTINUOUS
 62
     1
100
AcDbLine
 10
304.0
 20
311.0
 30
0.0
 11
287.8
 21
311.0
 31
0.0
  0
LINE
  5
2CA
100
AcDbEntity
  8
LAY-6
  6
CONTINUOUS
 62
     1
100
AcDbLine
 10
305.0
 20
295.0
 30
0.0
 11
287.8
 21
295.0
 31
0.0
  0
TEXT
  5
2CB
100
AcDbEntity
  8
LAY-6
  6
CONTINUOUS
 62
     2
100
AcDbText
 10
288.8
 20
299.0
 30
0.0
 40
5.0
  1
１６
 50
90.0
 41
0.672
  7
EXCADSTD
 72
     5
 11
288.8
 21
306.3328
 31
0.0
100
AcDbText
  0
LINE
  5
2CC
100
AcDbEntity
  8
LAY-6
  6
CONTINUOUS
 62
     1
100
AcDbLine
 10
289.3
 20
311.0
 30
0.0
 11
289.3
 21
295.0
 31
0.0
  0
LINE
  5
2CD
100
AcDbEntity
  8
LAY-6
  6
CONTINUOUS
 62
     1
100
AcDbLine
 10
289.633333
 20
309.0
 30
0.0
 11
289.3
 21
311.0
 31
0.0
  0
LINE
  5
2CE
100
AcDbEntity
  8
LAY-6
  6
CONTINUOUS
 62
     1
100
AcDbLine
 10
289.3
 20
311.0
 30
0.0
 11
288.966667
 21
309.0
 31
0.0
  0
LINE
  5
2CF
100
AcDbEntity
  8
LAY-6
  6
CONTINUOUS
 62
     1
100
AcDbLine
 10
288.966667
 20
297.0
 30
0.0
 11
289.3
 21
295.0
 31
0.0
  0
LINE
  5
2D0
100
AcDbEntity
  8
LAY-6
  6
CONTINUOUS
 62
     1
100
AcDbLine
 10
289.3
 20
295.0
 30
0.0
 11
289.633333
 21
297.0
 31
0.0
  0
LINE
  5
2D1
100
AcDbEntity
  8
LAY-6
  6
CONTINUOUS
 62
     1
100
AcDbLine
 10
337.5
 20
302.0
 30
0.0
 11
332.9
 21
302.0
 31
0.0
  0
TEXT
  5
2D2
100
AcDbEntity
  8
LAY-6
  6
CONTINUOUS
 62
     2
100
AcDbText
 10
333.9
 20
304.5
 30
0.0
 40
5.0
  1
９
 50
90.0
 41
0.672
  7
EXCADSTD
 72
     5
 11
333.9
 21
307.7
 31
0.0
100
AcDbText
  0
LINE
  5
2D3
100
AcDbEntity
  8
LAY-6
  6
CONTINUOUS
 62
     1
100
AcDbLine
 10
334.4
 20
311.0
 30
0.0
 11
334.4
 21
302.0
 31
0.0
  0
LINE
  5
2D4
100
AcDbEntity
  8
LAY-6
  6
CONTINUOUS
 62
     1
100
AcDbLine
 10
334.733333
 20
309.0
 30
0.0
 11
334.4
 21
311.0
 31
0.0
  0
LINE
  5
2D5
100
AcDbEntity
  8
LAY-6
  6
CONTINUOUS
 62
     1
100
AcDbLine
 10
334.4
 20
311.0
 30
0.0
 11
334.066667
 21
309.0
 31
0.0
  0
LINE
  5
2D6
100
AcDbEntity
  8
LAY-6
  6
CONTINUOUS
 62
     1
100
AcDbLine
 10
334.066667
 20
304.0
 30
0.0
 11
334.4
 21
302.0
 31
0.0
  0
LINE
  5
2D7
100
AcDbEntity
  8
LAY-6
  6
CONTINUOUS
 62
     1
100
AcDbLine
 10
334.4
 20
302.0
 30
0.0
 11
334.733333
 21
304.0
 31
0.0
  0
LINE
  5
2D8
100
AcDbEntity
  8
LAY-6
  6
CONTINUOUS
 62
     1
100
AcDbLine
 10
364.5
 20
329.5
 30
0.0
 11
410.7
 21
329.5
 31
0.0
  0
TEXT
  5
2D9
100
AcDbEntity
  8
LAY-6
  6
CONTINUOUS
 62
     2
100
AcDbText
 10
408.5
 20
324.0
 30
0.0
 40
5.0
  1
９
 50
90.0
 41
0.672
  7
EXCADSTD
 72
     5
 11
408.5
 21
327.2
 31
0.0
100
AcDbText
  0
LINE
  5
2DA
100
AcDbEntity
  8
LAY-6
  6
CONTINUOUS
 62
     1
100
AcDbLine
 10
409.2
 20
315.5
 30
0.0
 11
409.2
 21
336.0
 31
0.0
  0
LINE
  5
2DB
100
AcDbEntity
  8
LAY-6
  6
CONTINUOUS
 62
     1
100
AcDbLine
 10
408.866667
 20
331.5
 30
0.0
 11
409.2
 21
329.5
 31
0.0
  0
LINE
  5
2DC
100
AcDbEntity
  8
LAY-6
  6
CONTINUOUS
 62
     1
100
AcDbLine
 10
409.2
 20
329.5
 30
0.0
 11
409.533333
 21
331.5
 31
0.0
  0
LINE
  5
2DD
100
AcDbEntity
  8
LAY-6
  6
CONTINUOUS
 62
     1
100
AcDbLine
 10
380.0
 20
320.5
 30
0.0
 11
410.7
 21
320.5
 31
0.0
  0
TEXT
  5
2DE
100
AcDbEntity
  8
LAY-6
  6
CONTINUOUS
 62
     2
100
AcDbText
 10
415.8
 20
312.0
 30
0.0
 40
5.0
  1
６.５
 50
90.0
 41
0.595556
  7
EXCADSTD
 72
     5
 11
415.8
 21
322.0
 31
0.0
100
AcDbText
  0
LINE
  5
2DF
100
AcDbEntity
  8
LAY-6
  6
CONTINUOUS
 62
     1
100
AcDbLine
 10
409.2
 20
309.0
 30
0.0
 11
409.2
 21
323.5
 31
0.0
  0
CIRCLE
  5
2E0
100
AcDbEntity
  8
LAY-6
  6
CONTINUOUS
 62
     1
100
AcDbCircle
 10
409.2
 20
314.0
 30
0.0
 40
0.5
  0
CIRCLE
  5
2E1
100
AcDbEntity
  8
LAY-6
  6
CONTINUOUS
 62
     1
100
AcDbCircle
 10
409.2
 20
314.0
 30
0.0
 40
0.25
  0
CIRCLE
  5
2E2
100
AcDbEntity
  8
LAY-6
  6
CONTINUOUS
 62
     1
100
AcDbCircle
 10
409.2
 20
320.5
 30
0.0
 40
0.5
  0
CIRCLE
  5
2E3
100
AcDbEntity
  8
LAY-6
  6
CONTINUOUS
 62
     1
100
AcDbCircle
 10
409.2
 20
320.5
 30
0.0
 40
0.25
  0
LINE
  5
2E4
100
AcDbEntity
  8
LAY-6
  6
CONTINUOUS
 62
     1
100
AcDbLine
 10
381.5
 20
314.0
 30
0.0
 11
411.0
 21
314.0
 31
0.0
  0
TEXT
  5
2E5
100
AcDbEntity
  8
LAY-6
  6
CONTINUOUS
 62
     2
100
AcDbText
 10
408.5
 20
306.7
 30
0.0
 40
5.0
  1
３
 50
90.0
 41
0.672
  7
EXCADSTD
 72
     5
 11
408.5
 21
309.9
 31
0.0
100
AcDbText
  0
TEXT
  5
2E6
100
AcDbEntity
  8
LAY-6
  6
CONTINUOUS
 62
     2
100
AcDbText
 10
408.7
 20
224.5
 30
0.0
 40
5.0
  1
ＤＨ
 50
90.0
 41
0.672
  7
EXCADSTD
 72
     5
 11
408.7
 21
231.8328
 31
0.0
100
AcDbText
  0
LINE
  5
2E7
100
AcDbEntity
  8
LAY-6
  6
CONTINUOUS
 62
     1
100
AcDbLine
 10
372.4
 20
311.0
 30
0.0
 11
410.7
 21
311.0
 31
0.0
  0
LINE
  5
2E8
100
AcDbEntity
  8
LAY-6
  6
CONTINUOUS
 62
     1
100
AcDbLine
 10
118.5
 20
104.5
 30
0.0
 11
118.5
 21
142.2
 31
0.0
  0
LINE
  5
2E9
100
AcDbEntity
  8
LAY-6
  6
CONTINUOUS
 62
     1
100
AcDbLine
 10
208.5
 20
109.5
 30
0.0
 11
208.5
 21
142.2
 31
0.0
  0
TEXT
  5
2EA
100
AcDbEntity
  8
LAY-6
  6
CONTINUOUS
 62
     2
100
AcDbText
 10
159.5
 20
141.2
 30
0.0
 40
5.0
  1
９０
 41
0.672
  7
EXCADSTD
 72
     5
 11
166.8328
 21
141.2
 31
0.0
100
AcDbText
  0
LINE
  5
2EB
100
AcDbEntity
  8
LAY-6
  6
CONTINUOUS
 62
     1
100
AcDbLine
 10
118.5
 20
140.7
 30
0.0
 11
208.5
 21
140.7
 31
0.0
  0
LINE
  5
2EC
100
AcDbEntity
  8
LAY-6
  6
CONTINUOUS
 62
     1
100
AcDbLine
 10
120.5
 20
141.033333
 30
0.0
 11
118.5
 21
140.7
 31
0.0
  0
LINE
  5
2ED
100
AcDbEntity
  8
LAY-6
  6
CONTINUOUS
 62
     1
100
AcDbLine
 10
118.5
 20
140.7
 30
0.0
 11
120.5
 21
140.366667
 31
0.0
  0
LINE
  5
2EE
100
AcDbEntity
  8
LAY-6
  6
CONTINUOUS
 62
     1
100
AcDbLine
 10
206.5
 20
140.366667
 30
0.0
 11
208.5
 21
140.7
 31
0.0
  0
LINE
  5
2EF
100
AcDbEntity
  8
LAY-6
  6
CONTINUOUS
 62
     1
100
AcDbLine
 10
208.5
 20
140.7
 30
0.0
 11
206.5
 21
141.033333
 31
0.0
  0
TEXT
  5
2F0
100
AcDbEntity
  8
LAY-6
  6
CONTINUOUS
 62
     2
100
AcDbText
 10
189.8
 20
91.5
 30
0.0
 40
5.0
  1
７
 50
90.0
 41
0.672
  7
EXCADSTD
 72
     5
 11
189.8
 21
94.7
 31
0.0
100
AcDbText
  0
LINE
  5
2F1
100
AcDbEntity
  8
LAY-6
  6
CONTINUOUS
 62
     1
100
AcDbLine
 10
190.3
 20
90.0
 30
0.0
 11
190.3
 21
97.0
 31
0.0
  0
LINE
  5
2F2
100
AcDbEntity
  8
LAY-6
  6
CONTINUOUS
 62
     1
100
AcDbLine
 10
189.966667
 20
92.0
 30
0.0
 11
190.3
 21
90.0
 31
0.0
  0
LINE
  5
2F3
100
AcDbEntity
  8
LAY-6
  6
CONTINUOUS
 62
     1
100
AcDbLine
 10
190.3
 20
90.0
 30
0.0
 11
190.633333
 21
92.0
 31
0.0
  0
LINE
  5
2F4
100
AcDbEntity
  8
LAY-6
  6
CONTINUOUS
 62
     1
100
AcDbLine
 10
190.633333
 20
95.0
 30
0.0
 11
190.3
 21
97.0
 31
0.0
  0
LINE
  5
2F5
100
AcDbEntity
  8
LAY-6
  6
CONTINUOUS
 62
     1
100
AcDbLine
 10
190.3
 20
97.0
 30
0.0
 11
189.966667
 21
95.0
 31
0.0
  0
TEXT
  5
2F6
100
AcDbEntity
  8
LAY-6
  6
CONTINUOUS
 62
     2
100
AcDbText
 10
189.8
 20
98.0
 30
0.0
 40
5.0
  1
１０
 50
90.0
 41
0.672
  7
EXCADSTD
 72
     5
 11
189.8
 21
105.3328
 31
0.0
100
AcDbText
  0
LINE
  5
2F7
100
AcDbEntity
  8
LAY-6
  6
CONTINUOUS
 62
     1
100
AcDbLine
 10
190.3
 20
97.0
 30
0.0
 11
190.3
 21
107.0
 31
0.0
  0
LINE
  5
2F8
100
AcDbEntity
  8
LAY-6
  6
CONTINUOUS
 62
     1
100
AcDbLine
 10
189.966667
 20
99.0
 30
0.0
 11
190.3
 21
97.0
 31
0.0
  0
LINE
  5
2F9
100
AcDbEntity
  8
LAY-6
  6
CONTINUOUS
 62
     1
100
AcDbLine
 10
190.3
 20
97.0
 30
0.0
 11
190.633333
 21
99.0
 31
0.0
  0
LINE
  5
2FA
100
AcDbEntity
  8
LAY-6
  6
CONTINUOUS
 62
     1
100
AcDbLine
 10
190.633333
 20
105.0
 30
0.0
 11
190.3
 21
107.0
 31
0.0
  0
LINE
  5
2FB
100
AcDbEntity
  8
LAY-6
  6
CONTINUOUS
 62
     1
100
AcDbLine
 10
190.3
 20
107.0
 30
0.0
 11
189.966667
 21
105.0
 31
0.0
  0
LINE
  5
2FC
100
AcDbEntity
  8
LAY-6
  6
CONTINUOUS
 62
     1
100
AcDbLine
 10
112.0
 20
85.6
 30
0.0
 11
112.0
 21
72.1
 31
0.0
  0
LINE
  5
2FD
100
AcDbEntity
  8
LAY-6
  6
CONTINUOUS
 62
     1
100
AcDbLine
 10
128.0
 20
75.4
 30
0.0
 11
128.0
 21
72.1
 31
0.0
  0
TEXT
  5
2FE
100
AcDbEntity
  8
LAY-6
  6
CONTINUOUS
 62
     2
100
AcDbText
 10
116.0
 20
74.1
 30
0.0
 40
5.0
  1
１６
 41
0.672
  7
EXCADSTD
 72
     5
 11
123.3328
 21
74.1
 31
0.0
100
AcDbText
  0
LINE
  5
2FF
100
AcDbEntity
  8
LAY-6
  6
CONTINUOUS
 62
     1
100
AcDbLine
 10
112.0
 20
73.6
 30
0.0
 11
128.0
 21
73.6
 31
0.0
  0
LINE
  5
300
100
AcDbEntity
  8
LAY-6
  6
CONTINUOUS
 62
     1
100
AcDbLine
 10
114.0
 20
73.933333
 30
0.0
 11
112.0
 21
73.6
 31
0.0
  0
LINE
  5
301
100
AcDbEntity
  8
LAY-6
  6
CONTINUOUS
 62
     1
100
AcDbLine
 10
112.0
 20
73.6
 30
0.0
 11
114.0
 21
73.266667
 31
0.0
  0
LINE
  5
302
100
AcDbEntity
  8
LAY-6
  6
CONTINUOUS
 62
     1
100
AcDbLine
 10
126.0
 20
73.266667
 30
0.0
 11
128.0
 21
73.6
 31
0.0
  0
LINE
  5
303
100
AcDbEntity
  8
LAY-6
  6
CONTINUOUS
 62
     1
100
AcDbLine
 10
128.0
 20
73.6
 30
0.0
 11
126.0
 21
73.933333
 31
0.0
  0
LINE
  5
304
100
AcDbEntity
  8
LAY-6
  6
CONTINUOUS
 62
     1
100
AcDbLine
 10
94.5
 20
114.309525
 30
0.0
 11
94.5
 21
151.2
 31
0.0
  0
LINE
  5
305
100
AcDbEntity
  8
LAY-6
  6
CONTINUOUS
 62
     1
100
AcDbLine
 10
102.5
 20
124.1
 30
0.0
 11
102.5
 21
151.2
 31
0.0
  0
TEXT
  5
306
100
AcDbEntity
  8
LAY-6
  6
CONTINUOUS
 62
     2
100
AcDbText
 10
88.9
 20
150.4
 30
0.0
 40
5.0
  1
８
 41
0.672
  7
EXCADSTD
 72
     5
 11
92.1
 21
150.4
 31
0.0
100
AcDbText
  0
LINE
  5
307
100
AcDbEntity
  8
LAY-6
  6
CONTINUOUS
 62
     1
100
AcDbLine
 10
86.7
 20
149.7
 30
0.0
 11
102.5
 21
149.7
 31
0.0
  0
LINE
  5
308
100
AcDbEntity
  8
LAY-6
  6
CONTINUOUS
 62
     1
100
AcDbLine
 10
96.5
 20
150.033333
 30
0.0
 11
94.5
 21
149.7
 31
0.0
  0
LINE
  5
309
100
AcDbEntity
  8
LAY-6
  6
CONTINUOUS
 62
     1
100
AcDbLine
 10
94.5
 20
149.7
 30
0.0
 11
96.5
 21
149.366667
 31
0.0
  0
LINE
  5
30A
100
AcDbEntity
  8
LAY-6
  6
CONTINUOUS
 62
     1
100
AcDbLine
 10
100.5
 20
149.366667
 30
0.0
 11
102.5
 21
149.7
 31
0.0
  0
LINE
  5
30B
100
AcDbEntity
  8
LAY-6
  6
CONTINUOUS
 62
     1
100
AcDbLine
 10
102.5
 20
149.7
 30
0.0
 11
100.5
 21
150.033333
 31
0.0
  0
LINE
  5
30C
100
AcDbEntity
  8
LAY-6
  6
CONTINUOUS
 62
     1
100
AcDbLine
 10
109.0
 20
122.5
 30
0.0
 11
109.0
 21
151.2
 31
0.0
  0
TEXT
  5
30D
100
AcDbEntity
  8
LAY-6
  6
CONTINUOUS
 62
     2
100
AcDbText
 10
100.75
 20
150.2
 30
0.0
 40
5.0
  1
６.５
 41
0.595556
  7
EXCADSTD
 72
     5
 11
110.75
 21
150.2
 31
0.0
100
AcDbText
  0
LINE
  5
30E
100
AcDbEntity
  8
LAY-6
  6
CONTINUOUS
 62
     1
100
AcDbLine
 10
102.5
 20
149.7
 30
0.0
 11
109.0
 21
149.7
 31
0.0
  0
LINE
  5
30F
100
AcDbEntity
  8
LAY-6
  6
CONTINUOUS
 62
     1
100
AcDbLine
 10
112.0
 20
118.9
 30
0.0
 11
112.0
 21
151.2
 31
0.0
  0
TEXT
  5
310
100
AcDbEntity
  8
LAY-6
  6
CONTINUOUS
 62
     2
100
AcDbText
 10
113.4
 20
150.4
 30
0.0
 40
5.0
  1
３
 41
0.672
  7
EXCADSTD
 72
     5
 11
116.6
 21
150.4
 31
0.0
100
AcDbText
  0
LINE
  5
311
100
AcDbEntity
  8
LAY-6
  6
CONTINUOUS
 62
     1
100
AcDbLine
 10
109.0
 20
149.7
 30
0.0
 11
117.0
 21
149.7
 31
0.0
  0
CIRCLE
  5
312
100
AcDbEntity
  8
LAY-6
  6
CONTINUOUS
 62
     1
100
AcDbCircle
 10
109.0
 20
149.7
 30
0.0
 40
0.5
  0
CIRCLE
  5
313
100
AcDbEntity
  8
LAY-6
  6
CONTINUOUS
 62
     1
100
AcDbCircle
 10
109.0
 20
149.7
 30
0.0
 40
0.25
  0
LINE
  5
314
100
AcDbEntity
  8
LAY-6
  6
CONTINUOUS
 62
     1
100
AcDbLine
 10
114.0
 20
150.033333
 30
0.0
 11
112.0
 21
149.7
 31
0.0
  0
LINE
  5
315
100
AcDbEntity
  8
LAY-6
  6
CONTINUOUS
 62
     1
100
AcDbLine
 10
112.0
 20
149.7
 30
0.0
 11
114.0
 21
149.366667
 31
0.0
  0
LINE
  5
316
100
AcDbEntity
  8
LAY-6
  6
CONTINUOUS
 62
     1
100
AcDbLine
 10
93.0
 20
50.5
 30
0.0
 11
93.0
 21
26.1
 31
0.0
  0
LINE
  5
317
100
AcDbEntity
  8
LAY-6
  6
CONTINUOUS
 62
     1
100
AcDbLine
 10
128.0
 20
50.5
 30
0.0
 11
128.0
 21
26.1
 31
0.0
  0
TEXT
  5
318
100
AcDbEntity
  8
LAY-6
  6
CONTINUOUS
 62
     2
100
AcDbText
 10
106.5
 20
28.1
 30
0.0
 40
5.0
  1
３５
 41
0.672
  7
EXCADSTD
 72
     5
 11
113.8328
 21
28.1
 31
0.0
100
AcDbText
  0
LINE
  5
319
100
AcDbEntity
  8
LAY-6
  6
CONTINUOUS
 62
     1
100
AcDbLine
 10
93.0
 20
27.6
 30
0.0
 11
128.0
 21
27.6
 31
0.0
  0
LINE
  5
31A
100
AcDbEntity
  8
LAY-6
  6
CONTINUOUS
 62
     1
100
AcDbLine
 10
95.0
 20
27.933333
 30
0.0
 11
93.0
 21
27.6
 31
0.0
  0
LINE
  5
31B
100
AcDbEntity
  8
LAY-6
  6
CONTINUOUS
 62
     1
100
AcDbLine
 10
93.0
 20
27.6
 30
0.0
 11
95.0
 21
27.266667
 31
0.0
  0
LINE
  5
31C
100
AcDbEntity
  8
LAY-6
  6
CONTINUOUS
 62
     1
100
AcDbLine
 10
126.0
 20
27.266667
 30
0.0
 11
128.0
 21
27.6
 31
0.0
  0
LINE
  5
31D
100
AcDbEntity
  8
LAY-6
  6
CONTINUOUS
 62
     1
100
AcDbLine
 10
128.0
 20
27.6
 30
0.0
 11
126.0
 21
27.933333
 31
0.0
  0
TEXT
  5
31E
100
AcDbEntity
  8
LAY-6
  6
CONTINUOUS
 62
     2
100
AcDbText
 10
118.50914
 20
56.386281
 30
0.0
 40
5.0
  1
Ｒ
 50
47.489553
 41
0.672
  7
EXCADSTD
 72
     5
 11
120.671459
 21
58.745175
 31
0.0
100
AcDbText
  0
TEXT
  5
31F
100
AcDbEntity
  8
LAY-6
  6
CONTINUOUS
 62
     2
100
AcDbText
 10
121.212039
 20
59.334898
 30
0.0
 40
5.0
  1
１５
 50
47.489553
 41
0.672
  7
EXCADSTD
 72
     5
 11
126.166993
 21
64.740302
 31
0.0
100
AcDbText
  0
LINE
  5
320
100
AcDbEntity
  8
LAY-6
  6
CONTINUOUS
 62
     1
100
AcDbLine
 10
117.864131
 20
54.942688
 30
0.0
 11
128.0
 21
66.0
 31
0.0
  0
LINE
  5
321
100
AcDbEntity
  8
LAY-6
  6
CONTINUOUS
 62
     1
100
AcDbLine
 10
118.969862
 20
56.642238
 30
0.0
 11
117.864131
 21
54.942688
 31
0.0
  0
LINE
  5
322
100
AcDbEntity
  8
LAY-6
  6
CONTINUOUS
 62
     1
100
AcDbLine
 10
117.864131
 20
54.942688
 30
0.0
 11
119.461298
 21
56.191755
 31
0.0
  0
TEXT
  5
323
100
AcDbEntity
  8
LAY-6
  6
CONTINUOUS
 62
     2
100
AcDbText
 10
112.9
 20
356.4
 30
0.0
 40
5.0
  1
１９
 41
0.672
  7
EXCADSTD
 72
     5
 11
120.2328
 21
356.4
 31
0.0
100
AcDbText
  0
LINE
  5
324
100
AcDbEntity
  8
LAY-6
  6
CONTINUOUS
 62
     1
100
AcDbLine
 10
109.0
 20
356.0
 30
0.0
 11
128.0
 21
356.0
 31
0.0
  0
LINE
  5
325
100
AcDbEntity
  8
LAY-6
  6
CONTINUOUS
 62
     1
100
AcDbLine
 10
111.0
 20
356.333333
 30
0.0
 11
109.0
 21
356.0
 31
0.0
  0
LINE
  5
326
100
AcDbEntity
  8
LAY-6
  6
CONTINUOUS
 62
     1
100
AcDbLine
 10
109.0
 20
356.0
 30
0.0
 11
111.0
 21
355.666667
 31
0.0
  0
LINE
  5
327
100
AcDbEntity
  8
LAY-6
  6
CONTINUOUS
 62
     1
100
AcDbLine
 10
126.0
 20
355.666667
 30
0.0
 11
128.0
 21
356.0
 31
0.0
  0
LINE
  5
328
100
AcDbEntity
  8
LAY-6
  6
CONTINUOUS
 62
     1
100
AcDbLine
 10
128.0
 20
356.0
 30
0.0
 11
126.0
 21
356.333333
 31
0.0
  0
LINE
  5
329
100
AcDbEntity
  8
LAY-6
  6
CONTINUOUS
 62
     1
100
AcDbLine
 10
304.5
 20
138.0
 30
0.0
 11
287.8
 21
138.0
 31
0.0
  0
LINE
  5
32A
100
AcDbEntity
  8
LAY-6
  6
CONTINUOUS
 62
     1
100
AcDbLine
 10
304.5
 20
151.0
 30
0.0
 11
287.8
 21
151.0
 31
0.0
  0
TEXT
  5
32B
100
AcDbEntity
  8
LAY-6
  6
CONTINUOUS
 62
     2
100
AcDbText
 10
288.8
 20
140.5
 30
0.0
 40
5.0
  1
１３
 50
90.0
 41
0.672
  7
EXCADSTD
 72
     5
 11
288.8
 21
147.8328
 31
0.0
100
AcDbText
  0
LINE
  5
32C
100
AcDbEntity
  8
LAY-6
  6
CONTINUOUS
 62
     1
100
AcDbLine
 10
289.3
 20
138.0
 30
0.0
 11
289.3
 21
151.0
 31
0.0
  0
LINE
  5
32D
100
AcDbEntity
  8
LAY-6
  6
CONTINUOUS
 62
     1
100
AcDbLine
 10
288.966667
 20
140.0
 30
0.0
 11
289.3
 21
138.0
 31
0.0
  0
LINE
  5
32E
100
AcDbEntity
  8
LAY-6
  6
CONTINUOUS
 62
     1
100
AcDbLine
 10
289.3
 20
138.0
 30
0.0
 11
289.633333
 21
140.0
 31
0.0
  0
LINE
  5
32F
100
AcDbEntity
  8
LAY-6
  6
CONTINUOUS
 62
     1
100
AcDbLine
 10
289.633333
 20
149.0
 30
0.0
 11
289.3
 21
151.0
 31
0.0
  0
LINE
  5
330
100
AcDbEntity
  8
LAY-6
  6
CONTINUOUS
 62
     1
100
AcDbLine
 10
289.3
 20
151.0
 30
0.0
 11
288.966667
 21
149.0
 31
0.0
  0
LINE
  5
331
100
AcDbEntity
  8
LAY-6
  6
CONTINUOUS
 62
     1
100
AcDbLine
 10
93.0
 20
50.5
 30
0.0
 11
93.0
 21
36.6
 31
0.0
  0
LINE
  5
332
100
AcDbEntity
  8
LAY-6
  6
CONTINUOUS
 62
     1
100
AcDbLine
 10
104.0
 20
50.5
 30
0.0
 11
104.0
 21
36.6
 31
0.0
  0
TEXT
  5
333
100
AcDbEntity
  8
LAY-6
  6
CONTINUOUS
 62
     2
100
AcDbText
 10
94.5
 20
38.6
 30
0.0
 40
5.0
  1
１１
 41
0.672
  7
EXCADSTD
 72
     5
 11
101.8328
 21
38.6
 31
0.0
100
AcDbText
  0
LINE
  5
334
100
AcDbEntity
  8
LAY-6
  6
CONTINUOUS
 62
     1
100
AcDbLine
 10
93.0
 20
38.1
 30
0.0
 11
104.0
 21
38.1
 31
0.0
  0
LINE
  5
335
100
AcDbEntity
  8
LAY-6
  6
CONTINUOUS
 62
     1
100
AcDbLine
 10
95.0
 20
38.433333
 30
0.0
 11
93.0
 21
38.1
 31
0.0
  0
LINE
  5
336
100
AcDbEntity
  8
LAY-6
  6
CONTINUOUS
 62
     1
100
AcDbLine
 10
93.0
 20
38.1
 30
0.0
 11
95.0
 21
37.766667
 31
0.0
  0
LINE
  5
337
100
AcDbEntity
  8
LAY-6
  6
CONTINUOUS
 62
     1
100
AcDbLine
 10
102.0
 20
37.766667
 30
0.0
 11
104.0
 21
38.1
 31
0.0
  0
LINE
  5
338
100
AcDbEntity
  8
LAY-6
  6
CONTINUOUS
 62
     1
100
AcDbLine
 10
104.0
 20
38.1
 30
0.0
 11
102.0
 21
38.433333
 31
0.0
  0
TEXT
  5
339
100
AcDbEntity
  8
LAY-6
  6
CONTINUOUS
 62
     2
100
AcDbText
 10
325.0
 20
179.5
 30
0.0
 40
5.0
  1
１８
 41
0.672
  7
EXCADSTD
 72
     5
 11
332.3328
 21
179.5
 31
0.0
100
AcDbText
  0
LINE
  5
33A
100
AcDbEntity
  8
LAY-6
  6
CONTINUOUS
 62
     1
100
AcDbLine
 10
320.0
 20
179.0
 30
0.0
 11
338.0
 21
179.0
 31
0.0
  0
LINE
  5
33B
100
AcDbEntity
  8
LAY-6
  6
CONTINUOUS
 62
     1
100
AcDbLine
 10
322.0
 20
179.333333
 30
0.0
 11
320.0
 21
179.0
 31
0.0
  0
LINE
  5
33C
100
AcDbEntity
  8
LAY-6
  6
CONTINUOUS
 62
     1
100
AcDbLine
 10
320.0
 20
179.0
 30
0.0
 11
322.0
 21
178.666667
 31
0.0
  0
LINE
  5
33D
100
AcDbEntity
  8
LAY-6
  6
CONTINUOUS
 62
     1
100
AcDbLine
 10
336.0
 20
178.666667
 30
0.0
 11
338.0
 21
179.0
 31
0.0
  0
LINE
  5
33E
100
AcDbEntity
  8
LAY-6
  6
CONTINUOUS
 62
     1
100
AcDbLine
 10
338.0
 20
179.0
 30
0.0
 11
336.0
 21
179.333333
 31
0.0
  0
LINE
  5
33F
100
AcDbEntity
  8
LAY-6
  6
CONTINUOUS
 62
     1
100
AcDbLine
 10
368.0
 20
166.0
 30
0.0
 11
368.0
 21
180.5
 31
0.0
  0
TEXT
  5
340
100
AcDbEntity
  8
LAY-6
  6
CONTINUOUS
 62
     2
100
AcDbText
 10
352.7
 20
179.5
 30
0.0
 40
5.0
  1
３０
 41
0.672
  7
EXCADSTD
 72
     5
 11
360.0328
 21
179.5
 31
0.0
100
AcDbText
  0
LINE
  5
341
100
AcDbEntity
  8
LAY-6
  6
CONTINUOUS
 62
     1
100
AcDbLine
 10
338.0
 20
179.0
 30
0.0
 11
368.0
 21
179.0
 31
0.0
  0
LINE
  5
342
100
AcDbEntity
  8
LAY-6
  6
CONTINUOUS
 62
     1
100
AcDbLine
 10
340.0
 20
179.333333
 30
0.0
 11
338.0
 21
179.0
 31
0.0
  0
LINE
  5
343
100
AcDbEntity
  8
LAY-6
  6
CONTINUOUS
 62
     1
100
AcDbLine
 10
338.0
 20
179.0
 30
0.0
 11
340.0
 21
178.666667
 31
0.0
  0
LINE
  5
344
100
AcDbEntity
  8
LAY-6
  6
CONTINUOUS
 62
     1
100
AcDbLine
 10
366.0
 20
178.666667
 30
0.0
 11
368.0
 21
179.0
 31
0.0
  0
LINE
  5
345
100
AcDbEntity
  8
LAY-6
  6
CONTINUOUS
 62
     1
100
AcDbLine
 10
368.0
 20
179.0
 30
0.0
 11
366.0
 21
179.333333
 31
0.0
  0
LINE
  5
346
100
AcDbEntity
  8
LAY-6
  6
CONTINUOUS
 62
     1
100
AcDbLine
 10
92.5
 20
66.0
 30
0.0
 11
73.7
 21
66.0
 31
0.0
  0
LINE
  5
347
100
AcDbEntity
  8
LAY-6
  6
CONTINUOUS
 62
     1
100
AcDbLine
 10
92.5
 20
81.0
 30
0.0
 11
73.7
 21
81.0
 31
0.0
  0
TEXT
  5
348
100
AcDbEntity
  8
LAY-6
  6
CONTINUOUS
 62
     2
100
AcDbText
 10
74.7
 20
69.5
 30
0.0
 40
5.0
  1
１５
 50
90.0
 41
0.672
  7
EXCADSTD
 72
     5
 11
74.7
 21
76.8328
 31
0.0
100
AcDbText
  0
LINE
  5
349
100
AcDbEntity
  8
LAY-6
  6
CONTINUOUS
 62
     1
100
AcDbLine
 10
75.2
 20
66.0
 30
0.0
 11
75.2
 21
81.0
 31
0.0
  0
LINE
  5
34A
100
AcDbEntity
  8
LAY-6
  6
CONTINUOUS
 62
     1
100
AcDbLine
 10
74.866667
 20
68.0
 30
0.0
 11
75.2
 21
66.0
 31
0.0
  0
LINE
  5
34B
100
AcDbEntity
  8
LAY-6
  6
CONTINUOUS
 62
     1
100
AcDbLine
 10
75.2
 20
66.0
 30
0.0
 11
75.533333
 21
68.0
 31
0.0
  0
LINE
  5
34C
100
AcDbEntity
  8
LAY-6
  6
CONTINUOUS
 62
     1
100
AcDbLine
 10
75.533333
 20
79.0
 30
0.0
 11
75.2
 21
81.0
 31
0.0
  0
LINE
  5
34D
100
AcDbEntity
  8
LAY-6
  6
CONTINUOUS
 62
     1
100
AcDbLine
 10
75.2
 20
81.0
 30
0.0
 11
74.866667
 21
79.0
 31
0.0
  0
LINE
  5
34E
100
AcDbEntity
  8
LAY-6
  6
CONTINUOUS
 62
     1
100
AcDbLine
 10
94.0
 20
114.0
 30
0.0
 11
73.7
 21
114.0
 31
0.0
  0
TEXT
  5
34F
100
AcDbEntity
  8
LAY-6
  6
CONTINUOUS
 62
     2
100
AcDbText
 10
74.7
 20
93.5
 30
0.0
 40
5.0
  1
３３
 50
90.0
 41
0.672
  7
EXCADSTD
 72
     5
 11
74.7
 21
100.8328
 31
0.0
100
AcDbText
  0
LINE
  5
350
100
AcDbEntity
  8
LAY-6
  6
CONTINUOUS
 62
     1
100
AcDbLine
 10
75.2
 20
81.0
 30
0.0
 11
75.2
 21
114.0
 31
0.0
  0
LINE
  5
351
100
AcDbEntity
  8
LAY-6
  6
CONTINUOUS
 62
     1
100
AcDbLine
 10
74.866667
 20
83.0
 30
0.0
 11
75.2
 21
81.0
 31
0.0
  0
LINE
  5
352
100
AcDbEntity
  8
LAY-6
  6
CONTINUOUS
 62
     1
100
AcDbLine
 10
75.2
 20
81.0
 30
0.0
 11
75.533333
 21
83.0
 31
0.0
  0
LINE
  5
353
100
AcDbEntity
  8
LAY-6
  6
CONTINUOUS
 62
     1
100
AcDbLine
 10
75.533333
 20
112.0
 30
0.0
 11
75.2
 21
114.0
 31
0.0
  0
LINE
  5
354
100
AcDbEntity
  8
LAY-6
  6
CONTINUOUS
 62
     1
100
AcDbLine
 10
75.2
 20
114.0
 30
0.0
 11
74.866667
 21
112.0
 31
0.0
  0
POLYLINE
  5
355
100
AcDbEntity
  8
LAY-6
  6
CONTINUOUS
 62
     1
100
AcDb2dPolyline
 66
     1
 10
0.0
 20
0.0
 30
0.0
 70
   128
  0
VERTEX
  5
356
100
AcDbEntity
  8
LAY-6
  6
CONTINUOUS
 62
     1
100
AcDbVertex
100
AcDb2dVertex
 10
357.0
 20
291.0
 30
0.0
  0
VERTEX
  5
357
100
AcDbEntity
  8
LAY-6
  6
CONTINUOUS
 62
     1
100
AcDbVertex
100
AcDb2dVertex
 10
387.4
 20
276.1
 30
0.0
  0
VERTEX
  5
358
100
AcDbEntity
  8
LAY-6
  6
CONTINUOUS
 62
     1
100
AcDbVertex
100
AcDb2dVertex
 10
468.5
 20
276.1
 30
0.0
  0
SEQEND
  5
359
100
AcDbEntity
  8
LAY-6
  6
CONTINUOUS
 62
     1
  0
LINE
  5
35A
100
AcDbEntity
  8
LAY-6
  6
CONTINUOUS
 62
     1
100
AcDbLine
 10
358.942591
 20
290.419093
 30
0.0
 11
357.0
 21
291.0
 31
0.0
  0
LINE
  5
35B
100
AcDbEntity
  8
LAY-6
  6
CONTINUOUS
 62
     1
100
AcDbLine
 10
357.0
 20
291.0
 30
0.0
 11
358.649184
 21
289.820464
 31
0.0
  0
TEXT
  5
35C
100
AcDbEntity
  8
LAY-6
  6
CONTINUOUS
 62
     2
100
AcDbText
 10
389.55
 20
277.2
 30
0.0
 40
5.0
  1
４－Ｍ５×２０皿小ネジ（ＳＵＳ３０５）
 41
0.672
  7
EXCADSTD
 72
     5
 11
465.55
 21
277.2
 31
0.0
100
AcDbText
  0
TEXT
  5
35D
100
AcDbEntity
  8
LAY-6
  6
CONTINUOUS
 62
     2
100
AcDbText
 10
386.225
 20
363.15
 30
0.0
 40
5.0
  1
４－Ｍ５×２０皿小ネジ（ＳＵＳ３０５）
 41
0.672
  7
EXCADSTD
 72
     5
 11
462.225
 21
363.15
 31
0.0
100
AcDbText
  0
POLYLINE
  5
35E
100
AcDbEntity
  8
LAY-6
  6
CONTINUOUS
 62
     1
100
AcDb2dPolyline
 66
     1
 10
0.0
 20
0.0
 30
0.0
 70
   128
  0
VERTEX
  5
35F
100
AcDbEntity
  8
LAY-6
  6
CONTINUOUS
 62
     1
100
AcDbVertex
100
AcDb2dVertex
 10
357.0
 20
334.0
 30
0.0
  0
VERTEX
  5
360
100
AcDbEntity
  8
LAY-6
  6
CONTINUOUS
 62
     1
100
AcDbVertex
100
AcDb2dVertex
 10
384.75
 20
361.75
 30
0.0
  0
VERTEX
  5
361
100
AcDbEntity
  8
LAY-6
  6
CONTINUOUS
 62
     1
100
AcDbVertex
100
AcDb2dVertex
 10
467.0
 20
361.75
 30
0.0
  0
SEQEND
  5
362
100
AcDbEntity
  8
LAY-6
  6
CONTINUOUS
 62
     1
  0
LINE
  5
363
100
AcDbEntity
  8
LAY-6
  6
CONTINUOUS
 62
     1
100
AcDbLine
 10
358.178511
 20
335.649916
 30
0.0
 11
357.0
 21
334.0
 31
0.0
  0
LINE
  5
364
100
AcDbEntity
  8
LAY-6
  6
CONTINUOUS
 62
     1
100
AcDbLine
 10
357.0
 20
334.0
 30
0.0
 11
358.649916
 21
335.178511
 31
0.0
  0
TEXT
  5
365
100
AcDbEntity
  8
LAY-6
  6
CONTINUOUS
 62
     2
100
AcDbText
 10
351.643044
 20
113.088467
 30
0.0
 40
5.0
  1
４－Ｍ５×２０皿小ネジ（ＳＵＳ３０５）
 41
0.672
  7
EXCADSTD
 72
     5
 11
427.643044
 21
113.088467
 31
0.0
100
AcDbText
  0
POLYLINE
  5
366
100
AcDbEntity
  8
LAY-6
  6
CONTINUOUS
 62
     1
100
AcDb2dPolyline
 66
     1
 10
0.0
 20
0.0
 30
0.0
 70
   128
  0
VERTEX
  5
367
100
AcDbEntity
  8
LAY-6
  6
CONTINUOUS
 62
     1
100
AcDbVertex
100
AcDb2dVertex
 10
361.0
 20
154.0
 30
0.0
  0
VERTEX
  5
368
100
AcDbEntity
  8
LAY-6
  6
CONTINUOUS
 62
     1
100
AcDbVertex
100
AcDb2dVertex
 10
349.743044
 20
111.988467
 30
0.0
  0
VERTEX
  5
369
100
AcDbEntity
  8
LAY-6
  6
CONTINUOUS
 62
     1
100
AcDbVertex
100
AcDb2dVertex
 10
429.143044
 20
111.988467
 30
0.0
  0
SEQEND
  5
36A
100
AcDbEntity
  8
LAY-6
  6
CONTINUOUS
 62
     1
  0
LINE
  5
36B
100
AcDbEntity
  8
LAY-6
  6
CONTINUOUS
 62
     1
100
AcDbLine
 10
360.804337
 20
151.981875
 30
0.0
 11
361.0
 21
154.0
 31
0.0
  0
LINE
  5
36C
100
AcDbEntity
  8
LAY-6
  6
CONTINUOUS
 62
     1
100
AcDbLine
 10
361.0
 20
154.0
 30
0.0
 11
360.160387
 21
152.154421
 31
0.0
  0
TEXT
  5
36D
100
AcDbEntity
  8
LAY-6
  6
CONTINUOUS
 62
     2
100
AcDbText
 10
34.240606
 20
132.944463
 30
0.0
 40
5.0
  1
４－Ｍ５×２０皿小ネジ
 41
0.672
  7
EXCADSTD
 72
     5
 11
78.240606
 21
132.944463
 31
0.0
100
AcDbText
  0
POLYLINE
  5
36E
100
AcDbEntity
  8
LAY-6
  6
CONTINUOUS
 62
     1
100
AcDb2dPolyline
 66
     1
 10
0.0
 20
0.0
 30
0.0
 70
   128
  0
VERTEX
  5
36F
100
AcDbEntity
  8
LAY-6
  6
CONTINUOUS
 62
     1
100
AcDbVertex
100
AcDb2dVertex
 10
92.7
 20
109.309525
 30
0.0
  0
VERTEX
  5
370
100
AcDbEntity
  8
LAY-6
  6
CONTINUOUS
 62
     1
100
AcDbVertex
100
AcDb2dVertex
 10
79.516242
 20
132.144463
 30
0.0
  0
VERTEX
  5
371
100
AcDbEntity
  8
LAY-6
  6
CONTINUOUS
 62
     1
100
AcDbVertex
100
AcDb2dVertex
 10
33.0
 20
132.144463
 30
0.0
  0
SEQEND
  5
372
100
AcDbEntity
  8
LAY-6
  6
CONTINUOUS
 62
     1
  0
LINE
  5
373
100
AcDbEntity
  8
LAY-6
  6
CONTINUOUS
 62
     1
100
AcDbLine
 10
91.411325
 20
110.874909
 30
0.0
 11
92.7
 21
109.309525
 31
0.0
  0
LINE
  5
374
100
AcDbEntity
  8
LAY-6
  6
CONTINUOUS
 62
     1
100
AcDbLine
 10
92.7
 20
109.309525
 30
0.0
 11
91.988675
 21
111.208242
 31
0.0
  0
LINE
  5
375
100
AcDbEntity
  8
LAY-6
  6
CONTINUOUS
 62
     1
100
AcDbLine
 10
304.5
 20
151.0
 30
0.0
 11
287.8
 21
151.0
 31
0.0
  0
LINE
  5
376
100
AcDbEntity
  8
LAY-6
  6
CONTINUOUS
 62
     1
100
AcDbLine
 10
305.5
 20
177.0
 30
0.0
 11
287.8
 21
177.0
 31
0.0
  0
TEXT
  5
377
100
AcDbEntity
  8
LAY-6
  6
CONTINUOUS
 62
     2
100
AcDbText
 10
288.8
 20
160.0
 30
0.0
 40
5.0
  1
２６
 50
90.0
 41
0.672
  7
EXCADSTD
 72
     5
 11
288.8
 21
167.3328
 31
0.0
100
AcDbText
  0
LINE
  5
378
100
AcDbEntity
  8
LAY-6
  6
CONTINUOUS
 62
     1
100
AcDbLine
 10
289.3
 20
151.0
 30
0.0
 11
289.3
 21
177.0
 31
0.0
  0
LINE
  5
379
100
AcDbEntity
  8
LAY-6
  6
CONTINUOUS
 62
     1
100
AcDbLine
 10
288.966667
 20
153.0
 30
0.0
 11
289.3
 21
151.0
 31
0.0
  0
LINE
  5
37A
100
AcDbEntity
  8
LAY-6
  6
CONTINUOUS
 62
     1
100
AcDbLine
 10
289.3
 20
151.0
 30
0.0
 11
289.633333
 21
153.0
 31
0.0
  0
LINE
  5
37B
100
AcDbEntity
  8
LAY-6
  6
CONTINUOUS
 62
     1
100
AcDbLine
 10
289.633333
 20
175.0
 30
0.0
 11
289.3
 21
177.0
 31
0.0
  0
LINE
  5
37C
100
AcDbEntity
  8
LAY-6
  6
CONTINUOUS
 62
     1
100
AcDbLine
 10
289.3
 20
177.0
 30
0.0
 11
288.966667
 21
175.0
 31
0.0
  0
LINE
  5
37D
100
AcDbEntity
  8
LAY-6
  6
CONTINUOUS
 62
     1
100
AcDbLine
 10
304.5
 20
138.0
 30
0.0
 11
278.8
 21
138.0
 31
0.0
  0
LINE
  5
37E
100
AcDbEntity
  8
LAY-6
  6
CONTINUOUS
 62
     1
100
AcDbLine
 10
305.5
 20
177.0
 30
0.0
 11
278.8
 21
177.0
 31
0.0
  0
TEXT
  5
37F
100
AcDbEntity
  8
LAY-6
  6
CONTINUOUS
 62
     2
100
AcDbText
 10
279.8
 20
153.5
 30
0.0
 40
5.0
  1
３９
 50
90.0
 41
0.672
  7
EXCADSTD
 72
     5
 11
279.8
 21
160.8328
 31
0.0
100
AcDbText
  0
LINE
  5
380
100
AcDbEntity
  8
LAY-6
  6
CONTINUOUS
 62
     1
100
AcDbLine
 10
280.3
 20
138.0
 30
0.0
 11
280.3
 21
177.0
 31
0.0
  0
LINE
  5
381
100
AcDbEntity
  8
LAY-6
  6
CONTINUOUS
 62
     1
100
AcDbLine
 10
279.966667
 20
140.0
 30
0.0
 11
280.3
 21
138.0
 31
0.0
  0
LINE
  5
382
100
AcDbEntity
  8
LAY-6
  6
CONTINUOUS
 62
     1
100
AcDbLine
 10
280.3
 20
138.0
 30
0.0
 11
280.633333
 21
140.0
 31
0.0
  0
LINE
  5
383
100
AcDbEntity
  8
LAY-6
  6
CONTINUOUS
 62
     1
100
AcDbLine
 10
280.633333
 20
175.0
 30
0.0
 11
280.3
 21
177.0
 31
0.0
  0
LINE
  5
384
100
AcDbEntity
  8
LAY-6
  6
CONTINUOUS
 62
     1
100
AcDbLine
 10
280.3
 20
177.0
 30
0.0
 11
279.966667
 21
175.0
 31
0.0
  0
TEXT
  5
385
100
AcDbEntity
  8
LAY-6
  6
CONTINUOUS
 62
     2
100
AcDbText
 10
107.748636
 20
167.388652
 30
0.0
 40
5.0
  1
Ｒ
 50
43.625165
 41
0.672
  7
EXCADSTD
 72
     5
 11
110.065017
 21
169.596452
 31
0.0
100
AcDbText
  0
TEXT
  5
386
100
AcDbEntity
  8
LAY-6
  6
CONTINUOUS
 62
     2
100
AcDbText
 10
110.644112
 20
170.148402
 30
0.0
 40
5.0
  1
１５
 50
43.625165
 41
0.672
  7
EXCADSTD
 72
     5
 11
115.952098
 21
175.207576
 31
0.0
100
AcDbText
  0
LINE
  5
387
100
AcDbEntity
  8
LAY-6
  6
CONTINUOUS
 62
     1
100
AcDbLine
 10
107.731671
 20
166.681749
 30
0.0
 11
128.0
 21
186.0
 31
0.0
  0
LINE
  5
388
100
AcDbEntity
  8
LAY-6
  6
CONTINUOUS
 62
     1
100
AcDbLine
 10
118.359725
 20
177.272102
 30
0.0
 11
117.141967
 21
175.650937
 31
0.0
  0
LINE
  5
389
100
AcDbEntity
  8
LAY-6
  6
CONTINUOUS
 62
     1
100
AcDbLine
 10
117.141967
 20
175.650937
 30
0.0
 11
118.819683
 21
176.789522
 31
0.0
  0
LINE
  5
38A
100
AcDbEntity
  8
LAY-6
  6
CONTINUOUS
 62
     1
100
AcDbLine
 10
121.0
 20
220.5
 30
0.0
 11
121.0
 21
252.8
 31
0.0
  0
LINE
  5
38B
100
AcDbEntity
  8
LAY-6
  6
CONTINUOUS
 62
     1
100
AcDbLine
 10
131.0
 20
222.75
 30
0.0
 11
131.0
 21
252.8
 31
0.0
  0
TEXT
  5
38C
100
AcDbEntity
  8
LAY-6
  6
CONTINUOUS
 62
     2
100
AcDbText
 10
123.3
 20
251.8
 30
0.0
 40
5.0
  1
１０
 41
0.672
  7
EXCADSTD
 72
     5
 11
130.6328
 21
251.8
 31
0.0
100
AcDbText
  0
LINE
  5
38D
100
AcDbEntity
  8
LAY-6
  6
CONTINUOUS
 62
     1
100
AcDbLine
 10
121.0
 20
251.3
 30
0.0
 11
131.0
 21
251.3
 31
0.0
  0
LINE
  5
38E
100
AcDbEntity
  8
LAY-6
  6
CONTINUOUS
 62
     1
100
AcDbLine
 10
123.0
 20
251.633333
 30
0.0
 11
121.0
 21
251.3
 31
0.0
  0
LINE
  5
38F
100
AcDbEntity
  8
LAY-6
  6
CONTINUOUS
 62
     1
100
AcDbLine
 10
121.0
 20
251.3
 30
0.0
 11
123.0
 21
250.966667
 31
0.0
  0
LINE
  5
390
100
AcDbEntity
  8
LAY-6
  6
CONTINUOUS
 62
     1
100
AcDbLine
 10
129.0
 20
250.966667
 30
0.0
 11
131.0
 21
251.3
 31
0.0
  0
LINE
  5
391
100
AcDbEntity
  8
LAY-6
  6
CONTINUOUS
 62
     1
100
AcDbLine
 10
131.0
 20
251.3
 30
0.0
 11
129.0
 21
251.633333
 31
0.0
  0
LINE
  5
392
100
AcDbEntity
  8
LAY-6
  6
CONTINUOUS
 62
     1
100
AcDbLine
 10
151.0
 20
228.75
 30
0.0
 11
151.0
 21
252.8
 31
0.0
  0
TEXT
  5
393
100
AcDbEntity
  8
LAY-6
  6
CONTINUOUS
 62
     2
100
AcDbText
 10
137.0
 20
251.8
 30
0.0
 40
5.0
  1
２０
 41
0.672
  7
EXCADSTD
 72
     5
 11
144.3328
 21
251.8
 31
0.0
100
AcDbText
  0
LINE
  5
394
100
AcDbEntity
  8
LAY-6
  6
CONTINUOUS
 62
     1
100
AcDbLine
 10
131.0
 20
251.3
 30
0.0
 11
151.0
 21
251.3
 31
0.0
  0
LINE
  5
395
100
AcDbEntity
  8
LAY-6
  6
CONTINUOUS
 62
     1
100
AcDbLine
 10
133.0
 20
251.633333
 30
0.0
 11
131.0
 21
251.3
 31
0.0
  0
LINE
  5
396
100
AcDbEntity
  8
LAY-6
  6
CONTINUOUS
 62
     1
100
AcDbLine
 10
131.0
 20
251.3
 30
0.0
 11
133.0
 21
250.966667
 31
0.0
  0
LINE
  5
397
100
AcDbEntity
  8
LAY-6
  6
CONTINUOUS
 62
     1
100
AcDbLine
 10
149.0
 20
250.966667
 30
0.0
 11
151.0
 21
251.3
 31
0.0
  0
LINE
  5
398
100
AcDbEntity
  8
LAY-6
  6
CONTINUOUS
 62
     1
100
AcDbLine
 10
151.0
 20
251.3
 30
0.0
 11
149.0
 21
251.633333
 31
0.0
  0
LINE
  5
399
100
AcDbEntity
  8
LAY-6
  6
CONTINUOUS
 62
     1
100
AcDbLine
 10
181.0
 20
222.75
 30
0.0
 11
181.0
 21
252.8
 31
0.0
  0
TEXT
  5
39A
100
AcDbEntity
  8
LAY-6
  6
CONTINUOUS
 62
     2
100
AcDbText
 10
162.0
 20
251.8
 30
0.0
 40
5.0
  1
３０
 41
0.672
  7
EXCADSTD
 72
     5
 11
169.3328
 21
251.8
 31
0.0
100
AcDbText
  0
LINE
  5
39B
100
AcDbEntity
  8
LAY-6
  6
CONTINUOUS
 62
     1
100
AcDbLine
 10
151.0
 20
251.3
 30
0.0
 11
181.0
 21
251.3
 31
0.0
  0
LINE
  5
39C
100
AcDbEntity
  8
LAY-6
  6
CONTINUOUS
 62
     1
100
AcDbLine
 10
153.0
 20
251.633333
 30
0.0
 11
151.0
 21
251.3
 31
0.0
  0
LINE
  5
39D
100
AcDbEntity
  8
LAY-6
  6
CONTINUOUS
 62
     1
100
AcDbLine
 10
151.0
 20
251.3
 30
0.0
 11
153.0
 21
250.966667
 31
0.0
  0
LINE
  5
39E
100
AcDbEntity
  8
LAY-6
  6
CONTINUOUS
 62
     1
100
AcDbLine
 10
179.0
 20
250.966667
 30
0.0
 11
181.0
 21
251.3
 31
0.0
  0
LINE
  5
39F
100
AcDbEntity
  8
LAY-6
  6
CONTINUOUS
 62
     1
100
AcDbLine
 10
181.0
 20
251.3
 30
0.0
 11
179.0
 21
251.633333
 31
0.0
  0
LINE
  5
3A0
100
AcDbEntity
  8
LAY-6
  6
CONTINUOUS
 62
     1
100
AcDbLine
 10
201.0
 20
228.75
 30
0.0
 11
201.0
 21
252.8
 31
0.0
  0
TEXT
  5
3A1
100
AcDbEntity
  8
LAY-6
  6
CONTINUOUS
 62
     2
100
AcDbText
 10
187.0
 20
251.8
 30
0.0
 40
5.0
  1
２０
 41
0.672
  7
EXCADSTD
 72
     5
 11
194.3328
 21
251.8
 31
0.0
100
AcDbText
  0
LINE
  5
3A2
100
AcDbEntity
  8
LAY-6
  6
CONTINUOUS
 62
     1
100
AcDbLine
 10
181.0
 20
251.3
 30
0.0
 11
201.0
 21
251.3
 31
0.0
  0
LINE
  5
3A3
100
AcDbEntity
  8
LAY-6
  6
CONTINUOUS
 62
     1
100
AcDbLine
 10
183.0
 20
251.633333
 30
0.0
 11
181.0
 21
251.3
 31
0.0
  0
LINE
  5
3A4
100
AcDbEntity
  8
LAY-6
  6
CONTINUOUS
 62
     1
100
AcDbLine
 10
181.0
 20
251.3
 30
0.0
 11
183.0
 21
250.966667
 31
0.0
  0
LINE
  5
3A5
100
AcDbEntity
  8
LAY-6
  6
CONTINUOUS
 62
     1
100
AcDbLine
 10
199.0
 20
250.966667
 30
0.0
 11
201.0
 21
251.3
 31
0.0
  0
LINE
  5
3A6
100
AcDbEntity
  8
LAY-6
  6
CONTINUOUS
 62
     1
100
AcDbLine
 10
201.0
 20
251.3
 30
0.0
 11
199.0
 21
251.633333
 31
0.0
  0
LINE
  5
3A7
100
AcDbEntity
  8
LAY-6
  6
CONTINUOUS
 62
     1
100
AcDbLine
 10
121.0
 20
220.5
 30
0.0
 11
121.0
 21
262.8
 31
0.0
  0
LINE
  5
3A8
100
AcDbEntity
  8
LAY-6
  6
CONTINUOUS
 62
     1
100
AcDbLine
 10
211.0
 20
225.5
 30
0.0
 11
211.0
 21
262.8
 31
0.0
  0
TEXT
  5
3A9
100
AcDbEntity
  8
LAY-6
  6
CONTINUOUS
 62
     2
100
AcDbText
 10
162.0
 20
261.8
 30
0.0
 40
5.0
  1
９０
 41
0.672
  7
EXCADSTD
 72
     5
 11
169.3328
 21
261.8
 31
0.0
100
AcDbText
  0
LINE
  5
3AA
100
AcDbEntity
  8
LAY-6
  6
CONTINUOUS
 62
     1
100
AcDbLine
 10
121.0
 20
261.3
 30
0.0
 11
211.0
 21
261.3
 31
0.0
  0
LINE
  5
3AB
100
AcDbEntity
  8
LAY-6
  6
CONTINUOUS
 62
     1
100
AcDbLine
 10
123.0
 20
261.633333
 30
0.0
 11
121.0
 21
261.3
 31
0.0
  0
LINE
  5
3AC
100
AcDbEntity
  8
LAY-6
  6
CONTINUOUS
 62
     1
100
AcDbLine
 10
121.0
 20
261.3
 30
0.0
 11
123.0
 21
260.966667
 31
0.0
  0
LINE
  5
3AD
100
AcDbEntity
  8
LAY-6
  6
CONTINUOUS
 62
     1
100
AcDbLine
 10
209.0
 20
260.966667
 30
0.0
 11
211.0
 21
261.3
 31
0.0
  0
LINE
  5
3AE
100
AcDbEntity
  8
LAY-6
  6
CONTINUOUS
 62
     1
100
AcDbLine
 10
211.0
 20
261.3
 30
0.0
 11
209.0
 21
261.633333
 31
0.0
  0
TEXT
  5
3AF
100
AcDbEntity
  8
LAY-6
  6
CONTINUOUS
 62
     2
100
AcDbText
 10
128.1
 20
206.9
 30
0.0
 40
5.0
  1
２０
 41
0.672
  7
EXCADSTD
 72
     5
 11
135.4328
 21
206.9
 31
0.0
100
AcDbText
  0
LINE
  5
3B0
100
AcDbEntity
  8
LAY-6
  6
CONTINUOUS
 62
     1
100
AcDbLine
 10
121.0
 20
206.4
 30
0.0
 11
141.0
 21
206.4
 31
0.0
  0
LINE
  5
3B1
100
AcDbEntity
  8
LAY-6
  6
CONTINUOUS
 62
     1
100
AcDbLine
 10
123.0
 20
206.733333
 30
0.0
 11
121.0
 21
206.4
 31
0.0
  0
LINE
  5
3B2
100
AcDbEntity
  8
LAY-6
  6
CONTINUOUS
 62
     1
100
AcDbLine
 10
121.0
 20
206.4
 30
0.0
 11
123.0
 21
206.066667
 31
0.0
  0
LINE
  5
3B3
100
AcDbEntity
  8
LAY-6
  6
CONTINUOUS
 62
     1
100
AcDbLine
 10
139.0
 20
206.066667
 30
0.0
 11
141.0
 21
206.4
 31
0.0
  0
LINE
  5
3B4
100
AcDbEntity
  8
LAY-6
  6
CONTINUOUS
 62
     1
100
AcDbLine
 10
141.0
 20
206.4
 30
0.0
 11
139.0
 21
206.733333
 31
0.0
  0
LINE
  5
3B5
100
AcDbEntity
  8
LAY-6
  6
CONTINUOUS
 62
     1
100
AcDbLine
 10
109.0
 20
219.0
 30
0.0
 11
109.0
 21
223.1
 31
0.0
  0
LINE
  5
3B6
100
AcDbEntity
  8
LAY-6
  6
CONTINUOUS
 62
     1
100
AcDbLine
 10
112.0
 20
219.0
 30
0.0
 11
112.0
 21
223.1
 31
0.0
  0
TEXT
  5
3B7
100
AcDbEntity
  8
LAY-6
  6
CONTINUOUS
 62
     2
100
AcDbText
 10
103.0
 20
222.1
 30
0.0
 40
5.0
  1
３
 41
0.672
  7
EXCADSTD
 72
     5
 11
106.2
 21
222.1
 31
0.0
100
AcDbText
  0
LINE
  5
3B8
100
AcDbEntity
  8
LAY-6
  6
CONTINUOUS
 62
     1
100
AcDbLine
 10
102.5
 20
221.6
 30
0.0
 11
117.0
 21
221.6
 31
0.0
  0
LINE
  5
3B9
100
AcDbEntity
  8
LAY-6
  6
CONTINUOUS
 62
     1
100
AcDbLine
 10
107.0
 20
221.266667
 30
0.0
 11
109.0
 21
221.6
 31
0.0
  0
LINE
  5
3BA
100
AcDbEntity
  8
LAY-6
  6
CONTINUOUS
 62
     1
100
AcDbLine
 10
109.0
 20
221.6
 30
0.0
 11
107.0
 21
221.933333
 31
0.0
  0
LINE
  5
3BB
100
AcDbEntity
  8
LAY-6
  6
CONTINUOUS
 62
     1
100
AcDbLine
 10
114.0
 20
221.933333
 30
0.0
 11
112.0
 21
221.6
 31
0.0
  0
LINE
  5
3BC
100
AcDbEntity
  8
LAY-6
  6
CONTINUOUS
 62
     1
100
AcDbLine
 10
112.0
 20
221.6
 30
0.0
 11
114.0
 21
221.266667
 31
0.0
  0
LINE
  5
3BD
100
AcDbEntity
  8
LAY-6
  6
CONTINUOUS
 62
     1
100
AcDbLine
 10
112.0
 20
238.9
 30
0.0
 11
112.0
 21
262.8
 31
0.0
  0
LINE
  5
3BE
100
AcDbEntity
  8
LAY-6
  6
CONTINUOUS
 62
     1
100
AcDbLine
 10
121.0
 20
245.1
 30
0.0
 11
121.0
 21
262.8
 31
0.0
  0
TEXT
  5
3BF
100
AcDbEntity
  8
LAY-6
  6
CONTINUOUS
 62
     2
100
AcDbText
 10
114.5
 20
261.8
 30
0.0
 40
5.0
  1
９
 41
0.672
  7
EXCADSTD
 72
     5
 11
117.7
 21
261.8
 31
0.0
100
AcDbText
  0
LINE
  5
3C0
100
AcDbEntity
  8
LAY-6
  6
CONTINUOUS
 62
     1
100
AcDbLine
 10
112.0
 20
261.3
 30
0.0
 11
121.0
 21
261.3
 31
0.0
  0
LINE
  5
3C1
100
AcDbEntity
  8
LAY-6
  6
CONTINUOUS
 62
     1
100
AcDbLine
 10
114.0
 20
261.633333
 30
0.0
 11
112.0
 21
261.3
 31
0.0
  0
LINE
  5
3C2
100
AcDbEntity
  8
LAY-6
  6
CONTINUOUS
 62
     1
100
AcDbLine
 10
112.0
 20
261.3
 30
0.0
 11
114.0
 21
260.966667
 31
0.0
  0
LINE
  5
3C3
100
AcDbEntity
  8
LAY-6
  6
CONTINUOUS
 62
     1
100
AcDbLine
 10
119.0
 20
260.966667
 30
0.0
 11
121.0
 21
261.3
 31
0.0
  0
LINE
  5
3C4
100
AcDbEntity
  8
LAY-6
  6
CONTINUOUS
 62
     1
100
AcDbLine
 10
121.0
 20
261.3
 30
0.0
 11
119.0
 21
261.633333
 31
0.0
  0
LINE
  5
3C5
100
AcDbEntity
  8
LAY-6
  6
CONTINUOUS
 62
     1
100
AcDbLine
 10
121.0
 20
330.5
 30
0.0
 11
121.0
 21
383.0
 31
0.0
  0
LINE
  5
3C6
100
AcDbEntity
  8
LAY-6
  6
CONTINUOUS
 62
     1
100
AcDbLine
 10
211.0
 20
345.5
 30
0.0
 11
211.0
 21
383.0
 31
0.0
  0
TEXT
  5
3C7
100
AcDbEntity
  8
LAY-6
  6
CONTINUOUS
 62
     2
100
AcDbText
 10
162.0
 20
382.0
 30
0.0
 40
5.0
  1
９０
 41
0.672
  7
EXCADSTD
 72
     5
 11
169.3328
 21
382.0
 31
0.0
100
AcDbText
  0
LINE
  5
3C8
100
AcDbEntity
  8
LAY-6
  6
CONTINUOUS
 62
     1
100
AcDbLine
 10
121.0
 20
381.5
 30
0.0
 11
211.0
 21
381.5
 31
0.0
  0
LINE
  5
3C9
100
AcDbEntity
  8
LAY-6
  6
CONTINUOUS
 62
     1
100
AcDbLine
 10
123.0
 20
381.833333
 30
0.0
 11
121.0
 21
381.5
 31
0.0
  0
LINE
  5
3CA
100
AcDbEntity
  8
LAY-6
  6
CONTINUOUS
 62
     1
100
AcDbLine
 10
121.0
 20
381.5
 30
0.0
 11
123.0
 21
381.166667
 31
0.0
  0
LINE
  5
3CB
100
AcDbEntity
  8
LAY-6
  6
CONTINUOUS
 62
     1
100
AcDbLine
 10
209.0
 20
381.166667
 30
0.0
 11
211.0
 21
381.5
 31
0.0
  0
LINE
  5
3CC
100
AcDbEntity
  8
LAY-6
  6
CONTINUOUS
 62
     1
100
AcDbLine
 10
211.0
 20
381.5
 30
0.0
 11
209.0
 21
381.833333
 31
0.0
  0
LINE
  5
3CD
100
AcDbEntity
  8
LAY-6
  6
CONTINUOUS
 62
     1
100
AcDbLine
 10
109.0
 20
323.1
 30
0.0
 11
109.0
 21
383.0
 31
0.0
  0
LINE
  5
3CE
100
AcDbEntity
  8
LAY-6
  6
CONTINUOUS
 62
     1
100
AcDbLine
 10
121.0
 20
330.9
 30
0.0
 11
121.0
 21
383.0
 31
0.0
  0
TEXT
  5
3CF
100
AcDbEntity
  8
LAY-6
  6
CONTINUOUS
 62
     2
100
AcDbText
 10
111.0
 20
382.0
 30
0.0
 40
5.0
  1
１２
 41
0.672
  7
EXCADSTD
 72
     5
 11
118.3328
 21
382.0
 31
0.0
100
AcDbText
  0
LINE
  5
3D0
100
AcDbEntity
  8
LAY-6
  6
CONTINUOUS
 62
     1
100
AcDbLine
 10
109.0
 20
381.5
 30
0.0
 11
121.0
 21
381.5
 31
0.0
  0
LINE
  5
3D1
100
AcDbEntity
  8
LAY-6
  6
CONTINUOUS
 62
     1
100
AcDbLine
 10
111.0
 20
381.833333
 30
0.0
 11
109.0
 21
381.5
 31
0.0
  0
LINE
  5
3D2
100
AcDbEntity
  8
LAY-6
  6
CONTINUOUS
 62
     1
100
AcDbLine
 10
109.0
 20
381.5
 30
0.0
 11
111.0
 21
381.166667
 31
0.0
  0
LINE
  5
3D3
100
AcDbEntity
  8
LAY-6
  6
CONTINUOUS
 62
     1
100
AcDbLine
 10
119.0
 20
381.166667
 30
0.0
 11
121.0
 21
381.5
 31
0.0
  0
LINE
  5
3D4
100
AcDbEntity
  8
LAY-6
  6
CONTINUOUS
 62
     1
100
AcDbLine
 10
121.0
 20
381.5
 30
0.0
 11
119.0
 21
381.833333
 31
0.0
  0
TEXT
  5
3D5
100
AcDbEntity
  8
LAY-6
  6
CONTINUOUS
 62
     2
100
AcDbText
 10
128.2
 20
325.3
 30
0.0
 40
5.0
  1
２０
 41
0.672
  7
EXCADSTD
 72
     5
 11
135.5328
 21
325.3
 31
0.0
100
AcDbText
  0
LINE
  5
3D6
100
AcDbEntity
  8
LAY-6
  6
CONTINUOUS
 62
     1
100
AcDbLine
 10
121.0
 20
324.8
 30
0.0
 11
141.0
 21
324.8
 31
0.0
  0
LINE
  5
3D7
100
AcDbEntity
  8
LAY-6
  6
CONTINUOUS
 62
     1
100
AcDbLine
 10
123.0
 20
325.133333
 30
0.0
 11
121.0
 21
324.8
 31
0.0
  0
LINE
  5
3D8
100
AcDbEntity
  8
LAY-6
  6
CONTINUOUS
 62
     1
100
AcDbLine
 10
121.0
 20
324.8
 30
0.0
 11
123.0
 21
324.466667
 31
0.0
  0
LINE
  5
3D9
100
AcDbEntity
  8
LAY-6
  6
CONTINUOUS
 62
     1
100
AcDbLine
 10
139.0
 20
324.466667
 30
0.0
 11
141.0
 21
324.8
 31
0.0
  0
LINE
  5
3DA
100
AcDbEntity
  8
LAY-6
  6
CONTINUOUS
 62
     1
100
AcDbLine
 10
141.0
 20
324.8
 30
0.0
 11
139.0
 21
325.133333
 31
0.0
  0
TEXT
  5
3DB
100
AcDbEntity
  8
LAY-6
  6
CONTINUOUS
 62
     2
100
AcDbText
 10
105.222577
 20
290.582835
 30
0.0
 40
5.0
  1
Ｒ
 50
35.134193
 41
0.672
  7
EXCADSTD
 72
     5
 11
107.839557
 21
292.424413
 31
0.0
100
AcDbText
  0
TEXT
  5
3DC
100
AcDbEntity
  8
LAY-6
  6
CONTINUOUS
 62
     2
100
AcDbText
 10
108.493802
 20
292.884808
 30
0.0
 40
5.0
  1
１５
 50
35.134193
 41
0.672
  7
EXCADSTD
 72
     5
 11
114.490613
 21
297.104786
 31
0.0
100
AcDbText
  0
LINE
  5
3DD
100
AcDbEntity
  8
LAY-6
  6
CONTINUOUS
 62
     1
100
AcDbLine
 10
105.10142
 20
289.886185
 30
0.0
 11
128.0
 21
306.0
 31
0.0
  0
LINE
  5
3DE
100
AcDbEntity
  8
LAY-6
  6
CONTINUOUS
 62
     1
100
AcDbLine
 10
117.176685
 20
298.791188
 30
0.0
 11
115.732904
 21
297.367599
 31
0.0
  0
LINE
  5
3DF
100
AcDbEntity
  8
LAY-6
  6
CONTINUOUS
 62
     1
100
AcDbLine
 10
115.732904
 20
297.367599
 30
0.0
 11
117.560348
 21
298.245984
 31
0.0
  0
LINE
  5
3E0
100
AcDbEntity
  8
LAY-6
  6
CONTINUOUS
 62
     1
100
AcDbLine
 10
112.0
 20
118.9
 30
0.0
 11
112.0
 21
142.2
 31
0.0
  0
LINE
  5
3E1
100
AcDbEntity
  8
LAY-6
  6
CONTINUOUS
 62
     1
100
AcDbLine
 10
118.5
 20
120.5
 30
0.0
 11
118.5
 21
142.2
 31
0.0
  0
TEXT
  5
3E2
100
AcDbEntity
  8
LAY-6
  6
CONTINUOUS
 62
     2
100
AcDbText
 10
111.55
 20
141.2
 30
0.0
 40
5.0
  1
６.５
 41
0.500267
  7
EXCADSTD
 72
     5
 11
119.95
 21
141.2
 31
0.0
100
AcDbText
  0
LINE
  5
3E3
100
AcDbEntity
  8
LAY-6
  6
CONTINUOUS
 62
     1
100
AcDbLine
 10
112.0
 20
140.7
 30
0.0
 11
118.5
 21
140.7
 31
0.0
  0
LINE
  5
3E4
100
AcDbEntity
  8
LAY-6
  6
CONTINUOUS
 62
     1
100
AcDbLine
 10
114.0
 20
141.033333
 30
0.0
 11
112.0
 21
140.7
 31
0.0
  0
LINE
  5
3E5
100
AcDbEntity
  8
LAY-6
  6
CONTINUOUS
 62
     1
100
AcDbLine
 10
112.0
 20
140.7
 30
0.0
 11
114.0
 21
140.366667
 31
0.0
  0
LINE
  5
3E6
100
AcDbEntity
  8
LAY-6
  6
CONTINUOUS
 62
     1
100
AcDbLine
 10
116.5
 20
140.366667
 30
0.0
 11
118.5
 21
140.7
 31
0.0
  0
LINE
  5
3E7
100
AcDbEntity
  8
LAY-6
  6
CONTINUOUS
 62
     1
100
AcDbLine
 10
118.5
 20
140.7
 30
0.0
 11
116.5
 21
141.033333
 31
0.0
  0
TEXT
  5
3E8
100
AcDbEntity
  8
LAY-6
  6
CONTINUOUS
 62
     2
100
AcDbText
 10
128.8
 20
87.0
 30
0.0
 40
5.0
  1
２３
 41
0.672
  7
EXCADSTD
 72
     5
 11
136.1328
 21
87.0
 31
0.0
100
AcDbText
  0
LINE
  5
3E9
100
AcDbEntity
  8
LAY-6
  6
CONTINUOUS
 62
     1
100
AcDbLine
 10
118.5
 20
86.5
 30
0.0
 11
141.5
 21
86.5
 31
0.0
  0
LINE
  5
3EA
100
AcDbEntity
  8
LAY-6
  6
CONTINUOUS
 62
     1
100
AcDbLine
 10
120.5
 20
86.833333
 30
0.0
 11
118.5
 21
86.5
 31
0.0
  0
LINE
  5
3EB
100
AcDbEntity
  8
LAY-6
  6
CONTINUOUS
 62
     1
100
AcDbLine
 10
118.5
 20
86.5
 30
0.0
 11
120.5
 21
86.166667
 31
0.0
  0
LINE
  5
3EC
100
AcDbEntity
  8
LAY-6
  6
CONTINUOUS
 62
     1
100
AcDbLine
 10
139.5
 20
86.166667
 30
0.0
 11
141.5
 21
86.5
 31
0.0
  0
LINE
  5
3ED
100
AcDbEntity
  8
LAY-6
  6
CONTINUOUS
 62
     1
100
AcDbLine
 10
141.5
 20
86.5
 30
0.0
 11
139.5
 21
86.833333
 31
0.0
  0
LINE
  5
3EE
100
AcDbEntity
  8
LAY-6
  6
CONTINUOUS
 62
     1
100
AcDbLine
 10
118.5
 20
104.5
 30
0.0
 11
118.5
 21
131.2
 31
0.0
  0
LINE
  5
3EF
100
AcDbEntity
  8
LAY-6
  6
CONTINUOUS
 62
     1
100
AcDbLine
 10
128.5
 20
97.5
 30
0.0
 11
128.5
 21
131.2
 31
0.0
  0
TEXT
  5
3F0
100
AcDbEntity
  8
LAY-6
  6
CONTINUOUS
 62
     2
100
AcDbText
 10
119.5
 20
130.2
 30
0.0
 40
5.0
  1
１０
 41
0.672
  7
EXCADSTD
 72
     5
 11
126.8328
 21
130.2
 31
0.0
100
AcDbText
  0
LINE
  5
3F1
100
AcDbEntity
  8
LAY-6
  6
CONTINUOUS
 62
     1
100
AcDbLine
 10
118.5
 20
129.7
 30
0.0
 11
128.5
 21
129.7
 31
0.0
  0
LINE
  5
3F2
100
AcDbEntity
  8
LAY-6
  6
CONTINUOUS
 62
     1
100
AcDbLine
 10
120.5
 20
130.033333
 30
0.0
 11
118.5
 21
129.7
 31
0.0
  0
LINE
  5
3F3
100
AcDbEntity
  8
LAY-6
  6
CONTINUOUS
 62
     1
100
AcDbLine
 10
118.5
 20
129.7
 30
0.0
 11
120.5
 21
129.366667
 31
0.0
  0
LINE
  5
3F4
100
AcDbEntity
  8
LAY-6
  6
CONTINUOUS
 62
     1
100
AcDbLine
 10
126.5
 20
129.366667
 30
0.0
 11
128.5
 21
129.7
 31
0.0
  0
LINE
  5
3F5
100
AcDbEntity
  8
LAY-6
  6
CONTINUOUS
 62
     1
100
AcDbLine
 10
128.5
 20
129.7
 30
0.0
 11
126.5
 21
130.033333
 31
0.0
  0
LINE
  5
3F6
100
AcDbEntity
  8
LAY-6
  6
CONTINUOUS
 62
     1
100
AcDbLine
 10
148.5
 20
107.5
 30
0.0
 11
148.5
 21
131.2
 31
0.0
  0
TEXT
  5
3F7
100
AcDbEntity
  8
LAY-6
  6
CONTINUOUS
 62
     2
100
AcDbText
 10
134.5
 20
130.2
 30
0.0
 40
5.0
  1
２０
 41
0.672
  7
EXCADSTD
 72
     5
 11
141.8328
 21
130.2
 31
0.0
100
AcDbText
  0
LINE
  5
3F8
100
AcDbEntity
  8
LAY-6
  6
CONTINUOUS
 62
     1
100
AcDbLine
 10
128.5
 20
129.7
 30
0.0
 11
148.5
 21
129.7
 31
0.0
  0
LINE
  5
3F9
100
AcDbEntity
  8
LAY-6
  6
CONTINUOUS
 62
     1
100
AcDbLine
 10
130.5
 20
130.033333
 30
0.0
 11
128.5
 21
129.7
 31
0.0
  0
LINE
  5
3FA
100
AcDbEntity
  8
LAY-6
  6
CONTINUOUS
 62
     1
100
AcDbLine
 10
128.5
 20
129.7
 30
0.0
 11
130.5
 21
129.366667
 31
0.0
  0
LINE
  5
3FB
100
AcDbEntity
  8
LAY-6
  6
CONTINUOUS
 62
     1
100
AcDbLine
 10
146.5
 20
129.366667
 30
0.0
 11
148.5
 21
129.7
 31
0.0
  0
LINE
  5
3FC
100
AcDbEntity
  8
LAY-6
  6
CONTINUOUS
 62
     1
100
AcDbLine
 10
148.5
 20
129.7
 30
0.0
 11
146.5
 21
130.033333
 31
0.0
  0
LINE
  5
3FD
100
AcDbEntity
  8
LAY-6
  6
CONTINUOUS
 62
     1
100
AcDbLine
 10
178.5
 20
97.5
 30
0.0
 11
178.5
 21
131.2
 31
0.0
  0
TEXT
  5
3FE
100
AcDbEntity
  8
LAY-6
  6
CONTINUOUS
 62
     2
100
AcDbText
 10
159.5
 20
130.2
 30
0.0
 40
5.0
  1
３０
 41
0.672
  7
EXCADSTD
 72
     5
 11
166.8328
 21
130.2
 31
0.0
100
AcDbText
  0
LINE
  5
3FF
100
AcDbEntity
  8
LAY-6
  6
CONTINUOUS
 62
     1
100
AcDbLine
 10
148.5
 20
129.7
 30
0.0
 11
178.5
 21
129.7
 31
0.0
  0
LINE
  5
400
100
AcDbEntity
  8
LAY-6
  6
CONTINUOUS
 62
     1
100
AcDbLine
 10
150.5
 20
130.033333
 30
0.0
 11
148.5
 21
129.7
 31
0.0
  0
LINE
  5
401
100
AcDbEntity
  8
LAY-6
  6
CONTINUOUS
 62
     1
100
AcDbLine
 10
148.5
 20
129.7
 30
0.0
 11
150.5
 21
129.366667
 31
0.0
  0
LINE
  5
402
100
AcDbEntity
  8
LAY-6
  6
CONTINUOUS
 62
     1
100
AcDbLine
 10
176.5
 20
129.366667
 30
0.0
 11
178.5
 21
129.7
 31
0.0
  0
LINE
  5
403
100
AcDbEntity
  8
LAY-6
  6
CONTINUOUS
 62
     1
100
AcDbLine
 10
178.5
 20
129.7
 30
0.0
 11
176.5
 21
130.033333
 31
0.0
  0
LINE
  5
404
100
AcDbEntity
  8
LAY-6
  6
CONTINUOUS
 62
     1
100
AcDbLine
 10
198.5
 20
107.5
 30
0.0
 11
198.5
 21
131.2
 31
0.0
  0
TEXT
  5
405
100
AcDbEntity
  8
LAY-6
  6
CONTINUOUS
 62
     2
100
AcDbText
 10
184.5
 20
130.2
 30
0.0
 40
5.0
  1
２０
 41
0.672
  7
EXCADSTD
 72
     5
 11
191.8328
 21
130.2
 31
0.0
100
AcDbText
  0
LINE
  5
406
100
AcDbEntity
  8
LAY-6
  6
CONTINUOUS
 62
     1
100
AcDbLine
 10
178.5
 20
129.7
 30
0.0
 11
198.5
 21
129.7
 31
0.0
  0
LINE
  5
407
100
AcDbEntity
  8
LAY-6
  6
CONTINUOUS
 62
     1
100
AcDbLine
 10
180.5
 20
130.033333
 30
0.0
 11
178.5
 21
129.7
 31
0.0
  0
LINE
  5
408
100
AcDbEntity
  8
LAY-6
  6
CONTINUOUS
 62
     1
100
AcDbLine
 10
178.5
 20
129.7
 30
0.0
 11
180.5
 21
129.366667
 31
0.0
  0
LINE
  5
409
100
AcDbEntity
  8
LAY-6
  6
CONTINUOUS
 62
     1
100
AcDbLine
 10
196.5
 20
129.366667
 30
0.0
 11
198.5
 21
129.7
 31
0.0
  0
LINE
  5
40A
100
AcDbEntity
  8
LAY-6
  6
CONTINUOUS
 62
     1
100
AcDbLine
 10
198.5
 20
129.7
 30
0.0
 11
196.5
 21
130.033333
 31
0.0
  0
TEXT
  5
40B
100
AcDbEntity
  8
LAY-6
  6
CONTINUOUS
 62
     2
100
AcDbText
 10
334.5
 20
265.2
 30
0.0
 40
5.0
  1
３
 41
0.672
  7
EXCADSTD
 72
     5
 11
337.7
 21
265.2
 31
0.0
100
AcDbText
  0
LINE
  5
40C
100
AcDbEntity
  8
LAY-6
  6
CONTINUOUS
 62
     1
100
AcDbLine
 10
330.0
 20
264.7
 30
0.0
 11
338.0
 21
264.7
 31
0.0
  0
LINE
  5
40D
100
AcDbEntity
  8
LAY-6
  6
CONTINUOUS
 62
     1
100
AcDbLine
 10
333.0
 20
264.366667
 30
0.0
 11
335.0
 21
264.7
 31
0.0
  0
LINE
  5
40E
100
AcDbEntity
  8
LAY-6
  6
CONTINUOUS
 62
     1
100
AcDbLine
 10
335.0
 20
264.7
 30
0.0
 11
333.0
 21
265.033333
 31
0.0
  0
TEXT
  5
40F
100
AcDbEntity
  8
LAY-6
  6
CONTINUOUS
 62
     2
100
AcDbText
 10
348.0
 20
265.2
 30
0.0
 40
5.0
  1
３６以上
 41
0.672
  7
EXCADSTD
 72
     5
 11
364.0
 21
265.2
 31
0.0
100
AcDbText
  0
LINE
  5
410
100
AcDbEntity
  8
LAY-6
  6
CONTINUOUS
 62
     1
100
AcDbLine
 10
338.0
 20
264.7
 30
0.0
 11
374.0
 21
264.7
 31
0.0
  0
LINE
  5
411
100
AcDbEntity
  8
LAY-6
  6
CONTINUOUS
 62
     1
100
AcDbLine
 10
340.0
 20
265.033333
 30
0.0
 11
338.0
 21
264.7
 31
0.0
  0
LINE
  5
412
100
AcDbEntity
  8
LAY-6
  6
CONTINUOUS
 62
     1
100
AcDbLine
 10
338.0
 20
264.7
 30
0.0
 11
340.0
 21
264.366667
 31
0.0
  0
LINE
  5
413
100
AcDbEntity
  8
LAY-6
  6
CONTINUOUS
 62
     1
100
AcDbLine
 10
372.0
 20
264.366667
 30
0.0
 11
374.0
 21
264.7
 31
0.0
  0
LINE
  5
414
100
AcDbEntity
  8
LAY-6
  6
CONTINUOUS
 62
     1
100
AcDbLine
 10
374.0
 20
264.7
 30
0.0
 11
372.0
 21
265.033333
 31
0.0
  0
TEXT
  5
415
100
AcDbEntity
  8
LAY-6
  6
CONTINUOUS
 62
     2
100
AcDbText
 10
378.25
 20
265.4
 30
0.0
 40
5.0
  1
３.５以上
 41
0.62784
  7
EXCADSTD
 72
     5
 11
396.25
 21
265.4
 31
0.0
100
AcDbText
  0
LINE
  5
416
100
AcDbEntity
  8
LAY-6
  6
CONTINUOUS
 62
     1
100
AcDbLine
 10
374.0
 20
264.7
 30
0.0
 11
396.9
 21
264.7
 31
0.0
  0
LINE
  5
417
100
AcDbEntity
  8
LAY-6
  6
CONTINUOUS
 62
     1
100
AcDbLine
 10
379.5
 20
265.033333
 30
0.0
 11
377.5
 21
264.7
 31
0.0
  0
LINE
  5
418
100
AcDbEntity
  8
LAY-6
  6
CONTINUOUS
 62
     1
100
AcDbLine
 10
377.5
 20
264.7
 30
0.0
 11
379.5
 21
264.366667
 31
0.0
  0
CIRCLE
  5
419
100
AcDbEntity
  8
LAY-6
  6
CONTINUOUS
 62
     1
100
AcDbCircle
 10
286.4
 20
360.7
 30
0.0
 40
4.0
  0
TEXT
  5
41A
100
AcDbEntity
  8
LAY-6
  6
CONTINUOUS
 62
     2
100
AcDbText
 10
284.371573
 20
357.871573
 30
0.0
 40
5.656854
  1
1
  7
EXCADSTD
 72
     5
 11
288.048528
 21
357.871573
 31
0.0
100
AcDbText
  0
POLYLINE
  5
41B
100
AcDbEntity
  8
LAY-6
  6
CONTINUOUS
 62
     1
100
AcDb2dPolyline
 66
     1
 10
0.0
 20
0.0
 30
0.0
 70
   128
  0
VERTEX
  5
41C
100
AcDbEntity
  8
LAY-6
  6
CONTINUOUS
 62
     1
100
AcDbVertex
100
AcDb2dVertex
 10
307.7
 20
329.2
 30
0.0
  0
VERTEX
  5
41D
100
AcDbEntity
  8
LAY-6
  6
CONTINUOUS
 62
     1
100
AcDbVertex
100
AcDb2dVertex
 10
288.640601
 20
357.386436
 30
0.0
  0
SEQEND
  5
41E
100
AcDbEntity
  8
LAY-6
  6
CONTINUOUS
 62
     1
  0
LINE
  5
41F
100
AcDbEntity
  8
LAY-6
  6
CONTINUOUS
 62
     1
100
AcDbLine
 10
306.303569
 20
330.670065
 30
0.0
 11
307.7
 21
329.2
 31
0.0
  0
LINE
  5
420
100
AcDbEntity
  8
LAY-6
  6
CONTINUOUS
 62
     1
100
AcDbLine
 10
307.7
 20
329.2
 30
0.0
 11
306.85583
 21
331.043499
 31
0.0
  0
CIRCLE
  5
421
100
AcDbEntity
  8
LAY-6
  6
CONTINUOUS
 62
     1
100
AcDbCircle
 10
287.4
 20
266.5
 30
0.0
 40
4.0
  0
TEXT
  5
422
100
AcDbEntity
  8
LAY-6
  6
CONTINUOUS
 62
     2
100
AcDbText
 10
285.371573
 20
263.671573
 30
0.0
 40
5.656854
  1
2
  7
EXCADSTD
 72
     5
 11
289.048528
 21
263.671573
 31
0.0
100
AcDbText
  0
POLYLINE
  5
423
100
AcDbEntity
  8
LAY-6
  6
CONTINUOUS
 62
     1
100
AcDb2dPolyline
 66
     1
 10
0.0
 20
0.0
 30
0.0
 70
   128
  0
VERTEX
  5
424
100
AcDbEntity
  8
LAY-6
  6
CONTINUOUS
 62
     1
100
AcDbVertex
100
AcDb2dVertex
 10
306.5
 20
295.0
 30
0.0
  0
VERTEX
  5
425
100
AcDbEntity
  8
LAY-6
  6
CONTINUOUS
 62
     1
100
AcDbVertex
100
AcDb2dVertex
 10
289.626866
 20
269.82281
 30
0.0
  0
SEQEND
  5
426
100
AcDbEntity
  8
LAY-6
  6
CONTINUOUS
 62
     1
  0
LINE
  5
427
100
AcDbEntity
  8
LAY-6
  6
CONTINUOUS
 62
     1
100
AcDbLine
 10
305.663468
 20
293.153023
 30
0.0
 11
306.5
 21
295.0
 31
0.0
  0
LINE
  5
428
100
AcDbEntity
  8
LAY-6
  6
CONTINUOUS
 62
     1
100
AcDbLine
 10
306.5
 20
295.0
 30
0.0
 11
305.109666
 21
293.524167
 31
0.0
  0
CIRCLE
  5
429
100
AcDbEntity
  8
LAY-6
  6
CONTINUOUS
 62
     1
100
AcDbCircle
 10
289.5
 20
204.5
 30
0.0
 40
4.0
  0
TEXT
  5
42A
100
AcDbEntity
  8
LAY-6
  6
CONTINUOUS
 62
     2
100
AcDbText
 10
287.471573
 20
201.671573
 30
0.0
 40
5.656854
  1
3
  7
EXCADSTD
 72
     5
 11
291.148528
 21
201.671573
 31
0.0
100
AcDbText
  0
POLYLINE
  5
42B
100
AcDbEntity
  8
LAY-6
  6
CONTINUOUS
 62
     1
100
AcDb2dPolyline
 66
     1
 10
0.0
 20
0.0
 30
0.0
 70
   128
  0
VERTEX
  5
42C
100
AcDbEntity
  8
LAY-6
  6
CONTINUOUS
 62
     1
100
AcDbVertex
100
AcDb2dVertex
 10
307.7
 20
175.3
 30
0.0
  0
VERTEX
  5
42D
100
AcDbEntity
  8
LAY-6
  6
CONTINUOUS
 62
     1
100
AcDbVertex
100
AcDb2dVertex
 10
291.615814
 20
201.105397
 30
0.0
  0
SEQEND
  5
42E
100
AcDbEntity
  8
LAY-6
  6
CONTINUOUS
 62
     1
  0
LINE
  5
42F
100
AcDbEntity
  8
LAY-6
  6
CONTINUOUS
 62
     1
100
AcDbLine
 10
306.359209
 20
176.820984
 30
0.0
 11
307.7
 21
175.3
 31
0.0
  0
LINE
  5
430
100
AcDbEntity
  8
LAY-6
  6
CONTINUOUS
 62
     1
100
AcDbLine
 10
307.7
 20
175.3
 30
0.0
 11
306.924976
 21
177.173619
 31
0.0
  0
CIRCLE
  5
431
100
AcDbEntity
  8
LAY-6
  6
CONTINUOUS
 62
     1
100
AcDbCircle
 10
298.9
 20
119.4
 30
0.0
 40
4.0
  0
TEXT
  5
432
100
AcDbEntity
  8
LAY-6
  6
CONTINUOUS
 62
     2
100
AcDbText
 10
296.871573
 20
116.571573
 30
0.0
 40
5.656854
  1
4
  7
EXCADSTD
 72
     5
 11
300.548528
 21
116.571573
 31
0.0
100
AcDbText
  0
POLYLINE
  5
433
100
AcDbEntity
  8
LAY-6
  6
CONTINUOUS
 62
     1
100
AcDb2dPolyline
 66
     1
 10
0.0
 20
0.0
 30
0.0
 70
   128
  0
VERTEX
  5
434
100
AcDbEntity
  8
LAY-6
  6
CONTINUOUS
 62
     1
100
AcDbVertex
100
AcDb2dVertex
 10
313.4
 20
143.1
 30
0.0
  0
VERTEX
  5
435
100
AcDbEntity
  8
LAY-6
  6
CONTINUOUS
 62
     1
100
AcDbVertex
100
AcDb2dVertex
 10
300.987547
 20
122.812059
 30
0.0
  0
SEQEND
  5
436
100
AcDbEntity
  8
LAY-6
  6
CONTINUOUS
 62
     1
  0
LINE
  5
437
100
AcDbEntity
  8
LAY-6
  6
CONTINUOUS
 62
     1
100
AcDbLine
 10
312.640565
 20
141.220008
 30
0.0
 11
313.4
 21
143.1
 31
0.0
  0
LINE
  5
438
100
AcDbEntity
  8
LAY-6
  6
CONTINUOUS
 62
     1
100
AcDbLine
 10
313.4
 20
143.1
 30
0.0
 11
312.071888
 21
141.567933
 31
0.0
  0
TEXT
  5
439
100
AcDbEntity
  8
LAY-6
  6
CONTINUOUS
 62
     2
100
AcDbText
 10
328.3
 20
11.9
 30
0.0
 40
5.0
  1
電解研磨
 41
0.672
  7
EXCADSTD
 72
     5
 11
344.3
 21
11.9
 31
0.0
100
AcDbText
  0
LINE
  5
43A
100
AcDbEntity
  8
LAY-6
  6
CONTINUOUS
 62
     1
100
AcDbLine
 10
121.0
 20
364.0
 30
0.0
 11
121.0
 21
371.5
 31
0.0
  0
LINE
  5
43B
100
AcDbEntity
  8
LAY-6
  6
CONTINUOUS
 62
     1
100
AcDbLine
 10
131.0
 20
337.5
 30
0.0
 11
131.0
 21
371.5
 31
0.0
  0
TEXT
  5
43C
100
AcDbEntity
  8
LAY-6
  6
CONTINUOUS
 62
     2
100
AcDbText
 10
123.4
 20
370.5
 30
0.0
 40
5.0
  1
１０
 41
0.672
  7
EXCADSTD
 72
     5
 11
130.7328
 21
370.5
 31
0.0
100
AcDbText
  0
LINE
  5
43D
100
AcDbEntity
  8
LAY-6
  6
CONTINUOUS
 62
     1
100
AcDbLine
 10
121.0
 20
370.0
 30
0.0
 11
131.0
 21
370.0
 31
0.0
  0
LINE
  5
43E
100
AcDbEntity
  8
LAY-6
  6
CONTINUOUS
 62
     1
100
AcDbLine
 10
123.0
 20
370.333333
 30
0.0
 11
121.0
 21
370.0
 31
0.0
  0
LINE
  5
43F
100
AcDbEntity
  8
LAY-6
  6
CONTINUOUS
 62
     1
100
AcDbLine
 10
121.0
 20
370.0
 30
0.0
 11
123.0
 21
369.666667
 31
0.0
  0
LINE
  5
440
100
AcDbEntity
  8
LAY-6
  6
CONTINUOUS
 62
     1
100
AcDbLine
 10
129.0
 20
369.666667
 30
0.0
 11
131.0
 21
370.0
 31
0.0
  0
LINE
  5
441
100
AcDbEntity
  8
LAY-6
  6
CONTINUOUS
 62
     1
100
AcDbLine
 10
131.0
 20
370.0
 30
0.0
 11
129.0
 21
370.333333
 31
0.0
  0
LINE
  5
442
100
AcDbEntity
  8
LAY-6
  6
CONTINUOUS
 62
     1
100
AcDbLine
 10
151.0
 20
343.5
 30
0.0
 11
151.0
 21
371.5
 31
0.0
  0
TEXT
  5
443
100
AcDbEntity
  8
LAY-6
  6
CONTINUOUS
 62
     2
100
AcDbText
 10
137.0
 20
370.5
 30
0.0
 40
5.0
  1
２０
 41
0.672
  7
EXCADSTD
 72
     5
 11
144.3328
 21
370.5
 31
0.0
100
AcDbText
  0
LINE
  5
444
100
AcDbEntity
  8
LAY-6
  6
CONTINUOUS
 62
     1
100
AcDbLine
 10
131.0
 20
370.0
 30
0.0
 11
151.0
 21
370.0
 31
0.0
  0
LINE
  5
445
100
AcDbEntity
  8
LAY-6
  6
CONTINUOUS
 62
     1
100
AcDbLine
 10
133.0
 20
370.333333
 30
0.0
 11
131.0
 21
370.0
 31
0.0
  0
LINE
  5
446
100
AcDbEntity
  8
LAY-6
  6
CONTINUOUS
 62
     1
100
AcDbLine
 10
131.0
 20
370.0
 30
0.0
 11
133.0
 21
369.666667
 31
0.0
  0
LINE
  5
447
100
AcDbEntity
  8
LAY-6
  6
CONTINUOUS
 62
     1
100
AcDbLine
 10
149.0
 20
369.666667
 30
0.0
 11
151.0
 21
370.0
 31
0.0
  0
LINE
  5
448
100
AcDbEntity
  8
LAY-6
  6
CONTINUOUS
 62
     1
100
AcDbLine
 10
151.0
 20
370.0
 30
0.0
 11
149.0
 21
370.333333
 31
0.0
  0
LINE
  5
449
100
AcDbEntity
  8
LAY-6
  6
CONTINUOUS
 62
     1
100
AcDbLine
 10
181.0
 20
337.5
 30
0.0
 11
181.0
 21
371.5
 31
0.0
  0
TEXT
  5
44A
100
AcDbEntity
  8
LAY-6
  6
CONTINUOUS
 62
     2
100
AcDbText
 10
162.0
 20
370.5
 30
0.0
 40
5.0
  1
３０
 41
0.672
  7
EXCADSTD
 72
     5
 11
169.3328
 21
370.5
 31
0.0
100
AcDbText
  0
LINE
  5
44B
100
AcDbEntity
  8
LAY-6
  6
CONTINUOUS
 62
     1
100
AcDbLine
 10
151.0
 20
370.0
 30
0.0
 11
181.0
 21
370.0
 31
0.0
  0
LINE
  5
44C
100
AcDbEntity
  8
LAY-6
  6
CONTINUOUS
 62
     1
100
AcDbLine
 10
153.0
 20
370.333333
 30
0.0
 11
151.0
 21
370.0
 31
0.0
  0
LINE
  5
44D
100
AcDbEntity
  8
LAY-6
  6
CONTINUOUS
 62
     1
100
AcDbLine
 10
151.0
 20
370.0
 30
0.0
 11
153.0
 21
369.666667
 31
0.0
  0
LINE
  5
44E
100
AcDbEntity
  8
LAY-6
  6
CONTINUOUS
 62
     1
100
AcDbLine
 10
179.0
 20
369.666667
 30
0.0
 11
181.0
 21
370.0
 31
0.0
  0
LINE
  5
44F
100
AcDbEntity
  8
LAY-6
  6
CONTINUOUS
 62
     1
100
AcDbLine
 10
181.0
 20
370.0
 30
0.0
 11
179.0
 21
370.333333
 31
0.0
  0
LINE
  5
450
100
AcDbEntity
  8
LAY-6
  6
CONTINUOUS
 62
     1
100
AcDbLine
 10
201.0
 20
343.5
 30
0.0
 11
201.0
 21
371.5
 31
0.0
  0
TEXT
  5
451
100
AcDbEntity
  8
LAY-6
  6
CONTINUOUS
 62
     2
100
AcDbText
 10
187.0
 20
370.5
 30
0.0
 40
5.0
  1
２０
 41
0.672
  7
EXCADSTD
 72
     5
 11
194.3328
 21
370.5
 31
0.0
100
AcDbText
  0
LINE
  5
452
100
AcDbEntity
  8
LAY-6
  6
CONTINUOUS
 62
     1
100
AcDbLine
 10
181.0
 20
370.0
 30
0.0
 11
201.0
 21
370.0
 31
0.0
  0
LINE
  5
453
100
AcDbEntity
  8
LAY-6
  6
CONTINUOUS
 62
     1
100
AcDbLine
 10
183.0
 20
370.333333
 30
0.0
 11
181.0
 21
370.0
 31
0.0
  0
LINE
  5
454
100
AcDbEntity
  8
LAY-6
  6
CONTINUOUS
 62
     1
100
AcDbLine
 10
181.0
 20
370.0
 30
0.0
 11
183.0
 21
369.666667
 31
0.0
  0
LINE
  5
455
100
AcDbEntity
  8
LAY-6
  6
CONTINUOUS
 62
     1
100
AcDbLine
 10
199.0
 20
369.666667
 30
0.0
 11
201.0
 21
370.0
 31
0.0
  0
LINE
  5
456
100
AcDbEntity
  8
LAY-6
  6
CONTINUOUS
 62
     1
100
AcDbLine
 10
201.0
 20
370.0
 30
0.0
 11
199.0
 21
370.333333
 31
0.0
  0
TEXT
  5
457
100
AcDbEntity
  8
LAY-6
  6
CONTINUOUS
 62
     2
100
AcDbText
 10
192.8
 20
331.5
 30
0.0
 40
5.0
  1
７
 50
90.0
 41
0.672
  7
EXCADSTD
 72
     5
 11
192.8
 21
334.7
 31
0.0
100
AcDbText
  0
LINE
  5
458
100
AcDbEntity
  8
LAY-6
  6
CONTINUOUS
 62
     1
100
AcDbLine
 10
193.3
 20
330.0
 30
0.0
 11
193.3
 21
337.0
 31
0.0
  0
LINE
  5
459
100
AcDbEntity
  8
LAY-6
  6
CONTINUOUS
 62
     1
100
AcDbLine
 10
192.966667
 20
332.0
 30
0.0
 11
193.3
 21
330.0
 31
0.0
  0
LINE
  5
45A
100
AcDbEntity
  8
LAY-6
  6
CONTINUOUS
 62
     1
100
AcDbLine
 10
193.3
 20
330.0
 30
0.0
 11
193.633333
 21
332.0
 31
0.0
  0
LINE
  5
45B
100
AcDbEntity
  8
LAY-6
  6
CONTINUOUS
 62
     1
100
AcDbLine
 10
193.633333
 20
335.0
 30
0.0
 11
193.3
 21
337.0
 31
0.0
  0
LINE
  5
45C
100
AcDbEntity
  8
LAY-6
  6
CONTINUOUS
 62
     1
100
AcDbLine
 10
193.3
 20
337.0
 30
0.0
 11
192.966667
 21
335.0
 31
0.0
  0
TEXT
  5
45D
100
AcDbEntity
  8
LAY-6
  6
CONTINUOUS
 62
     2
100
AcDbText
 10
192.8
 20
338.0
 30
0.0
 40
5.0
  1
６
 50
90.0
 41
0.672
  7
EXCADSTD
 72
     5
 11
192.8
 21
341.2
 31
0.0
100
AcDbText
  0
LINE
  5
45E
100
AcDbEntity
  8
LAY-6
  6
CONTINUOUS
 62
     1
100
AcDbLine
 10
193.3
 20
337.0
 30
0.0
 11
193.3
 21
348.0
 31
0.0
  0
LINE
  5
45F
100
AcDbEntity
  8
LAY-6
  6
CONTINUOUS
 62
     1
100
AcDbLine
 10
192.966667
 20
345.0
 30
0.0
 11
193.3
 21
343.0
 31
0.0
  0
LINE
  5
460
100
AcDbEntity
  8
LAY-6
  6
CONTINUOUS
 62
     1
100
AcDbLine
 10
193.3
 20
343.0
 30
0.0
 11
193.633333
 21
345.0
 31
0.0
  0
TEXT
  5
461
100
AcDbEntity
  8
LAY-6
  6
CONTINUOUS
 62
     2
100
AcDbText
 10
325.7
 20
21.7
 30
0.0
 40
5.0
  1
ＳＣＳ１４
 41
0.672
  7
EXCADSTD
 72
     5
 11
345.7
 21
21.7
 31
0.0
100
AcDbText
  0
LINE
  5
462
100
AcDbEntity
  8
LAY-6
  6
CONTINUOUS
 62
     1
100
AcDbLine
 10
378.0
 20
138.0
 30
0.0
 11
410.6
 21
138.0
 31
0.0
  0
LINE
  5
463
100
AcDbEntity
  8
LAY-6
  6
CONTINUOUS
 62
     1
100
AcDbLine
 10
374.5
 20
144.0
 30
0.0
 11
410.6
 21
144.0
 31
0.0
  0
TEXT
  5
464
100
AcDbEntity
  8
LAY-6
  6
CONTINUOUS
 62
     2
100
AcDbText
 10
408.6
 20
139.0
 30
0.0
 40
5.0
  1
６
 50
90.0
 41
0.672
  7
EXCADSTD
 72
     5
 11
408.6
 21
142.2
 31
0.0
100
AcDbText
  0
LINE
  5
465
100
AcDbEntity
  8
LAY-6
  6
CONTINUOUS
 62
     1
100
AcDbLine
 10
409.1
 20
138.0
 30
0.0
 11
409.1
 21
144.0
 31
0.0
  0
LINE
  5
466
100
AcDbEntity
  8
LAY-6
  6
CONTINUOUS
 62
     1
100
AcDbLine
 10
408.766667
 20
140.0
 30
0.0
 11
409.1
 21
138.0
 31
0.0
  0
LINE
  5
467
100
AcDbEntity
  8
LAY-6
  6
CONTINUOUS
 62
     1
100
AcDbLine
 10
409.1
 20
138.0
 30
0.0
 11
409.433333
 21
140.0
 31
0.0
  0
LINE
  5
468
100
AcDbEntity
  8
LAY-6
  6
CONTINUOUS
 62
     1
100
AcDbLine
 10
409.433333
 20
142.0
 30
0.0
 11
409.1
 21
144.0
 31
0.0
  0
LINE
  5
469
100
AcDbEntity
  8
LAY-6
  6
CONTINUOUS
 62
     1
100
AcDbLine
 10
409.1
 20
144.0
 30
0.0
 11
408.766667
 21
142.0
 31
0.0
  0
LINE
  5
46A
100
AcDbEntity
  8
LAY-6
  6
CONTINUOUS
 62
     1
100
AcDbLine
 10
374.5
 20
144.0
 30
0.0
 11
410.8
 21
144.0
 31
0.0
  0
LINE
  5
46B
100
AcDbEntity
  8
LAY-6
  6
CONTINUOUS
 62
     1
100
AcDbLine
 10
372.9
 20
311.0
 30
0.0
 11
410.8
 21
311.0
 31
0.0
  0
LINE
  5
46C
100
AcDbEntity
  8
LAY-6
  6
CONTINUOUS
 62
     1
100
AcDbLine
 10
409.3
 20
144.0
 30
0.0
 11
409.3
 21
311.0
 31
0.0
  0
LINE
  5
46D
100
AcDbEntity
  8
LAY-6
  6
CONTINUOUS
 62
     1
100
AcDbLine
 10
408.966667
 20
146.0
 30
0.0
 11
409.3
 21
144.0
 31
0.0
  0
LINE
  5
46E
100
AcDbEntity
  8
LAY-6
  6
CONTINUOUS
 62
     1
100
AcDbLine
 10
409.3
 20
144.0
 30
0.0
 11
409.633333
 21
146.0
 31
0.0
  0
LINE
  5
46F
100
AcDbEntity
  8
LAY-6
  6
CONTINUOUS
 62
     1
100
AcDbLine
 10
409.633333
 20
309.0
 30
0.0
 11
409.3
 21
311.0
 31
0.0
  0
LINE
  5
470
100
AcDbEntity
  8
LAY-6
  6
CONTINUOUS
 62
     1
100
AcDbLine
 10
409.3
 20
311.0
 30
0.0
 11
408.966667
 21
309.0
 31
0.0
  0
LINE
  5
471
100
AcDbEntity
  8
LAY-6
  6
CONTINUOUS
 62
     1
100
AcDbLine
 10
368.5
 20
151.0
 30
0.0
 11
388.4
 21
151.0
 31
0.0
  0
LINE
  5
472
100
AcDbEntity
  8
LAY-6
  6
CONTINUOUS
 62
     1
100
AcDbLine
 10
368.5
 20
166.0
 30
0.0
 11
388.4
 21
166.0
 31
0.0
  0
TEXT
  5
473
100
AcDbEntity
  8
LAY-6
  6
CONTINUOUS
 62
     2
100
AcDbText
 10
386.4
 20
155.2
 30
0.0
 40
5.0
  1
１５
 50
90.0
 41
0.672
  7
EXCADSTD
 72
     5
 11
386.4
 21
162.5328
 31
0.0
100
AcDbText
  0
LINE
  5
474
100
AcDbEntity
  8
LAY-6
  6
CONTINUOUS
 62
     1
100
AcDbLine
 10
386.9
 20
151.0
 30
0.0
 11
386.9
 21
166.0
 31
0.0
  0
LINE
  5
475
100
AcDbEntity
  8
LAY-6
  6
CONTINUOUS
 62
     1
100
AcDbLine
 10
386.566667
 20
153.0
 30
0.0
 11
386.9
 21
151.0
 31
0.0
  0
LINE
  5
476
100
AcDbEntity
  8
LAY-6
  6
CONTINUOUS
 62
     1
100
AcDbLine
 10
386.9
 20
151.0
 30
0.0
 11
387.233333
 21
153.0
 31
0.0
  0
LINE
  5
477
100
AcDbEntity
  8
LAY-6
  6
CONTINUOUS
 62
     1
100
AcDbLine
 10
387.233333
 20
164.0
 30
0.0
 11
386.9
 21
166.0
 31
0.0
  0
LINE
  5
478
100
AcDbEntity
  8
LAY-6
  6
CONTINUOUS
 62
     1
100
AcDbLine
 10
386.9
 20
166.0
 30
0.0
 11
386.566667
 21
164.0
 31
0.0
  0
LINE
  5
479
100
AcDbEntity
  8
LAY-6
  6
CONTINUOUS
 62
     1
100
AcDbLine
 10
374.5
 20
144.0
 30
0.0
 11
388.4
 21
144.0
 31
0.0
  0
TEXT
  5
47A
100
AcDbEntity
  8
LAY-6
  6
CONTINUOUS
 62
     2
100
AcDbText
 10
386.4
 20
145.5
 30
0.0
 40
5.0
  1
７
 50
90.0
 41
0.672
  7
EXCADSTD
 72
     5
 11
386.4
 21
148.7
 31
0.0
100
AcDbText
  0
LINE
  5
47B
100
AcDbEntity
  8
LAY-6
  6
CONTINUOUS
 62
     1
100
AcDbLine
 10
386.9
 20
144.0
 30
0.0
 11
386.9
 21
151.0
 31
0.0
  0
LINE
  5
47C
100
AcDbEntity
  8
LAY-6
  6
CONTINUOUS
 62
     1
100
AcDbLine
 10
386.566667
 20
146.0
 30
0.0
 11
386.9
 21
144.0
 31
0.0
  0
LINE
  5
47D
100
AcDbEntity
  8
LAY-6
  6
CONTINUOUS
 62
     1
100
AcDbLine
 10
386.9
 20
144.0
 30
0.0
 11
387.233333
 21
146.0
 31
0.0
  0
LINE
  5
47E
100
AcDbEntity
  8
LAY-6
  6
CONTINUOUS
 62
     1
100
AcDbLine
 10
387.233333
 20
149.0
 30
0.0
 11
386.9
 21
151.0
 31
0.0
  0
LINE
  5
47F
100
AcDbEntity
  8
LAY-6
  6
CONTINUOUS
 62
     1
100
AcDbLine
 10
386.9
 20
151.0
 30
0.0
 11
386.566667
 21
149.0
 31
0.0
  0
TEXT
  5
480
100
AcDbEntity
  8
LAY-6
  6
CONTINUOUS
 62
     2
100
AcDbText
 10
371.6
 20
31.1
 30
0.0
 40
6.0
  1
ＰＨ．ＳＵＳ３Ｃ　納まり図
 41
0.672
  7
EXCADSTD
 72
     5
 11
434.000002
 21
31.1
 31
0.0
100
AcDbText
  0
LINE
  5
481
100
AcDbEntity
  8
LAY-6
  6
CONTINUOUS
 62
     1
100
AcDbLine
 10
477.5
 20
227.5
 30
0.0
 11
477.5
 21
232.8
 31
0.0
  0
LINE
  5
482
100
AcDbEntity
  8
LAY-6
  6
CONTINUOUS
 62
     1
100
AcDbLine
 10
492.5
 20
227.5
 30
0.0
 11
492.5
 21
232.8
 31
0.0
  0
TEXT
  5
483
100
AcDbEntity
  8
LAY-6
  6
CONTINUOUS
 62
     2
100
AcDbText
 10
481.0
 20
231.8
 30
0.0
 40
5.0
  1
１５
 41
0.672
  7
EXCADSTD
 72
     5
 11
488.3328
 21
231.8
 31
0.0
100
AcDbText
  0
LINE
  5
484
100
AcDbEntity
  8
LAY-6
  6
CONTINUOUS
 62
     1
100
AcDbLine
 10
477.5
 20
231.3
 30
0.0
 11
492.5
 21
231.3
 31
0.0
  0
LINE
  5
485
100
AcDbEntity
  8
LAY-6
  6
CONTINUOUS
 62
     1
100
AcDbLine
 10
479.5
 20
231.633333
 30
0.0
 11
477.5
 21
231.3
 31
0.0
  0
LINE
  5
486
100
AcDbEntity
  8
LAY-6
  6
CONTINUOUS
 62
     1
100
AcDbLine
 10
477.5
 20
231.3
 30
0.0
 11
479.5
 21
230.966667
 31
0.0
  0
LINE
  5
487
100
AcDbEntity
  8
LAY-6
  6
CONTINUOUS
 62
     1
100
AcDbLine
 10
490.5
 20
230.966667
 30
0.0
 11
492.5
 21
231.3
 31
0.0
  0
LINE
  5
488
100
AcDbEntity
  8
LAY-6
  6
CONTINUOUS
 62
     1
100
AcDbLine
 10
492.5
 20
231.3
 30
0.0
 11
490.5
 21
231.633333
 31
0.0
  0
LINE
  5
489
100
AcDbEntity
  8
LAY-6
  6
CONTINUOUS
 62
     1
100
AcDbLine
 10
501.5
 20
209.5
 30
0.0
 11
501.5
 21
232.8
 31
0.0
  0
TEXT
  5
48A
100
AcDbEntity
  8
LAY-6
  6
CONTINUOUS
 62
     2
100
AcDbText
 10
496.7
 20
231.8
 30
0.0
 40
5.0
  1
９
 41
0.672
  7
EXCADSTD
 72
     5
 11
499.9
 21
231.8
 31
0.0
100
AcDbText
  0
LINE
  5
48B
100
AcDbEntity
  8
LAY-6
  6
CONTINUOUS
 62
     1
100
AcDbLine
 10
492.5
 20
231.3
 30
0.0
 11
501.5
 21
231.3
 31
0.0
  0
LINE
  5
48C
100
AcDbEntity
  8
LAY-6
  6
CONTINUOUS
 62
     1
100
AcDbLine
 10
494.5
 20
231.633333
 30
0.0
 11
492.5
 21
231.3
 31
0.0
  0
LINE
  5
48D
100
AcDbEntity
  8
LAY-6
  6
CONTINUOUS
 62
     1
100
AcDbLine
 10
492.5
 20
231.3
 30
0.0
 11
494.5
 21
230.966667
 31
0.0
  0
LINE
  5
48E
100
AcDbEntity
  8
LAY-6
  6
CONTINUOUS
 62
     1
100
AcDbLine
 10
499.5
 20
230.966667
 30
0.0
 11
501.5
 21
231.3
 31
0.0
  0
LINE
  5
48F
100
AcDbEntity
  8
LAY-6
  6
CONTINUOUS
 62
     1
100
AcDbLine
 10
501.5
 20
231.3
 30
0.0
 11
499.5
 21
231.633333
 31
0.0
  0
LINE
  5
490
100
AcDbEntity
  8
LAY-6
  6
CONTINUOUS
 62
     1
100
AcDbLine
 10
525.5
 20
209.5
 30
0.0
 11
525.5
 21
232.8
 31
0.0
  0
TEXT
  5
491
100
AcDbEntity
  8
LAY-6
  6
CONTINUOUS
 62
     2
100
AcDbText
 10
509.5
 20
231.8
 30
0.0
 40
5.0
  1
２４
 41
0.672
  7
EXCADSTD
 72
     5
 11
516.8328
 21
231.8
 31
0.0
100
AcDbText
  0
LINE
  5
492
100
AcDbEntity
  8
LAY-6
  6
CONTINUOUS
 62
     1
100
AcDbLine
 10
501.5
 20
231.3
 30
0.0
 11
525.5
 21
231.3
 31
0.0
  0
LINE
  5
493
100
AcDbEntity
  8
LAY-6
  6
CONTINUOUS
 62
     1
100
AcDbLine
 10
503.5
 20
231.633333
 30
0.0
 11
501.5
 21
231.3
 31
0.0
  0
LINE
  5
494
100
AcDbEntity
  8
LAY-6
  6
CONTINUOUS
 62
     1
100
AcDbLine
 10
501.5
 20
231.3
 30
0.0
 11
503.5
 21
230.966667
 31
0.0
  0
LINE
  5
495
100
AcDbEntity
  8
LAY-6
  6
CONTINUOUS
 62
     1
100
AcDbLine
 10
523.5
 20
230.966667
 30
0.0
 11
525.5
 21
231.3
 31
0.0
  0
LINE
  5
496
100
AcDbEntity
  8
LAY-6
  6
CONTINUOUS
 62
     1
100
AcDbLine
 10
525.5
 20
231.3
 30
0.0
 11
523.5
 21
231.633333
 31
0.0
  0
LINE
  5
497
100
AcDbEntity
  8
LAY-6
  6
CONTINUOUS
 62
     1
100
AcDbLine
 10
543.3
 20
138.0
 30
0.0
 11
550.3
 21
138.0
 31
0.0
  0
LINE
  5
498
100
AcDbEntity
  8
LAY-6
  6
CONTINUOUS
 62
     1
100
AcDbLine
 10
501.5
 20
149.0
 30
0.0
 11
550.3
 21
149.0
 31
0.0
  0
TEXT
  5
499
100
AcDbEntity
  8
LAY-6
  6
CONTINUOUS
 62
     2
100
AcDbText
 10
548.3
 20
139.5
 30
0.0
 40
5.0
  1
１１
 50
90.0
 41
0.672
  7
EXCADSTD
 72
     5
 11
548.3
 21
146.8328
 31
0.0
100
AcDbText
  0
LINE
  5
49A
100
AcDbEntity
  8
LAY-6
  6
CONTINUOUS
 62
     1
100
AcDbLine
 10
548.8
 20
138.0
 30
0.0
 11
548.8
 21
149.0
 31
0.0
  0
LINE
  5
49B
100
AcDbEntity
  8
LAY-6
  6
CONTINUOUS
 62
     1
100
AcDbLine
 10
548.466667
 20
140.0
 30
0.0
 11
548.8
 21
138.0
 31
0.0
  0
LINE
  5
49C
100
AcDbEntity
  8
LAY-6
  6
CONTINUOUS
 62
     1
100
AcDbLine
 10
548.8
 20
138.0
 30
0.0
 11
549.133333
 21
140.0
 31
0.0
  0
LINE
  5
49D
100
AcDbEntity
  8
LAY-6
  6
CONTINUOUS
 62
     1
100
AcDbLine
 10
549.133333
 20
147.0
 30
0.0
 11
548.8
 21
149.0
 31
0.0
  0
LINE
  5
49E
100
AcDbEntity
  8
LAY-6
  6
CONTINUOUS
 62
     1
100
AcDbLine
 10
548.8
 20
149.0
 30
0.0
 11
548.466667
 21
147.0
 31
0.0
  0
LINE
  5
49F
100
AcDbEntity
  8
LAY-6
  6
CONTINUOUS
 62
     1
100
AcDbLine
 10
521.0
 20
214.0
 30
0.0
 11
550.3
 21
214.0
 31
0.0
  0
TEXT
  5
4A0
100
AcDbEntity
  8
LAY-6
  6
CONTINUOUS
 62
     2
100
AcDbText
 10
548.3
 20
177.5
 30
0.0
 40
5.0
  1
６５
 50
90.0
 41
0.672
  7
EXCADSTD
 72
     5
 11
548.3
 21
184.8328
 31
0.0
100
AcDbText
  0
LINE
  5
4A1
100
AcDbEntity
  8
LAY-6
  6
CONTINUOUS
 62
     1
100
AcDbLine
 10
548.8
 20
149.0
 30
0.0
 11
548.8
 21
214.0
 31
0.0
  0
LINE
  5
4A2
100
AcDbEntity
  8
LAY-6
  6
CONTINUOUS
 62
     1
100
AcDbLine
 10
548.466667
 20
151.0
 30
0.0
 11
548.8
 21
149.0
 31
0.0
  0
LINE
  5
4A3
100
AcDbEntity
  8
LAY-6
  6
CONTINUOUS
 62
     1
100
AcDbLine
 10
548.8
 20
149.0
 30
0.0
 11
549.133333
 21
151.0
 31
0.0
  0
LINE
  5
4A4
100
AcDbEntity
  8
LAY-6
  6
CONTINUOUS
 62
     1
100
AcDbLine
 10
549.133333
 20
212.0
 30
0.0
 11
548.8
 21
214.0
 31
0.0
  0
LINE
  5
4A5
100
AcDbEntity
  8
LAY-6
  6
CONTINUOUS
 62
     1
100
AcDbLine
 10
548.8
 20
214.0
 30
0.0
 11
548.466667
 21
212.0
 31
0.0
  0
LINE
  5
4A6
100
AcDbEntity
  8
LAY-6
  6
CONTINUOUS
 62
     1
100
AcDbLine
 10
462.0
 20
138.0
 30
0.0
 11
454.1
 21
138.0
 31
0.0
  0
LINE
  5
4A7
100
AcDbEntity
  8
LAY-6
  6
CONTINUOUS
 62
     1
100
AcDbLine
 10
462.0
 20
146.0
 30
0.0
 11
454.1
 21
146.0
 31
0.0
  0
TEXT
  5
4A8
100
AcDbEntity
  8
LAY-6
  6
CONTINUOUS
 62
     2
100
AcDbText
 10
455.1
 20
140.0
 30
0.0
 40
5.0
  1
８
 50
90.0
 41
0.672
  7
EXCADSTD
 72
     5
 11
455.1
 21
143.2
 31
0.0
100
AcDbText
  0
LINE
  5
4A9
100
AcDbEntity
  8
LAY-6
  6
CONTINUOUS
 62
     1
100
AcDbLine
 10
455.6
 20
138.0
 30
0.0
 11
455.6
 21
146.0
 31
0.0
  0
LINE
  5
4AA
100
AcDbEntity
  8
LAY-6
  6
CONTINUOUS
 62
     1
100
AcDbLine
 10
455.266667
 20
140.0
 30
0.0
 11
455.6
 21
138.0
 31
0.0
  0
LINE
  5
4AB
100
AcDbEntity
  8
LAY-6
  6
CONTINUOUS
 62
     1
100
AcDbLine
 10
455.6
 20
138.0
 30
0.0
 11
455.933333
 21
140.0
 31
0.0
  0
LINE
  5
4AC
100
AcDbEntity
  8
LAY-6
  6
CONTINUOUS
 62
     1
100
AcDbLine
 10
455.933333
 20
144.0
 30
0.0
 11
455.6
 21
146.0
 31
0.0
  0
LINE
  5
4AD
100
AcDbEntity
  8
LAY-6
  6
CONTINUOUS
 62
     1
100
AcDbLine
 10
455.6
 20
146.0
 30
0.0
 11
455.266667
 21
144.0
 31
0.0
  0
LINE
  5
4AE
100
AcDbEntity
  8
LAY-6
  6
CONTINUOUS
 62
     1
100
AcDbLine
 10
526.0
 20
149.0
 30
0.0
 11
543.1
 21
149.0
 31
0.0
  0
LINE
  5
4AF
100
AcDbEntity
  8
LAY-6
  6
CONTINUOUS
 62
     1
100
AcDbLine
 10
515.1
 20
159.0
 30
0.0
 11
543.1
 21
159.0
 31
0.0
  0
TEXT
  5
4B0
100
AcDbEntity
  8
LAY-6
  6
CONTINUOUS
 62
     2
100
AcDbText
 10
541.1
 20
150.0
 30
0.0
 40
5.0
  1
１０
 50
90.0
 41
0.672
  7
EXCADSTD
 72
     5
 11
541.1
 21
157.3328
 31
0.0
100
AcDbText
  0
LINE
  5
4B1
100
AcDbEntity
  8
LAY-6
  6
CONTINUOUS
 62
     1
100
AcDbLine
 10
541.6
 20
149.0
 30
0.0
 11
541.6
 21
159.0
 31
0.0
  0
LINE
  5
4B2
100
AcDbEntity
  8
LAY-6
  6
CONTINUOUS
 62
     1
100
AcDbLine
 10
541.266667
 20
151.0
 30
0.0
 11
541.6
 21
149.0
 31
0.0
  0
LINE
  5
4B3
100
AcDbEntity
  8
LAY-6
  6
CONTINUOUS
 62
     1
100
AcDbLine
 10
541.6
 20
149.0
 30
0.0
 11
541.933333
 21
151.0
 31
0.0
  0
LINE
  5
4B4
100
AcDbEntity
  8
LAY-6
  6
CONTINUOUS
 62
     1
100
AcDbLine
 10
541.933333
 20
157.0
 30
0.0
 11
541.6
 21
159.0
 31
0.0
  0
LINE
  5
4B5
100
AcDbEntity
  8
LAY-6
  6
CONTINUOUS
 62
     1
100
AcDbLine
 10
541.6
 20
159.0
 30
0.0
 11
541.266667
 21
157.0
 31
0.0
  0
LINE
  5
4B6
100
AcDbEntity
  8
LAY-6
  6
CONTINUOUS
 62
     1
100
AcDbLine
 10
525.1
 20
174.0
 30
0.0
 11
543.1
 21
174.0
 31
0.0
  0
TEXT
  5
4B7
100
AcDbEntity
  8
LAY-6
  6
CONTINUOUS
 62
     2
100
AcDbText
 10
541.1
 20
162.5
 30
0.0
 40
5.0
  1
１５
 50
90.0
 41
0.672
  7
EXCADSTD
 72
     5
 11
541.1
 21
169.8328
 31
0.0
100
AcDbText
  0
LINE
  5
4B8
100
AcDbEntity
  8
LAY-6
  6
CONTINUOUS
 62
     1
100
AcDbLine
 10
541.6
 20
159.0
 30
0.0
 11
541.6
 21
174.0
 31
0.0
  0
LINE
  5
4B9
100
AcDbEntity
  8
LAY-6
  6
CONTINUOUS
 62
     1
100
AcDbLine
 10
541.266667
 20
161.0
 30
0.0
 11
541.6
 21
159.0
 31
0.0
  0
LINE
  5
4BA
100
AcDbEntity
  8
LAY-6
  6
CONTINUOUS
 62
     1
100
AcDbLine
 10
541.6
 20
159.0
 30
0.0
 11
541.933333
 21
161.0
 31
0.0
  0
LINE
  5
4BB
100
AcDbEntity
  8
LAY-6
  6
CONTINUOUS
 62
     1
100
AcDbLine
 10
541.933333
 20
172.0
 30
0.0
 11
541.6
 21
174.0
 31
0.0
  0
LINE
  5
4BC
100
AcDbEntity
  8
LAY-6
  6
CONTINUOUS
 62
     1
100
AcDbLine
 10
541.6
 20
174.0
 30
0.0
 11
541.266667
 21
172.0
 31
0.0
  0
LINE
  5
4BD
100
AcDbEntity
  8
LAY-6
  6
CONTINUOUS
 62
     1
100
AcDbLine
 10
515.1
 20
189.0
 30
0.0
 11
543.1
 21
189.0
 31
0.0
  0
TEXT
  5
4BE
100
AcDbEntity
  8
LAY-6
  6
CONTINUOUS
 62
     2
100
AcDbText
 10
541.1
 20
177.5
 30
0.0
 40
5.0
  1
１５
 50
90.0
 41
0.672
  7
EXCADSTD
 72
     5
 11
541.1
 21
184.8328
 31
0.0
100
AcDbText
  0
LINE
  5
4BF
100
AcDbEntity
  8
LAY-6
  6
CONTINUOUS
 62
     1
100
AcDbLine
 10
541.6
 20
174.0
 30
0.0
 11
541.6
 21
189.0
 31
0.0
  0
LINE
  5
4C0
100
AcDbEntity
  8
LAY-6
  6
CONTINUOUS
 62
     1
100
AcDbLine
 10
541.266667
 20
176.0
 30
0.0
 11
541.6
 21
174.0
 31
0.0
  0
LINE
  5
4C1
100
AcDbEntity
  8
LAY-6
  6
CONTINUOUS
 62
     1
100
AcDbLine
 10
541.6
 20
174.0
 30
0.0
 11
541.933333
 21
176.0
 31
0.0
  0
LINE
  5
4C2
100
AcDbEntity
  8
LAY-6
  6
CONTINUOUS
 62
     1
100
AcDbLine
 10
541.933333
 20
187.0
 30
0.0
 11
541.6
 21
189.0
 31
0.0
  0
LINE
  5
4C3
100
AcDbEntity
  8
LAY-6
  6
CONTINUOUS
 62
     1
100
AcDbLine
 10
541.6
 20
189.0
 30
0.0
 11
541.266667
 21
187.0
 31
0.0
  0
LINE
  5
4C4
100
AcDbEntity
  8
LAY-6
  6
CONTINUOUS
 62
     1
100
AcDbLine
 10
525.1
 20
204.0
 30
0.0
 11
543.1
 21
204.0
 31
0.0
  0
TEXT
  5
4C5
100
AcDbEntity
  8
LAY-6
  6
CONTINUOUS
 62
     2
100
AcDbText
 10
541.1
 20
192.5
 30
0.0
 40
5.0
  1
１５
 50
90.0
 41
0.672
  7
EXCADSTD
 72
     5
 11
541.1
 21
199.8328
 31
0.0
100
AcDbText
  0
LINE
  5
4C6
100
AcDbEntity
  8
LAY-6
  6
CONTINUOUS
 62
     1
100
AcDbLine
 10
541.6
 20
189.0
 30
0.0
 11
541.6
 21
204.0
 31
0.0
  0
LINE
  5
4C7
100
AcDbEntity
  8
LAY-6
  6
CONTINUOUS
 62
     1
100
AcDbLine
 10
541.266667
 20
191.0
 30
0.0
 11
541.6
 21
189.0
 31
0.0
  0
LINE
  5
4C8
100
AcDbEntity
  8
LAY-6
  6
CONTINUOUS
 62
     1
100
AcDbLine
 10
541.6
 20
189.0
 30
0.0
 11
541.933333
 21
191.0
 31
0.0
  0
LINE
  5
4C9
100
AcDbEntity
  8
LAY-6
  6
CONTINUOUS
 62
     1
100
AcDbLine
 10
541.933333
 20
202.0
 30
0.0
 11
541.6
 21
204.0
 31
0.0
  0
LINE
  5
4CA
100
AcDbEntity
  8
LAY-6
  6
CONTINUOUS
 62
     1
100
AcDbLine
 10
541.6
 20
204.0
 30
0.0
 11
541.266667
 21
202.0
 31
0.0
  0
LINE
  5
4CB
100
AcDbEntity
  8
LAY-6
  6
CONTINUOUS
 62
     1
100
AcDbLine
 10
501.5
 20
209.5
 30
0.0
 11
501.5
 21
221.9
 31
0.0
  0
LINE
  5
4CC
100
AcDbEntity
  8
LAY-6
  6
CONTINUOUS
 62
     1
100
AcDbLine
 10
508.5
 20
195.6
 30
0.0
 11
508.5
 21
221.9
 31
0.0
  0
TEXT
  5
4CD
100
AcDbEntity
  8
LAY-6
  6
CONTINUOUS
 62
     2
100
AcDbText
 10
503.0
 20
220.9
 30
0.0
 40
5.0
  1
７
 41
0.672
  7
EXCADSTD
 72
     5
 11
506.2
 21
220.9
 31
0.0
100
AcDbText
  0
LINE
  5
4CE
100
AcDbEntity
  8
LAY-6
  6
CONTINUOUS
 62
     1
100
AcDbLine
 10
501.5
 20
220.4
 30
0.0
 11
508.5
 21
220.4
 31
0.0
  0
LINE
  5
4CF
100
AcDbEntity
  8
LAY-6
  6
CONTINUOUS
 62
     1
100
AcDbLine
 10
503.5
 20
220.733333
 30
0.0
 11
501.5
 21
220.4
 31
0.0
  0
LINE
  5
4D0
100
AcDbEntity
  8
LAY-6
  6
CONTINUOUS
 62
     1
100
AcDbLine
 10
501.5
 20
220.4
 30
0.0
 11
503.5
 21
220.066667
 31
0.0
  0
LINE
  5
4D1
100
AcDbEntity
  8
LAY-6
  6
CONTINUOUS
 62
     1
100
AcDbLine
 10
506.5
 20
220.066667
 30
0.0
 11
508.5
 21
220.4
 31
0.0
  0
LINE
  5
4D2
100
AcDbEntity
  8
LAY-6
  6
CONTINUOUS
 62
     1
100
AcDbLine
 10
508.5
 20
220.4
 30
0.0
 11
506.5
 21
220.733333
 31
0.0
  0
LINE
  5
4D3
100
AcDbEntity
  8
LAY-6
  6
CONTINUOUS
 62
     1
100
AcDbLine
 10
518.5
 20
210.6
 30
0.0
 11
518.5
 21
221.9
 31
0.0
  0
TEXT
  5
4D4
100
AcDbEntity
  8
LAY-6
  6
CONTINUOUS
 62
     2
100
AcDbText
 10
509.5
 20
220.9
 30
0.0
 40
5.0
  1
１０
 41
0.672
  7
EXCADSTD
 72
     5
 11
516.8328
 21
220.9
 31
0.0
100
AcDbText
  0
LINE
  5
4D5
100
AcDbEntity
  8
LAY-6
  6
CONTINUOUS
 62
     1
100
AcDbLine
 10
508.5
 20
220.4
 30
0.0
 11
518.5
 21
220.4
 31
0.0
  0
LINE
  5
4D6
100
AcDbEntity
  8
LAY-6
  6
CONTINUOUS
 62
     1
100
AcDbLine
 10
510.5
 20
220.733333
 30
0.0
 11
508.5
 21
220.4
 31
0.0
  0
LINE
  5
4D7
100
AcDbEntity
  8
LAY-6
  6
CONTINUOUS
 62
     1
100
AcDbLine
 10
508.5
 20
220.4
 30
0.0
 11
510.5
 21
220.066667
 31
0.0
  0
LINE
  5
4D8
100
AcDbEntity
  8
LAY-6
  6
CONTINUOUS
 62
     1
100
AcDbLine
 10
516.5
 20
220.066667
 30
0.0
 11
518.5
 21
220.4
 31
0.0
  0
LINE
  5
4D9
100
AcDbEntity
  8
LAY-6
  6
CONTINUOUS
 62
     1
100
AcDbLine
 10
518.5
 20
220.4
 30
0.0
 11
516.5
 21
220.733333
 31
0.0
  0
TEXT
  5
4DA
100
AcDbEntity
  8
LAY-6
  6
CONTINUOUS
 62
     2
100
AcDbText
 10
498.6
 20
157.0
 30
0.0
 40
5.0
  1
２４
 50
90.0
 41
0.672
  7
EXCADSTD
 72
     5
 11
498.6
 21
164.3328
 31
0.0
100
AcDbText
  0
LINE
  5
4DB
100
AcDbEntity
  8
LAY-6
  6
CONTINUOUS
 62
     1
100
AcDbLine
 10
499.1
 20
173.0
 30
0.0
 11
499.1
 21
149.0
 31
0.0
  0
LINE
  5
4DC
100
AcDbEntity
  8
LAY-6
  6
CONTINUOUS
 62
     1
100
AcDbLine
 10
499.433333
 20
171.0
 30
0.0
 11
499.1
 21
173.0
 31
0.0
  0
LINE
  5
4DD
100
AcDbEntity
  8
LAY-6
  6
CONTINUOUS
 62
     1
100
AcDbLine
 10
499.1
 20
173.0
 30
0.0
 11
498.766667
 21
171.0
 31
0.0
  0
LINE
  5
4DE
100
AcDbEntity
  8
LAY-6
  6
CONTINUOUS
 62
     1
100
AcDbLine
 10
498.766667
 20
151.0
 30
0.0
 11
499.1
 21
149.0
 31
0.0
  0
LINE
  5
4DF
100
AcDbEntity
  8
LAY-6
  6
CONTINUOUS
 62
     1
100
AcDbLine
 10
499.1
 20
149.0
 30
0.0
 11
499.433333
 21
151.0
 31
0.0
  0
TEXT
  5
4E0
100
AcDbEntity
  8
LAY-6
  6
CONTINUOUS
 62
     2
100
AcDbText
 10
558.1
 20
357.6
 30
0.0
 40
5.0
  1
１２０㎏
 41
0.672
  7
EXCADSTD
 72
     5
 11
574.1
 21
357.6
 31
0.0
100
AcDbText
  0
TEXT
  5
4E1
100
AcDbEntity
  8
LAY-6
  6
CONTINUOUS
 62
     2
100
AcDbText
 10
554.4
 20
366.0
 30
0.0
 40
5.0
  1
２５００㎜
 41
0.672
  7
EXCADSTD
 72
     5
 11
574.4
 21
366.0
 31
0.0
100
AcDbText
  0
TEXT
  5
4E2
100
AcDbEntity
  8
LAY-6
  6
CONTINUOUS
 62
     2
100
AcDbText
 10
557.8
 20
373.8
 30
0.0
 40
5.0
  1
９００㎜
 41
0.672
  7
EXCADSTD
 72
     5
 11
573.8
 21
373.8
 31
0.0
100
AcDbText
  0
TEXT
  5
4E3
100
AcDbEntity
  8
LAY-6
  6
CONTINUOUS
 62
     2
100
AcDbText
 10
537.4
 20
373.8
 30
0.0
 40
5.0
  1
巾
 41
0.672
  7
EXCADSTD
 72
     5
 11
540.6
 21
373.8
 31
0.0
100
AcDbText
  0
TEXT
  5
4E4
100
AcDbEntity
  8
LAY-6
  6
CONTINUOUS
 62
     2
100
AcDbText
 10
536.3
 20
358.2
 30
0.0
 40
5.0
  1
重量
 41
0.672
  7
EXCADSTD
 72
     5
 11
543.6328
 21
358.2
 31
0.0
100
AcDbText
  0
TEXT
  5
4E5
100
AcDbEntity
  8
LAY-6
  6
CONTINUOUS
 62
     2
100
AcDbText
 10
535.8
 20
366.2
 30
0.0
 40
5.0
  1
高さ
 41
0.672
  7
EXCADSTD
 72
     5
 11
543.1328
 21
366.2
 31
0.0
100
AcDbText
  0
LINE
  5
4E6
100
AcDbEntity
  8
LAY-6
  6
CONTINUOUS
 62
     1
100
AcDbLine
 10
577.7
 20
356.4
 30
0.0
 11
527.7
 21
356.4
 31
0.0
  0
LINE
  5
4E7
100
AcDbEntity
  8
LAY-6
  6
CONTINUOUS
 62
     1
100
AcDbLine
 10
577.7
 20
364.4
 30
0.0
 11
527.7
 21
364.4
 31
0.0
  0
LINE
  5
4E8
100
AcDbEntity
  8
LAY-6
  6
CONTINUOUS
 62
     1
100
AcDbLine
 10
577.7
 20
372.4
 30
0.0
 11
527.7
 21
372.4
 31
0.0
  0
LINE
  5
4E9
100
AcDbEntity
  8
LAY-6
  6
CONTINUOUS
 62
     1
100
AcDbLine
 10
527.7
 20
380.4
 30
0.0
 11
577.7
 21
380.4
 31
0.0
  0
LINE
  5
4EA
100
AcDbEntity
  8
LAY-6
  6
CONTINUOUS
 62
     1
100
AcDbLine
 10
577.7
 20
380.4
 30
0.0
 11
577.7
 21
356.4
 31
0.0
  0
LINE
  5
4EB
100
AcDbEntity
  8
LAY-6
  6
CONTINUOUS
 62
     1
100
AcDbLine
 10
552.7
 20
380.4
 30
0.0
 11
552.7
 21
356.4
 31
0.0
  0
LINE
  5
4EC
100
AcDbEntity
  8
LAY-6
  6
CONTINUOUS
 62
     1
100
AcDbLine
 10
527.7
 20
380.4
 30
0.0
 11
527.7
 21
356.4
 31
0.0
  0
LINE
  5
4ED
100
AcDbEntity
  8
LAY-6
  6
CONTINUOUS
 62
     1
100
AcDbLine
 10
577.7
 20
340.4
 30
0.0
 11
577.7
 21
308.4
 31
0.0
  0
LINE
  5
4EE
100
AcDbEntity
  8
LAY-6
  6
CONTINUOUS
 62
     1
100
AcDbLine
 10
542.7
 20
340.4
 30
0.0
 11
542.7
 21
308.4
 31
0.0
  0
LINE
  5
4EF
100
AcDbEntity
  8
LAY-6
  6
CONTINUOUS
 62
     1
100
AcDbLine
 10
527.7
 20
340.4
 30
0.0
 11
527.7
 21
308.4
 31
0.0
  0
TEXT
  5
4F0
100
AcDbEntity
  8
LAY-6
  6
CONTINUOUS
 62
     2
100
AcDbText
 10
544.7
 20
309.8
 30
0.0
 40
5.0
  1
電解研磨
 41
0.672
  7
EXCADSTD
 72
     5
 11
560.7
 21
309.8
 31
0.0
100
AcDbText
  0
TEXT
  5
4F1
100
AcDbEntity
  8
LAY-6
  6
CONTINUOUS
 62
     2
100
AcDbText
 10
531.2
 20
309.8
 30
0.0
 40
5.0
  1
仕上
 41
0.672
  7
EXCADSTD
 72
     5
 11
538.5328
 21
309.8
 31
0.0
100
AcDbText
  0
TEXT
  5
4F2
100
AcDbEntity
  8
LAY-6
  6
CONTINUOUS
 62
     2
100
AcDbText
 10
544.7
 20
333.8
 30
0.0
 40
5.0
  1
ステンレス精密
 41
0.672
  7
EXCADSTD
 72
     5
 11
572.7
 21
333.8
 31
0.0
100
AcDbText
  0
TEXT
  5
4F3
100
AcDbEntity
  8
LAY-6
  6
CONTINUOUS
 62
     2
100
AcDbText
 10
531.2
 20
333.8
 30
0.0
 40
5.0
  1
材質
 41
0.672
  7
EXCADSTD
 72
     5
 11
538.5328
 21
333.8
 31
0.0
100
AcDbText
  0
LINE
  5
4F4
100
AcDbEntity
  8
LAY-6
  6
CONTINUOUS
 62
     1
100
AcDbLine
 10
577.7
 20
308.4
 30
0.0
 11
527.7
 21
308.4
 31
0.0
  0
LINE
  5
4F5
100
AcDbEntity
  8
LAY-6
  6
CONTINUOUS
 62
     1
100
AcDbLine
 10
577.7
 20
316.4
 30
0.0
 11
527.7
 21
316.4
 31
0.0
  0
LINE
  5
4F6
100
AcDbEntity
  8
LAY-6
  6
CONTINUOUS
 62
     1
100
AcDbLine
 10
577.7
 20
340.4
 30
0.0
 11
527.7
 21
340.4
 31
0.0
  0
POLYLINE
  5
4F7
100
AcDbEntity
  8
LAY-6
  6
CONTINUOUS
 62
     1
100
AcDb2dPolyline
 66
     1
 10
0.0
 20
0.0
 30
0.0
 70
   128
  0
VERTEX
  5
4F8
100
AcDbEntity
  8
LAY-6
  6
CONTINUOUS
 62
     1
100
AcDbVertex
100
AcDb2dVertex
 10
114.055728
 20
191.527864
 30
0.0
  0
VERTEX
  5
4F9
100
AcDbEntity
  8
LAY-6
  6
CONTINUOUS
 62
     1
100
AcDbVertex
100
AcDb2dVertex
 10
58.9
 20
191.5
 30
0.0
  0
SEQEND
  5
4FA
100
AcDbEntity
  8
LAY-6
  6
CONTINUOUS
 62
     1
  0
LINE
  5
4FB
100
AcDbEntity
  8
LAY-6
  6
CONTINUOUS
 62
     1
100
AcDbLine
 10
112.055897
 20
191.19352
 30
0.0
 11
114.055728
 21
191.527864
 31
0.0
  0
LINE
  5
4FC
100
AcDbEntity
  8
LAY-6
  6
CONTINUOUS
 62
     1
100
AcDbLine
 10
114.055728
 20
191.527864
 30
0.0
 11
112.05556
 21
191.860187
 31
0.0
  0
TEXT
  5
4FD
100
AcDbEntity
  8
LAY-6
  6
CONTINUOUS
 62
     2
100
AcDbText
 10
64.477613
 20
192.20888
 30
0.0
 40
5.0
  1
セットネジ
 50
0.028945
 41
0.672
  7
EXCADSTD
 72
     5
 11
84.47761
 21
192.218984
 31
0.0
100
AcDbText
  0
TEXT
  5
4FE
100
AcDbEntity
  8
LAY-6
  6
CONTINUOUS
 62
     2
100
AcDbText
 10
401.425
 20
349.65
 30
0.0
 40
5.0
  1
裏板（別途）
 41
0.672
  7
EXCADSTD
 72
     5
 11
425.425
 21
349.65
 31
0.0
100
AcDbText
  0
POLYLINE
  5
4FF
100
AcDbEntity
  8
LAY-6
  6
CONTINUOUS
 62
     1
100
AcDb2dPolyline
 66
     1
 10
0.0
 20
0.0
 30
0.0
 70
   128
  0
VERTEX
  5
500
100
AcDbEntity
  8
LAY-6
  6
CONTINUOUS
 62
     1
100
AcDbVertex
100
AcDb2dVertex
 10
369.8
 20
320.5
 30
0.0
  0
VERTEX
  5
501
100
AcDbEntity
  8
LAY-6
  6
CONTINUOUS
 62
     1
100
AcDbVertex
100
AcDb2dVertex
 10
397.55
 20
348.25
 30
0.0
  0
VERTEX
  5
502
100
AcDbEntity
  8
LAY-6
  6
CONTINUOUS
 62
     1
100
AcDbVertex
100
AcDb2dVertex
 10
428.5
 20
348.25
 30
0.0
  0
SEQEND
  5
503
100
AcDbEntity
  8
LAY-6
  6
CONTINUOUS
 62
     1
  0
LINE
  5
504
100
AcDbEntity
  8
LAY-6
  6
CONTINUOUS
 62
     1
100
AcDbLine
 10
370.978511
 20
322.149916
 30
0.0
 11
369.8
 21
320.5
 31
0.0
  0
LINE
  5
505
100
AcDbEntity
  8
LAY-6
  6
CONTINUOUS
 62
     1
100
AcDbLine
 10
369.8
 20
320.5
 30
0.0
 11
371.449916
 21
321.678511
 31
0.0
  0
TEXT
  5
506
100
AcDbEntity
  8
LAY-6
  6
CONTINUOUS
 62
     2
100
AcDbText
 10
388.058768
 20
288.69791
 30
0.0
 40
5.0
  1
裏板４.５ｔ以上（別途）
 41
0.654222
  7
EXCADSTD
 72
     5
 11
434.058768
 21
288.69791
 31
0.0
100
AcDbText
  0
POLYLINE
  5
507
100
AcDbEntity
  8
LAY-6
  6
CONTINUOUS
 62
     1
100
AcDb2dPolyline
 66
     1
 10
0.0
 20
0.0
 30
0.0
 70
   128
  0
VERTEX
  5
508
100
AcDbEntity
  8
LAY-6
  6
CONTINUOUS
 62
     1
100
AcDbVertex
100
AcDb2dVertex
 10
365.2
 20
297.5
 30
0.0
  0
VERTEX
  5
509
100
AcDbEntity
  8
LAY-6
  6
CONTINUOUS
 62
     1
100
AcDbVertex
100
AcDb2dVertex
 10
385.402923
 20
287.59791
 30
0.0
  0
VERTEX
  5
50A
100
AcDbEntity
  8
LAY-6
  6
CONTINUOUS
 62
     1
100
AcDbVertex
100
AcDb2dVertex
 10
437.0
 20
287.59791
 30
0.0
  0
SEQEND
  5
50B
100
AcDbEntity
  8
LAY-6
  6
CONTINUOUS
 62
     1
  0
LINE
  5
50C
100
AcDbEntity
  8
LAY-6
  6
CONTINUOUS
 62
     1
100
AcDbLine
 10
367.142591
 20
296.919093
 30
0.0
 11
365.2
 21
297.5
 31
0.0
  0
LINE
  5
50D
100
AcDbEntity
  8
LAY-6
  6
CONTINUOUS
 62
     1
100
AcDbLine
 10
365.2
 20
297.5
 30
0.0
 11
366.849184
 21
296.320464
 31
0.0
  0
TEXT
  5
50E
100
AcDbEntity
  8
LAY-6
  6
CONTINUOUS
 62
     2
100
AcDbText
 10
387.685302
 20
193.389698
 30
0.0
 40
5.0
  1
裏板４.５ｔ以上（別途）
 41
0.654222
  7
EXCADSTD
 72
     5
 11
433.685302
 21
193.389698
 31
0.0
100
AcDbText
  0
POLYLINE
  5
50F
100
AcDbEntity
  8
LAY-6
  6
CONTINUOUS
 62
     1
100
AcDb2dPolyline
 66
     1
 10
0.0
 20
0.0
 30
0.0
 70
   128
  0
VERTEX
  5
510
100
AcDbEntity
  8
LAY-6
  6
CONTINUOUS
 62
     1
100
AcDbVertex
100
AcDb2dVertex
 10
364.889074
 20
169.668469
 30
0.0
  0
VERTEX
  5
511
100
AcDbEntity
  8
LAY-6
  6
CONTINUOUS
 62
     1
100
AcDbVertex
100
AcDb2dVertex
 10
387.210302
 20
191.989698
 30
0.0
  0
VERTEX
  5
512
100
AcDbEntity
  8
LAY-6
  6
CONTINUOUS
 62
     1
100
AcDbVertex
100
AcDb2dVertex
 10
435.1
 20
191.989698
 30
0.0
  0
SEQEND
  5
513
100
AcDbEntity
  8
LAY-6
  6
CONTINUOUS
 62
     1
  0
LINE
  5
514
100
AcDbEntity
  8
LAY-6
  6
CONTINUOUS
 62
     1
100
AcDbLine
 10
366.067585
 20
171.318385
 30
0.0
 11
364.889074
 21
169.668469
 31
0.0
  0
LINE
  5
515
100
AcDbEntity
  8
LAY-6
  6
CONTINUOUS
 62
     1
100
AcDbLine
 10
364.889074
 20
169.668469
 30
0.0
 11
366.53899
 21
170.846981
 31
0.0
  0
TEXT
  5
516
100
AcDbEntity
  8
LAY-6
  6
CONTINUOUS
 62
     2
100
AcDbText
 10
61.524363
 20
142.734938
 30
0.0
 40
5.0
  1
裏板（別途）
 41
0.672
  7
EXCADSTD
 72
     5
 11
85.524363
 21
142.734938
 31
0.0
100
AcDbText
  0
POLYLINE
  5
517
100
AcDbEntity
  8
LAY-6
  6
CONTINUOUS
 62
     1
100
AcDb2dPolyline
 66
     1
 10
0.0
 20
0.0
 30
0.0
 70
   128
  0
VERTEX
  5
518
100
AcDbEntity
  8
LAY-6
  6
CONTINUOUS
 62
     1
100
AcDbVertex
100
AcDb2dVertex
 10
102.5
 20
119.1
 30
0.0
  0
VERTEX
  5
519
100
AcDbEntity
  8
LAY-6
  6
CONTINUOUS
 62
     1
100
AcDbVertex
100
AcDb2dVertex
 10
89.316242
 20
141.934938
 30
0.0
  0
VERTEX
  5
51A
100
AcDbEntity
  8
LAY-6
  6
CONTINUOUS
 62
     1
100
AcDbVertex
100
AcDb2dVertex
 10
57.5
 20
141.934938
 30
0.0
  0
SEQEND
  5
51B
100
AcDbEntity
  8
LAY-6
  6
CONTINUOUS
 62
     1
  0
LINE
  5
51C
100
AcDbEntity
  8
LAY-6
  6
CONTINUOUS
 62
     1
100
AcDbLine
 10
101.211325
 20
120.665384
 30
0.0
 11
102.5
 21
119.1
 31
0.0
  0
LINE
  5
51D
100
AcDbEntity
  8
LAY-6
  6
CONTINUOUS
 62
     1
100
AcDbLine
 10
102.5
 20
119.1
 30
0.0
 11
101.788675
 21
120.998717
 31
0.0
  0
TEXT
  5
51E
100
AcDbEntity
  8
LAY-6
  6
CONTINUOUS
 62
     2
100
AcDbText
 10
529.2
 20
381.6
 30
0.0
 40
6.0
  1
扉仕様
 41
0.672
  7
EXCADSTD
 72
     5
 11
543.600001
 21
381.6
 31
0.0
100
AcDbText
  0
TEXT
  5
51F
100
AcDbEntity
  8
LAY-6
  6
CONTINUOUS
 62
     2
100
AcDbText
 10
529.2
 20
341.6
 30
0.0
 40
6.0
  1
特記事項
 41
0.672
  7
EXCADSTD
 72
     5
 11
548.400001
 21
341.6
 31
0.0
100
AcDbText
  0
TEXT
  5
520
100
AcDbEntity
  8
LAY-6
  6
CONTINUOUS
 62
     2
100
AcDbText
 10
447.4
 20
224.1
 30
0.0
 40
6.0
  1
④床面軸座
 41
0.672
  7
EXCADSTD
 72
     5
 11
471.400001
 21
224.1
 31
0.0
100
AcDbText
  0
LINE
  5
521
100
AcDbEntity
  8
LAY-6
  6
CONTINUOUS
 62
     2
100
AcDbLine
 10
520.57942
 20
83.604644
 30
0.0
 11
568.98442
 21
83.604644
 31
0.0
  0
LINE
  5
522
100
AcDbEntity
  8
LAY-6
  6
CONTINUOUS
 62
     2
100
AcDbLine
 10
542.9
 20
76.244494
 30
0.0
 11
542.9
 21
80.444496
 31
0.0
  0
LINE
  5
523
100
AcDbEntity
  8
LAY-6
  6
CONTINUOUS
 62
     2
100
AcDbLine
 10
545.0
 20
80.444496
 30
0.0
 11
542.9
 21
80.444496
 31
0.0
  0
LINE
  5
524
100
AcDbEntity
  8
LAY-6
  6
CONTINUOUS
 62
     2
100
AcDbLine
 10
547.1
 20
80.444496
 30
0.0
 11
545.0
 21
80.444496
 31
0.0
  0
LINE
  5
525
100
AcDbEntity
  8
LAY-6
  6
CONTINUOUS
 62
     2
100
AcDbLine
 10
547.1
 20
76.244496
 30
0.0
 11
547.1
 21
80.444496
 31
0.0
  0
LINE
  5
526
100
AcDbEntity
  8
LAY-6
  6
CONTINUOUS
 62
     2
100
AcDbLine
 10
540.800002
 20
76.244493
 30
0.0
 11
542.9
 21
76.244494
 31
0.0
  0
LINE
  5
527
100
AcDbEntity
  8
LAY-6
  6
CONTINUOUS
 62
     2
100
AcDbLine
 10
540.800002
 20
76.244493
 30
0.0
 11
545.0
 21
72.044495
 31
0.0
  0
LINE
  5
528
100
AcDbEntity
  8
LAY-6
  6
CONTINUOUS
 62
     2
100
AcDbLine
 10
547.1
 20
76.244496
 30
0.0
 11
549.200002
 21
76.244497
 31
0.0
  0
LINE
  5
529
100
AcDbEntity
  8
LAY-6
  6
CONTINUOUS
 62
     2
100
AcDbLine
 10
549.200002
 20
76.244497
 30
0.0
 11
545.0
 21
72.044495
 31
0.0
  0
LINE
  5
52A
100
AcDbEntity
  8
LAY-6
  6
CONTINUOUS
 62
     4
100
AcDbLine
 10
566.0
 20
64.683996
 30
0.0
 11
566.0
 21
69.933996
 31
0.0
  0
LINE
  5
52B
100
AcDbEntity
  8
LAY-6
  6
CONTINUOUS
 62
     4
100
AcDbLine
 10
560.75
 20
64.683996
 30
0.0
 11
560.75
 21
69.933996
 31
0.0
  0
LINE
  5
52C
100
AcDbEntity
  8
LAY-6
  6
CONTINUOUS
 62
     4
100
AcDbLine
 10
560.75
 20
64.683996
 30
0.0
 11
566.0
 21
64.683996
 31
0.0
  0
LINE
  5
52D
100
AcDbEntity
  8
LAY-6
  6
CONTINUOUS
 62
     4
100
AcDbLine
 10
524.0
 20
64.683996
 30
0.0
 11
524.0
 21
69.933996
 31
0.0
  0
LINE
  5
52E
100
AcDbEntity
  8
LAY-6
  6
CONTINUOUS
 62
     4
100
AcDbLine
 10
529.25
 20
64.683996
 30
0.0
 11
529.25
 21
69.933996
 31
0.0
  0
LINE
  5
52F
100
AcDbEntity
  8
LAY-6
  6
CONTINUOUS
 62
     4
100
AcDbLine
 10
529.25
 20
64.683996
 30
0.0
 11
524.0
 21
64.683996
 31
0.0
  0
LINE
  5
530
100
AcDbEntity
  8
LAY-6
  6
CONTINUOUS
 62
     4
100
AcDbLine
 10
529.25
 20
69.933996
 30
0.0
 11
524.0
 21
69.933996
 31
0.0
  0
LINE
  5
531
100
AcDbEntity
  8
LAY-6
  6
CONTINUOUS
 62
     4
100
AcDbLine
 10
560.75
 20
69.933996
 30
0.0
 11
566.0
 21
69.933996
 31
0.0
  0
LINE
  5
532
100
AcDbEntity
  8
LAY-6
  6
CONTINUOUS
 62
     4
100
AcDbLine
 10
542.438835
 20
59.694419
 30
0.0
 11
529.25
 21
67.308997
 31
0.0
  0
LINE
  5
533
100
AcDbEntity
  8
LAY-6
  6
CONTINUOUS
 62
     4
100
AcDbLine
 10
547.561165
 20
59.694419
 30
0.0
 11
560.75
 21
67.308996
 31
0.0
  0
ARC
  5
534
100
AcDbEntity
  8
LAY-6
  6
CONTINUOUS
 62
     4
100
AcDbCircle
 10
532.4
 20
67.308996
 30
0.0
 40
12.6
100
AcDbArc
 50
314.424746
 51
0.0
  0
ARC
  5
535
100
AcDbEntity
  8
LAY-6
  6
CONTINUOUS
 62
     4
100
AcDbCircle
 10
557.6
 20
67.308996
 30
0.0
 40
12.6
100
AcDbArc
 50
180.0
 51
225.487766
  0
LINE
  5
536
100
AcDbEntity
  8
LAY-6
  6
CONTINUOUS
 62
     4
100
AcDbLine
 10
529.25
 20
67.308996
 30
0.0
 11
560.75
 21
67.308996
 31
0.0
  0
TEXT
  5
537
100
AcDbEntity
  8
LAY-6
  6
CONTINUOUS
 62
     2
100
AcDbText
 10
539.469193
 20
61.63656
 30
0.0
 40
5.0
  1
右
 41
0.672
  7
EXCADSTD
 72
     5
 11
542.669193
 21
61.63656
 31
0.0
100
AcDbText
  0
TEXT
  5
538
100
AcDbEntity
  8
LAY-6
  6
CONTINUOUS
 62
     2
100
AcDbText
 10
546.96966
 20
61.628496
 30
0.0
 40
5.0
  1
左
 41
0.672
  7
EXCADSTD
 72
     5
 11
550.16966
 21
61.628496
 31
0.0
100
AcDbText
  0
TEXT
  5
539
100
AcDbEntity
  8
LAY-6
  6
CONTINUOUS
 62
     2
100
AcDbText
 10
523.399999
 20
84.884819
 30
0.0
 40
6.0
  1
ドアの開き勝手基準
 41
0.672
  7
EXCADSTD
 72
     5
 11
566.600001
 21
84.884819
 31
0.0
100
AcDbText
  0
TEXT
  5
53A
100
AcDbEntity
  8
LAY-6
  6
CONTINUOUS
 62
     2
100
AcDbText
 10
521.2111
 20
46.386367
 30
0.0
 40
6.0
  1
本図は右開きを示します
 41
0.672
  7
EXCADSTD
 72
     5
 11
574.011102
 21
46.386367
 31
0.0
100
AcDbText
  0
TEXT
  5
53B
100
AcDbEntity
  8
LAY-6
  6
CONTINUOUS
 62
     2
100
AcDbText
 10
455.0
 20
130.3
 30
0.0
 40
5.0
  1
床　面
 41
0.672
  7
EXCADSTD
 72
     5
 11
467.0
 21
130.3
 31
0.0
100
AcDbText
  0
TEXT
  5
53C
100
AcDbEntity
  8
LAY-6
  6
CONTINUOUS
 62
     2
100
AcDbText
 10
273.0
 20
130.3
 30
0.0
 40
5.0
  1
床　面
 41
0.672
  7
EXCADSTD
 72
     5
 11
285.0
 21
130.3
 31
0.0
100
AcDbText
  0
TEXT
  5
53D
100
AcDbEntity
  8
LAY-6
  6
CONTINUOUS
 62
     2
100
AcDbText
 10
348.8
 20
238.0
 30
0.0
 40
5.0
  1
ド　ア
 41
0.672
  7
EXCADSTD
 72
     5
 11
360.8
 21
238.0
 31
0.0
100
AcDbText
  0
LINE
  5
53E
100
AcDbEntity
  8
LAY-6
  6
CONTINUOUS
 62
     1
100
AcDbLine
 10
182.5
 20
306.0
 30
0.0
 11
226.5
 21
306.0
 31
0.0
  0
LINE
  5
53F
100
AcDbEntity
  8
LAY-6
  6
CONTINUOUS
 62
     1
100
AcDbLine
 10
211.5
 20
321.0
 30
0.0
 11
226.5
 21
321.0
 31
0.0
  0
TEXT
  5
540
100
AcDbEntity
  8
LAY-6
  6
CONTINUOUS
 62
     2
100
AcDbText
 10
224.5
 20
309.5
 30
0.0
 40
5.0
  1
１５
 50
90.0
 41
0.672
  7
EXCADSTD
 72
     5
 11
224.5
 21
316.8328
 31
0.0
100
AcDbText
  0
LINE
  5
541
100
AcDbEntity
  8
LAY-6
  6
CONTINUOUS
 62
     1
100
AcDbLine
 10
225.0
 20
306.0
 30
0.0
 11
225.0
 21
321.0
 31
0.0
  0
LINE
  5
542
100
AcDbEntity
  8
LAY-6
  6
CONTINUOUS
 62
     1
100
AcDbLine
 10
224.666667
 20
308.0
 30
0.0
 11
225.0
 21
306.0
 31
0.0
  0
LINE
  5
543
100
AcDbEntity
  8
LAY-6
  6
CONTINUOUS
 62
     1
100
AcDbLine
 10
225.0
 20
306.0
 30
0.0
 11
225.333333
 21
308.0
 31
0.0
  0
LINE
  5
544
100
AcDbEntity
  8
LAY-6
  6
CONTINUOUS
 62
     1
100
AcDbLine
 10
225.333333
 20
319.0
 30
0.0
 11
225.0
 21
321.0
 31
0.0
  0
LINE
  5
545
100
AcDbEntity
  8
LAY-6
  6
CONTINUOUS
 62
     1
100
AcDbLine
 10
225.0
 20
321.0
 30
0.0
 11
224.666667
 21
319.0
 31
0.0
  0
LINE
  5
546
100
AcDbEntity
  8
LAY-6
  6
CONTINUOUS
 62
     1
100
AcDbLine
 10
206.5
 20
330.0
 30
0.0
 11
226.5
 21
330.0
 31
0.0
  0
TEXT
  5
547
100
AcDbEntity
  8
LAY-6
  6
CONTINUOUS
 62
     2
100
AcDbText
 10
224.5
 20
323.5
 30
0.0
 40
5.0
  1
９
 50
90.0
 41
0.672
  7
EXCADSTD
 72
     5
 11
224.5
 21
326.7
 31
0.0
100
AcDbText
  0
LINE
  5
548
100
AcDbEntity
  8
LAY-6
  6
CONTINUOUS
 62
     1
100
AcDbLine
 10
225.0
 20
321.0
 30
0.0
 11
225.0
 21
330.0
 31
0.0
  0
LINE
  5
549
100
AcDbEntity
  8
LAY-6
  6
CONTINUOUS
 62
     1
100
AcDbLine
 10
224.666667
 20
323.0
 30
0.0
 11
225.0
 21
321.0
 31
0.0
  0
LINE
  5
54A
100
AcDbEntity
  8
LAY-6
  6
CONTINUOUS
 62
     1
100
AcDbLine
 10
225.0
 20
321.0
 30
0.0
 11
225.333333
 21
323.0
 31
0.0
  0
LINE
  5
54B
100
AcDbEntity
  8
LAY-6
  6
CONTINUOUS
 62
     1
100
AcDbLine
 10
225.333333
 20
328.0
 30
0.0
 11
225.0
 21
330.0
 31
0.0
  0
LINE
  5
54C
100
AcDbEntity
  8
LAY-6
  6
CONTINUOUS
 62
     1
100
AcDbLine
 10
225.0
 20
330.0
 30
0.0
 11
224.666667
 21
328.0
 31
0.0
  0
LINE
  5
54D
100
AcDbEntity
  8
LAY-6
  6
CONTINUOUS
 62
     1
100
AcDbLine
 10
206.5
 20
350.0
 30
0.0
 11
226.5
 21
350.0
 31
0.0
  0
TEXT
  5
54E
100
AcDbEntity
  8
LAY-6
  6
CONTINUOUS
 62
     2
100
AcDbText
 10
224.5
 20
336.0
 30
0.0
 40
5.0
  1
２０
 50
90.0
 41
0.672
  7
EXCADSTD
 72
     5
 11
224.5
 21
343.3328
 31
0.0
100
AcDbText
  0
LINE
  5
54F
100
AcDbEntity
  8
LAY-6
  6
CONTINUOUS
 62
     1
100
AcDbLine
 10
225.0
 20
330.0
 30
0.0
 11
225.0
 21
350.0
 31
0.0
  0
LINE
  5
550
100
AcDbEntity
  8
LAY-6
  6
CONTINUOUS
 62
     1
100
AcDbLine
 10
224.666667
 20
332.0
 30
0.0
 11
225.0
 21
330.0
 31
0.0
  0
LINE
  5
551
100
AcDbEntity
  8
LAY-6
  6
CONTINUOUS
 62
     1
100
AcDbLine
 10
225.0
 20
330.0
 30
0.0
 11
225.333333
 21
332.0
 31
0.0
  0
LINE
  5
552
100
AcDbEntity
  8
LAY-6
  6
CONTINUOUS
 62
     1
100
AcDbLine
 10
225.333333
 20
348.0
 30
0.0
 11
225.0
 21
350.0
 31
0.0
  0
LINE
  5
553
100
AcDbEntity
  8
LAY-6
  6
CONTINUOUS
 62
     1
100
AcDbLine
 10
225.0
 20
350.0
 30
0.0
 11
224.666667
 21
348.0
 31
0.0
  0
LINE
  5
554
100
AcDbEntity
  8
LAY-6
  6
CONTINUOUS
 62
     1
100
AcDbLine
 10
172.2
 20
186.0
 30
0.0
 11
226.5
 21
186.0
 31
0.0
  0
LINE
  5
555
100
AcDbEntity
  8
LAY-6
  6
CONTINUOUS
 62
     1
100
AcDbLine
 10
211.5
 20
204.0
 30
0.0
 11
226.5
 21
204.0
 31
0.0
  0
TEXT
  5
556
100
AcDbEntity
  8
LAY-6
  6
CONTINUOUS
 62
     2
100
AcDbText
 10
224.5
 20
191.0
 30
0.0
 40
5.0
  1
１８
 50
90.0
 41
0.672
  7
EXCADSTD
 72
     5
 11
224.5
 21
198.3328
 31
0.0
100
AcDbText
  0
LINE
  5
557
100
AcDbEntity
  8
LAY-6
  6
CONTINUOUS
 62
     1
100
AcDbLine
 10
225.0
 20
186.0
 30
0.0
 11
225.0
 21
204.0
 31
0.0
  0
LINE
  5
558
100
AcDbEntity
  8
LAY-6
  6
CONTINUOUS
 62
     1
100
AcDbLine
 10
224.666667
 20
188.0
 30
0.0
 11
225.0
 21
186.0
 31
0.0
  0
LINE
  5
559
100
AcDbEntity
  8
LAY-6
  6
CONTINUOUS
 62
     1
100
AcDbLine
 10
225.0
 20
186.0
 30
0.0
 11
225.333333
 21
188.0
 31
0.0
  0
LINE
  5
55A
100
AcDbEntity
  8
LAY-6
  6
CONTINUOUS
 62
     1
100
AcDbLine
 10
225.333333
 20
202.0
 30
0.0
 11
225.0
 21
204.0
 31
0.0
  0
LINE
  5
55B
100
AcDbEntity
  8
LAY-6
  6
CONTINUOUS
 62
     1
100
AcDbLine
 10
225.0
 20
204.0
 30
0.0
 11
224.666667
 21
202.0
 31
0.0
  0
LINE
  5
55C
100
AcDbEntity
  8
LAY-6
  6
CONTINUOUS
 62
     1
100
AcDbLine
 10
206.5
 20
210.0
 30
0.0
 11
226.5
 21
210.0
 31
0.0
  0
TEXT
  5
55D
100
AcDbEntity
  8
LAY-6
  6
CONTINUOUS
 62
     2
100
AcDbText
 10
224.5
 20
205.6
 30
0.0
 40
5.0
  1
６
 50
90.0
 41
0.672
  7
EXCADSTD
 72
     5
 11
224.5
 21
208.8
 31
0.0
100
AcDbText
  0
LINE
  5
55E
100
AcDbEntity
  8
LAY-6
  6
CONTINUOUS
 62
     1
100
AcDbLine
 10
225.0
 20
204.0
 30
0.0
 11
225.0
 21
210.0
 31
0.0
  0
LINE
  5
55F
100
AcDbEntity
  8
LAY-6
  6
CONTINUOUS
 62
     1
100
AcDbLine
 10
206.5
 20
230.0
 30
0.0
 11
226.5
 21
230.0
 31
0.0
  0
TEXT
  5
560
100
AcDbEntity
  8
LAY-6
  6
CONTINUOUS
 62
     2
100
AcDbText
 10
224.5
 20
216.0
 30
0.0
 40
5.0
  1
２０
 50
90.0
 41
0.672
  7
EXCADSTD
 72
     5
 11
224.5
 21
223.3328
 31
0.0
100
AcDbText
  0
LINE
  5
561
100
AcDbEntity
  8
LAY-6
  6
CONTINUOUS
 62
     1
100
AcDbLine
 10
225.0
 20
210.0
 30
0.0
 11
225.0
 21
230.0
 31
0.0
  0
LINE
  5
562
100
AcDbEntity
  8
LAY-6
  6
CONTINUOUS
 62
     1
100
AcDbLine
 10
224.666667
 20
212.0
 30
0.0
 11
225.0
 21
210.0
 31
0.0
  0
LINE
  5
563
100
AcDbEntity
  8
LAY-6
  6
CONTINUOUS
 62
     1
100
AcDbLine
 10
225.0
 20
210.0
 30
0.0
 11
225.333333
 21
212.0
 31
0.0
  0
LINE
  5
564
100
AcDbEntity
  8
LAY-6
  6
CONTINUOUS
 62
     1
100
AcDbLine
 10
225.333333
 20
228.0
 30
0.0
 11
225.0
 21
230.0
 31
0.0
  0
LINE
  5
565
100
AcDbEntity
  8
LAY-6
  6
CONTINUOUS
 62
     1
100
AcDbLine
 10
225.0
 20
230.0
 30
0.0
 11
224.666667
 21
228.0
 31
0.0
  0
LINE
  5
566
100
AcDbEntity
  8
LAY-6
  6
CONTINUOUS
 62
     1
100
AcDbLine
 10
173.3
 20
66.0
 30
0.0
 11
226.5
 21
66.0
 31
0.0
  0
LINE
  5
567
100
AcDbEntity
  8
LAY-6
  6
CONTINUOUS
 62
     1
100
AcDbLine
 10
209.0
 20
84.0
 30
0.0
 11
226.5
 21
84.0
 31
0.0
  0
TEXT
  5
568
100
AcDbEntity
  8
LAY-6
  6
CONTINUOUS
 62
     2
100
AcDbText
 10
224.5
 20
71.0
 30
0.0
 40
5.0
  1
１８
 50
90.0
 41
0.672
  7
EXCADSTD
 72
     5
 11
224.5
 21
78.3328
 31
0.0
100
AcDbText
  0
LINE
  5
569
100
AcDbEntity
  8
LAY-6
  6
CONTINUOUS
 62
     1
100
AcDbLine
 10
225.0
 20
66.0
 30
0.0
 11
225.0
 21
84.0
 31
0.0
  0
LINE
  5
56A
100
AcDbEntity
  8
LAY-6
  6
CONTINUOUS
 62
     1
100
AcDbLine
 10
224.666667
 20
68.0
 30
0.0
 11
225.0
 21
66.0
 31
0.0
  0
LINE
  5
56B
100
AcDbEntity
  8
LAY-6
  6
CONTINUOUS
 62
     1
100
AcDbLine
 10
225.0
 20
66.0
 30
0.0
 11
225.333333
 21
68.0
 31
0.0
  0
LINE
  5
56C
100
AcDbEntity
  8
LAY-6
  6
CONTINUOUS
 62
     1
100
AcDbLine
 10
225.333333
 20
82.0
 30
0.0
 11
225.0
 21
84.0
 31
0.0
  0
LINE
  5
56D
100
AcDbEntity
  8
LAY-6
  6
CONTINUOUS
 62
     1
100
AcDbLine
 10
225.0
 20
84.0
 30
0.0
 11
224.666667
 21
82.0
 31
0.0
  0
LINE
  5
56E
100
AcDbEntity
  8
LAY-6
  6
CONTINUOUS
 62
     1
100
AcDbLine
 10
204.0
 20
90.0
 30
0.0
 11
226.5
 21
90.0
 31
0.0
  0
TEXT
  5
56F
100
AcDbEntity
  8
LAY-6
  6
CONTINUOUS
 62
     2
100
AcDbText
 10
224.5
 20
85.5
 30
0.0
 40
5.0
  1
６
 50
90.0
 41
0.672
  7
EXCADSTD
 72
     5
 11
224.5
 21
88.7
 31
0.0
100
AcDbText
  0
LINE
  5
570
100
AcDbEntity
  8
LAY-6
  6
CONTINUOUS
 62
     1
100
AcDbLine
 10
225.0
 20
84.0
 30
0.0
 11
225.0
 21
90.0
 31
0.0
  0
LINE
  5
571
100
AcDbEntity
  8
LAY-6
  6
CONTINUOUS
 62
     1
100
AcDbLine
 10
204.0
 20
114.0
 30
0.0
 11
226.5
 21
114.0
 31
0.0
  0
TEXT
  5
572
100
AcDbEntity
  8
LAY-6
  6
CONTINUOUS
 62
     2
100
AcDbText
 10
224.5
 20
98.0
 30
0.0
 40
5.0
  1
２４
 50
90.0
 41
0.672
  7
EXCADSTD
 72
     5
 11
224.5
 21
105.3328
 31
0.0
100
AcDbText
  0
LINE
  5
573
100
AcDbEntity
  8
LAY-6
  6
CONTINUOUS
 62
     1
100
AcDbLine
 10
225.0
 20
90.0
 30
0.0
 11
225.0
 21
114.0
 31
0.0
  0
LINE
  5
574
100
AcDbEntity
  8
LAY-6
  6
CONTINUOUS
 62
     1
100
AcDbLine
 10
224.666667
 20
92.0
 30
0.0
 11
225.0
 21
90.0
 31
0.0
  0
LINE
  5
575
100
AcDbEntity
  8
LAY-6
  6
CONTINUOUS
 62
     1
100
AcDbLine
 10
225.0
 20
90.0
 30
0.0
 11
225.333333
 21
92.0
 31
0.0
  0
LINE
  5
576
100
AcDbEntity
  8
LAY-6
  6
CONTINUOUS
 62
     1
100
AcDbLine
 10
225.333333
 20
112.0
 30
0.0
 11
225.0
 21
114.0
 31
0.0
  0
LINE
  5
577
100
AcDbEntity
  8
LAY-6
  6
CONTINUOUS
 62
     1
100
AcDbLine
 10
225.0
 20
114.0
 30
0.0
 11
224.666667
 21
112.0
 31
0.0
  0
LINE
  5
578
100
AcDbEntity
  8
LAY-6
  6
CONTINUOUS
 62
     1
100
AcDbLine
 10
313.75
 20
313.3
 30
0.0
 11
326.25
 21
313.3
 31
0.0
  0
LINE
  5
579
100
AcDbEntity
  8
LAY-6
  6
CONTINUOUS
 62
     1
100
AcDbLine
 10
315.75
 20
313.633333
 30
0.0
 11
313.75
 21
313.3
 31
0.0
  0
LINE
  5
57A
100
AcDbEntity
  8
LAY-6
  6
CONTINUOUS
 62
     1
100
AcDbLine
 10
313.75
 20
313.3
 30
0.0
 11
315.75
 21
312.966667
 31
0.0
  0
LINE
  5
57B
100
AcDbEntity
  8
LAY-6
  6
CONTINUOUS
 62
     1
100
AcDbLine
 10
324.25
 20
312.966667
 30
0.0
 11
326.25
 21
313.3
 31
0.0
  0
LINE
  5
57C
100
AcDbEntity
  8
LAY-6
  6
CONTINUOUS
 62
     1
100
AcDbLine
 10
326.25
 20
313.3
 30
0.0
 11
324.25
 21
313.633333
 31
0.0
  0
TEXT
  5
57D
100
AcDbEntity
  8
LAY-6
  6
CONTINUOUS
 62
     2
100
AcDbText
 10
311.7
 20
315.5
 30
0.0
 40
5.0
  1
φ
 41
0.672
  7
EXCADSTD
 72
     5
 11
314.9
 21
315.5
 31
0.0
100
AcDbText
  0
TEXT
  5
57E
100
AcDbEntity
  8
LAY-6
  6
CONTINUOUS
 62
     2
100
AcDbText
 10
315.7
 20
315.5
 30
0.0
 40
5.0
  1
１２.５
 41
0.616
  7
EXCADSTD
 72
     5
 11
329.7
 21
315.5
 31
0.0
100
AcDbText
  0
TEXT
  5
57F
100
AcDbEntity
  8
LAY-6
  6
CONTINUOUS
 62
     2
100
AcDbText
 10
423.5
 20
11.6
 30
0.0
 40
5.0
  1
Ｈ１７．９．１４
 41
0.504
  7
EXCADSTD
 72
     5
 11
447.5
 21
11.6
 31
0.0
100
AcDbText
  0
TEXT
  5
580
100
AcDbEntity
  8
LAY-6
  6
CONTINUOUS
 62
     2
100
AcDbText
 10
40.240606
 20
126.444463
 30
0.0
 40
5.0
  1
（ＳＵＳ３０５）
 41
0.672
  7
EXCADSTD
 72
     5
 11
72.240606
 21
126.444463
 31
0.0
100
AcDbText
  0
TEXT
  5
581
100
AcDbEntity
  8
LAY-6
  6
CONTINUOUS
 62
     2
100
AcDbText
 10
61.6
 20
185.7
 30
0.0
 40
5.0
  1
扉吊り込み後必ず
 41
0.672
  7
EXCADSTD
 72
     5
 11
93.6
 21
185.7
 31
0.0
100
AcDbText
  0
TEXT
  5
582
100
AcDbEntity
  8
LAY-6
  6
CONTINUOUS
 62
     2
100
AcDbText
 10
61.6
 20
180.7
 30
0.0
 40
5.0
  1
締め付けの事
 41
0.672
  7
EXCADSTD
 72
     5
 11
85.6
 21
180.7
 31
0.0
100
AcDbText
  0
TEXT
  5
583
100
AcDbEntity
  8
LAY-6
  6
CONTINUOUS
 62
     2
100
AcDbText
 10
25.4
 20
157.0
 30
0.0
 40
6.0
  1
④床面軸座
 41
0.672
  7
EXCADSTD
 72
     5
 11
49.400001
 21
157.0
 31
0.0
100
AcDbText
  0
TEXT
  5
584
100
AcDbEntity
  8
LAY-6
  6
CONTINUOUS
 62
     2
100
AcDbText
 10
25.4
 20
164.9
 30
0.0
 40
6.0
  1
③アーム
 41
0.672
  7
EXCADSTD
 72
     5
 11
44.600001
 21
164.9
 31
0.0
100
AcDbText
  0
TEXT
  5
585
100
AcDbEntity
  8
LAY-6
  6
CONTINUOUS
 62
     2
100
AcDbText
 10
25.4
 20
381.3
 30
0.0
 40
6.0
  1
①トップピボット（上枠側）
 41
0.672
  7
EXCADSTD
 72
     5
 11
87.800002
 21
381.3
 31
0.0
100
AcDbText
  0
TEXT
  5
586
100
AcDbEntity
  8
LAY-6
  6
CONTINUOUS
 62
     2
100
AcDbText
 10
25.4
 20
264.0
 30
0.0
 40
6.0
  1
②トップピボット（ドア側）
 41
0.672
  7
EXCADSTD
 72
     5
 11
87.800002
 21
264.0
 31
0.0
100
AcDbText
  0
TEXT
  5
587
100
AcDbEntity
  8
LAY-6
  6
CONTINUOUS
 62
     2
100
AcDbText
 10
544.7
 20
325.8
 30
0.0
 40
5.0
  1
鋳造品
 41
0.672
  7
EXCADSTD
 72
     5
 11
556.7
 21
325.8
 31
0.0
100
AcDbText
  0
TEXT
  5
588
100
AcDbEntity
  8
LAY-6
  6
CONTINUOUS
 62
     2
100
AcDbText
 10
544.7
 20
317.8
 30
0.0
 40
5.0
  1
ＳＣＳ１４
 41
0.672
  7
EXCADSTD
 72
     5
 11
564.7
 21
317.8
 31
0.0
100
AcDbText
  0
LINE
  5
589
100
AcDbEntity
  8
LAY-7
  6
CONTINUOUS
 62
     3
100
AcDbLine
 10
339.6
 20
169.0
 30
0.0
 11
339.655006
 21
169.0
 31
0.0
  0
LINE
  5
58A
100
AcDbEntity
  8
LAY-7
  6
DASHED2
 62
     3
100
AcDbLine
 10
363.0
 20
214.0
 30
0.0
 11
349.0
 21
214.0
 31
0.0
  0
ARC
  5
58B
100
AcDbEntity
  8
LAY-7
  6
DASHED2
 62
     3
100
AcDbCircle
 10
363.0
 20
209.0
 30
0.0
 40
5.0
100
AcDbArc
 50
0.0
 51
90.0
  0
ARC
  5
58C
100
AcDbEntity
  8
LAY-7
  6
DASHED2
 62
     3
100
AcDbCircle
 10
349.0
 20
209.0
 30
0.0
 40
5.0
100
AcDbArc
 50
90.0
 51
180.0
  0
LINE
  5
58D
100
AcDbEntity
  8
LAY-7
  6
DASHED2
 62
     3
100
AcDbLine
 10
344.0
 20
173.0
 30
0.0
 11
344.0
 21
209.0
 31
0.0
  0
ARC
  5
58E
100
AcDbEntity
  8
LAY-7
  6
DASHED2
 62
     3
100
AcDbCircle
 10
344.0
 20
173.0
 30
0.0
 40
24.0
100
AcDbArc
 50
270.0
 51
0.0
  0
LINE
  5
58F
100
AcDbEntity
  8
LAY-7
  6
DASHED2
 62
     3
100
AcDbLine
 10
344.0
 20
173.0
 30
0.0
 11
334.95
 21
173.0
 31
0.0
  0
ARC
  5
590
100
AcDbEntity
  8
LAY-7
  6
DASHED2
 62
     3
100
AcDbCircle
 10
320.0
 20
160.0
 30
0.0
 40
15.0
100
AcDbArc
 50
90.0
 51
180.0
  0
LINE
  5
591
100
AcDbEntity
  8
LAY-7
  6
DASHED2
 62
     3
100
AcDbLine
 10
335.0
 20
175.0
 30
0.0
 11
335.0
 21
173.0
 31
0.0
  0
LINE
  5
592
100
AcDbEntity
  8
LAY-7
  6
CONTINUOUS
 62
     3
100
AcDbLine
 10
335.0
 20
146.0
 30
0.0
 11
329.0
 21
146.0
 31
0.0
  0
LINE
  5
593
100
AcDbEntity
  8
LAY-7
  6
CONTINUOUS
 62
     3
100
AcDbLine
 10
329.3
 20
146.0
 30
0.0
 11
305.0
 21
146.0
 31
0.0
  0
LINE
  5
594
100
AcDbEntity
  8
LAY-7
  6
CONTINUOUS
 62
     3
100
AcDbLine
 10
305.0
 20
138.0
 30
0.0
 11
335.0
 21
138.0
 31
0.0
  0
LINE
  5
595
100
AcDbEntity
  8
LAY-7
  6
CONTINUOUS
 62
     3
100
AcDbLine
 10
305.0
 20
138.0
 30
0.0
 11
335.0
 21
138.0
 31
0.0
  0
ARC
  5
596
100
AcDbEntity
  8
LAY-7
  6
CONTINUOUS
 62
     3
100
AcDbCircle
 10
311.6
 20
147.0
 30
0.0
 40
1.0
100
AcDbArc
 50
270.0
 51
0.0
  0
ARC
  5
597
100
AcDbEntity
  8
LAY-7
  6
CONTINUOUS
 62
     3
100
AcDbCircle
 10
328.4
 20
147.0
 30
0.0
 40
1.0
100
AcDbArc
 50
180.0
 51
270.0
  0
LINE
  5
598
100
AcDbEntity
  8
LAY-7
  6
DASHED2
 62
     3
100
AcDbLine
 10
335.0
 20
175.0
 30
0.0
 11
320.0
 21
175.0
 31
0.0
  0
LINE
  5
599
100
AcDbEntity
  8
LAY-7
  6
DASHED2
 62
     3
100
AcDbLine
 10
335.0
 20
149.0
 30
0.0
 11
344.0
 21
149.0
 31
0.0
  0
LINE
  5
59A
100
AcDbEntity
  8
LAY-7
  6
DASHED2
 62
     3
100
AcDbLine
 10
368.0
 20
173.0
 30
0.0
 11
368.0
 21
209.0
 31
0.0
  0
LINE
  5
59B
100
AcDbEntity
  8
LAY-7
  6
CONTINUOUS
 62
     3
100
AcDbLine
 10
305.0
 20
138.0
 30
0.0
 11
305.0
 21
160.0
 31
0.0
  0
LINE
  5
59C
100
AcDbEntity
  8
LAY-7
  6
CONTINUOUS
 62
     3
100
AcDbLine
 10
335.0
 20
138.0
 30
0.0
 11
335.0
 21
149.0
 31
0.0
  0
LINE
  5
59D
100
AcDbEntity
  8
LAY-7
  6
DASHED2
 62
     3
100
AcDbLine
 10
520.5
 20
214.0
 30
0.0
 11
506.5
 21
214.0
 31
0.0
  0
ARC
  5
59E
100
AcDbEntity
  8
LAY-7
  6
DASHED2
 62
     3
100
AcDbCircle
 10
520.5
 20
209.0
 30
0.0
 40
5.0
100
AcDbArc
 50
0.0
 51
90.0
  0
ARC
  5
59F
100
AcDbEntity
  8
LAY-7
  6
DASHED2
 62
     3
100
AcDbCircle
 10
506.5
 20
209.0
 30
0.0
 40
5.0
100
AcDbArc
 50
90.0
 51
180.0
  0
LINE
  5
5A0
100
AcDbEntity
  8
LAY-7
  6
DASHED2
 62
     3
100
AcDbLine
 10
501.5
 20
173.0
 30
0.0
 11
501.5
 21
209.0
 31
0.0
  0
ARC
  5
5A1
100
AcDbEntity
  8
LAY-7
  6
DASHED2
 62
     3
100
AcDbCircle
 10
501.5
 20
173.0
 30
0.0
 40
24.0
100
AcDbArc
 50
270.0
 51
0.0
  0
LINE
  5
5A2
100
AcDbEntity
  8
LAY-7
  6
DASHED2
 62
     3
100
AcDbLine
 10
501.5
 20
173.0
 30
0.0
 11
492.45
 21
173.0
 31
0.0
  0
LINE
  5
5A3
100
AcDbEntity
  8
LAY-7
  6
CONTINUOUS
 62
     3
100
AcDbLine
 10
492.5
 20
146.0
 30
0.0
 11
486.5
 21
146.0
 31
0.0
  0
LINE
  5
5A4
100
AcDbEntity
  8
LAY-7
  6
CONTINUOUS
 62
     3
100
AcDbLine
 10
486.8
 20
146.0
 30
0.0
 11
462.5
 21
146.0
 31
0.0
  0
LINE
  5
5A5
100
AcDbEntity
  8
LAY-7
  6
CONTINUOUS
 62
     3
100
AcDbLine
 10
462.5
 20
138.0
 30
0.0
 11
492.5
 21
138.0
 31
0.0
  0
LINE
  5
5A6
100
AcDbEntity
  8
LAY-7
  6
CONTINUOUS
 62
     3
100
AcDbLine
 10
462.5
 20
138.0
 30
0.0
 11
492.5
 21
138.0
 31
0.0
  0
ARC
  5
5A7
100
AcDbEntity
  8
LAY-7
  6
CONTINUOUS
 62
     3
100
AcDbCircle
 10
469.1
 20
147.0
 30
0.0
 40
1.0
100
AcDbArc
 50
270.0
 51
0.0
  0
ARC
  5
5A8
100
AcDbEntity
  8
LAY-7
  6
CONTINUOUS
 62
     3
100
AcDbCircle
 10
485.9
 20
147.0
 30
0.0
 40
1.0
100
AcDbArc
 50
180.0
 51
270.0
  0
LINE
  5
5A9
100
AcDbEntity
  8
LAY-7
  6
CONTINUOUS
 62
     3
100
AcDbLine
 10
484.9
 20
147.0
 30
0.0
 11
484.9
 21
159.0
 31
0.0
  0
LINE
  5
5AA
100
AcDbEntity
  8
LAY-7
  6
CONTINUOUS
 62
     3
100
AcDbLine
 10
470.1
 20
147.0
 30
0.0
 11
470.1
 21
159.0
 31
0.0
  0
LINE
  5
5AB
100
AcDbEntity
  8
LAY-7
  6
CONTINUOUS
 62
     3
100
AcDbLine
 10
483.926192
 20
162.634301
 30
0.0
 11
484.9
 21
159.0
 31
0.0
  0
LINE
  5
5AC
100
AcDbEntity
  8
LAY-7
  6
CONTINUOUS
 62
     3
100
AcDbLine
 10
471.073808
 20
162.634301
 30
0.0
 11
470.1
 21
159.0
 31
0.0
  0
ARC
  5
5AD
100
AcDbEntity
  8
LAY-7
  6
CONTINUOUS
 62
     3
100
AcDbCircle
 10
477.5
 20
152.5
 30
0.0
 40
12.0
100
AcDbArc
 50
57.621088
 51
122.378912
  0
LINE
  5
5AE
100
AcDbEntity
  8
LAY-7
  6
DASHED2
 62
     3
100
AcDbLine
 10
492.5
 20
149.0
 30
0.0
 11
501.5
 21
149.0
 31
0.0
  0
LINE
  5
5AF
100
AcDbEntity
  8
LAY-7
  6
DASHED2
 62
     3
100
AcDbLine
 10
525.5
 20
173.0
 30
0.0
 11
525.5
 21
209.0
 31
0.0
  0
LINE
  5
5B0
100
AcDbEntity
  8
LAY-7
  6
CONTINUOUS
 62
     3
100
AcDbLine
 10
462.5
 20
138.0
 30
0.0
 11
462.5
 21
160.0
 31
0.0
  0
ARC
  5
5B1
100
AcDbEntity
  8
LAY-7
  6
CONTINUOUS
 62
     3
100
AcDbCircle
 10
477.5
 20
160.0
 30
0.0
 40
15.0
100
AcDbArc
 50
90.0
 51
180.0
  0
LINE
  5
5B2
100
AcDbEntity
  8
LAY-7
  6
CONTINUOUS
 62
     3
100
AcDbLine
 10
492.5
 20
175.0
 30
0.0
 11
477.5
 21
175.0
 31
0.0
  0
LINE
  5
5B3
100
AcDbEntity
  8
LAY-7
  6
CONTINUOUS
 62
     3
100
AcDbLine
 10
492.5
 20
138.0
 30
0.0
 11
492.5
 21
175.0
 31
0.0
  0
CIRCLE
  5
5B4
100
AcDbEntity
  8
LAY-7
  6
DASHED2
 62
     1
100
AcDbCircle
 10
361.0
 20
204.0
 30
0.0
 40
2.5
  0
CIRCLE
  5
5B5
100
AcDbEntity
  8
LAY-7
  6
DASHED2
 62
     3
100
AcDbCircle
 10
361.0
 20
204.0
 30
0.0
 40
2.05
  0
CIRCLE
  5
5B6
100
AcDbEntity
  8
LAY-7
  6
DASHED2
 62
     1
100
AcDbCircle
 10
351.0
 20
189.0
 30
0.0
 40
2.5
  0
CIRCLE
  5
5B7
100
AcDbEntity
  8
LAY-7
  6
DASHED2
 62
     3
100
AcDbCircle
 10
351.0
 20
189.0
 30
0.0
 40
2.05
  0
CIRCLE
  5
5B8
100
AcDbEntity
  8
LAY-7
  6
DASHED2
 62
     3
100
AcDbCircle
 10
361.0
 20
174.0
 30
0.0
 40
2.05
  0
CIRCLE
  5
5B9
100
AcDbEntity
  8
LAY-7
  6
DASHED2
 62
     1
100
AcDbCircle
 10
361.0
 20
174.0
 30
0.0
 40
2.5
  0
CIRCLE
  5
5BA
100
AcDbEntity
  8
LAY-7
  6
DASHED2
 62
     3
100
AcDbCircle
 10
351.0
 20
159.0
 30
0.0
 40
2.05
  0
CIRCLE
  5
5BB
100
AcDbEntity
  8
LAY-7
  6
DASHED2
 62
     1
100
AcDbCircle
 10
351.0
 20
159.0
 30
0.0
 40
2.5
  0
LINE
  5
5BC
100
AcDbEntity
  8
LAY-7
  6
CONTINUOUS
 62
     3
100
AcDbLine
 10
327.4
 20
147.0
 30
0.0
 11
327.4
 21
151.0
 31
0.0
  0
LINE
  5
5BD
100
AcDbEntity
  8
LAY-7
  6
CONTINUOUS
 62
     3
100
AcDbLine
 10
312.6
 20
147.0
 30
0.0
 11
312.6
 21
151.0
 31
0.0
  0
LINE
  5
5BE
100
AcDbEntity
  8
LAY-7
  6
CONTINUOUS
 62
     3
100
AcDbLine
 10
102.5
 20
89.809525
 30
0.0
 11
94.5
 21
89.809525
 31
0.0
  0
LINE
  5
5BF
100
AcDbEntity
  8
LAY-7
  6
CONTINUOUS
 62
     3
100
AcDbLine
 10
102.5
 20
81.0
 30
0.0
 11
102.5
 21
113.809525
 31
0.0
  0
LINE
  5
5C0
100
AcDbEntity
  8
LAY-7
  6
CONTINUOUS
 62
     3
100
AcDbLine
 10
93.0
 20
51.0
 30
0.0
 11
93.0
 21
81.0
 31
0.0
  0
LINE
  5
5C1
100
AcDbEntity
  8
LAY-7
  6
CONTINUOUS
 62
     3
100
AcDbLine
 10
104.0
 20
51.0
 30
0.0
 11
104.0
 21
81.0
 31
0.0
  0
LINE
  5
5C2
100
AcDbEntity
  8
LAY-7
  6
CONTINUOUS
 62
     3
100
AcDbLine
 10
125.0
 20
51.0
 30
0.0
 11
93.0
 21
51.0
 31
0.0
  0
LINE
  5
5C3
100
AcDbEntity
  8
LAY-7
  6
CONTINUOUS
 62
     3
100
AcDbLine
 10
93.0
 20
81.0
 30
0.0
 11
113.0
 21
81.0
 31
0.0
  0
LINE
  5
5C4
100
AcDbEntity
  8
LAY-7
  6
CONTINUOUS
 62
     3
100
AcDbLine
 10
94.5
 20
81.0
 30
0.0
 11
94.5
 21
114.0
 31
0.0
  0
LINE
  5
5C5
100
AcDbEntity
  8
LAY-7
  6
CONTINUOUS
 62
     3
100
AcDbLine
 10
102.5
 20
114.0
 30
0.0
 11
94.5
 21
114.0
 31
0.0
  0
ARC
  5
5C6
100
AcDbEntity
  8
LAY-7
  6
DASHED2
 62
     3
100
AcDbCircle
 10
128.0
 20
66.0
 30
0.0
 40
15.0
100
AcDbArc
 50
0.0
 51
90.0
  0
LINE
  5
5C7
100
AcDbEntity
  8
LAY-7
  6
DASHED2
 62
     3
100
AcDbLine
 10
113.0
 20
81.0
 30
0.0
 11
128.0
 21
81.0
 31
0.0
  0
LINE
  5
5C8
100
AcDbEntity
  8
LAY-10
  6
CONTINUOUS
 62
     5
100
AcDbLine
 10
13.0
 20
9.5
 30
0.0
 11
581.0
 21
9.5
 31
0.0
  0
LINE
  5
5C9
100
AcDbEntity
  8
LAY-10
  6
CONTINUOUS
 62
     5
100
AcDbLine
 10
581.0
 20
9.5
 30
0.0
 11
581.0
 21
410.5
 31
0.0
  0
LINE
  5
5CA
100
AcDbEntity
  8
LAY-10
  6
CONTINUOUS
 62
     5
100
AcDbLine
 10
581.0
 20
410.5
 30
0.0
 11
13.0
 21
410.5
 31
0.0
  0
LINE
  5
5CB
100
AcDbEntity
  8
LAY-10
  6
CONTINUOUS
 62
     1
100
AcDbLine
 10
594.0
 20
0.0
 30
0.0
 11
594.0
 21
5.0
 31
0.0
  0
LINE
  5
5CC
100
AcDbEntity
  8
LAY-10
  6
CONTINUOUS
 62
     1
100
AcDbLine
 10
594.0
 20
0.0
 30
0.0
 11
589.0
 21
0.0
 31
0.0
  0
LINE
  5
5CD
100
AcDbEntity
  8
LAY-10
  6
CONTINUOUS
 62
     1
100
AcDbLine
 10
594.0
 20
420.0
 30
0.0
 11
594.0
 21
415.0
 31
0.0
  0
LINE
  5
5CE
100
AcDbEntity
  8
LAY-10
  6
CONTINUOUS
 62
     1
100
AcDbLine
 10
594.0
 20
420.0
 30
0.0
 11
589.0
 21
420.0
 31
0.0
  0
LINE
  5
5CF
100
AcDbEntity
  8
LAY-10
  6
CONTINUOUS
 62
     1
100
AcDbLine
 10
0.0
 20
420.0
 30
0.0
 11
5.0
 21
420.0
 31
0.0
  0
LINE
  5
5D0
100
AcDbEntity
  8
LAY-10
  6
CONTINUOUS
 62
     1
100
AcDbLine
 10
0.0
 20
420.0
 30
0.0
 11
0.0
 21
415.0
 31
0.0
  0
LINE
  5
5D1
100
AcDbEntity
  8
LAY-10
  6
CONTINUOUS
 62
     1
100
AcDbLine
 10
0.0
 20
0.0
 30
0.0
 11
0.0
 21
5.0
 31
0.0
  0
LINE
  5
5D2
100
AcDbEntity
  8
LAY-10
  6
CONTINUOUS
 62
     1
100
AcDbLine
 10
0.0
 20
0.0
 30
0.0
 11
5.0
 21
0.0
 31
0.0
  0
LINE
  5
5D3
100
AcDbEntity
  8
LAY-10
  6
CONTINUOUS
 62
     5
100
AcDbLine
 10
13.0
 20
9.5
 30
0.0
 11
13.0
 21
410.5
 31
0.0
  0
LINE
  5
5D4
100
AcDbEntity
  8
LAY-10
  6
CONTINUOUS
 62
     5
100
AcDbLine
 10
310.0
 20
9.5
 30
0.0
 11
310.0
 21
39.5
 31
0.0
  0
LINE
  5
5D5
100
AcDbEntity
  8
LAY-10
  6
CONTINUOUS
 62
     5
100
AcDbLine
 10
310.0
 20
29.5
 30
0.0
 11
451.0
 21
29.5
 31
0.0
  0
LINE
  5
5D6
100
AcDbEntity
  8
LAY-10
  6
CONTINUOUS
 62
     5
100
AcDbLine
 10
528.5
 20
39.5
 30
0.0
 11
528.5
 21
9.5
 31
0.0
  0
LINE
  5
5D7
100
AcDbEntity
  8
LAY-10
  6
CONTINUOUS
 62
     1
100
AcDbLine
 10
461.0
 20
39.5
 30
0.0
 11
461.0
 21
19.5
 31
0.0
  0
LINE
  5
5D8
100
AcDbEntity
  8
LAY-10
  6
CONTINUOUS
 62
     1
100
AcDbLine
 10
481.0
 20
39.5
 30
0.0
 11
481.0
 21
19.5
 31
0.0
  0
TEXT
  5
5D9
100
AcDbEntity
  8
LAY-10
  6
CONTINUOUS
 62
     2
100
AcDbText
 10
531.8
 20
39.0
 30
0.0
 40
4.5
  1
部番
 41
0.755556
  7
EXCADVERT
 72
     3
 11
531.8
 21
30.0
 31
0.0
100
AcDbText
  0
TEXT
  5
5DA
100
AcDbEntity
  8
LAY-10
  6
CONTINUOUS
 62
     2
100
AcDbText
 10
453.0
 20
19.9
 30
0.0
 40
4.0
  1
符号
 41
0.672
  7
EXCADSTD
 72
     5
 11
458.86624
 21
19.9
 31
0.0
100
AcDbText
  0
TEXT
  5
5DB
100
AcDbEntity
  8
LAY-10
  6
CONTINUOUS
 62
     2
100
AcDbText
 10
464.9
 20
20.0
 30
0.0
 40
4.0
  1
年･月･日
 41
0.57856
  7
EXCADSTD
 72
     5
 11
477.7
 21
20.0
 31
0.0
100
AcDbText
  0
TEXT
  5
5DC
100
AcDbEntity
  8
LAY-10
  6
CONTINUOUS
 62
     2
100
AcDbText
 10
490.9
 20
19.7
 30
0.0
 40
4.0
  1
改　訂　記　事
 41
0.672
  7
EXCADSTD
 72
     5
 11
513.3
 21
19.7
 31
0.0
100
AcDbText
  0
LINE
  5
5DD
100
AcDbEntity
  8
LAY-10
  6
CONTINUOUS
 62
     1
100
AcDbLine
 10
538.5
 20
39.5
 30
0.0
 11
538.5
 21
29.5
 31
0.0
  0
LINE
  5
5DE
100
AcDbEntity
  8
LAY-10
  6
CONTINUOUS
 62
     1
100
AcDbLine
 10
451.0
 20
24.5
 30
0.0
 11
528.5
 21
24.5
 31
0.0
  0
LINE
  5
5DF
100
AcDbEntity
  8
LAY-10
  6
CONTINUOUS
 62
     1
100
AcDbLine
 10
563.5
 20
29.5
 30
0.0
 11
563.5
 21
9.5
 31
0.0
  0
LINE
  5
5E0
100
AcDbEntity
  8
LAY-10
  6
CONTINUOUS
 62
     1
100
AcDbLine
 10
546.0
 20
29.5
 30
0.0
 11
546.0
 21
9.5
 31
0.0
  0
TEXT
  5
5E1
100
AcDbEntity
  8
LAY-10
  6
CONTINUOUS
 62
     2
100
AcDbText
 10
535.8
 20
39.0
 30
0.0
 40
4.5
  1
品号
 41
0.755556
  7
EXCADVERT
 72
     3
 11
535.8
 21
30.0
 31
0.0
100
AcDbText
  0
LINE
  5
5E2
100
AcDbEntity
  8
LAY-10
  6
CONTINUOUS
 62
     5
100
AcDbLine
 10
310.0
 20
39.5
 30
0.0
 11
581.0
 21
39.5
 31
0.0
  0
LINE
  5
5E3
100
AcDbEntity
  8
LAY-10
  6
CONTINUOUS
 62
     5
100
AcDbLine
 10
451.0
 20
39.5
 30
0.0
 11
451.0
 21
9.5
 31
0.0
  0
TEXT
  5
5E4
100
AcDbEntity
  8
LAY-10
  6
CONTINUOUS
 62
     2
100
AcDbText
 10
314.3
 20
29.0
 30
0.0
 40
4.5
  1
材質
 41
0.755556
  7
EXCADVERT
 72
     3
 11
314.3
 21
20.0
 31
0.0
100
AcDbText
  0
LINE
  5
5E5
100
AcDbEntity
  8
LAY-10
  6
CONTINUOUS
 62
     5
100
AcDbLine
 10
358.5
 20
39.5
 30
0.0
 11
358.5
 21
29.5
 31
0.0
  0
LINE
  5
5E6
100
AcDbEntity
  8
LAY-10
  6
CONTINUOUS
 62
     5
100
AcDbLine
 10
358.5
 20
29.5
 30
0.0
 11
358.5
 21
9.5
 31
0.0
  0
TEXT
  5
5E7
100
AcDbEntity
  8
LAY-10
  6
CONTINUOUS
 62
     2
100
AcDbText
 10
314.3
 20
39.0
 30
0.0
 40
4.5
  1
種別
 41
0.755556
  7
EXCADVERT
 72
     3
 11
314.3
 21
30.0
 31
0.0
100
AcDbText
  0
LINE
  5
5E8
100
AcDbEntity
  8
LAY-10
  6
CONTINUOUS
 62
     1
100
AcDbLine
 10
451.0
 20
34.5
 30
0.0
 11
528.5
 21
34.5
 31
0.0
  0
LINE
  5
5E9
100
AcDbEntity
  8
LAY-10
  6
CONTINUOUS
 62
     1
100
AcDbLine
 10
521.5
 20
19.5
 30
0.0
 11
521.5
 21
39.5
 31
0.0
  0
TEXT
  5
5EA
100
AcDbEntity
  8
LAY-10
  6
CONTINUOUS
 62
     2
100
AcDbText
 10
521.82
 20
19.89
 30
0.0
 40
4.0
  1
担当
 41
0.672
  7
EXCADSTD
 72
     5
 11
527.68624
 21
19.89
 31
0.0
100
AcDbText
  0
TEXT
  5
5EB
100
AcDbEntity
  8
LAY-10
  6
CONTINUOUS
 62
     2
100
AcDbText
 10
316.1
 20
19.0
 30
0.0
 40
4.5
  1
面理
 41
0.755556
  7
EXCADVERT
 72
     3
 11
316.1
 21
10.0
 31
0.0
100
AcDbText
  0
TEXT
  5
5EC
100
AcDbEntity
  8
LAY-10
  6
CONTINUOUS
 62
     2
100
AcDbText
 10
312.4
 20
19.0
 30
0.0
 40
4.5
  1
表処
 41
0.755556
  7
EXCADVERT
 72
     3
 11
312.4
 21
10.0
 31
0.0
100
AcDbText
  0
LINE
  5
5ED
100
AcDbEntity
  8
LAY-10
  6
CONTINUOUS
 62
     5
100
AcDbLine
 10
415.1
 20
29.5
 30
0.0
 11
415.1
 21
9.5
 31
0.0
  0
LINE
  5
5EE
100
AcDbEntity
  8
LAY-10
  6
CONTINUOUS
 62
     1
100
AcDbLine
 10
422.1
 20
29.5
 30
0.0
 11
422.1
 21
9.5
 31
0.0
  0
TEXT
  5
5EF
100
AcDbEntity
  8
LAY-10
  6
CONTINUOUS
 62
     2
100
AcDbText
 10
418.7
 20
19.3
 30
0.0
 40
3.2
  1
年月日
 41
1.0625
  7
EXCADVERT
 72
     3
 11
418.7
 21
9.7
 31
0.0
100
AcDbText
  0
LINE
  5
5F0
100
AcDbEntity
  8
LAY-10
  6
CONTINUOUS
 62
     5
100
AcDbLine
 10
415.1
 20
29.5
 30
0.0
 11
415.1
 21
9.5
 31
0.0
  0
TEXT
  5
5F1
100
AcDbEntity
  8
LAY-10
  6
CONTINUOUS
 62
     2
100
AcDbText
 10
418.7
 20
29.0
 30
0.0
 40
4.5
  1
尺度
 41
0.755556
  7
EXCADVERT
 72
     3
 11
418.7
 21
20.0
 31
0.0
100
AcDbText
  0
LINE
  5
5F2
100
AcDbEntity
  8
LAY-10
  6
CONTINUOUS
 62
     1
100
AcDbLine
 10
366.5
 20
9.5
 30
0.0
 11
366.5
 21
39.5
 31
0.0
  0
LINE
  5
5F3
100
AcDbEntity
  8
LAY-10
  6
CONTINUOUS
 62
     1
100
AcDbLine
 10
318.0
 20
9.5
 30
0.0
 11
318.0
 21
39.5
 31
0.0
  0
TEXT
  5
5F4
100
AcDbEntity
  8
LAY-10
  6
CONTINUOUS
 62
     2
100
AcDbText
 10
362.6
 20
29.1
 30
0.0
 40
3.2
  1
熱処理
  7
EXCADVERT
 72
     3
 11
362.6
 21
19.5
 31
0.0
100
AcDbText
  0
TEXT
  5
5F5
100
AcDbEntity
  8
LAY-10
  6
CONTINUOUS
 62
     2
100
AcDbText
 10
362.8
 20
39.0
 30
0.0
 40
4.5
  1
名称
 41
0.755556
  7
EXCADVERT
 72
     3
 11
362.8
 21
30.0
 31
0.0
100
AcDbText
  0
TEXT
  5
5F6
100
AcDbEntity
  8
LAY-10
  6
CONTINUOUS
 62
     2
100
AcDbText
 10
362.8
 20
19.0
 30
0.0
 40
4.5
  1
硬度
 41
0.755556
  7
EXCADVERT
 72
     3
 11
362.8
 21
10.0
 31
0.0
100
AcDbText
  0
LINE
  5
5F7
100
AcDbEntity
  8
LAY-10
  6
CONTINUOUS
 62
     5
100
AcDbLine
 10
310.0
 20
19.5
 30
0.0
 11
528.5
 21
19.5
 31
0.0
  0
LINE
  5
5F8
100
AcDbEntity
  8
LAY-10
  6
CONTINUOUS
 62
     5
100
AcDbLine
 10
528.5
 20
29.5
 30
0.0
 11
581.0
 21
29.5
 31
0.0
  0
LINE
  5
5F9
100
AcDbEntity
  8
LAY-10
  6
CONTINUOUS
 62
     1
100
AcDbLine
 10
528.5
 20
29.5
 30
0.0
 11
451.0
 21
29.5
 31
0.0
  0
LINE
  5
5FA
100
AcDbEntity
  8
LAY-10
  6
CONTINUOUS
 62
     5
100
AcDbLine
 10
253.5
 20
14.5
 30
0.0
 11
310.0
 21
14.5
 31
0.0
  0
TEXT
  5
5FB
100
AcDbEntity
  8
LAY-10
  6
CONTINUOUS
 62
     2
100
AcDbText
 10
257.3
 20
9.5
 30
0.0
 40
5.0
  1
指示ナキ角部ハ糸面取リトスル
 41
0.588
  7
EXCADSTD
 72
     5
 11
306.3
 21
9.5
 31
0.0
100
AcDbText
  0
LINE
  5
5FC
100
AcDbEntity
  8
LAY-10
  6
CONTINUOUS
 62
     5
100
AcDbLine
 10
253.5
 20
14.5
 30
0.0
 11
253.5
 21
9.5
 31
0.0
  0
TEXT
  5
5FD
100
AcDbEntity
  8
LAY-10
  6
CONTINUOUS
 62
     2
100
AcDbText
 10
544.4
 20
403.0
 30
0.0
 40
5.0
  1
公差単位μ＝０．００１㎜
 41
0.504
  7
EXCADSTD
 72
     5
 11
580.4
 21
403.0
 31
0.0
100
AcDbText
  0
LINE
  5
5FE
100
AcDbEntity
  8
LAY-10
  6
CONTINUOUS
 62
     5
100
AcDbLine
 10
542.6
 20
400.5
 30
0.0
 11
542.6
 21
410.5
 31
0.0
  0
LINE
  5
5FF
100
AcDbEntity
  8
LAY-10
  6
CONTINUOUS
 62
     1
100
AcDbLine
 10
534.5
 20
410.5
 30
0.0
 11
534.5
 21
400.5
 31
0.0
  0
LINE
  5
600
100
AcDbEntity
  8
LAY-10
  6
CONTINUOUS
 62
     5
100
AcDbLine
 10
527.5
 20
410.5
 30
0.0
 11
527.5
 21
400.5
 31
0.0
  0
TEXT
  5
601
100
AcDbEntity
  8
LAY-10
  6
CONTINUOUS
 62
     2
100
AcDbText
 10
530.9
 20
410.0
 30
0.0
 40
3.0
  1
重要度
  7
EXCADVERT
 72
     3
 11
530.9
 21
401.0
 31
0.0
100
AcDbText
  0
LINE
  5
602
100
AcDbEntity
  8
LAY-10
  6
CONTINUOUS
 62
     5
100
AcDbLine
 10
527.5
 20
400.5
 30
0.0
 11
581.0
 21
400.5
 31
0.0
  0
LINE
  5
603
100
AcDbEntity
  8
LAY-10
  6
CONTINUOUS
 62
     1
100
AcDbLine
 10
528.5
 20
24.5
 30
0.0
 11
581.0
 21
24.5
 31
0.0
  0
TEXT
  5
604
100
AcDbEntity
  8
LAY-10
  6
CONTINUOUS
 62
     2
100
AcDbText
 10
532.55
 20
25.0
 30
0.0
 40
4.0
  1
承　認
 41
0.672
  7
EXCADSTD
 72
     5
 11
542.15
 21
25.0
 31
0.0
100
AcDbText
  0
TEXT
  5
605
100
AcDbEntity
  8
LAY-10
  6
CONTINUOUS
 62
     2
100
AcDbText
 10
550.05
 20
25.0
 30
0.0
 40
4.0
  1
検　図
 41
0.672
  7
EXCADSTD
 72
     5
 11
559.65
 21
25.0
 31
0.0
100
AcDbText
  0
TEXT
  5
606
100
AcDbEntity
  8
LAY-10
  6
CONTINUOUS
 62
     2
100
AcDbText
 10
567.55
 20
25.0
 30
0.0
 40
4.0
  1
作　図
 41
0.672
  7
EXCADSTD
 72
     5
 11
577.15
 21
25.0
 31
0.0
100
AcDbText
  0
TEXT
  5
607
100
AcDbEntity
  8
LAY-10
  6
CONTINUOUS
 62
    54
100
AcDbText
 10
460.88
 20
11.51
 30
0.0
 40
6.0
  1
日本ドアーチエック製造株式会社
 41
0.56
  7
EXCADSTD
 72
     5
 11
520.88
 21
11.51
 31
0.0
100
AcDbText
  0
LINE
  5
608
100
AcDbEntity
  8
LAY-15
  6
CONTINUOUS
 62
     3
100
AcDbLine
 10
352.0
 20
311.0
 30
0.0
 11
362.0
 21
311.0
 31
0.0
  0
LINE
  5
609
100
AcDbEntity
  8
LAY-15
  6
CONTINUOUS
 62
     3
100
AcDbLine
 10
359.5
 20
291.0
 30
0.0
 11
354.5
 21
291.0
 31
0.0
  0
LINE
  5
60A
100
AcDbEntity
  8
LAY-15
  6
CONTINUOUS
 62
     3
100
AcDbLine
 10
353.5
 20
291.0
 30
0.0
 11
348.5
 21
291.0
 31
0.0
  0
LINE
  5
60B
100
AcDbEntity
  8
LAY-15
  6
CONTINUOUS
 62
     3
100
AcDbLine
 10
354.5
 20
334.0
 30
0.0
 11
359.5
 21
334.0
 31
0.0
  0
LINE
  5
60C
100
AcDbEntity
  8
LAY-15
  6
CONTINUOUS
 62
     3
100
AcDbLine
 10
348.5
 20
334.0
 30
0.0
 11
353.5
 21
334.0
 31
0.0
  0
LINE
  5
60D
100
AcDbEntity
  8
LAY-15
  6
CONTINUOUS
 62
     3
100
AcDbLine
 10
359.5
 20
329.5
 30
0.0
 11
359.5
 21
334.0
 31
0.0
  0
LINE
  5
60E
100
AcDbEntity
  8
LAY-15
  6
CONTINUOUS
 62
     1
100
AcDbLine
 10
359.15
 20
329.5
 30
0.0
 11
359.15
 21
334.0
 31
0.0
  0
LINE
  5
60F
100
AcDbEntity
  8
LAY-15
  6
CONTINUOUS
 62
     1
100
AcDbLine
 10
354.85
 20
329.5
 30
0.0
 11
354.85
 21
334.0
 31
0.0
  0
LINE
  5
610
100
AcDbEntity
  8
LAY-15
  6
CONTINUOUS
 62
     3
100
AcDbLine
 10
354.5
 20
329.5
 30
0.0
 11
354.5
 21
334.0
 31
0.0
  0
LINE
  5
611
100
AcDbEntity
  8
LAY-15
  6
CONTINUOUS
 62
     3
100
AcDbLine
 10
353.5
 20
329.5
 30
0.0
 11
353.5
 21
334.0
 31
0.0
  0
LINE
  5
612
100
AcDbEntity
  8
LAY-15
  6
CONTINUOUS
 62
     1
100
AcDbLine
 10
353.15
 20
329.5
 30
0.0
 11
353.15
 21
334.0
 31
0.0
  0
LINE
  5
613
100
AcDbEntity
  8
LAY-15
  6
CONTINUOUS
 62
     1
100
AcDbLine
 10
348.85
 20
329.5
 30
0.0
 11
348.85
 21
334.0
 31
0.0
  0
LINE
  5
614
100
AcDbEntity
  8
LAY-15
  6
CONTINUOUS
 62
     3
100
AcDbLine
 10
348.5
 20
329.5
 30
0.0
 11
348.5
 21
334.0
 31
0.0
  0
LINE
  5
615
100
AcDbEntity
  8
LAY-15
  6
DASHED2
 62
     3
100
AcDbLine
 10
354.5
 20
316.5
 30
0.0
 11
359.5
 21
316.5
 31
0.0
  0
LINE
  5
616
100
AcDbEntity
  8
LAY-15
  6
DASHED2
 62
     3
100
AcDbLine
 10
362.0
 20
314.0
 30
0.0
 11
352.0
 21
314.0
 31
0.0
  0
LINE
  5
617
100
AcDbEntity
  8
LAY-15
  6
DASHED2
 62
     3
100
AcDbLine
 10
352.0
 20
314.0
 30
0.0
 11
354.5
 21
316.5
 31
0.0
  0
LINE
  5
618
100
AcDbEntity
  8
LAY-15
  6
DASHED2
 62
     3
100
AcDbLine
 10
362.0
 20
314.0
 30
0.0
 11
359.5
 21
316.5
 31
0.0
  0
LINE
  5
619
100
AcDbEntity
  8
LAY-15
  6
DASHED2
 62
     3
100
AcDbLine
 10
348.5
 20
316.5
 30
0.0
 11
353.5
 21
316.5
 31
0.0
  0
LINE
  5
61A
100
AcDbEntity
  8
LAY-15
  6
DASHED2
 62
     3
100
AcDbLine
 10
356.0
 20
314.0
 30
0.0
 11
346.0
 21
314.0
 31
0.0
  0
LINE
  5
61B
100
AcDbEntity
  8
LAY-15
  6
DASHED2
 62
     3
100
AcDbLine
 10
346.0
 20
314.0
 30
0.0
 11
348.5
 21
316.5
 31
0.0
  0
LINE
  5
61C
100
AcDbEntity
  8
LAY-15
  6
DASHED2
 62
     3
100
AcDbLine
 10
356.0
 20
314.0
 30
0.0
 11
353.5
 21
316.5
 31
0.0
  0
LINE
  5
61D
100
AcDbEntity
  8
LAY-15
  6
DASHED2
 62
     3
100
AcDbLine
 10
359.5
 20
316.5
 30
0.0
 11
359.5
 21
329.5
 31
0.0
  0
LINE
  5
61E
100
AcDbEntity
  8
LAY-15
  6
DASHED2
 62
     1
100
AcDbLine
 10
359.15
 20
316.5
 30
0.0
 11
359.15
 21
329.5
 31
0.0
  0
LINE
  5
61F
100
AcDbEntity
  8
LAY-15
  6
DASHED2
 62
     1
100
AcDbLine
 10
354.85
 20
316.5
 30
0.0
 11
354.85
 21
329.5
 31
0.0
  0
LINE
  5
620
100
AcDbEntity
  8
LAY-15
  6
DASHED2
 62
     3
100
AcDbLine
 10
354.5
 20
316.5
 30
0.0
 11
354.5
 21
329.5
 31
0.0
  0
LINE
  5
621
100
AcDbEntity
  8
LAY-15
  6
DASHED2
 62
     3
100
AcDbLine
 10
353.5
 20
316.5
 30
0.0
 11
353.5
 21
329.5
 31
0.0
  0
LINE
  5
622
100
AcDbEntity
  8
LAY-15
  6
DASHED2
 62
     1
100
AcDbLine
 10
353.15
 20
316.5
 30
0.0
 11
353.15
 21
329.5
 31
0.0
  0
LINE
  5
623
100
AcDbEntity
  8
LAY-15
  6
DASHED2
 62
     1
100
AcDbLine
 10
348.85
 20
316.5
 30
0.0
 11
348.85
 21
329.5
 31
0.0
  0
LINE
  5
624
100
AcDbEntity
  8
LAY-15
  6
DASHED2
 62
     3
100
AcDbLine
 10
348.5
 20
316.5
 30
0.0
 11
348.5
 21
329.5
 31
0.0
  0
LINE
  5
625
100
AcDbEntity
  8
LAY-15
  6
CONTINUOUS
 62
     3
100
AcDbLine
 10
359.5
 20
297.5
 30
0.0
 11
359.5
 21
291.0
 31
0.0
  0
LINE
  5
626
100
AcDbEntity
  8
LAY-15
  6
CONTINUOUS
 62
     1
100
AcDbLine
 10
359.15
 20
297.5
 30
0.0
 11
359.15
 21
291.0
 31
0.0
  0
LINE
  5
627
100
AcDbEntity
  8
LAY-15
  6
CONTINUOUS
 62
     1
100
AcDbLine
 10
354.85
 20
297.5
 30
0.0
 11
354.85
 21
291.0
 31
0.0
  0
LINE
  5
628
100
AcDbEntity
  8
LAY-15
  6
CONTINUOUS
 62
     3
100
AcDbLine
 10
354.5
 20
297.5
 30
0.0
 11
354.5
 21
291.0
 31
0.0
  0
LINE
  5
629
100
AcDbEntity
  8
LAY-15
  6
CONTINUOUS
 62
     1
100
AcDbLine
 10
353.15
 20
297.5
 30
0.0
 11
353.15
 21
291.0
 31
0.0
  0
LINE
  5
62A
100
AcDbEntity
  8
LAY-15
  6
CONTINUOUS
 62
     3
100
AcDbLine
 10
353.5
 20
297.5
 30
0.0
 11
353.5
 21
291.0
 31
0.0
  0
LINE
  5
62B
100
AcDbEntity
  8
LAY-15
  6
CONTINUOUS
 62
     1
100
AcDbLine
 10
348.85
 20
297.5
 30
0.0
 11
348.85
 21
291.0
 31
0.0
  0
LINE
  5
62C
100
AcDbEntity
  8
LAY-15
  6
CONTINUOUS
 62
     3
100
AcDbLine
 10
348.5
 20
297.5
 30
0.0
 11
348.5
 21
291.0
 31
0.0
  0
LINE
  5
62D
100
AcDbEntity
  8
LAY-15
  6
DASHED2
 62
     3
100
AcDbLine
 10
353.5
 20
308.5
 30
0.0
 11
348.5
 21
308.5
 31
0.0
  0
LINE
  5
62E
100
AcDbEntity
  8
LAY-15
  6
DASHED2
 62
     3
100
AcDbLine
 10
346.0
 20
311.0
 30
0.0
 11
356.0
 21
311.0
 31
0.0
  0
LINE
  5
62F
100
AcDbEntity
  8
LAY-15
  6
DASHED2
 62
     3
100
AcDbLine
 10
356.0
 20
311.0
 30
0.0
 11
353.5
 21
308.5
 31
0.0
  0
LINE
  5
630
100
AcDbEntity
  8
LAY-15
  6
DASHED2
 62
     3
100
AcDbLine
 10
346.0
 20
311.0
 30
0.0
 11
348.5
 21
308.5
 31
0.0
  0
LINE
  5
631
100
AcDbEntity
  8
LAY-15
  6
DASHED2
 62
     3
100
AcDbLine
 10
359.5
 20
308.5
 30
0.0
 11
354.5
 21
308.5
 31
0.0
  0
LINE
  5
632
100
AcDbEntity
  8
LAY-15
  6
DASHED2
 62
     3
100
AcDbLine
 10
352.0
 20
311.0
 30
0.0
 11
354.5
 21
308.5
 31
0.0
  0
LINE
  5
633
100
AcDbEntity
  8
LAY-15
  6
DASHED2
 62
     3
100
AcDbLine
 10
359.5
 20
308.5
 30
0.0
 11
359.5
 21
297.5
 31
0.0
  0
LINE
  5
634
100
AcDbEntity
  8
LAY-15
  6
DASHED2
 62
     1
100
AcDbLine
 10
359.15
 20
308.5
 30
0.0
 11
359.15
 21
297.5
 31
0.0
  0
LINE
  5
635
100
AcDbEntity
  8
LAY-15
  6
DASHED2
 62
     1
100
AcDbLine
 10
354.85
 20
308.5
 30
0.0
 11
354.85
 21
297.5
 31
0.0
  0
LINE
  5
636
100
AcDbEntity
  8
LAY-15
  6
DASHED2
 62
     3
100
AcDbLine
 10
354.5
 20
308.5
 30
0.0
 11
354.5
 21
297.5
 31
0.0
  0
LINE
  5
637
100
AcDbEntity
  8
LAY-15
  6
DASHED2
 62
     3
100
AcDbLine
 10
353.5
 20
308.5
 30
0.0
 11
353.5
 21
297.5
 31
0.0
  0
LINE
  5
638
100
AcDbEntity
  8
LAY-15
  6
DASHED2
 62
     1
100
AcDbLine
 10
353.15
 20
308.5
 30
0.0
 11
353.15
 21
297.5
 31
0.0
  0
LINE
  5
639
100
AcDbEntity
  8
LAY-15
  6
DASHED2
 62
     1
100
AcDbLine
 10
348.85
 20
308.5
 30
0.0
 11
348.85
 21
297.5
 31
0.0
  0
LINE
  5
63A
100
AcDbEntity
  8
LAY-15
  6
DASHED2
 62
     3
100
AcDbLine
 10
348.5
 20
308.5
 30
0.0
 11
348.5
 21
297.5
 31
0.0
  0
LINE
  5
63B
100
AcDbEntity
  8
LAY-15
  6
DASHED2
 62
     3
100
AcDbLine
 10
362.0
 20
311.0
 30
0.0
 11
359.5
 21
308.5
 31
0.0
  0
CIRCLE
  5
63C
100
AcDbEntity
  8
LAY-15
  6
CONTINUOUS
 62
     3
100
AcDbCircle
 10
518.5
 20
204.0
 30
0.0
 40
5.0
  0
ARC
  5
63D
100
AcDbEntity
  8
LAY-15
  6
CONTINUOUS
 62
     3
100
AcDbCircle
 10
518.5
 20
204.0
 30
0.0
 40
2.6
100
AcDbArc
 50
348.912511
 51
11.087489
  0
ARC
  5
63E
100
AcDbEntity
  8
LAY-15
  6
CONTINUOUS
 62
     3
100
AcDbCircle
 10
518.5
 20
204.0
 30
0.0
 40
2.6
100
AcDbArc
 50
78.912511
 51
101.087489
  0
ARC
  5
63F
100
AcDbEntity
  8
LAY-15
  6
CONTINUOUS
 62
     3
100
AcDbCircle
 10
518.5
 20
204.0
 30
0.0
 40
2.6
100
AcDbArc
 50
168.912511
 51
191.087489
  0
ARC
  5
640
100
AcDbEntity
  8
LAY-15
  6
CONTINUOUS
 62
     3
100
AcDbCircle
 10
518.5
 20
204.0
 30
0.0
 40
2.6
100
AcDbArc
 50
258.912511
 51
281.087489
  0
LINE
  5
641
100
AcDbEntity
  8
LAY-15
  6
CONTINUOUS
 62
     3
100
AcDbLine
 10
519.0
 20
206.55147
 30
0.0
 11
519.246713
 21
205.152293
 31
0.0
  0
LINE
  5
642
100
AcDbEntity
  8
LAY-15
  6
CONTINUOUS
 62
     3
100
AcDbLine
 10
521.05147
 20
204.5
 30
0.0
 11
519.652293
 21
204.746713
 31
0.0
  0
ARC
  5
643
100
AcDbEntity
  8
LAY-15
  6
CONTINUOUS
 62
     3
100
AcDbCircle
 10
519.739117
 20
205.239117
 30
0.0
 40
0.5
100
AcDbArc
 50
190.0
 51
260.0
  0
LINE
  5
644
100
AcDbEntity
  8
LAY-15
  6
CONTINUOUS
 62
     3
100
AcDbLine
 10
519.0
 20
201.44853
 30
0.0
 11
519.246713
 21
202.847707
 31
0.0
  0
LINE
  5
645
100
AcDbEntity
  8
LAY-15
  6
CONTINUOUS
 62
     3
100
AcDbLine
 10
521.05147
 20
203.5
 30
0.0
 11
519.652293
 21
203.253287
 31
0.0
  0
ARC
  5
646
100
AcDbEntity
  8
LAY-15
  6
CONTINUOUS
 62
     3
100
AcDbCircle
 10
519.739117
 20
202.760883
 30
0.0
 40
0.5
100
AcDbArc
 50
100.0
 51
170.0
  0
LINE
  5
647
100
AcDbEntity
  8
LAY-15
  6
CONTINUOUS
 62
     3
100
AcDbLine
 10
515.94853
 20
203.5
 30
0.0
 11
517.347707
 21
203.253287
 31
0.0
  0
LINE
  5
648
100
AcDbEntity
  8
LAY-15
  6
CONTINUOUS
 62
     3
100
AcDbLine
 10
518.0
 20
201.44853
 30
0.0
 11
517.753287
 21
202.847707
 31
0.0
  0
ARC
  5
649
100
AcDbEntity
  8
LAY-15
  6
CONTINUOUS
 62
     3
100
AcDbCircle
 10
517.260883
 20
202.760883
 30
0.0
 40
0.5
100
AcDbArc
 50
10.0
 51
80.0
  0
LINE
  5
64A
100
AcDbEntity
  8
LAY-15
  6
CONTINUOUS
 62
     3
100
AcDbLine
 10
515.94853
 20
204.5
 30
0.0
 11
517.347707
 21
204.746713
 31
0.0
  0
LINE
  5
64B
100
AcDbEntity
  8
LAY-15
  6
CONTINUOUS
 62
     3
100
AcDbLine
 10
518.0
 20
206.55147
 30
0.0
 11
517.753287
 21
205.152293
 31
0.0
  0
ARC
  5
64C
100
AcDbEntity
  8
LAY-15
  6
CONTINUOUS
 62
     3
100
AcDbCircle
 10
517.260883
 20
205.239117
 30
0.0
 40
0.5
100
AcDbArc
 50
280.0
 51
350.0
  0
CIRCLE
  5
64D
100
AcDbEntity
  8
LAY-15
  6
CONTINUOUS
 62
     3
100
AcDbCircle
 10
508.5
 20
189.0
 30
0.0
 40
5.0
  0
ARC
  5
64E
100
AcDbEntity
  8
LAY-15
  6
CONTINUOUS
 62
     3
100
AcDbCircle
 10
508.5
 20
189.0
 30
0.0
 40
2.6
100
AcDbArc
 50
348.912511
 51
11.087489
  0
ARC
  5
64F
100
AcDbEntity
  8
LAY-15
  6
CONTINUOUS
 62
     3
100
AcDbCircle
 10
508.5
 20
189.0
 30
0.0
 40
2.6
100
AcDbArc
 50
78.912511
 51
101.087489
  0
ARC
  5
650
100
AcDbEntity
  8
LAY-15
  6
CONTINUOUS
 62
     3
100
AcDbCircle
 10
508.5
 20
189.0
 30
0.0
 40
2.6
100
AcDbArc
 50
168.912511
 51
191.087489
  0
ARC
  5
651
100
AcDbEntity
  8
LAY-15
  6
CONTINUOUS
 62
     3
100
AcDbCircle
 10
508.5
 20
189.0
 30
0.0
 40
2.6
100
AcDbArc
 50
258.912511
 51
281.087489
  0
LINE
  5
652
100
AcDbEntity
  8
LAY-15
  6
CONTINUOUS
 62
     3
100
AcDbLine
 10
509.0
 20
191.55147
 30
0.0
 11
509.246713
 21
190.152293
 31
0.0
  0
LINE
  5
653
100
AcDbEntity
  8
LAY-15
  6
CONTINUOUS
 62
     3
100
AcDbLine
 10
511.05147
 20
189.5
 30
0.0
 11
509.652293
 21
189.746713
 31
0.0
  0
ARC
  5
654
100
AcDbEntity
  8
LAY-15
  6
CONTINUOUS
 62
     3
100
AcDbCircle
 10
509.739117
 20
190.239117
 30
0.0
 40
0.5
100
AcDbArc
 50
190.0
 51
260.0
  0
LINE
  5
655
100
AcDbEntity
  8
LAY-15
  6
CONTINUOUS
 62
     3
100
AcDbLine
 10
509.0
 20
186.44853
 30
0.0
 11
509.246713
 21
187.847707
 31
0.0
  0
LINE
  5
656
100
AcDbEntity
  8
LAY-15
  6
CONTINUOUS
 62
     3
100
AcDbLine
 10
511.05147
 20
188.5
 30
0.0
 11
509.652293
 21
188.253287
 31
0.0
  0
ARC
  5
657
100
AcDbEntity
  8
LAY-15
  6
CONTINUOUS
 62
     3
100
AcDbCircle
 10
509.739117
 20
187.760883
 30
0.0
 40
0.5
100
AcDbArc
 50
100.0
 51
170.0
  0
LINE
  5
658
100
AcDbEntity
  8
LAY-15
  6
CONTINUOUS
 62
     3
100
AcDbLine
 10
505.94853
 20
188.5
 30
0.0
 11
507.347707
 21
188.253287
 31
0.0
  0
LINE
  5
659
100
AcDbEntity
  8
LAY-15
  6
CONTINUOUS
 62
     3
100
AcDbLine
 10
508.0
 20
186.44853
 30
0.0
 11
507.753287
 21
187.847707
 31
0.0
  0
ARC
  5
65A
100
AcDbEntity
  8
LAY-15
  6
CONTINUOUS
 62
     3
100
AcDbCircle
 10
507.260883
 20
187.760883
 30
0.0
 40
0.5
100
AcDbArc
 50
10.0
 51
80.0
  0
LINE
  5
65B
100
AcDbEntity
  8
LAY-15
  6
CONTINUOUS
 62
     3
100
AcDbLine
 10
505.94853
 20
189.5
 30
0.0
 11
507.347707
 21
189.746713
 31
0.0
  0
LINE
  5
65C
100
AcDbEntity
  8
LAY-15
  6
CONTINUOUS
 62
     3
100
AcDbLine
 10
508.0
 20
191.55147
 30
0.0
 11
507.753287
 21
190.152293
 31
0.0
  0
ARC
  5
65D
100
AcDbEntity
  8
LAY-15
  6
CONTINUOUS
 62
     3
100
AcDbCircle
 10
507.260883
 20
190.239117
 30
0.0
 40
0.5
100
AcDbArc
 50
280.0
 51
350.0
  0
CIRCLE
  5
65E
100
AcDbEntity
  8
LAY-15
  6
CONTINUOUS
 62
     3
100
AcDbCircle
 10
518.5
 20
174.0
 30
0.0
 40
5.0
  0
ARC
  5
65F
100
AcDbEntity
  8
LAY-15
  6
CONTINUOUS
 62
     3
100
AcDbCircle
 10
518.5
 20
174.0
 30
0.0
 40
2.6
100
AcDbArc
 50
348.912511
 51
11.087489
  0
ARC
  5
660
100
AcDbEntity
  8
LAY-15
  6
CONTINUOUS
 62
     3
100
AcDbCircle
 10
518.5
 20
174.0
 30
0.0
 40
2.6
100
AcDbArc
 50
78.912511
 51
101.087489
  0
ARC
  5
661
100
AcDbEntity
  8
LAY-15
  6
CONTINUOUS
 62
     3
100
AcDbCircle
 10
518.5
 20
174.0
 30
0.0
 40
2.6
100
AcDbArc
 50
168.912511
 51
191.087489
  0
ARC
  5
662
100
AcDbEntity
  8
LAY-15
  6
CONTINUOUS
 62
     3
100
AcDbCircle
 10
518.5
 20
174.0
 30
0.0
 40
2.6
100
AcDbArc
 50
258.912511
 51
281.087489
  0
LINE
  5
663
100
AcDbEntity
  8
LAY-15
  6
CONTINUOUS
 62
     3
100
AcDbLine
 10
519.0
 20
176.55147
 30
0.0
 11
519.246713
 21
175.152293
 31
0.0
  0
LINE
  5
664
100
AcDbEntity
  8
LAY-15
  6
CONTINUOUS
 62
     3
100
AcDbLine
 10
521.05147
 20
174.5
 30
0.0
 11
519.652293
 21
174.746713
 31
0.0
  0
ARC
  5
665
100
AcDbEntity
  8
LAY-15
  6
CONTINUOUS
 62
     3
100
AcDbCircle
 10
519.739117
 20
175.239117
 30
0.0
 40
0.5
100
AcDbArc
 50
190.0
 51
260.0
  0
LINE
  5
666
100
AcDbEntity
  8
LAY-15
  6
CONTINUOUS
 62
     3
100
AcDbLine
 10
519.0
 20
171.44853
 30
0.0
 11
519.246713
 21
172.847707
 31
0.0
  0
LINE
  5
667
100
AcDbEntity
  8
LAY-15
  6
CONTINUOUS
 62
     3
100
AcDbLine
 10
521.05147
 20
173.5
 30
0.0
 11
519.652293
 21
173.253287
 31
0.0
  0
ARC
  5
668
100
AcDbEntity
  8
LAY-15
  6
CONTINUOUS
 62
     3
100
AcDbCircle
 10
519.739117
 20
172.760883
 30
0.0
 40
0.5
100
AcDbArc
 50
100.0
 51
170.0
  0
LINE
  5
669
100
AcDbEntity
  8
LAY-15
  6
CONTINUOUS
 62
     3
100
AcDbLine
 10
515.94853
 20
173.5
 30
0.0
 11
517.347707
 21
173.253287
 31
0.0
  0
LINE
  5
66A
100
AcDbEntity
  8
LAY-15
  6
CONTINUOUS
 62
     3
100
AcDbLine
 10
518.0
 20
171.44853
 30
0.0
 11
517.753287
 21
172.847707
 31
0.0
  0
ARC
  5
66B
100
AcDbEntity
  8
LAY-15
  6
CONTINUOUS
 62
     3
100
AcDbCircle
 10
517.260883
 20
172.760883
 30
0.0
 40
0.5
100
AcDbArc
 50
10.0
 51
80.0
  0
LINE
  5
66C
100
AcDbEntity
  8
LAY-15
  6
CONTINUOUS
 62
     3
100
AcDbLine
 10
515.94853
 20
174.5
 30
0.0
 11
517.347707
 21
174.746713
 31
0.0
  0
LINE
  5
66D
100
AcDbEntity
  8
LAY-15
  6
CONTINUOUS
 62
     3
100
AcDbLine
 10
518.0
 20
176.55147
 30
0.0
 11
517.753287
 21
175.152293
 31
0.0
  0
ARC
  5
66E
100
AcDbEntity
  8
LAY-15
  6
CONTINUOUS
 62
     3
100
AcDbCircle
 10
517.260883
 20
175.239117
 30
0.0
 40
0.5
100
AcDbArc
 50
280.0
 51
350.0
  0
CIRCLE
  5
66F
100
AcDbEntity
  8
LAY-15
  6
CONTINUOUS
 62
     3
100
AcDbCircle
 10
508.5
 20
159.0
 30
0.0
 40
5.0
  0
ARC
  5
670
100
AcDbEntity
  8
LAY-15
  6
CONTINUOUS
 62
     3
100
AcDbCircle
 10
508.5
 20
159.0
 30
0.0
 40
2.6
100
AcDbArc
 50
348.912511
 51
11.087489
  0
ARC
  5
671
100
AcDbEntity
  8
LAY-15
  6
CONTINUOUS
 62
     3
100
AcDbCircle
 10
508.5
 20
159.0
 30
0.0
 40
2.6
100
AcDbArc
 50
78.912511
 51
101.087489
  0
ARC
  5
672
100
AcDbEntity
  8
LAY-15
  6
CONTINUOUS
 62
     3
100
AcDbCircle
 10
508.5
 20
159.0
 30
0.0
 40
2.6
100
AcDbArc
 50
168.912511
 51
191.087489
  0
ARC
  5
673
100
AcDbEntity
  8
LAY-15
  6
CONTINUOUS
 62
     3
100
AcDbCircle
 10
508.5
 20
159.0
 30
0.0
 40
2.6
100
AcDbArc
 50
258.912511
 51
281.087489
  0
LINE
  5
674
100
AcDbEntity
  8
LAY-15
  6
CONTINUOUS
 62
     3
100
AcDbLine
 10
509.0
 20
161.55147
 30
0.0
 11
509.246713
 21
160.152293
 31
0.0
  0
LINE
  5
675
100
AcDbEntity
  8
LAY-15
  6
CONTINUOUS
 62
     3
100
AcDbLine
 10
511.05147
 20
159.5
 30
0.0
 11
509.652293
 21
159.746713
 31
0.0
  0
ARC
  5
676
100
AcDbEntity
  8
LAY-15
  6
CONTINUOUS
 62
     3
100
AcDbCircle
 10
509.739117
 20
160.239117
 30
0.0
 40
0.5
100
AcDbArc
 50
190.0
 51
260.0
  0
LINE
  5
677
100
AcDbEntity
  8
LAY-15
  6
CONTINUOUS
 62
     3
100
AcDbLine
 10
509.0
 20
156.44853
 30
0.0
 11
509.246713
 21
157.847707
 31
0.0
  0
LINE
  5
678
100
AcDbEntity
  8
LAY-15
  6
CONTINUOUS
 62
     3
100
AcDbLine
 10
511.05147
 20
158.5
 30
0.0
 11
509.652293
 21
158.253287
 31
0.0
  0
ARC
  5
679
100
AcDbEntity
  8
LAY-15
  6
CONTINUOUS
 62
     3
100
AcDbCircle
 10
509.739117
 20
157.760883
 30
0.0
 40
0.5
100
AcDbArc
 50
100.0
 51
170.0
  0
LINE
  5
67A
100
AcDbEntity
  8
LAY-15
  6
CONTINUOUS
 62
     3
100
AcDbLine
 10
505.94853
 20
158.5
 30
0.0
 11
507.347707
 21
158.253287
 31
0.0
  0
LINE
  5
67B
100
AcDbEntity
  8
LAY-15
  6
CONTINUOUS
 62
     3
100
AcDbLine
 10
508.0
 20
156.44853
 30
0.0
 11
507.753287
 21
157.847707
 31
0.0
  0
ARC
  5
67C
100
AcDbEntity
  8
LAY-15
  6
CONTINUOUS
 62
     3
100
AcDbCircle
 10
507.260883
 20
157.760883
 30
0.0
 40
0.5
100
AcDbArc
 50
10.0
 51
80.0
  0
LINE
  5
67D
100
AcDbEntity
  8
LAY-15
  6
CONTINUOUS
 62
     3
100
AcDbLine
 10
505.94853
 20
159.5
 30
0.0
 11
507.347707
 21
159.746713
 31
0.0
  0
LINE
  5
67E
100
AcDbEntity
  8
LAY-15
  6
CONTINUOUS
 62
     3
100
AcDbLine
 10
508.0
 20
161.55147
 30
0.0
 11
507.753287
 21
160.152293
 31
0.0
  0
ARC
  5
67F
100
AcDbEntity
  8
LAY-15
  6
CONTINUOUS
 62
     3
100
AcDbCircle
 10
507.260883
 20
160.239117
 30
0.0
 40
0.5
100
AcDbArc
 50
280.0
 51
350.0
  0
LINE
  5
680
100
AcDbEntity
  8
LAY-15
  6
CONTINUOUS
 62
     3
100
AcDbLine
 10
89.0
 20
104.309525
 30
0.0
 11
89.0
 21
109.309525
 31
0.0
  0
LINE
  5
681
100
AcDbEntity
  8
LAY-15
  6
CONTINUOUS
 62
     3
100
AcDbLine
 10
89.0
 20
94.309525
 30
0.0
 11
89.0
 21
99.309525
 31
0.0
  0
LINE
  5
682
100
AcDbEntity
  8
LAY-15
  6
CONTINUOUS
 62
     3
100
AcDbLine
 10
94.5
 20
109.309525
 30
0.0
 11
89.0
 21
109.309525
 31
0.0
  0
LINE
  5
683
100
AcDbEntity
  8
LAY-15
  6
CONTINUOUS
 62
     1
100
AcDbLine
 10
94.5
 20
108.959525
 30
0.0
 11
89.0
 21
108.959525
 31
0.0
  0
LINE
  5
684
100
AcDbEntity
  8
LAY-15
  6
CONTINUOUS
 62
     1
100
AcDbLine
 10
94.5
 20
104.659525
 30
0.0
 11
89.0
 21
104.659525
 31
0.0
  0
LINE
  5
685
100
AcDbEntity
  8
LAY-15
  6
CONTINUOUS
 62
     3
100
AcDbLine
 10
94.5
 20
104.309525
 30
0.0
 11
89.0
 21
104.309525
 31
0.0
  0
LINE
  5
686
100
AcDbEntity
  8
LAY-15
  6
CONTINUOUS
 62
     3
100
AcDbLine
 10
94.5
 20
99.309525
 30
0.0
 11
89.0
 21
99.309525
 31
0.0
  0
LINE
  5
687
100
AcDbEntity
  8
LAY-15
  6
CONTINUOUS
 62
     1
100
AcDbLine
 10
94.5
 20
98.959525
 30
0.0
 11
89.0
 21
98.959525
 31
0.0
  0
LINE
  5
688
100
AcDbEntity
  8
LAY-15
  6
CONTINUOUS
 62
     1
100
AcDbLine
 10
94.5
 20
94.659525
 30
0.0
 11
89.0
 21
94.659525
 31
0.0
  0
LINE
  5
689
100
AcDbEntity
  8
LAY-15
  6
CONTINUOUS
 62
     3
100
AcDbLine
 10
94.5
 20
94.309525
 30
0.0
 11
89.0
 21
94.309525
 31
0.0
  0
LINE
  5
68A
100
AcDbEntity
  8
LAY-15
  6
DASHED2
 62
     3
100
AcDbLine
 10
106.5
 20
104.309525
 30
0.0
 11
106.5
 21
109.309525
 31
0.0
  0
LINE
  5
68B
100
AcDbEntity
  8
LAY-15
  6
DASHED2
 62
     3
100
AcDbLine
 10
109.0
 20
111.809525
 30
0.0
 11
109.0
 21
101.809525
 31
0.0
  0
LINE
  5
68C
100
AcDbEntity
  8
LAY-15
  6
DASHED2
 62
     3
100
AcDbLine
 10
109.0
 20
101.809525
 30
0.0
 11
106.5
 21
104.309525
 31
0.0
  0
LINE
  5
68D
100
AcDbEntity
  8
LAY-15
  6
DASHED2
 62
     3
100
AcDbLine
 10
109.0
 20
111.809525
 30
0.0
 11
106.5
 21
109.309525
 31
0.0
  0
LINE
  5
68E
100
AcDbEntity
  8
LAY-15
  6
DASHED2
 62
     3
100
AcDbLine
 10
106.5
 20
94.309525
 30
0.0
 11
106.5
 21
99.309525
 31
0.0
  0
LINE
  5
68F
100
AcDbEntity
  8
LAY-15
  6
DASHED2
 62
     3
100
AcDbLine
 10
109.0
 20
101.809525
 30
0.0
 11
109.0
 21
91.809525
 31
0.0
  0
LINE
  5
690
100
AcDbEntity
  8
LAY-15
  6
DASHED2
 62
     3
100
AcDbLine
 10
109.0
 20
91.809525
 30
0.0
 11
106.5
 21
94.309525
 31
0.0
  0
LINE
  5
691
100
AcDbEntity
  8
LAY-15
  6
DASHED2
 62
     3
100
AcDbLine
 10
109.0
 20
101.809525
 30
0.0
 11
106.5
 21
99.309525
 31
0.0
  0
LINE
  5
692
100
AcDbEntity
  8
LAY-15
  6
DASHED2
 62
     3
100
AcDbLine
 10
106.5
 20
109.309525
 30
0.0
 11
94.23
 21
109.309525
 31
0.0
  0
LINE
  5
693
100
AcDbEntity
  8
LAY-15
  6
DASHED2
 62
     1
100
AcDbLine
 10
106.5
 20
108.959525
 30
0.0
 11
94.5
 21
108.959525
 31
0.0
  0
LINE
  5
694
100
AcDbEntity
  8
LAY-15
  6
DASHED2
 62
     1
100
AcDbLine
 10
106.5
 20
104.659525
 30
0.0
 11
94.5
 21
104.659525
 31
0.0
  0
LINE
  5
695
100
AcDbEntity
  8
LAY-15
  6
DASHED2
 62
     3
100
AcDbLine
 10
106.5
 20
104.309525
 30
0.0
 11
94.5
 21
104.309525
 31
0.0
  0
LINE
  5
696
100
AcDbEntity
  8
LAY-15
  6
DASHED2
 62
     3
100
AcDbLine
 10
106.5
 20
99.309525
 30
0.0
 11
94.5
 21
99.309525
 31
0.0
  0
LINE
  5
697
100
AcDbEntity
  8
LAY-15
  6
DASHED2
 62
     1
100
AcDbLine
 10
106.5
 20
98.959525
 30
0.0
 11
94.5
 21
98.959525
 31
0.0
  0
LINE
  5
698
100
AcDbEntity
  8
LAY-15
  6
DASHED2
 62
     1
100
AcDbLine
 10
106.5
 20
94.659525
 30
0.0
 11
94.5
 21
94.659525
 31
0.0
  0
LINE
  5
699
100
AcDbEntity
  8
LAY-15
  6
DASHED2
 62
     3
100
AcDbLine
 10
106.5
 20
94.309525
 30
0.0
 11
94.5
 21
94.309525
 31
0.0
  0
LINE
  5
69A
100
AcDbEntity
  8
LAY-15
  6
DASHDOT
 62
     1
100
AcDbLine
 10
304.241231
 20
148.25
 30
0.0
 11
335.758769
 21
148.25
 31
0.0
  0
LINE
  5
69B
100
AcDbEntity
  8
LAY-15
  6
DASHDOT
 62
     1
100
AcDbLine
 10
330.125
 20
145.55
 30
0.0
 11
330.125
 21
151.95
 31
0.0
  0
LINE
  5
69C
100
AcDbEntity
  8
LAY-15
  6
DASHDOT
 62
     1
100
AcDbLine
 10
309.875
 20
145.55
 30
0.0
 11
309.875
 21
151.95
 31
0.0
  0
LINE
  5
69D
100
AcDbEntity
  8
LAY-15
  6
CONTINUOUS
 62
     3
100
AcDbLine
 10
333.25
 20
150.175
 30
0.0
 11
333.25
 21
150.171025
 31
0.0
  0
LINE
  5
69E
100
AcDbEntity
  8
LAY-15
  6
CONTINUOUS
 62
     3
100
AcDbLine
 10
333.0
 20
149.6
 30
0.0
 11
333.0
 21
150.1
 31
0.0
  0
LINE
  5
69F
100
AcDbEntity
  8
LAY-15
  6
CONTINUOUS
 62
     3
100
AcDbLine
 10
333.0
 20
150.1
 30
0.0
 11
332.480385
 21
151.0
 31
0.0
  0
LINE
  5
6A0
100
AcDbEntity
  8
LAY-15
  6
CONTINUOUS
 62
     3
100
AcDbLine
 10
306.75
 20
150.175
 30
0.0
 11
306.75
 21
150.171025
 31
0.0
  0
LINE
  5
6A1
100
AcDbEntity
  8
LAY-15
  6
CONTINUOUS
 62
     3
100
AcDbLine
 10
307.0
 20
149.6
 30
0.0
 11
307.0
 21
150.1
 31
0.0
  0
LINE
  5
6A2
100
AcDbEntity
  8
LAY-15
  6
CONTINUOUS
 62
     3
100
AcDbLine
 10
307.0
 20
150.1
 30
0.0
 11
307.519615
 21
151.0
 31
0.0
  0
LINE
  5
6A3
100
AcDbEntity
  8
LAY-15
  6
CONTINUOUS
 62
     3
100
AcDbLine
 10
328.05
 20
151.0
 30
0.0
 11
327.55
 21
150.5
 31
0.0
  0
LINE
  5
6A4
100
AcDbEntity
  8
LAY-15
  6
CONTINUOUS
 62
     3
100
AcDbLine
 10
327.55
 20
149.6
 30
0.0
 11
327.55
 21
150.5
 31
0.0
  0
LINE
  5
6A5
100
AcDbEntity
  8
LAY-15
  6
CONTINUOUS
 62
     3
100
AcDbLine
 10
311.95
 20
151.0
 30
0.0
 11
312.45
 21
150.5
 31
0.0
  0
LINE
  5
6A6
100
AcDbEntity
  8
LAY-15
  6
CONTINUOUS
 62
     3
100
AcDbLine
 10
312.45
 20
149.6
 30
0.0
 11
312.45
 21
150.5
 31
0.0
  0
ARC
  5
6A7
100
AcDbEntity
  8
LAY-15
  6
CONTINUOUS
 62
     3
100
AcDbCircle
 10
306.5
 20
146.5
 30
0.0
 40
0.5
100
AcDbArc
 50
180.0
 51
270.0
  0
ARC
  5
6A8
100
AcDbEntity
  8
LAY-15
  6
CONTINUOUS
 62
     3
100
AcDbCircle
 10
333.5
 20
146.5
 30
0.0
 40
0.5
100
AcDbArc
 50
270.0
 51
0.0
  0
LINE
  5
6A9
100
AcDbEntity
  8
LAY-15
  6
CONTINUOUS
 62
     3
100
AcDbLine
 10
327.55
 20
147.0
 30
0.0
 11
327.55
 21
147.9
 31
0.0
  0
LINE
  5
6AA
100
AcDbEntity
  8
LAY-15
  6
CONTINUOUS
 62
     3
100
AcDbLine
 10
328.05
 20
146.5
 30
0.0
 11
327.55
 21
147.0
 31
0.0
  0
LINE
  5
6AB
100
AcDbEntity
  8
LAY-15
  6
CONTINUOUS
 62
     3
100
AcDbLine
 10
312.45
 20
147.0
 30
0.0
 11
312.45
 21
147.9
 31
0.0
  0
LINE
  5
6AC
100
AcDbEntity
  8
LAY-15
  6
CONTINUOUS
 62
     3
100
AcDbLine
 10
311.95
 20
146.5
 30
0.0
 11
312.45
 21
147.0
 31
0.0
  0
LINE
  5
6AD
100
AcDbEntity
  8
LAY-15
  6
CONTINUOUS
 62
     3
100
AcDbLine
 10
333.0
 20
147.9
 30
0.0
 11
333.0
 21
147.4
 31
0.0
  0
LINE
  5
6AE
100
AcDbEntity
  8
LAY-15
  6
CONTINUOUS
 62
     3
100
AcDbLine
 10
333.0
 20
147.4
 30
0.0
 11
332.480385
 21
146.5
 31
0.0
  0
LINE
  5
6AF
100
AcDbEntity
  8
LAY-15
  6
CONTINUOUS
 62
     3
100
AcDbLine
 10
307.0
 20
147.9
 30
0.0
 11
307.0
 21
147.4
 31
0.0
  0
LINE
  5
6B0
100
AcDbEntity
  8
LAY-15
  6
CONTINUOUS
 62
     3
100
AcDbLine
 10
307.0
 20
147.4
 30
0.0
 11
307.519615
 21
146.5
 31
0.0
  0
LINE
  5
6B1
100
AcDbEntity
  8
LAY-15
  6
CONTINUOUS
 62
     3
100
AcDbLine
 10
328.375
 20
146.0
 30
0.0
 11
328.375
 21
146.5
 31
0.0
  0
LINE
  5
6B2
100
AcDbEntity
  8
LAY-15
  6
CONTINUOUS
 62
     3
100
AcDbLine
 10
311.625
 20
146.5
 30
0.0
 11
311.625
 21
146.0
 31
0.0
  0
CIRCLE
  5
6B3
100
AcDbEntity
  8
LAY-15
  6
CONTINUOUS
 62
     3
100
AcDbCircle
 10
330.125
 20
148.75
 30
0.0
 40
1.190625
  0
LINE
  5
6B4
100
AcDbEntity
  8
LAY-15
  6
CONTINUOUS
 62
     3
100
AcDbLine
 10
330.958719
 20
149.6
 30
0.0
 11
333.0
 21
149.6
 31
0.0
  0
LINE
  5
6B5
100
AcDbEntity
  8
LAY-15
  6
CONTINUOUS
 62
     3
100
AcDbLine
 10
330.958719
 20
147.9
 30
0.0
 11
333.0
 21
147.9
 31
0.0
  0
CIRCLE
  5
6B6
100
AcDbEntity
  8
LAY-15
  6
CONTINUOUS
 62
     3
100
AcDbCircle
 10
309.875
 20
148.75
 30
0.0
 40
1.190625
  0
LINE
  5
6B7
100
AcDbEntity
  8
LAY-15
  6
CONTINUOUS
 62
     3
100
AcDbLine
 10
307.0
 20
149.6
 30
0.0
 11
309.041281
 21
149.6
 31
0.0
  0
LINE
  5
6B8
100
AcDbEntity
  8
LAY-15
  6
CONTINUOUS
 62
     3
100
AcDbLine
 10
307.0
 20
147.9
 30
0.0
 11
309.041281
 21
147.9
 31
0.0
  0
LINE
  5
6B9
100
AcDbEntity
  8
LAY-15
  6
CONTINUOUS
 62
     3
100
AcDbLine
 10
333.5
 20
149.75
 30
0.0
 11
332.92265
 21
150.75
 31
0.0
  0
LINE
  5
6BA
100
AcDbEntity
  8
LAY-15
  6
CONTINUOUS
 62
     3
100
AcDbLine
 10
333.5
 20
146.5
 30
0.0
 11
333.5
 21
149.75
 31
0.0
  0
LINE
  5
6BB
100
AcDbEntity
  8
LAY-15
  6
CONTINUOUS
 62
     3
100
AcDbLine
 10
332.624722
 20
150.75
 30
0.0
 11
333.5
 21
150.75
 31
0.0
  0
LINE
  5
6BC
100
AcDbEntity
  8
LAY-15
  6
CONTINUOUS
 62
     3
100
AcDbLine
 10
334.0
 20
146.5
 30
0.0
 11
334.0
 21
149.883975
 31
0.0
  0
LINE
  5
6BD
100
AcDbEntity
  8
LAY-15
  6
CONTINUOUS
 62
     3
100
AcDbLine
 10
334.0
 20
149.883975
 30
0.0
 11
333.5
 21
150.75
 31
0.0
  0
LINE
  5
6BE
100
AcDbEntity
  8
LAY-15
  6
CONTINUOUS
 62
     3
100
AcDbLine
 10
333.0
 20
149.75
 30
0.0
 11
333.5
 21
149.75
 31
0.0
  0
LINE
  5
6BF
100
AcDbEntity
  8
LAY-15
  6
CONTINUOUS
 62
     3
100
AcDbLine
 10
306.5
 20
149.75
 30
0.0
 11
307.07735
 21
150.75
 31
0.0
  0
LINE
  5
6C0
100
AcDbEntity
  8
LAY-15
  6
CONTINUOUS
 62
     3
100
AcDbLine
 10
306.0
 20
149.883975
 30
0.0
 11
306.5
 21
150.75
 31
0.0
  0
LINE
  5
6C1
100
AcDbEntity
  8
LAY-15
  6
CONTINUOUS
 62
     3
100
AcDbLine
 10
307.375278
 20
150.75
 30
0.0
 11
306.5
 21
150.75
 31
0.0
  0
LINE
  5
6C2
100
AcDbEntity
  8
LAY-15
  6
CONTINUOUS
 62
     3
100
AcDbLine
 10
306.0
 20
146.5
 30
0.0
 11
306.0
 21
149.883975
 31
0.0
  0
LINE
  5
6C3
100
AcDbEntity
  8
LAY-15
  6
CONTINUOUS
 62
     3
100
AcDbLine
 10
306.5
 20
146.5
 30
0.0
 11
306.5
 21
149.75
 31
0.0
  0
LINE
  5
6C4
100
AcDbEntity
  8
LAY-15
  6
CONTINUOUS
 62
     3
100
AcDbLine
 10
307.0
 20
149.75
 30
0.0
 11
306.5
 21
149.75
 31
0.0
  0
LINE
  5
6C5
100
AcDbEntity
  8
LAY-15
  6
CONTINUOUS
 62
     3
100
AcDbLine
 10
333.5
 20
146.0
 30
0.0
 11
327.4
 21
146.0
 31
0.0
  0
LINE
  5
6C6
100
AcDbEntity
  8
LAY-15
  6
CONTINUOUS
 62
     3
100
AcDbLine
 10
312.6
 20
146.0
 30
0.0
 11
306.5
 21
146.0
 31
0.0
  0
LINE
  5
6C7
100
AcDbEntity
  8
LAY-15
  6
CONTINUOUS
 62
     3
100
AcDbLine
 10
312.6
 20
147.0
 30
0.0
 11
312.45
 21
147.0
 31
0.0
  0
LINE
  5
6C8
100
AcDbEntity
  8
LAY-15
  6
CONTINUOUS
 62
     3
100
AcDbLine
 10
327.55
 20
147.0
 30
0.0
 11
327.4
 21
147.0
 31
0.0
  0
LINE
  5
6C9
100
AcDbEntity
  8
LAY-15
  6
CONTINUOUS
 62
     3
100
AcDbLine
 10
327.4
 20
147.9
 30
0.0
 11
329.291281
 21
147.9
 31
0.0
  0
LINE
  5
6CA
100
AcDbEntity
  8
LAY-15
  6
CONTINUOUS
 62
     3
100
AcDbLine
 10
327.4
 20
149.6
 30
0.0
 11
329.291281
 21
149.6
 31
0.0
  0
LINE
  5
6CB
100
AcDbEntity
  8
LAY-15
  6
CONTINUOUS
 62
     3
100
AcDbLine
 10
310.708719
 20
149.6
 30
0.0
 11
312.6
 21
149.6
 31
0.0
  0
LINE
  5
6CC
100
AcDbEntity
  8
LAY-15
  6
CONTINUOUS
 62
     3
100
AcDbLine
 10
310.708719
 20
147.9
 30
0.0
 11
312.6
 21
147.9
 31
0.0
  0
LINE
  5
6CD
100
AcDbEntity
  8
LAY-15
  6
CONTINUOUS
 62
     3
100
AcDbLine
 10
312.466025
 20
150.5
 30
0.0
 11
312.45
 21
150.5
 31
0.0
  0
LINE
  5
6CE
100
AcDbEntity
  8
LAY-15
  6
CONTINUOUS
 62
     3
100
AcDbLine
 10
327.55
 20
150.5
 30
0.0
 11
327.533975
 21
150.5
 31
0.0
  0
LINE
  5
6CF
100
AcDbEntity
  8
LAY-15
  6
DASHDOT
 62
     1
100
AcDbLine
 10
461.741231
 20
148.25
 30
0.0
 11
493.258769
 21
148.25
 31
0.0
  0
LINE
  5
6D0
100
AcDbEntity
  8
LAY-15
  6
DASHDOT
 62
     1
100
AcDbLine
 10
487.625
 20
145.55
 30
0.0
 11
487.625
 21
151.95
 31
0.0
  0
LINE
  5
6D1
100
AcDbEntity
  8
LAY-15
  6
DASHDOT
 62
     1
100
AcDbLine
 10
467.375
 20
145.55
 30
0.0
 11
467.375
 21
151.95
 31
0.0
  0
LINE
  5
6D2
100
AcDbEntity
  8
LAY-15
  6
CONTINUOUS
 62
     3
100
AcDbLine
 10
490.75
 20
150.175
 30
0.0
 11
490.75
 21
150.171025
 31
0.0
  0
LINE
  5
6D3
100
AcDbEntity
  8
LAY-15
  6
CONTINUOUS
 62
     3
100
AcDbLine
 10
490.5
 20
149.6
 30
0.0
 11
490.5
 21
150.1
 31
0.0
  0
LINE
  5
6D4
100
AcDbEntity
  8
LAY-15
  6
CONTINUOUS
 62
     3
100
AcDbLine
 10
490.5
 20
150.1
 30
0.0
 11
489.980385
 21
151.0
 31
0.0
  0
LINE
  5
6D5
100
AcDbEntity
  8
LAY-15
  6
CONTINUOUS
 62
     3
100
AcDbLine
 10
464.25
 20
150.175
 30
0.0
 11
464.25
 21
150.171025
 31
0.0
  0
LINE
  5
6D6
100
AcDbEntity
  8
LAY-15
  6
CONTINUOUS
 62
     3
100
AcDbLine
 10
464.5
 20
149.6
 30
0.0
 11
464.5
 21
150.1
 31
0.0
  0
LINE
  5
6D7
100
AcDbEntity
  8
LAY-15
  6
CONTINUOUS
 62
     3
100
AcDbLine
 10
464.5
 20
150.1
 30
0.0
 11
465.019615
 21
151.0
 31
0.0
  0
LINE
  5
6D8
100
AcDbEntity
  8
LAY-15
  6
CONTINUOUS
 62
     3
100
AcDbLine
 10
485.55
 20
151.0
 30
0.0
 11
485.05
 21
150.5
 31
0.0
  0
LINE
  5
6D9
100
AcDbEntity
  8
LAY-15
  6
CONTINUOUS
 62
     3
100
AcDbLine
 10
485.05
 20
149.6
 30
0.0
 11
485.05
 21
150.5
 31
0.0
  0
LINE
  5
6DA
100
AcDbEntity
  8
LAY-15
  6
CONTINUOUS
 62
     3
100
AcDbLine
 10
469.45
 20
151.0
 30
0.0
 11
469.95
 21
150.5
 31
0.0
  0
LINE
  5
6DB
100
AcDbEntity
  8
LAY-15
  6
CONTINUOUS
 62
     3
100
AcDbLine
 10
469.95
 20
149.6
 30
0.0
 11
469.95
 21
150.5
 31
0.0
  0
ARC
  5
6DC
100
AcDbEntity
  8
LAY-15
  6
CONTINUOUS
 62
     3
100
AcDbCircle
 10
464.0
 20
146.5
 30
0.0
 40
0.5
100
AcDbArc
 50
180.0
 51
270.0
  0
ARC
  5
6DD
100
AcDbEntity
  8
LAY-15
  6
CONTINUOUS
 62
     3
100
AcDbCircle
 10
491.0
 20
146.5
 30
0.0
 40
0.5
100
AcDbArc
 50
270.0
 51
0.0
  0
LINE
  5
6DE
100
AcDbEntity
  8
LAY-15
  6
CONTINUOUS
 62
     3
100
AcDbLine
 10
485.05
 20
147.0
 30
0.0
 11
485.05
 21
147.9
 31
0.0
  0
LINE
  5
6DF
100
AcDbEntity
  8
LAY-15
  6
CONTINUOUS
 62
     3
100
AcDbLine
 10
485.55
 20
146.5
 30
0.0
 11
485.05
 21
147.0
 31
0.0
  0
LINE
  5
6E0
100
AcDbEntity
  8
LAY-15
  6
CONTINUOUS
 62
     3
100
AcDbLine
 10
469.95
 20
147.0
 30
0.0
 11
469.95
 21
147.9
 31
0.0
  0
LINE
  5
6E1
100
AcDbEntity
  8
LAY-15
  6
CONTINUOUS
 62
     3
100
AcDbLine
 10
469.45
 20
146.5
 30
0.0
 11
469.95
 21
147.0
 31
0.0
  0
LINE
  5
6E2
100
AcDbEntity
  8
LAY-15
  6
CONTINUOUS
 62
     3
100
AcDbLine
 10
490.5
 20
147.9
 30
0.0
 11
490.5
 21
147.4
 31
0.0
  0
LINE
  5
6E3
100
AcDbEntity
  8
LAY-15
  6
CONTINUOUS
 62
     3
100
AcDbLine
 10
490.5
 20
147.4
 30
0.0
 11
489.980385
 21
146.5
 31
0.0
  0
LINE
  5
6E4
100
AcDbEntity
  8
LAY-15
  6
CONTINUOUS
 62
     3
100
AcDbLine
 10
464.5
 20
147.9
 30
0.0
 11
464.5
 21
147.4
 31
0.0
  0
LINE
  5
6E5
100
AcDbEntity
  8
LAY-15
  6
CONTINUOUS
 62
     3
100
AcDbLine
 10
464.5
 20
147.4
 30
0.0
 11
465.019615
 21
146.5
 31
0.0
  0
LINE
  5
6E6
100
AcDbEntity
  8
LAY-15
  6
CONTINUOUS
 62
     3
100
AcDbLine
 10
485.875
 20
146.0
 30
0.0
 11
485.875
 21
146.5
 31
0.0
  0
LINE
  5
6E7
100
AcDbEntity
  8
LAY-15
  6
CONTINUOUS
 62
     3
100
AcDbLine
 10
469.125
 20
146.5
 30
0.0
 11
469.125
 21
146.0
 31
0.0
  0
CIRCLE
  5
6E8
100
AcDbEntity
  8
LAY-15
  6
CONTINUOUS
 62
     3
100
AcDbCircle
 10
487.625
 20
148.75
 30
0.0
 40
1.190625
  0
LINE
  5
6E9
100
AcDbEntity
  8
LAY-15
  6
CONTINUOUS
 62
     3
100
AcDbLine
 10
488.458719
 20
149.6
 30
0.0
 11
490.5
 21
149.6
 31
0.0
  0
LINE
  5
6EA
100
AcDbEntity
  8
LAY-15
  6
CONTINUOUS
 62
     3
100
AcDbLine
 10
488.458719
 20
147.9
 30
0.0
 11
490.5
 21
147.9
 31
0.0
  0
CIRCLE
  5
6EB
100
AcDbEntity
  8
LAY-15
  6
CONTINUOUS
 62
     3
100
AcDbCircle
 10
467.375
 20
148.75
 30
0.0
 40
1.190625
  0
LINE
  5
6EC
100
AcDbEntity
  8
LAY-15
  6
CONTINUOUS
 62
     3
100
AcDbLine
 10
464.5
 20
149.6
 30
0.0
 11
466.541281
 21
149.6
 31
0.0
  0
LINE
  5
6ED
100
AcDbEntity
  8
LAY-15
  6
CONTINUOUS
 62
     3
100
AcDbLine
 10
464.5
 20
147.9
 30
0.0
 11
466.541281
 21
147.9
 31
0.0
  0
LINE
  5
6EE
100
AcDbEntity
  8
LAY-15
  6
CONTINUOUS
 62
     3
100
AcDbLine
 10
491.0
 20
149.75
 30
0.0
 11
490.42265
 21
150.75
 31
0.0
  0
LINE
  5
6EF
100
AcDbEntity
  8
LAY-15
  6
CONTINUOUS
 62
     3
100
AcDbLine
 10
491.0
 20
146.5
 30
0.0
 11
491.0
 21
149.75
 31
0.0
  0
LINE
  5
6F0
100
AcDbEntity
  8
LAY-15
  6
CONTINUOUS
 62
     3
100
AcDbLine
 10
490.124722
 20
150.75
 30
0.0
 11
491.0
 21
150.75
 31
0.0
  0
LINE
  5
6F1
100
AcDbEntity
  8
LAY-15
  6
CONTINUOUS
 62
     3
100
AcDbLine
 10
491.5
 20
146.5
 30
0.0
 11
491.5
 21
149.883975
 31
0.0
  0
LINE
  5
6F2
100
AcDbEntity
  8
LAY-15
  6
CONTINUOUS
 62
     3
100
AcDbLine
 10
491.5
 20
149.883975
 30
0.0
 11
491.0
 21
150.75
 31
0.0
  0
LINE
  5
6F3
100
AcDbEntity
  8
LAY-15
  6
CONTINUOUS
 62
     3
100
AcDbLine
 10
490.5
 20
149.75
 30
0.0
 11
491.0
 21
149.75
 31
0.0
  0
LINE
  5
6F4
100
AcDbEntity
  8
LAY-15
  6
CONTINUOUS
 62
     3
100
AcDbLine
 10
464.0
 20
149.75
 30
0.0
 11
464.57735
 21
150.75
 31
0.0
  0
LINE
  5
6F5
100
AcDbEntity
  8
LAY-15
  6
CONTINUOUS
 62
     3
100
AcDbLine
 10
463.5
 20
149.883975
 30
0.0
 11
464.0
 21
150.75
 31
0.0
  0
LINE
  5
6F6
100
AcDbEntity
  8
LAY-15
  6
CONTINUOUS
 62
     3
100
AcDbLine
 10
464.875278
 20
150.75
 30
0.0
 11
464.0
 21
150.75
 31
0.0
  0
LINE
  5
6F7
100
AcDbEntity
  8
LAY-15
  6
CONTINUOUS
 62
     3
100
AcDbLine
 10
463.5
 20
146.5
 30
0.0
 11
463.5
 21
149.883975
 31
0.0
  0
LINE
  5
6F8
100
AcDbEntity
  8
LAY-15
  6
CONTINUOUS
 62
     3
100
AcDbLine
 10
464.0
 20
146.5
 30
0.0
 11
464.0
 21
149.75
 31
0.0
  0
LINE
  5
6F9
100
AcDbEntity
  8
LAY-15
  6
CONTINUOUS
 62
     3
100
AcDbLine
 10
464.5
 20
149.75
 30
0.0
 11
464.0
 21
149.75
 31
0.0
  0
LINE
  5
6FA
100
AcDbEntity
  8
LAY-15
  6
CONTINUOUS
 62
     3
100
AcDbLine
 10
491.0
 20
146.0
 30
0.0
 11
484.9
 21
146.0
 31
0.0
  0
LINE
  5
6FB
100
AcDbEntity
  8
LAY-15
  6
CONTINUOUS
 62
     3
100
AcDbLine
 10
470.1
 20
146.0
 30
0.0
 11
464.0
 21
146.0
 31
0.0
  0
LINE
  5
6FC
100
AcDbEntity
  8
LAY-15
  6
CONTINUOUS
 62
     3
100
AcDbLine
 10
470.1
 20
147.0
 30
0.0
 11
469.95
 21
147.0
 31
0.0
  0
LINE
  5
6FD
100
AcDbEntity
  8
LAY-15
  6
CONTINUOUS
 62
     3
100
AcDbLine
 10
485.05
 20
147.0
 30
0.0
 11
484.9
 21
147.0
 31
0.0
  0
LINE
  5
6FE
100
AcDbEntity
  8
LAY-15
  6
CONTINUOUS
 62
     3
100
AcDbLine
 10
484.9
 20
147.9
 30
0.0
 11
486.791281
 21
147.9
 31
0.0
  0
LINE
  5
6FF
100
AcDbEntity
  8
LAY-15
  6
CONTINUOUS
 62
     3
100
AcDbLine
 10
484.9
 20
149.6
 30
0.0
 11
486.791281
 21
149.6
 31
0.0
  0
LINE
  5
700
100
AcDbEntity
  8
LAY-15
  6
CONTINUOUS
 62
     3
100
AcDbLine
 10
468.208719
 20
149.6
 30
0.0
 11
470.1
 21
149.6
 31
0.0
  0
LINE
  5
701
100
AcDbEntity
  8
LAY-15
  6
CONTINUOUS
 62
     3
100
AcDbLine
 10
468.208719
 20
147.9
 30
0.0
 11
470.1
 21
147.9
 31
0.0
  0
LINE
  5
702
100
AcDbEntity
  8
LAY-15
  6
CONTINUOUS
 62
     3
100
AcDbLine
 10
469.966025
 20
150.5
 30
0.0
 11
469.95
 21
150.5
 31
0.0
  0
LINE
  5
703
100
AcDbEntity
  8
LAY-15
  6
CONTINUOUS
 62
     3
100
AcDbLine
 10
485.05
 20
150.5
 30
0.0
 11
485.033975
 21
150.5
 31
0.0
  0
LINE
  5
704
100
AcDbEntity
  8
LAY-15
  6
CONTINUOUS
 62
     3
100
AcDbLine
 10
332.480385
 20
151.0
 30
0.0
 11
327.4
 21
151.0
 31
0.0
  0
LINE
  5
705
100
AcDbEntity
  8
LAY-15
  6
CONTINUOUS
 62
     3
100
AcDbLine
 10
312.6
 20
151.0
 30
0.0
 11
307.519615
 21
151.0
 31
0.0
  0
LINE
  5
706
100
AcDbEntity
  8
LAY-15
  6
CONTINUOUS
 62
     3
100
AcDbLine
 10
470.1
 20
151.0
 30
0.0
 11
465.019615
 21
151.0
 31
0.0
  0
LINE
  5
707
100
AcDbEntity
  8
LAY-15
  6
CONTINUOUS
 62
     3
100
AcDbLine
 10
489.980385
 20
151.0
 30
0.0
 11
484.9
 21
151.0
 31
0.0
  0
LINE
  5
708
100
AcDbEntity
  8
LAY-15
  6
CONTINUOUS
 62
     3
100
AcDbLine
 10
491.0
 20
146.5
 30
0.0
 11
485.033975
 21
146.5
 31
0.0
  0
LINE
  5
709
100
AcDbEntity
  8
LAY-15
  6
CONTINUOUS
 62
     3
100
AcDbLine
 10
469.966025
 20
146.5
 30
0.0
 11
464.0
 21
146.5
 31
0.0
  0
LINE
  5
70A
100
AcDbEntity
  8
LAY-15
  6
CONTINUOUS
 62
     3
100
AcDbLine
 10
333.5
 20
146.5
 30
0.0
 11
327.533975
 21
146.5
 31
0.0
  0
LINE
  5
70B
100
AcDbEntity
  8
LAY-15
  6
CONTINUOUS
 62
     3
100
AcDbLine
 10
312.466025
 20
146.5
 30
0.0
 11
306.5
 21
146.5
 31
0.0
  0
ENDSEC
  0
SECTION
  2
OBJECTS
  0
DICTIONARY
  5
19
100
AcDbDictionary
  3
ACAD_GROUP
350
1A
  3
ACAD_MLINESTYLE
350
1B
  0
DICTIONARY
  5
1A
102
{ACAD_REACTORS
330
19
102
}
100
AcDbDictionary
  0
DICTIONARY
  5
1B
102
{ACAD_REACTORS
330
19
102
}
100
AcDbDictionary
  3
STANDARD
350
1C
  0
MLINESTYLE
  5
1C
102
{ACAD_REACTORS
330
1B
102
}
100
AcDbMlineStyle
  2
Standard
 70
     0
  3

 62
     0
 51
90.0
 52
90.0
 71
     2
 49
0.5
 62
   256
  6
ByLayer
 49
-0.5
 62
   256
  6
ByLayer
  0
ENDSEC
  0
EOF
