  0
SECTION
  2
HEADER
  9
$ACADVER
  1
AC1014
  9
$ACADMAINTVER
 70
     0
  9
$DWGCODEPAGE
  3
ANSI_932
  9
$INSBASE
 10
0.0
 20
0.0
 30
0.0
  9
$EXTMIN
 10
0.0
 20
0.0
 30
0.0
  9
$EXTMAX
 10
841.0
 20
594.0
 30
0.0
  9
$LIMMIN
 10
0.0
 20
0.0
  9
$LIMMAX
 10
841.0
 20
594.0
  9
$ORTHOMODE
 70
     0
  9
$REGENMODE
 70
     1
  9
$FILLMODE
 70
     1
  9
$QTEXTMODE
 70
     0
  9
$MIRRTEXT
 70
     1
  9
$DRAGMODE
 70
     2
  9
$LTSCALE
 40
1.0
  9
$OSMODE
 70
     0
  9
$ATTMODE
 70
     1
  9
$TEXTSIZE
 40
0.2
  9
$TRACEWID
 40
0.05
  9
$TEXTSTYLE
  7
STANDARD
  9
$CLAYER
  8
LAY-1
  9
$CELTYPE
  6
CONTINUOUS
  9
$CECOLOR
 62
   256
  9
$CELTSCALE
 40
1.0
  9
$DELOBJ
 70
     1
  9
$DISPSILH
 70
     0
  9
$DIMSCALE
 40
1.0
  9
$DIMASZ
 40
0.18
  9
$DIMEXO
 40
0.0625
  9
$DIMDLI
 40
0.38
  9
$DIMRND
 40
0.0
  9
$DIMDLE
 40
0.0
  9
$DIMEXE
 40
0.18
  9
$DIMTP
 40
0.0
  9
$DIMTM
 40
0.0
  9
$DIMTXT
 40
0.18
  9
$DIMCEN
 40
0.09
  9
$DIMTSZ
 40
0.0
  9
$DIMTOL
 70
     0
  9
$DIMLIM
 70
     0
  9
$DIMTIH
 70
     1
  9
$DIMTOH
 70
     1
  9
$DIMSE1
 70
     0
  9
$DIMSE2
 70
     0
  9
$DIMTAD
 70
     0
  9
$DIMZIN
 70
     0
  9
$DIMBLK
  1

  9
$DIMASO
 70
     1
  9
$DIMSHO
 70
     1
  9
$DIMPOST
  1

  9
$DIMAPOST
  1

  9
$DIMALT
 70
     0
  9
$DIMALTD
 70
     2
  9
$DIMALTF
 40
25.4
  9
$DIMLFAC
 40
1.0
  9
$DIMTOFL
 70
     0
  9
$DIMTVP
 40
0.0
  9
$DIMTIX
 70
     0
  9
$DIMSOXD
 70
     0
  9
$DIMSAH
 70
     0
  9
$DIMBLK1
  1

  9
$DIMBLK2
  1

  9
$DIMSTYLE
  2
STANDARD
  9
$DIMCLRD
 70
     0
  9
$DIMCLRE
 70
     0
  9
$DIMCLRT
 70
     0
  9
$DIMTFAC
 40
1.0
  9
$DIMGAP
 40
0.09
  9
$DIMJUST
 70
     0
  9
$DIMSD1
 70
     0
  9
$DIMSD2
 70
     0
  9
$DIMTOLJ
 70
     1
  9
$DIMTZIN
 70
     0
  9
$DIMALTZ
 70
     0
  9
$DIMALTTZ
 70
     0
  9
$DIMFIT
 70
     3
  9
$DIMUPT
 70
     0
  9
$DIMUNIT
 70
     2
  9
$DIMDEC
 70
     4
  9
$DIMTDEC
 70
     4
  9
$DIMALTU
 70
     2
  9
$DIMALTTD
 70
     2
  9
$DIMTXSTY
  7
STANDARD
  9
$DIMAUNIT
 70
     0
  9
$LUNITS
 70
     2
  9
$LUPREC
 70
     4
  9
$SKETCHINC
 40
0.1
  9
$FILLETRAD
 40
0.0
  9
$AUNITS
 70
     0
  9
$AUPREC
 70
     0
  9
$MENU
  1
acad
  9
$ELEVATION
 40
0.0
  9
$PELEVATION
 40
0.0
  9
$THICKNESS
 40
0.0
  9
$LIMCHECK
 70
     0
  9
$BLIPMODE
 70
     1
  9
$CHAMFERA
 40
0.0
  9
$CHAMFERB
 40
0.0
  9
$CHAMFERC
 40
0.0
  9
$CHAMFERD
 40
0.0
  9
$SKPOLY
 70
     0
  9
$TDCREATE
 40
2455606.807875729
  9
$TDUPDATE
 40
2455606.807875729
  9
$TDINDWG
 40
0.0000000000
  9
$TDUSRTIMER
 40
0.0000000000
  9
$USRTIMER
 70
     1
  9
$ANGBASE
 50
0.0
  9
$ANGDIR
 70
     0
  9
$PDMODE
 70
     0
  9
$PDSIZE
 40
0.0
  9
$PLINEWID
 40
0.0
  9
$COORDS
 70
     1
  9
$SPLFRAME
 70
     0
  9
$SPLINETYPE
 70
     6
  9
$SPLINESEGS
 70
     8
  9
$ATTDIA
 70
     0
  9
$ATTREQ
 70
     1
  9
$HANDLING
 70
     1
  9
$HANDSEED
  5
7B3
  9
$SURFTAB1
 70
     6
  9
$SURFTAB2
 70
     6
  9
$SURFTYPE
 70
     6
  9
$SURFU
 70
     6
  9
$SURFV
 70
     6
  9
$UCSNAME
  2

  9
$UCSORG
 10
0.0
 20
0.0
 30
0.0
  9
$UCSXDIR
 10
1.0
 20
0.0
 30
0.0
  9
$UCSYDIR
 10
0.0
 20
1.0
 30
0.0
  9
$PUCSNAME
  2

  9
$PUCSORG
 10
0.0
 20
0.0
 30
0.0
  9
$PUCSXDIR
 10
1.0
 20
0.0
 30
0.0
  9
$PUCSYDIR
 10
0.0
 20
1.0
 30
0.0
  9
$USERI1
 70
     0
  9
$USERI2
 70
     0
  9
$USERI3
 70
     0
  9
$USERI4
 70
     0
  9
$USERI5
 70
     0
  9
$USERR1
 40
0.0
  9
$USERR2
 40
0.0
  9
$USERR3
 40
0.0
  9
$USERR4
 40
0.0
  9
$USERR5
 40
0.0
  9
$WORLDVIEW
 70
     1
  9
$SHADEDGE
 70
     3
  9
$SHADEDIF
 70
    70
  9
$TILEMODE
 70
     1
  9
$MAXACTVP
 70
    16
  9
$PINSBASE
 10
0.0
 20
0.0
 30
0.0
  9
$PLIMCHECK
 70
     0
  9
$PEXTMIN
 10
1.000000E+20
 20
1.000000E+20
 30
1.000000E+20
  9
$PEXTMAX
 10
-1.000000E+20
 20
-1.000000E+20
 30
-1.000000E+20
  9
$PLIMMIN
 10
0.0
 20
0.0
  9
$PLIMMAX
 10
12.0
 20
9.0
  9
$UNITMODE
 70
     0
  9
$VISRETAIN
 70
     0
  9
$PLINEGEN
 70
     1
  9
$PSLTSCALE
 70
     0
  9
$TREEDEPTH
 70
  3020
  9
$PICKSTYLE
 70
     1
  9
$CMLSTYLE
  2
Standard
  9
$CMLJUST
 70
     0
  9
$CMLSCALE
 40
1.0
  9
$PROXYGRAPHICS
 70
     0
  9
$MEASUREMENT
 70
     0
  0
ENDSEC
  0
SECTION
  2
CLASSES
  0
CLASS
  1
LWPOLYLINE
  2
AcDbPolyline
  3
"AutoCAD"
 90
        0
280
     0
281
     1
  0
CLASS
  1
IMAGE
  2
AcDbRasterImage
  3
ISM
 90
      127
280
     0
281
     1
  0
CLASS
  1
OLE2FRAME
  2
AcDbOle2Frame
  3
""
 90
        0
280
     0
281
     1
  0
CLASS
  1
HATCH
  2
AcDbHatch
  3
"ACAD_SEDONA"
 90
        0
280
     0
281
     1
  0
CLASS
  1
DICTIONARYVAR
  2
AcDbDictionaryVar
  3
"AutoCAD"
 90
        0
280
     0
281
     0
  0
CLASS
  1
RASTERVARIABLES
  2
AcDbRasterVariables
  3
ISM
 90
        0
280
     0
281
     0
  0
CLASS
  1
IMAGEDEF
  2
AcDbRasterImageDef
  3
ISM
 90
        0
280
     0
281
     0
  0
CLASS
  1
IMAGEDEF_REACTOR
  2
AcDbRasterImageDefReactor
  3
ISM
 90
        1
280
     0
281
     0
  0
CLASS
  1
IDBUFFER
  2
AcDbIdBuffer
  3
"Acad"
 90
        0
280
     0
281
     0
  0
CLASS
  1
SPATIAL_FILTER
  2
AcDbSpatialFilter
  3
"Acad"
 90
        0
280
     0
281
     0
  0
CLASS
  1
XRECORD
  2
AcDbXrecord
  3
"<Built In>"
 90
        0
280
     0
281
     0
  0
CLASS
  1
SORTENTSTABLE
  2
AcDbSortentsTable
  3
"AutoCAD"
 90
        0
280
     0
281
     0
  0
CLASS
  1
LAYER_INDEX
  2
AcDbLayerIndex
  3
"Acad"
 90
        0
280
     0
281
     0
  0
CLASS
  1
SPATIAL_INDEX
  2
AcDbSpatialIndex
  3
"Acad"
 90
        0
280
     0
281
     0
  0
CLASS
  1
OBJECT_PTR
  2
CAseDLPNTableRecord
  3
"ASE-LPNTableRecord"
 90
        1
280
     0
281
     0
  0
CLASS
  1
LAYOUT
  2
AcDbLayout
  3
"AutoCAD 2000"
 90
        0
280
     0
281
     0
  0
CLASS
  1
PLOTSETTINGS
  2
AcDbPlotSettings
  3
"AutoCAD 2000"
 90
        0
280
     0
281
     0
  0
CLASS
  1
ACDBDICTIONARYWDFLT
  2
AcDbDictionaryWithDefault
  3
"AutoCAD 2000"
 90
        0
280
     0
281
     0
  0
CLASS
  1
ACDBPLACEHOLDER
  2
AcDbPlaceHolder
  3
"AutoCAD 2000"
 90
        0
280
     0
281
     0
  0
CLASS
  1
VBA_PROJECT
  2
AcDbVbaProject
  3
"acadvba"
 90
        0
280
     0
281
     0
  0
CLASS
  1
WIPEOUT
  2
AcDbWipeout
  3
WipeOut|AutoCAD Express Tool|expresstools@autodesk.com
 90
      127
280
     0
281
     1
  0
CLASS
  1
WIPEOUTVARIABLES
  2
AcDbWipeoutVariables
  3
WipeOut|AutoCAD Express Tool|expresstools@autodesk.com
 90
        0
280
     0
281
     0
  0
CLASS
  1
RTEXT
  2
RText
  3
RText|AutoCAD Express Tool|expresstools@autodesk.com
 90
        0
280
     0
281
     1
  0
CLASS
  1
ARCALIGNEDTEXT
  2
AcDbArcAlignedText
  3
ATEXT|AutoCAD Express Tool|expresstools@autodesk.com
 90
        0
280
     0
281
     1
  0
ENDSEC
  0
SECTION
  2
TABLES
  0
TABLE
  2
VPORT
  5
7
100
AcDbSymbolTable
 70
     1
  0
VPORT
  5
15
100
AcDbSymbolTableRecord
100
AcDbViewportTableRecord
  2
*ACTIVE
 70
     0
 10
0.0
 20
0.0
 11
1.0
 21
1.0
 12
420.5
 22
297.0
 13
0.0
 23
0.0
 14
1.0
 24
1.0
 15
0.0
 25
0.0
 16
0.0
 26
0.0
 36
1.0
 17
0.0
 27
0.0
 37
0.0
 40
594.0
 41
1.722533
 42
50.0
 43
0.0
 44
0.0
 50
0.0
 51
0.0
 71
     0
 72
   100
 73
     1
 74
     1
 75
     0
 76
     0
 77
     0
 78
     0
  0
ENDTAB
  0
TABLE
  2
LTYPE
  5
4
100
AcDbSymbolTable
 70
     9
  0
LTYPE
  5
11
100
AcDbSymbolTableRecord
100
AcDbLinetypeTableRecord
  2
BYBLOCK
 70
    64
  3

 72
    65
 73
     0
 40
0.0
  0
LTYPE
  5
12
100
AcDbSymbolTableRecord
100
AcDbLinetypeTableRecord
  2
BYLAYER
 70
    64
  3

 72
    65
 73
     0
 40
0.0
  0
LTYPE
  5
13
100
AcDbSymbolTableRecord
100
AcDbLinetypeTableRecord
  2
CONTINUOUS
 70
    64
  3
実線
 72
    65
 73
     0
 40
0.0
  0
LTYPE
  5
1D
100
AcDbSymbolTableRecord
100
AcDbLinetypeTableRecord
  2
DASHED
 70
    64
  3
Dashed __ __ __ __ __ __ __ __ __ __ __ __ __ _
 72
    65
 73
     2
 40
19.05
 49
12.7
 74
     0
 49
-6.35
 74
     0
  0
LTYPE
  5
1E
100
AcDbSymbolTableRecord
100
AcDbLinetypeTableRecord
  2
DASHED2
 70
    64
  3
Dashed (.5x) _ _ _ _ _ _ _ _ _ _ _ _ _ _ _ _ _ 
 72
    65
 73
     2
 40
9.525
 49
6.35
 74
     0
 49
-3.175
 74
     0
  0
LTYPE
  5
1F
100
AcDbSymbolTableRecord
100
AcDbLinetypeTableRecord
  2
DASHDOT
 70
    64
  3
Dash dot __ . __ . __ . __ . __ . __ . __ . __
 72
    65
 73
     4
 40
25.4
 49
12.7
 74
     0
 49
-6.35
 74
     0
 49
0.0
 74
     0
 49
-6.35
 74
     0
  0
LTYPE
  5
20
100
AcDbSymbolTableRecord
100
AcDbLinetypeTableRecord
  2
DIVIDE
 70
    64
  3
Divide ____ . . ____ . . ____ . . ____ . . ____
 72
    65
 73
     6
 40
31.75
 49
12.7
 74
     0
 49
-6.35
 74
     0
 49
0.0
 74
     0
 49
-6.35
 74
     0
 49
0.0
 74
     0
 49
-6.35
 74
     0
  0
LTYPE
  5
21
100
AcDbSymbolTableRecord
100
AcDbLinetypeTableRecord
  2
ACAD_ISO06W100
 70
    64
  3
ISO long-dash triple-dot ____ ... ____ ... ____
 72
    65
 73
     8
 40
36.0
 49
24.0
 74
     0
 49
-3.0
 74
     0
 49
0.0
 74
     0
 49
-3.0
 74
     0
 49
0.0
 74
     0
 49
-3.0
 74
     0
 49
0.0
 74
     0
 49
-3.0
 74
     0
  0
LTYPE
  5
22
100
AcDbSymbolTableRecord
100
AcDbLinetypeTableRecord
  2
ACAD_ISO15W100
 70
    64
  3
ISO double-dash triple-dot __ __ . . . __ __ . .
 72
    65
 73
    10
 40
39.0
 49
12.0
 74
     0
 49
-3.0
 74
     0
 49
12.0
 74
     0
 49
-3.0
 74
     0
 49
0.0
 74
     0
 49
-3.0
 74
     0
 49
0.0
 74
     0
 49
-3.0
 74
     0
 49
0.0
 74
     0
 49
-3.0
 74
     0
  0
ENDTAB
  0
TABLE
  2
LAYER
  5
2
100
AcDbSymbolTable
 70
     9
  0
LAYER
  5
14
100
AcDbSymbolTableRecord
100
AcDbLayerTableRecord
  2
0
 70
     0
 62
     7
  6
CONTINUOUS
  0
LAYER
  5
25
100
AcDbSymbolTableRecord
100
AcDbLayerTableRecord
  2
LAY-1
 70
    64
 62
     3
  6
CONTINUOUS
  0
LAYER
  5
26
100
AcDbSymbolTableRecord
100
AcDbLayerTableRecord
  2
LAY-2
 70
    64
 62
     3
  6
CONTINUOUS
  0
LAYER
  5
27
100
AcDbSymbolTableRecord
100
AcDbLayerTableRecord
  2
LAY-3
 70
    64
 62
     3
  6
CONTINUOUS
  0
LAYER
  5
28
100
AcDbSymbolTableRecord
100
AcDbLayerTableRecord
  2
LAY-4
 70
    64
 62
     3
  6
CONTINUOUS
  0
LAYER
  5
29
100
AcDbSymbolTableRecord
100
AcDbLayerTableRecord
  2
LAY-5
 70
    64
 62
     1
  6
DASHDOT
  0
LAYER
  5
2A
100
AcDbSymbolTableRecord
100
AcDbLayerTableRecord
  2
LAY-6
 70
    64
 62
     2
  6
CONTINUOUS
  0
LAYER
  5
2B
100
AcDbSymbolTableRecord
100
AcDbLayerTableRecord
  2
LAY-9
 70
    64
 62
     1
  6
CONTINUOUS
  0
LAYER
  5
2C
100
AcDbSymbolTableRecord
100
AcDbLayerTableRecord
  2
LAY-10
 70
    64
 62
     5
  6
CONTINUOUS
  0
ENDTAB
  0
TABLE
  2
STYLE
  5
3
100
AcDbSymbolTable
 70
     3
  0
STYLE
  5
17
100
AcDbSymbolTableRecord
100
AcDbTextStyleTableRecord
  2
STANDARD
 70
     0
 40
0.0
 41
1.0
 50
0.0
 71
     0
 42
0.0
  3
monotxt
  4
extfont
  0
STYLE
  5
23
100
AcDbSymbolTableRecord
100
AcDbTextStyleTableRecord
  2
EXCADSTD
 70
    64
 40
0.0
 41
1.0
 50
0.0
 71
     0
 42
0.2
  3
monotxt
  4
extfont
  0
STYLE
  5
24
100
AcDbSymbolTableRecord
100
AcDbTextStyleTableRecord
  2
EXCADVERT
 70
    68
 40
0.0
 41
1.0
 50
0.0
 71
     0
 42
0.286885
  3
monotxt
  4
extfont
  0
ENDTAB
  0
TABLE
  2
VIEW
  5
5
100
AcDbSymbolTable
 70
     0
  0
ENDTAB
  0
TABLE
  2
UCS
  5
6
100
AcDbSymbolTable
 70
     0
  0
ENDTAB
  0
TABLE
  2
APPID
  5
8
100
AcDbSymbolTable
 70
     1
  0
APPID
  5
16
100
AcDbSymbolTableRecord
100
AcDbRegAppTableRecord
  2
ACAD
 70
     0
  0
ENDTAB
  0
TABLE
  2
DIMSTYLE
  5
9
100
AcDbSymbolTable
 70
     1
  0
DIMSTYLE
105
18
100
AcDbSymbolTableRecord
100
AcDbDimStyleTableRecord
  2
STANDARD
 70
     0
  3

  4

  5

  6

  7

 40
1.0
 41
0.18
 42
0.0625
 43
0.38
 44
0.18
 45
0.0
 46
0.0
 47
0.0
 48
0.0
 71
     0
 72
     0
 73
     1
 74
     1
 75
     0
 76
     0
 77
     0
 78
     0
140
0.18
141
0.09
142
0.0
143
25.4
144
1.0
145
0.0
146
1.0
147
0.09
170
     0
171
     2
172
     1
173
     0
174
     0
175
     0
176
     0
177
     0
178
     0
270
     2
271
     4
272
     4
273
     2
274
     2
275
     0
280
     0
281
     0
282
     0
283
     1
284
     0
285
     0
286
     0
287
     3
288
     0
340
17
  0
ENDTAB
  0
TABLE
  2
BLOCK_RECORD
  5
1
100
AcDbSymbolTable
 70
    18
  0
BLOCK_RECORD
  5
A
100
AcDbSymbolTableRecord
100
AcDbBlockTableRecord
  2
*MODEL_SPACE
  0
BLOCK_RECORD
  5
B
100
AcDbSymbolTableRecord
100
AcDbBlockTableRecord
  2
*PAPER_SPACE
  0
BLOCK_RECORD
  5
2D
100
AcDbSymbolTableRecord
100
AcDbBlockTableRecord
  2
_EX_NORM
  0
BLOCK_RECORD
  5
2E
100
AcDbSymbolTableRecord
100
AcDbBlockTableRecord
  2
_EX_BNORM
  0
BLOCK_RECORD
  5
2F
100
AcDbSymbolTableRecord
100
AcDbBlockTableRecord
  2
_EX_BCIR
  0
BLOCK_RECORD
  5
30
100
AcDbSymbolTableRecord
100
AcDbBlockTableRecord
  2
_EX_RCIVIL
  0
BLOCK_RECORD
  5
31
100
AcDbSymbolTableRecord
100
AcDbBlockTableRecord
  2
_EX_SLANT
  0
BLOCK_RECORD
  5
32
100
AcDbSymbolTableRecord
100
AcDbBlockTableRecord
  2
_EX_NONE
  0
BLOCK_RECORD
  5
33
100
AcDbSymbolTableRecord
100
AcDbBlockTableRecord
  2
_EX_CIVIL
  0
BLOCK_RECORD
  5
34
100
AcDbSymbolTableRecord
100
AcDbBlockTableRecord
  2
_EX_WCIR
  0
BLOCK_RECORD
  5
35
100
AcDbSymbolTableRecord
100
AcDbBlockTableRecord
  2
_EX_WCIR2
  0
BLOCK_RECORD
  5
36
100
AcDbSymbolTableRecord
100
AcDbBlockTableRecord
  2
_EX_WNORM
  0
BLOCK_RECORD
  5
37
100
AcDbSymbolTableRecord
100
AcDbBlockTableRecord
  2
_EX_NNORM
  0
BLOCK_RECORD
  5
38
100
AcDbSymbolTableRecord
100
AcDbBlockTableRecord
  2
_EX_BBOX
  0
BLOCK_RECORD
  5
39
100
AcDbSymbolTableRecord
100
AcDbBlockTableRecord
  2
_EX_WBOX
  0
BLOCK_RECORD
  5
3A
100
AcDbSymbolTableRecord
100
AcDbBlockTableRecord
  2
_EX_INTEGRAL
  0
BLOCK_RECORD
  5
3B
100
AcDbSymbolTableRecord
100
AcDbBlockTableRecord
  2
SYM-1
  0
BLOCK_RECORD
  5
3C
100
AcDbSymbolTableRecord
100
AcDbBlockTableRecord
  2
SYM-2
  0
BLOCK_RECORD
  5
3D
100
AcDbSymbolTableRecord
100
AcDbBlockTableRecord
  2
SYM-3
  0
BLOCK_RECORD
  5
3E
100
AcDbSymbolTableRecord
100
AcDbBlockTableRecord
  2
SYM-4
  0
ENDTAB
  0
ENDSEC
  0
SECTION
  2
BLOCKS
  0
BLOCK
  5
D
100
AcDbEntity
  8
0
100
AcDbBlockBegin
  2
*MODEL_SPACE
 70
     0
 10
0.0
 20
0.0
 30
0.0
  3
*MODEL_SPACE
  1

  0
ENDBLK
  5
E
100
AcDbEntity
  8
0
100
AcDbBlockEnd
  0
BLOCK
  5
F
100
AcDbEntity
 67
     1
  8
0
100
AcDbBlockBegin
  2
*PAPER_SPACE
 70
     0
 10
0.0
 20
0.0
 30
0.0
  3
*PAPER_SPACE
  1

  0
ENDBLK
  5
10
100
AcDbEntity
 67
     1
  8
0
100
AcDbBlockEnd
  0
BLOCK
  5
3F
100
AcDbEntity
  8
0
100
AcDbBlockBegin
  2
_EX_NORM
 70
     0
 10
0.0
 20
0.0
 30
0.0
  3
_EX_NORM
  1

  0
LINE
  5
40
100
AcDbEntity
  8
0
  6
CONTINUOUS
 62
     0
100
AcDbLine
 10
0.0
 20
0.0
 30
0.0
 11
-1.0
 21
0.0
 31
0.0
  0
LINE
  5
41
100
AcDbEntity
  8
0
  6
CONTINUOUS
 62
     0
100
AcDbLine
 10
0.0
 20
0.0
 30
0.0
 11
-1.0
 21
0.166667
 31
0.0
  0
LINE
  5
42
100
AcDbEntity
  8
0
  6
CONTINUOUS
 62
     0
100
AcDbLine
 10
0.0
 20
0.0
 30
0.0
 11
-1.0
 21
-0.166667
 31
0.0
  0
ENDBLK
  5
43
100
AcDbEntity
  8
0
100
AcDbBlockEnd
  0
BLOCK
  5
44
100
AcDbEntity
  8
0
100
AcDbBlockBegin
  2
_EX_BNORM
 70
     0
 10
0.0
 20
0.0
 30
0.0
  3
_EX_BNORM
  1

  0
LINE
  5
45
100
AcDbEntity
  8
0
  6
CONTINUOUS
 62
     0
100
AcDbLine
 10
0.0
 20
0.0
 30
0.0
 11
-1.0
 21
0.0
 31
0.0
  0
LINE
  5
46
100
AcDbEntity
  8
0
  6
CONTINUOUS
 62
     0
100
AcDbLine
 10
0.0
 20
0.0
 30
0.0
 11
-1.0
 21
0.166667
 31
0.0
  0
LINE
  5
47
100
AcDbEntity
  8
0
  6
CONTINUOUS
 62
     0
100
AcDbLine
 10
0.0
 20
0.0
 30
0.0
 11
-1.0
 21
-0.166667
 31
0.0
  0
LINE
  5
48
100
AcDbEntity
  8
0
  6
CONTINUOUS
 62
     0
100
AcDbLine
 10
0.0
 20
0.0
 30
0.0
 11
-1.0
 21
0.083333
 31
0.0
  0
LINE
  5
49
100
AcDbEntity
  8
0
  6
CONTINUOUS
 62
     0
100
AcDbLine
 10
0.0
 20
0.0
 30
0.0
 11
-1.0
 21
-0.083333
 31
0.0
  0
LINE
  5
4A
100
AcDbEntity
  8
0
  6
CONTINUOUS
 62
     0
100
AcDbLine
 10
-1.0
 20
0.166667
 30
0.0
 11
-1.0
 21
-0.166667
 31
0.0
  0
ENDBLK
  5
4B
100
AcDbEntity
  8
0
100
AcDbBlockEnd
  0
BLOCK
  5
4C
100
AcDbEntity
  8
0
100
AcDbBlockBegin
  2
_EX_BCIR
 70
     0
 10
0.0
 20
0.0
 30
0.0
  3
_EX_BCIR
  1

  0
LINE
  5
4D
100
AcDbEntity
  8
0
  6
CONTINUOUS
 62
     0
100
AcDbLine
 10
0.0
 20
0.0
 30
0.0
 11
-1.0
 21
0.0
 31
0.0
  0
CIRCLE
  5
4E
100
AcDbEntity
  8
0
  6
CONTINUOUS
 62
     0
100
AcDbCircle
 10
0.0
 20
0.0
 30
0.0
 40
0.5
  0
CIRCLE
  5
4F
100
AcDbEntity
  8
0
  6
CONTINUOUS
 62
     0
100
AcDbCircle
 10
0.0
 20
0.0
 30
0.0
 40
0.25
  0
ENDBLK
  5
50
100
AcDbEntity
  8
0
100
AcDbBlockEnd
  0
BLOCK
  5
51
100
AcDbEntity
  8
0
100
AcDbBlockBegin
  2
_EX_RCIVIL
 70
     0
 10
0.0
 20
0.0
 30
0.0
  3
_EX_RCIVIL
  1

  0
LINE
  5
52
100
AcDbEntity
  8
0
  6
CONTINUOUS
 62
     0
100
AcDbLine
 10
0.0
 20
0.0
 30
0.0
 11
-1.0
 21
0.0
 31
0.0
  0
LINE
  5
53
100
AcDbEntity
  8
0
  6
CONTINUOUS
 62
     0
100
AcDbLine
 10
-1.0
 20
-0.25
 30
0.0
 11
0.0
 21
-0.25
 31
0.0
  0
LINE
  5
54
100
AcDbEntity
  8
0
  6
CONTINUOUS
 62
     0
100
AcDbLine
 10
-1.0
 20
-0.125
 30
0.0
 11
0.0
 21
-0.125
 31
0.0
  0
ENDBLK
  5
55
100
AcDbEntity
  8
0
100
AcDbBlockEnd
  0
BLOCK
  5
56
100
AcDbEntity
  8
0
100
AcDbBlockBegin
  2
_EX_SLANT
 70
     0
 10
0.0
 20
0.0
 30
0.0
  3
_EX_SLANT
  1

  0
LINE
  5
57
100
AcDbEntity
  8
0
  6
CONTINUOUS
 62
     0
100
AcDbLine
 10
0.0
 20
0.0
 30
0.0
 11
-1.0
 21
0.0
 31
0.0
  0
LINE
  5
58
100
AcDbEntity
  8
0
  6
CONTINUOUS
 62
     0
100
AcDbLine
 10
0.707107
 20
0.707107
 30
0.0
 11
-0.707107
 21
-0.707107
 31
0.0
  0
ENDBLK
  5
59
100
AcDbEntity
  8
0
100
AcDbBlockEnd
  0
BLOCK
  5
5A
100
AcDbEntity
  8
0
100
AcDbBlockBegin
  2
_EX_NONE
 70
     0
 10
0.0
 20
0.0
 30
0.0
  3
_EX_NONE
  1

  0
LINE
  5
5B
100
AcDbEntity
  8
0
  6
CONTINUOUS
 62
     0
100
AcDbLine
 10
0.0
 20
0.0
 30
0.0
 11
-1.0
 21
0.0
 31
0.0
  0
ENDBLK
  5
5C
100
AcDbEntity
  8
0
100
AcDbBlockEnd
  0
BLOCK
  5
5D
100
AcDbEntity
  8
0
100
AcDbBlockBegin
  2
_EX_CIVIL
 70
     0
 10
0.0
 20
0.0
 30
0.0
  3
_EX_CIVIL
  1

  0
LINE
  5
5E
100
AcDbEntity
  8
0
  6
CONTINUOUS
 62
     0
100
AcDbLine
 10
0.0
 20
0.0
 30
0.0
 11
-1.0
 21
0.0
 31
0.0
  0
LINE
  5
5F
100
AcDbEntity
  8
0
  6
CONTINUOUS
 62
     0
100
AcDbLine
 10
-1.0
 20
0.25
 30
0.0
 11
0.0
 21
0.25
 31
0.0
  0
LINE
  5
60
100
AcDbEntity
  8
0
  6
CONTINUOUS
 62
     0
100
AcDbLine
 10
-1.0
 20
0.125
 30
0.0
 11
0.0
 21
0.125
 31
0.0
  0
ENDBLK
  5
61
100
AcDbEntity
  8
0
100
AcDbBlockEnd
  0
BLOCK
  5
62
100
AcDbEntity
  8
0
100
AcDbBlockBegin
  2
_EX_WCIR
 70
     0
 10
0.0
 20
0.0
 30
0.0
  3
_EX_WCIR
  1

  0
LINE
  5
63
100
AcDbEntity
  8
0
  6
CONTINUOUS
 62
     0
100
AcDbLine
 10
0.0
 20
0.0
 30
0.0
 11
-1.0
 21
0.0
 31
0.0
  0
CIRCLE
  5
64
100
AcDbEntity
  8
0
  6
CONTINUOUS
 62
     0
100
AcDbCircle
 10
0.0
 20
0.0
 30
0.0
 40
0.5
  0
ENDBLK
  5
65
100
AcDbEntity
  8
0
100
AcDbBlockEnd
  0
BLOCK
  5
66
100
AcDbEntity
  8
0
100
AcDbBlockBegin
  2
_EX_WCIR2
 70
     0
 10
0.0
 20
0.0
 30
0.0
  3
_EX_WCIR2
  1

  0
LINE
  5
67
100
AcDbEntity
  8
0
  6
CONTINUOUS
 62
     0
100
AcDbLine
 10
-0.5
 20
0.0
 30
0.0
 11
-1.0
 21
0.0
 31
0.0
  0
CIRCLE
  5
68
100
AcDbEntity
  8
0
  6
CONTINUOUS
 62
     0
100
AcDbCircle
 10
0.0
 20
0.0
 30
0.0
 40
0.5
  0
ENDBLK
  5
69
100
AcDbEntity
  8
0
100
AcDbBlockEnd
  0
BLOCK
  5
6A
100
AcDbEntity
  8
0
100
AcDbBlockBegin
  2
_EX_WNORM
 70
     0
 10
0.0
 20
0.0
 30
0.0
  3
_EX_WNORM
  1

  0
LINE
  5
6B
100
AcDbEntity
  8
0
  6
CONTINUOUS
 62
     0
100
AcDbLine
 10
-1.0
 20
0.0
 30
0.0
 11
-1.0
 21
0.0
 31
0.0
  0
LINE
  5
6C
100
AcDbEntity
  8
0
  6
CONTINUOUS
 62
     0
100
AcDbLine
 10
0.0
 20
0.0
 30
0.0
 11
-1.0
 21
0.166667
 31
0.0
  0
LINE
  5
6D
100
AcDbEntity
  8
0
  6
CONTINUOUS
 62
     0
100
AcDbLine
 10
0.0
 20
0.0
 30
0.0
 11
-1.0
 21
-0.166667
 31
0.0
  0
LINE
  5
6E
100
AcDbEntity
  8
0
  6
CONTINUOUS
 62
     0
100
AcDbLine
 10
-1.0
 20
0.166667
 30
0.0
 11
-1.0
 21
-0.166667
 31
0.0
  0
ENDBLK
  5
6F
100
AcDbEntity
  8
0
100
AcDbBlockEnd
  0
BLOCK
  5
70
100
AcDbEntity
  8
0
100
AcDbBlockBegin
  2
_EX_NNORM
 70
     0
 10
0.0
 20
0.0
 30
0.0
  3
_EX_NNORM
  1

  0
LINE
  5
71
100
AcDbEntity
  8
0
  6
CONTINUOUS
 62
     0
100
AcDbLine
 10
0.0
 20
0.0
 30
0.0
 11
-1.0
 21
0.0
 31
0.0
  0
LINE
  5
72
100
AcDbEntity
  8
0
  6
CONTINUOUS
 62
     0
100
AcDbLine
 10
0.0
 20
0.0
 30
0.0
 11
-1.0
 21
0.166667
 31
0.0
  0
LINE
  5
73
100
AcDbEntity
  8
0
  6
CONTINUOUS
 62
     0
100
AcDbLine
 10
0.0
 20
0.0
 30
0.0
 11
-1.0
 21
-0.166667
 31
0.0
  0
LINE
  5
74
100
AcDbEntity
  8
0
  6
CONTINUOUS
 62
     0
100
AcDbLine
 10
-1.0
 20
0.166667
 30
0.0
 11
-1.0
 21
-0.166667
 31
0.0
  0
ENDBLK
  5
75
100
AcDbEntity
  8
0
100
AcDbBlockEnd
  0
BLOCK
  5
76
100
AcDbEntity
  8
0
100
AcDbBlockBegin
  2
_EX_BBOX
 70
     0
 10
0.0
 20
0.0
 30
0.0
  3
_EX_BBOX
  1

  0
LINE
  5
77
100
AcDbEntity
  8
0
  6
CONTINUOUS
 62
     0
100
AcDbLine
 10
0.0
 20
0.0
 30
0.0
 11
-1.0
 21
0.0
 31
0.0
  0
LINE
  5
78
100
AcDbEntity
  8
0
  6
CONTINUOUS
 62
     0
100
AcDbLine
 10
-0.5
 20
0.5
 30
0.0
 11
0.5
 21
0.5
 31
0.0
  0
LINE
  5
79
100
AcDbEntity
  8
0
  6
CONTINUOUS
 62
     0
100
AcDbLine
 10
0.5
 20
0.5
 30
0.0
 11
0.5
 21
-0.5
 31
0.0
  0
LINE
  5
7A
100
AcDbEntity
  8
0
  6
CONTINUOUS
 62
     0
100
AcDbLine
 10
0.5
 20
-0.5
 30
0.0
 11
-0.5
 21
-0.5
 31
0.0
  0
LINE
  5
7B
100
AcDbEntity
  8
0
  6
CONTINUOUS
 62
     0
100
AcDbLine
 10
-0.5
 20
-0.5
 30
0.0
 11
-0.5
 21
0.5
 31
0.0
  0
LINE
  5
7C
100
AcDbEntity
  8
0
  6
CONTINUOUS
 62
     0
100
AcDbLine
 10
-0.25
 20
0.25
 30
0.0
 11
0.25
 21
0.25
 31
0.0
  0
LINE
  5
7D
100
AcDbEntity
  8
0
  6
CONTINUOUS
 62
     0
100
AcDbLine
 10
0.25
 20
0.25
 30
0.0
 11
0.25
 21
-0.25
 31
0.0
  0
LINE
  5
7E
100
AcDbEntity
  8
0
  6
CONTINUOUS
 62
     0
100
AcDbLine
 10
0.25
 20
-0.25
 30
0.0
 11
-0.25
 21
-0.25
 31
0.0
  0
LINE
  5
7F
100
AcDbEntity
  8
0
  6
CONTINUOUS
 62
     0
100
AcDbLine
 10
-0.25
 20
-0.25
 30
0.0
 11
-0.25
 21
0.25
 31
0.0
  0
ENDBLK
  5
80
100
AcDbEntity
  8
0
100
AcDbBlockEnd
  0
BLOCK
  5
81
100
AcDbEntity
  8
0
100
AcDbBlockBegin
  2
_EX_WBOX
 70
     0
 10
0.0
 20
0.0
 30
0.0
  3
_EX_WBOX
  1

  0
LINE
  5
82
100
AcDbEntity
  8
0
  6
CONTINUOUS
 62
     0
100
AcDbLine
 10
-0.5
 20
0.0
 30
0.0
 11
-1.0
 21
0.0
 31
0.0
  0
LINE
  5
83
100
AcDbEntity
  8
0
  6
CONTINUOUS
 62
     0
100
AcDbLine
 10
-0.5
 20
0.5
 30
0.0
 11
0.5
 21
0.5
 31
0.0
  0
LINE
  5
84
100
AcDbEntity
  8
0
  6
CONTINUOUS
 62
     0
100
AcDbLine
 10
0.5
 20
0.5
 30
0.0
 11
0.5
 21
-0.5
 31
0.0
  0
LINE
  5
85
100
AcDbEntity
  8
0
  6
CONTINUOUS
 62
     0
100
AcDbLine
 10
0.5
 20
-0.5
 30
0.0
 11
-0.5
 21
-0.5
 31
0.0
  0
LINE
  5
86
100
AcDbEntity
  8
0
  6
CONTINUOUS
 62
     0
100
AcDbLine
 10
-0.5
 20
-0.5
 30
0.0
 11
-0.5
 21
0.5
 31
0.0
  0
ENDBLK
  5
87
100
AcDbEntity
  8
0
100
AcDbBlockEnd
  0
BLOCK
  5
88
100
AcDbEntity
  8
0
100
AcDbBlockBegin
  2
_EX_INTEGRAL
 70
     0
 10
0.0
 20
0.0
 30
0.0
  3
_EX_INTEGRAL
  1

  0
LINE
  5
89
100
AcDbEntity
  8
0
  6
CONTINUOUS
 62
     0
100
AcDbLine
 10
0.0
 20
0.0
 30
0.0
 11
-1.0
 21
0.0
 31
0.0
  0
ARC
  5
8A
100
AcDbEntity
  8
0
  6
CONTINUOUS
 62
     0
100
AcDbCircle
 10
0.542115
 20
0.164992
 30
0.0
 40
0.56667
100
AcDbArc
 50
73.07249
 51
196.927513
  0
ARC
  5
8B
100
AcDbEntity
  8
0
  6
CONTINUOUS
 62
     0
100
AcDbCircle
 10
-0.542115
 20
-0.164992
 30
0.0
 40
0.56667
100
AcDbArc
 50
253.072487
 51
16.927513
  0
ENDBLK
  5
8C
100
AcDbEntity
  8
0
100
AcDbBlockEnd
  0
BLOCK
  5
8D
100
AcDbEntity
  8
0
100
AcDbBlockBegin
  2
SYM-1
 70
     0
 10
0.0
 20
0.0
 30
0.0
  3
SYM-1
  1

  0
TEXT
  5
8E
100
AcDbEntity
  8
0
  6
CONTINUOUS
 62
     2
100
AcDbText
 10
-2.828427
 20
-2.828427
 30
0.0
 40
5.656854
  1
２
 41
0.84
  7
EXCADSTD
 72
     5
 11
1.697056
 21
-2.828427
 31
0.0
100
AcDbText
  0
CIRCLE
  5
8F
100
AcDbEntity
  8
0
  6
CONTINUOUS
 62
     1
100
AcDbCircle
 10
0.0
 20
0.0
 30
0.0
 40
4.0
  0
TEXT
  5
90
100
AcDbEntity
  8
0
  6
CONTINUOUS
 62
     2
100
AcDbText
 10
6.6
 20
-3.2
 30
0.0
 40
7.0
  1
トップピボット（ドア側）
 41
0.672
  7
EXCADSTD
 72
     5
 11
73.799999
 21
-3.2
 31
0.0
100
AcDbText
  0
LINE
  5
91
100
AcDbEntity
  8
0
  6
CONTINUOUS
 62
     1
100
AcDbLine
 10
4.0
 20
-3.7
 30
0.0
 11
71.0
 21
-3.7
 31
0.0
  0
ENDBLK
  5
92
100
AcDbEntity
  8
0
100
AcDbBlockEnd
  0
BLOCK
  5
93
100
AcDbEntity
  8
0
100
AcDbBlockBegin
  2
SYM-2
 70
     0
 10
0.0
 20
0.0
 30
0.0
  3
SYM-2
  1

  0
TEXT
  5
94
100
AcDbEntity
  8
0
  6
CONTINUOUS
 62
     2
100
AcDbText
 10
-2.828427
 20
-2.828427
 30
0.0
 40
5.656854
  1
１
 41
0.84
  7
EXCADSTD
 72
     5
 11
1.697056
 21
-2.828427
 31
0.0
100
AcDbText
  0
CIRCLE
  5
95
100
AcDbEntity
  8
0
  6
CONTINUOUS
 62
     1
100
AcDbCircle
 10
0.0
 20
0.0
 30
0.0
 40
4.0
  0
TEXT
  5
96
100
AcDbEntity
  8
0
  6
CONTINUOUS
 62
     2
100
AcDbText
 10
6.6
 20
-3.2
 30
0.0
 40
7.0
  1
トップピボット（上枠側）
 41
0.672
  7
EXCADSTD
 72
     5
 11
73.799999
 21
-3.2
 31
0.0
100
AcDbText
  0
LINE
  5
97
100
AcDbEntity
  8
0
  6
CONTINUOUS
 62
     1
100
AcDbLine
 10
4.0
 20
-3.7
 30
0.0
 11
70.1
 21
-3.7
 31
0.0
  0
ENDBLK
  5
98
100
AcDbEntity
  8
0
100
AcDbBlockEnd
  0
BLOCK
  5
99
100
AcDbEntity
  8
0
100
AcDbBlockBegin
  2
SYM-3
 70
     0
 10
0.0
 20
0.0
 30
0.0
  3
SYM-3
  1

  0
TEXT
  5
9A
100
AcDbEntity
  8
0
  6
CONTINUOUS
 62
     2
100
AcDbText
 10
-2.828427
 20
-2.828427
 30
0.0
 40
5.656854
  1
３
 41
0.84
  7
EXCADSTD
 72
     5
 11
1.697056
 21
-2.828427
 31
0.0
100
AcDbText
  0
CIRCLE
  5
9B
100
AcDbEntity
  8
0
  6
CONTINUOUS
 62
     1
100
AcDbCircle
 10
0.0
 20
0.0
 30
0.0
 40
4.0
  0
TEXT
  5
9C
100
AcDbEntity
  8
0
  6
CONTINUOUS
 62
     2
100
AcDbText
 10
6.6
 20
-3.2
 30
0.0
 40
7.0
  1
ア　ー　ム
 41
0.672
  7
EXCADSTD
 72
     5
 11
34.6
 21
-3.2
 31
0.0
100
AcDbText
  0
LINE
  5
9D
100
AcDbEntity
  8
0
  6
CONTINUOUS
 62
     1
100
AcDbLine
 10
4.0
 20
-3.7
 30
0.0
 11
34.9
 21
-3.7
 31
0.0
  0
ENDBLK
  5
9E
100
AcDbEntity
  8
0
100
AcDbBlockEnd
  0
BLOCK
  5
9F
100
AcDbEntity
  8
0
100
AcDbBlockBegin
  2
SYM-4
 70
     0
 10
0.0
 20
0.0
 30
0.0
  3
SYM-4
  1

  0
TEXT
  5
A0
100
AcDbEntity
  8
0
  6
CONTINUOUS
 62
     2
100
AcDbText
 10
-2.828427
 20
-2.828427
 30
0.0
 40
5.656854
  1
４
 41
0.84
  7
EXCADSTD
 72
     5
 11
1.697056
 21
-2.828427
 31
0.0
100
AcDbText
  0
CIRCLE
  5
A1
100
AcDbEntity
  8
0
  6
CONTINUOUS
 62
     1
100
AcDbCircle
 10
0.0
 20
0.0
 30
0.0
 40
4.0
  0
TEXT
  5
A2
100
AcDbEntity
  8
0
  6
CONTINUOUS
 62
     2
100
AcDbText
 10
6.6
 20
-3.2
 30
0.0
 40
7.0
  1
床面軸座
 41
0.672
  7
EXCADSTD
 72
     5
 11
29.0
 21
-3.2
 31
0.0
100
AcDbText
  0
LINE
  5
A3
100
AcDbEntity
  8
0
  6
CONTINUOUS
 62
     1
100
AcDbLine
 10
4.0
 20
-3.7
 30
0.0
 11
29.3
 21
-3.7
 31
0.0
  0
ENDBLK
  5
A4
100
AcDbEntity
  8
0
100
AcDbBlockEnd
  0
ENDSEC
  0
SECTION
  2
ENTITIES
  0
LINE
  5
A5
100
AcDbEntity
  8
LAY-1
  6
DASHED2
 62
     3
100
AcDbLine
 10
732.477295
 20
402.515201
 30
0.0
 11
727.477295
 21
402.515201
 31
0.0
  0
LINE
  5
A6
100
AcDbEntity
  8
LAY-1
  6
DASHED2
 62
     3
100
AcDbLine
 10
727.477295
 20
402.515201
 30
0.0
 11
725.327295
 21
400.365201
 31
0.0
  0
LINE
  5
A7
100
AcDbEntity
  8
LAY-1
  6
DASHED2
 62
     3
100
AcDbLine
 10
732.477295
 20
402.515201
 30
0.0
 11
734.627295
 21
400.365201
 31
0.0
  0
LINE
  5
A8
100
AcDbEntity
  8
LAY-1
  6
DASHED2
 62
     3
100
AcDbLine
 10
725.327295
 20
400.365201
 30
0.0
 11
734.627295
 21
400.365201
 31
0.0
  0
LINE
  5
A9
100
AcDbEntity
  8
LAY-1
  6
DASHED2
 62
     3
100
AcDbLine
 10
725.327295
 20
400.365201
 30
0.0
 11
725.327295
 21
399.815201
 31
0.0
  0
LINE
  5
AA
100
AcDbEntity
  8
LAY-1
  6
DASHED2
 62
     3
100
AcDbLine
 10
734.627295
 20
400.365201
 30
0.0
 11
734.627295
 21
399.815201
 31
0.0
  0
LINE
  5
AB
100
AcDbEntity
  8
LAY-1
  6
DASHED2
 62
     3
100
AcDbLine
 10
727.477295
 20
414.815201
 30
0.0
 11
727.477295
 21
402.515201
 31
0.0
  0
LINE
  5
AC
100
AcDbEntity
  8
LAY-1
  6
DASHED2
 62
     1
100
AcDbLine
 10
727.977295
 20
414.815201
 30
0.0
 11
727.977295
 21
402.515201
 31
0.0
  0
LINE
  5
AD
100
AcDbEntity
  8
LAY-1
  6
DASHED2
 62
     1
100
AcDbLine
 10
731.977295
 20
414.815201
 30
0.0
 11
731.977295
 21
402.515201
 31
0.0
  0
LINE
  5
AE
100
AcDbEntity
  8
LAY-1
  6
DASHED2
 62
     3
100
AcDbLine
 10
732.477295
 20
414.815201
 30
0.0
 11
732.477295
 21
402.515201
 31
0.0
  0
LINE
  5
AF
100
AcDbEntity
  8
LAY-1
  6
CONTINUOUS
 62
     3
100
AcDbLine
 10
732.477295
 20
420.365201
 30
0.0
 11
727.477295
 21
420.365201
 31
0.0
  0
LINE
  5
B0
100
AcDbEntity
  8
LAY-1
  6
CONTINUOUS
 62
     3
100
AcDbLine
 10
727.477295
 20
420.365201
 30
0.0
 11
727.477295
 21
414.815201
 31
0.0
  0
LINE
  5
B1
100
AcDbEntity
  8
LAY-1
  6
CONTINUOUS
 62
     1
100
AcDbLine
 10
727.977295
 20
420.365201
 30
0.0
 11
727.977295
 21
414.815201
 31
0.0
  0
LINE
  5
B2
100
AcDbEntity
  8
LAY-1
  6
CONTINUOUS
 62
     1
100
AcDbLine
 10
731.977295
 20
420.365201
 30
0.0
 11
731.977295
 21
414.815201
 31
0.0
  0
LINE
  5
B3
100
AcDbEntity
  8
LAY-1
  6
CONTINUOUS
 62
     3
100
AcDbLine
 10
732.477295
 20
420.365201
 30
0.0
 11
732.477295
 21
414.815201
 31
0.0
  0
LINE
  5
B4
100
AcDbEntity
  8
LAY-1
  6
DASHED2
 62
     3
100
AcDbLine
 10
748.477295
 20
402.515201
 30
0.0
 11
743.477295
 21
402.515201
 31
0.0
  0
LINE
  5
B5
100
AcDbEntity
  8
LAY-1
  6
DASHED2
 62
     3
100
AcDbLine
 10
743.477295
 20
402.515201
 30
0.0
 11
741.327295
 21
400.365201
 31
0.0
  0
LINE
  5
B6
100
AcDbEntity
  8
LAY-1
  6
DASHED2
 62
     3
100
AcDbLine
 10
748.477295
 20
402.515201
 30
0.0
 11
750.627295
 21
400.365201
 31
0.0
  0
LINE
  5
B7
100
AcDbEntity
  8
LAY-1
  6
DASHED2
 62
     3
100
AcDbLine
 10
741.327295
 20
400.365201
 30
0.0
 11
750.627295
 21
400.365201
 31
0.0
  0
LINE
  5
B8
100
AcDbEntity
  8
LAY-1
  6
DASHED2
 62
     3
100
AcDbLine
 10
741.327295
 20
400.365201
 30
0.0
 11
741.327295
 21
399.815201
 31
0.0
  0
LINE
  5
B9
100
AcDbEntity
  8
LAY-1
  6
DASHED2
 62
     3
100
AcDbLine
 10
750.627295
 20
400.365201
 30
0.0
 11
750.627295
 21
399.815201
 31
0.0
  0
LINE
  5
BA
100
AcDbEntity
  8
LAY-1
  6
DASHED2
 62
     3
100
AcDbLine
 10
743.477295
 20
414.815201
 30
0.0
 11
743.477295
 21
402.515201
 31
0.0
  0
LINE
  5
BB
100
AcDbEntity
  8
LAY-1
  6
DASHED2
 62
     1
100
AcDbLine
 10
743.977295
 20
414.815201
 30
0.0
 11
743.977295
 21
402.515201
 31
0.0
  0
LINE
  5
BC
100
AcDbEntity
  8
LAY-1
  6
DASHED2
 62
     1
100
AcDbLine
 10
747.977295
 20
414.815201
 30
0.0
 11
747.977295
 21
402.515201
 31
0.0
  0
LINE
  5
BD
100
AcDbEntity
  8
LAY-1
  6
DASHED2
 62
     3
100
AcDbLine
 10
748.477295
 20
414.815201
 30
0.0
 11
748.477295
 21
402.515201
 31
0.0
  0
LINE
  5
BE
100
AcDbEntity
  8
LAY-1
  6
CONTINUOUS
 62
     3
100
AcDbLine
 10
748.477295
 20
420.365201
 30
0.0
 11
743.477295
 21
420.365201
 31
0.0
  0
LINE
  5
BF
100
AcDbEntity
  8
LAY-1
  6
CONTINUOUS
 62
     3
100
AcDbLine
 10
743.477295
 20
420.365201
 30
0.0
 11
743.477295
 21
414.815201
 31
0.0
  0
LINE
  5
C0
100
AcDbEntity
  8
LAY-1
  6
CONTINUOUS
 62
     1
100
AcDbLine
 10
743.977295
 20
420.365201
 30
0.0
 11
743.977295
 21
414.815201
 31
0.0
  0
LINE
  5
C1
100
AcDbEntity
  8
LAY-1
  6
CONTINUOUS
 62
     1
100
AcDbLine
 10
747.977295
 20
420.365201
 30
0.0
 11
747.977295
 21
414.815201
 31
0.0
  0
LINE
  5
C2
100
AcDbEntity
  8
LAY-1
  6
CONTINUOUS
 62
     3
100
AcDbLine
 10
748.477295
 20
420.365201
 30
0.0
 11
748.477295
 21
414.815201
 31
0.0
  0
LINE
  5
C3
100
AcDbEntity
  8
LAY-1
  6
CONTINUOUS
 62
     3
100
AcDbLine
 10
716.977295
 20
413.815201
 30
0.0
 11
679.977295
 21
413.815201
 31
0.0
  0
LINE
  5
C4
100
AcDbEntity
  8
LAY-1
  6
CONTINUOUS
 62
     3
100
AcDbLine
 10
716.977295
 20
399.815201
 30
0.0
 11
680.977295
 21
399.815201
 31
0.0
  0
LINE
  5
C5
100
AcDbEntity
  8
LAY-1
  6
CONTINUOUS
 62
     3
100
AcDbLine
 10
679.977295
 20
400.815201
 30
0.0
 11
679.977295
 21
413.815201
 31
0.0
  0
ARC
  5
C6
100
AcDbEntity
  8
LAY-1
  6
CONTINUOUS
 62
     3
100
AcDbCircle
 10
680.977295
 20
400.815201
 30
0.0
 40
1.0
100
AcDbArc
 50
180.0
 51
269.999982
  0
LINE
  5
C7
100
AcDbEntity
  8
LAY-1
  6
DASHED2
 62
     3
100
AcDbLine
 10
716.977295
 20
400.415207
 30
0.0
 11
680.977295
 21
400.415207
 31
0.0
  0
ARC
  5
C8
100
AcDbEntity
  8
LAY-1
  6
DASHED2
 62
     3
100
AcDbCircle
 10
680.977295
 20
400.815201
 30
0.0
 40
0.4
100
AcDbArc
 50
180.0
 51
269.999982
  0
LINE
  5
C9
100
AcDbEntity
  8
LAY-1
  6
DASHED2
 62
     3
100
AcDbLine
 10
680.577301
 20
400.815201
 30
0.0
 11
680.577301
 21
413.815201
 31
0.0
  0
LINE
  5
CA
100
AcDbEntity
  8
LAY-1
  6
CONTINUOUS
 62
     3
100
AcDbLine
 10
716.977295
 20
413.815201
 30
0.0
 11
716.977295
 21
399.815201
 31
0.0
  0
LINE
  5
CB
100
AcDbEntity
  8
LAY-1
  6
CONTINUOUS
 62
     3
100
AcDbLine
 10
716.977295
 20
404.815201
 30
0.0
 11
755.477325
 21
404.815201
 31
0.0
  0
LINE
  5
CC
100
AcDbEntity
  8
LAY-1
  6
CONTINUOUS
 62
     3
100
AcDbLine
 10
756.977325
 20
406.315201
 30
0.0
 11
756.977325
 21
412.315201
 31
0.0
  0
ARC
  5
CD
100
AcDbEntity
  8
LAY-1
  6
CONTINUOUS
 62
     3
100
AcDbCircle
 10
755.477325
 20
412.315201
 30
0.0
 40
1.5
100
AcDbArc
 50
359.999981
 51
90.00002
  0
ARC
  5
CE
100
AcDbEntity
  8
LAY-1
  6
CONTINUOUS
 62
     3
100
AcDbCircle
 10
755.477325
 20
406.315201
 30
0.0
 40
1.5
100
AcDbArc
 50
269.999982
 51
0.000021
  0
LINE
  5
CF
100
AcDbEntity
  8
LAY-1
  6
CONTINUOUS
 62
     3
100
AcDbLine
 10
716.977295
 20
413.815201
 30
0.0
 11
755.477325
 21
413.815201
 31
0.0
  0
LINE
  5
D0
100
AcDbEntity
  8
LAY-1
  6
CONTINUOUS
 62
     3
100
AcDbLine
 10
697.977325
 20
417.815201
 30
0.0
 11
703.377325
 21
417.815201
 31
0.0
  0
ARC
  5
D1
100
AcDbEntity
  8
LAY-1
  6
CONTINUOUS
 62
     3
100
AcDbCircle
 10
703.377325
 20
413.815201
 30
0.0
 40
4.0
100
AcDbArc
 50
0.0
 51
90.0
  0
LINE
  5
D2
100
AcDbEntity
  8
LAY-1
  6
CONTINUOUS
 62
     3
100
AcDbLine
 10
697.977325
 20
417.815201
 30
0.0
 11
692.577325
 21
417.815201
 31
0.0
  0
ARC
  5
D3
100
AcDbEntity
  8
LAY-1
  6
CONTINUOUS
 62
     3
100
AcDbCircle
 10
692.577325
 20
413.815201
 30
0.0
 40
4.0
100
AcDbArc
 50
90.0
 51
180.0
  0
LINE
  5
D4
100
AcDbEntity
  8
LAY-1
  6
DASHED2
 62
     3
100
AcDbLine
 10
691.477325
 20
416.615201
 30
0.0
 11
697.977325
 21
416.615201
 31
0.0
  0
LINE
  5
D5
100
AcDbEntity
  8
LAY-1
  6
DASHED2
 62
     3
100
AcDbLine
 10
691.177325
 20
416.315201
 30
0.0
 11
691.177325
 21
413.815201
 31
0.0
  0
ARC
  5
D6
100
AcDbEntity
  8
LAY-1
  6
DASHED2
 62
     3
100
AcDbCircle
 10
691.477325
 20
416.315201
 30
0.0
 40
0.3
100
AcDbArc
 50
90.0
 51
180.0
  0
LINE
  5
D7
100
AcDbEntity
  8
LAY-1
  6
DASHED2
 62
     3
100
AcDbLine
 10
704.477325
 20
416.615201
 30
0.0
 11
697.977325
 21
416.615201
 31
0.0
  0
LINE
  5
D8
100
AcDbEntity
  8
LAY-1
  6
DASHED2
 62
     3
100
AcDbLine
 10
704.777325
 20
416.315201
 30
0.0
 11
704.777325
 21
413.815201
 31
0.0
  0
ARC
  5
D9
100
AcDbEntity
  8
LAY-1
  6
DASHED2
 62
     3
100
AcDbCircle
 10
704.477325
 20
416.315201
 30
0.0
 40
0.3
100
AcDbArc
 50
0.0
 51
90.0
  0
LINE
  5
DA
100
AcDbEntity
  8
LAY-1
  6
CONTINUOUS
 62
     3
100
AcDbLine
 10
79.403381
 20
379.991089
 30
0.0
 11
79.403381
 21
417.491058
 31
0.0
  0
LINE
  5
DB
100
AcDbEntity
  8
LAY-1
  6
CONTINUOUS
 62
     3
100
AcDbLine
 10
126.403381
 20
420.491058
 30
0.0
 11
82.403381
 21
420.491058
 31
0.0
  0
LINE
  5
DC
100
AcDbEntity
  8
LAY-1
  6
DASHED2
 62
     3
100
AcDbLine
 10
129.403412
 20
380.491028
 30
0.0
 11
79.403389
 21
380.491028
 31
0.0
  0
ARC
  5
DD
100
AcDbEntity
  8
LAY-1
  6
CONTINUOUS
 62
     3
100
AcDbCircle
 10
82.403381
 20
417.491058
 30
0.0
 40
3.0
100
AcDbArc
 50
90.00002
 51
180.0
  0
ARC
  5
DE
100
AcDbEntity
  8
LAY-1
  6
CONTINUOUS
 62
     3
100
AcDbCircle
 10
126.403381
 20
417.491058
 30
0.0
 40
3.0
100
AcDbArc
 50
359.999981
 51
90.00002
  0
CIRCLE
  5
DF
100
AcDbEntity
  8
LAY-1
  6
DASHED2
 62
     3
100
AcDbCircle
 10
75.403366
 20
361.491089
 30
0.0
 40
11.9
  0
LINE
  5
E0
100
AcDbEntity
  8
LAY-1
  6
CONTINUOUS
 62
     3
100
AcDbLine
 10
129.403381
 20
380.491028
 30
0.0
 11
129.403381
 21
417.491058
 31
0.0
  0
CIRCLE
  5
E1
100
AcDbEntity
  8
LAY-1
  6
DASHED2
 62
     3
100
AcDbCircle
 10
75.403377
 20
361.491089
 30
0.0
 40
6.25
  0
CIRCLE
  5
E2
100
AcDbEntity
  8
LAY-1
  6
CONTINUOUS
 62
     1
100
AcDbCircle
 10
119.403381
 20
409.491128
 30
0.0
 40
2.5
  0
CIRCLE
  5
E3
100
AcDbEntity
  8
LAY-1
  6
CONTINUOUS
 62
     3
100
AcDbCircle
 10
119.403381
 20
409.491128
 30
0.0
 40
2.0
  0
CIRCLE
  5
E4
100
AcDbEntity
  8
LAY-1
  6
CONTINUOUS
 62
     1
100
AcDbCircle
 10
119.403381
 20
393.491128
 30
0.0
 40
2.5
  0
CIRCLE
  5
E5
100
AcDbEntity
  8
LAY-1
  6
CONTINUOUS
 62
     3
100
AcDbCircle
 10
119.403381
 20
393.491128
 30
0.0
 40
2.0
  0
CIRCLE
  5
E6
100
AcDbEntity
  8
LAY-1
  6
CONTINUOUS
 62
     1
100
AcDbCircle
 10
89.403381
 20
409.491128
 30
0.0
 40
2.5
  0
CIRCLE
  5
E7
100
AcDbEntity
  8
LAY-1
  6
CONTINUOUS
 62
     3
100
AcDbCircle
 10
89.403381
 20
409.491128
 30
0.0
 40
2.0
  0
CIRCLE
  5
E8
100
AcDbEntity
  8
LAY-1
  6
CONTINUOUS
 62
     1
100
AcDbCircle
 10
89.403381
 20
393.491128
 30
0.0
 40
2.5
  0
CIRCLE
  5
E9
100
AcDbEntity
  8
LAY-1
  6
CONTINUOUS
 62
     3
100
AcDbCircle
 10
89.403381
 20
393.491128
 30
0.0
 40
2.0
  0
CIRCLE
  5
EA
100
AcDbEntity
  8
LAY-1
  6
CONTINUOUS
 62
     3
100
AcDbCircle
 10
75.403377
 20
361.491089
 30
0.0
 40
9.4
  0
ARC
  5
EB
100
AcDbEntity
  8
LAY-1
  6
CONTINUOUS
 62
     3
100
AcDbCircle
 10
126.403381
 20
375.423096
 30
0.0
 40
3.0
100
AcDbArc
 50
300.000013
 51
359.999981
  0
LINE
  5
EC
100
AcDbEntity
  8
LAY-1
  6
CONTINUOUS
 62
     3
100
AcDbLine
 10
133.403427
 20
375.347473
 30
0.0
 11
133.403427
 21
380.491058
 31
0.0
  0
ARC
  5
ED
100
AcDbEntity
  8
LAY-1
  6
CONTINUOUS
 62
     3
100
AcDbCircle
 10
131.403427
 20
375.347473
 30
0.0
 40
2.0
100
AcDbArc
 50
300.000013
 51
359.999981
  0
LINE
  5
EE
100
AcDbEntity
  8
LAY-1
  6
CONTINUOUS
 62
     3
100
AcDbLine
 10
129.403397
 20
380.491058
 30
0.0
 11
133.403397
 21
380.491058
 31
0.0
  0
ARC
  5
EF
100
AcDbEntity
  8
LAY-1
  6
CONTINUOUS
 62
     3
100
AcDbCircle
 10
131.403427
 20
375.347473
 30
0.0
 40
1.4
100
AcDbArc
 50
300.000013
 51
359.999981
  0
LINE
  5
F0
100
AcDbEntity
  8
LAY-1
  6
CONTINUOUS
 62
     3
100
AcDbLine
 10
132.803436
 20
380.491058
 30
0.0
 11
132.803421
 21
375.347473
 31
0.0
  0
LINE
  5
F1
100
AcDbEntity
  8
LAY-1
  6
CONTINUOUS
 62
     3
100
AcDbLine
 10
129.403381
 20
375.423096
 30
0.0
 11
129.403381
 21
380.491028
 31
0.0
  0
LINE
  5
F2
100
AcDbEntity
  8
LAY-1
  6
CONTINUOUS
 62
     3
100
AcDbLine
 10
84.645309
 20
347.849976
 30
0.0
 11
127.903381
 21
372.825012
 31
0.0
  0
LINE
  5
F3
100
AcDbEntity
  8
LAY-1
  6
CONTINUOUS
 62
     3
100
AcDbLine
 10
84.103386
 20
346.422241
 30
0.0
 11
132.103409
 21
374.135071
 31
0.0
  0
LINE
  5
F4
100
AcDbEntity
  8
LAY-1
  6
CONTINUOUS
 62
     3
100
AcDbLine
 10
83.280281
 20
345.254181
 30
0.0
 11
132.403427
 21
373.615448
 31
0.0
  0
ARC
  5
F5
100
AcDbEntity
  8
LAY-1
  6
CONTINUOUS
 62
     3
100
AcDbCircle
 10
75.403389
 20
361.491058
 30
0.0
 40
18.0
100
AcDbArc
 50
90.00002
 51
295.868397
  0
ARC
  5
F6
100
AcDbEntity
  8
LAY-1
  6
CONTINUOUS
 62
     3
100
AcDbCircle
 10
75.403389
 20
361.491058
 30
0.0
 40
17.4
100
AcDbArc
 50
90.00002
 51
300.000053
  0
ARC
  5
F7
100
AcDbEntity
  8
LAY-1
  6
CONTINUOUS
 62
     3
100
AcDbCircle
 10
75.403381
 20
361.491089
 30
0.0
 40
16.5
100
AcDbArc
 50
90.00002
 51
304.112171
  0
LINE
  5
F8
100
AcDbEntity
  8
LAY-1
  6
CONTINUOUS
 62
     3
100
AcDbLine
 10
75.403381
 20
377.991089
 30
0.0
 11
77.403389
 21
377.991089
 31
0.0
  0
ARC
  5
F9
100
AcDbEntity
  8
LAY-1
  6
CONTINUOUS
 62
     3
100
AcDbCircle
 10
77.403389
 20
379.991089
 30
0.0
 40
2.0
100
AcDbArc
 50
269.999982
 51
0.000021
  0
LINE
  5
FA
100
AcDbEntity
  8
LAY-1
  6
CONTINUOUS
 62
     3
100
AcDbLine
 10
79.339874
 20
379.491058
 30
0.0
 11
75.403389
 21
379.491058
 31
0.0
  0
LINE
  5
FB
100
AcDbEntity
  8
LAY-2
  6
CONTINUOUS
 62
     3
100
AcDbLine
 10
719.977295
 20
396.815231
 30
0.0
 11
679.977325
 21
396.815231
 31
0.0
  0
LINE
  5
FC
100
AcDbEntity
  8
LAY-2
  6
CONTINUOUS
 62
     3
100
AcDbLine
 10
719.977295
 20
382.815231
 30
0.0
 11
680.977325
 21
382.815231
 31
0.0
  0
LINE
  5
FD
100
AcDbEntity
  8
LAY-2
  6
CONTINUOUS
 62
     3
100
AcDbLine
 10
679.977325
 20
383.815231
 30
0.0
 11
679.977325
 21
396.815231
 31
0.0
  0
ARC
  5
FE
100
AcDbEntity
  8
LAY-2
  6
CONTINUOUS
 62
     3
100
AcDbCircle
 10
680.977325
 20
383.815231
 30
0.0
 40
1.0
100
AcDbArc
 50
180.0
 51
269.999982
  0
LINE
  5
FF
100
AcDbEntity
  8
LAY-2
  6
DASHED2
 62
     3
100
AcDbLine
 10
719.977295
 20
383.415237
 30
0.0
 11
680.977325
 21
383.415237
 31
0.0
  0
ARC
  5
100
100
AcDbEntity
  8
LAY-2
  6
DASHED2
 62
     3
100
AcDbCircle
 10
680.977325
 20
383.815231
 30
0.0
 40
0.4
100
AcDbArc
 50
180.0
 51
269.999982
  0
LINE
  5
101
100
AcDbEntity
  8
LAY-2
  6
DASHED2
 62
     3
100
AcDbLine
 10
680.577301
 20
383.815231
 30
0.0
 11
680.577301
 21
396.815231
 31
0.0
  0
LINE
  5
102
100
AcDbEntity
  8
LAY-2
  6
CONTINUOUS
 62
     3
100
AcDbLine
 10
719.977295
 20
396.815231
 30
0.0
 11
719.977295
 21
382.815231
 31
0.0
  0
LINE
  5
103
100
AcDbEntity
  8
LAY-2
  6
CONTINUOUS
 62
     3
100
AcDbLine
 10
752.977325
 20
389.315231
 30
0.0
 11
752.977325
 21
395.315231
 31
0.0
  0
ARC
  5
104
100
AcDbEntity
  8
LAY-2
  6
CONTINUOUS
 62
     3
100
AcDbCircle
 10
751.477325
 20
395.315231
 30
0.0
 40
1.5
100
AcDbArc
 50
359.999981
 51
90.00002
  0
ARC
  5
105
100
AcDbEntity
  8
LAY-2
  6
CONTINUOUS
 62
     3
100
AcDbCircle
 10
751.477325
 20
389.315231
 30
0.0
 40
1.5
100
AcDbArc
 50
269.999982
 51
0.000021
  0
LINE
  5
106
100
AcDbEntity
  8
LAY-2
  6
CONTINUOUS
 62
     3
100
AcDbLine
 10
719.977295
 20
387.815231
 30
0.0
 11
751.477325
 21
387.815231
 31
0.0
  0
LINE
  5
107
100
AcDbEntity
  8
LAY-2
  6
CONTINUOUS
 62
     3
100
AcDbLine
 10
719.977295
 20
396.815231
 30
0.0
 11
751.477325
 21
396.815231
 31
0.0
  0
LINE
  5
108
100
AcDbEntity
  8
LAY-2
  6
CONTINUOUS
 62
     3
100
AcDbLine
 10
691.727325
 20
399.815201
 30
0.0
 11
691.727325
 21
396.815231
 31
0.0
  0
LINE
  5
109
100
AcDbEntity
  8
LAY-2
  6
CONTINUOUS
 62
     3
100
AcDbLine
 10
704.227325
 20
399.815201
 30
0.0
 11
704.227325
 21
396.815231
 31
0.0
  0
LINE
  5
10A
100
AcDbEntity
  8
LAY-2
  6
DASHED2
 62
     3
100
AcDbLine
 10
739.977295
 20
396.815171
 30
0.0
 11
739.977295
 21
396.315177
 31
0.0
  0
LINE
  5
10B
100
AcDbEntity
  8
LAY-2
  6
DASHED2
 62
     3
100
AcDbLine
 10
751.977295
 20
396.815171
 30
0.0
 11
751.977295
 21
396.315177
 31
0.0
  0
LINE
  5
10C
100
AcDbEntity
  8
LAY-2
  6
DASHED2
 62
     3
100
AcDbLine
 10
739.977295
 20
396.315177
 30
0.0
 11
751.977295
 21
396.315177
 31
0.0
  0
LINE
  5
10D
100
AcDbEntity
  8
LAY-2
  6
CONTINUOUS
 62
     3
100
AcDbLine
 10
742.727295
 20
376.315171
 30
0.0
 11
749.227295
 21
376.315202
 31
0.0
  0
LINE
  5
10E
100
AcDbEntity
  8
LAY-2
  6
DASHED2
 62
     3
100
AcDbLine
 10
749.227295
 20
393.565208
 30
0.0
 11
751.977295
 21
396.315239
 31
0.0
  0
LINE
  5
10F
100
AcDbEntity
  8
LAY-2
  6
DASHED2
 62
     3
100
AcDbLine
 10
742.727326
 20
393.565147
 30
0.0
 11
739.977295
 21
396.315177
 31
0.0
  0
LINE
  5
110
100
AcDbEntity
  8
LAY-2
  6
DASHED2
 62
     3
100
AcDbLine
 10
742.727295
 20
393.565147
 30
0.0
 11
749.227295
 21
393.565177
 31
0.0
  0
LINE
  5
111
100
AcDbEntity
  8
LAY-2
  6
DASHED2
 62
     3
100
AcDbLine
 10
739.977295
 20
396.815171
 30
0.0
 11
739.977295
 21
396.415177
 31
0.0
  0
LINE
  5
112
100
AcDbEntity
  8
LAY-2
  6
DASHED2
 62
     3
100
AcDbLine
 10
749.227295
 20
393.565208
 30
0.0
 11
749.227295
 21
383.315201
 31
0.0
  0
LINE
  5
113
100
AcDbEntity
  8
LAY-2
  6
DASHED2
 62
     3
100
AcDbLine
 10
742.727326
 20
393.565147
 30
0.0
 11
742.727326
 21
383.315201
 31
0.0
  0
LINE
  5
114
100
AcDbEntity
  8
LAY-2
  6
DASHED2
 62
     1
100
AcDbLine
 10
743.227295
 20
393.565147
 30
0.0
 11
743.227295
 21
383.315201
 31
0.0
  0
LINE
  5
115
100
AcDbEntity
  8
LAY-2
  6
DASHED2
 62
     1
100
AcDbLine
 10
748.727265
 20
393.565177
 30
0.0
 11
748.727265
 21
383.315201
 31
0.0
  0
LINE
  5
116
100
AcDbEntity
  8
LAY-2
  6
CONTINUOUS
 62
     3
100
AcDbLine
 10
749.227295
 20
383.315201
 30
0.0
 11
749.227295
 21
376.315202
 31
0.0
  0
LINE
  5
117
100
AcDbEntity
  8
LAY-2
  6
CONTINUOUS
 62
     3
100
AcDbLine
 10
742.727307
 20
383.315205
 30
0.0
 11
742.727295
 21
376.315171
 31
0.0
  0
LINE
  5
118
100
AcDbEntity
  8
LAY-2
  6
CONTINUOUS
 62
     1
100
AcDbLine
 10
743.227295
 20
383.315201
 30
0.0
 11
743.227295
 21
376.315171
 31
0.0
  0
LINE
  5
119
100
AcDbEntity
  8
LAY-2
  6
CONTINUOUS
 62
     1
100
AcDbLine
 10
748.727283
 20
383.315204
 30
0.0
 11
748.727295
 21
376.315202
 31
0.0
  0
LINE
  5
11A
100
AcDbEntity
  8
LAY-2
  6
DASHED2
 62
     3
100
AcDbLine
 10
739.977295
 20
396.815171
 30
0.0
 11
739.977295
 21
396.315177
 31
0.0
  0
LINE
  5
11B
100
AcDbEntity
  8
LAY-2
  6
DASHED2
 62
     3
100
AcDbLine
 10
723.977295
 20
396.815171
 30
0.0
 11
723.977295
 21
396.315177
 31
0.0
  0
LINE
  5
11C
100
AcDbEntity
  8
LAY-2
  6
DASHED2
 62
     3
100
AcDbLine
 10
735.977295
 20
396.815171
 30
0.0
 11
735.977295
 21
396.315177
 31
0.0
  0
LINE
  5
11D
100
AcDbEntity
  8
LAY-2
  6
DASHED2
 62
     3
100
AcDbLine
 10
723.977295
 20
396.315177
 30
0.0
 11
735.977295
 21
396.315177
 31
0.0
  0
LINE
  5
11E
100
AcDbEntity
  8
LAY-2
  6
CONTINUOUS
 62
     3
100
AcDbLine
 10
726.727295
 20
376.315171
 30
0.0
 11
733.227295
 21
376.315202
 31
0.0
  0
LINE
  5
11F
100
AcDbEntity
  8
LAY-2
  6
DASHED2
 62
     3
100
AcDbLine
 10
733.227295
 20
393.565208
 30
0.0
 11
735.977295
 21
396.315239
 31
0.0
  0
LINE
  5
120
100
AcDbEntity
  8
LAY-2
  6
DASHED2
 62
     3
100
AcDbLine
 10
726.727326
 20
393.565147
 30
0.0
 11
723.977295
 21
396.315177
 31
0.0
  0
LINE
  5
121
100
AcDbEntity
  8
LAY-2
  6
DASHED2
 62
     3
100
AcDbLine
 10
726.727295
 20
393.565147
 30
0.0
 11
733.227295
 21
393.565177
 31
0.0
  0
LINE
  5
122
100
AcDbEntity
  8
LAY-2
  6
DASHED2
 62
     3
100
AcDbLine
 10
723.977295
 20
396.815171
 30
0.0
 11
723.977295
 21
396.415177
 31
0.0
  0
LINE
  5
123
100
AcDbEntity
  8
LAY-2
  6
DASHED2
 62
     3
100
AcDbLine
 10
733.227295
 20
393.565208
 30
0.0
 11
733.227295
 21
383.315201
 31
0.0
  0
LINE
  5
124
100
AcDbEntity
  8
LAY-2
  6
DASHED2
 62
     3
100
AcDbLine
 10
726.727326
 20
393.565147
 30
0.0
 11
726.727326
 21
383.315201
 31
0.0
  0
LINE
  5
125
100
AcDbEntity
  8
LAY-2
  6
DASHED2
 62
     1
100
AcDbLine
 10
727.227295
 20
393.565147
 30
0.0
 11
727.227295
 21
383.315201
 31
0.0
  0
LINE
  5
126
100
AcDbEntity
  8
LAY-2
  6
DASHED2
 62
     1
100
AcDbLine
 10
732.727265
 20
393.565177
 30
0.0
 11
732.727265
 21
383.315201
 31
0.0
  0
LINE
  5
127
100
AcDbEntity
  8
LAY-2
  6
CONTINUOUS
 62
     3
100
AcDbLine
 10
733.227295
 20
383.315201
 30
0.0
 11
733.227295
 21
376.315202
 31
0.0
  0
LINE
  5
128
100
AcDbEntity
  8
LAY-2
  6
CONTINUOUS
 62
     3
100
AcDbLine
 10
726.727307
 20
383.315205
 30
0.0
 11
726.727295
 21
376.315171
 31
0.0
  0
LINE
  5
129
100
AcDbEntity
  8
LAY-2
  6
CONTINUOUS
 62
     1
100
AcDbLine
 10
727.227295
 20
383.315201
 30
0.0
 11
727.227295
 21
376.315171
 31
0.0
  0
LINE
  5
12A
100
AcDbEntity
  8
LAY-2
  6
CONTINUOUS
 62
     1
100
AcDbLine
 10
732.727283
 20
383.315204
 30
0.0
 11
732.727295
 21
376.315202
 31
0.0
  0
LINE
  5
12B
100
AcDbEntity
  8
LAY-2
  6
DASHED2
 62
     3
100
AcDbLine
 10
723.977295
 20
396.815171
 30
0.0
 11
723.977295
 21
396.315177
 31
0.0
  0
LINE
  5
12C
100
AcDbEntity
  8
LAY-2
  6
DASHED2
 62
     1
100
AcDbLine
 10
69.413724
 20
204.935766
 30
0.0
 11
74.032945
 21
196.935033
 31
0.0
  0
LINE
  5
12D
100
AcDbEntity
  8
LAY-2
  6
DASHED2
 62
     3
100
AcDbLine
 10
69.888994
 20
205.112565
 30
0.0
 11
74.564567
 21
197.014251
 31
0.0
  0
LINE
  5
12E
100
AcDbEntity
  8
LAY-2
  6
DASHED2
 62
     1
100
AcDbLine
 10
65.083578
 20
202.435764
 30
0.0
 11
69.702813
 21
194.435027
 31
0.0
  0
LINE
  5
12F
100
AcDbEntity
  8
LAY-2
  6
DASHED2
 62
     3
100
AcDbLine
 10
64.692834
 20
202.112553
 30
0.0
 11
69.368404
 21
194.014243
 31
0.0
  0
LINE
  5
130
100
AcDbEntity
  8
LAY-2
  6
CONTINUOUS
 62
     3
100
AcDbLine
 10
126.403412
 20
244.56133
 30
0.0
 11
82.403404
 21
244.561361
 31
0.0
  0
ARC
  5
131
100
AcDbEntity
  8
LAY-2
  6
CONTINUOUS
 62
     3
100
AcDbCircle
 10
82.403404
 20
241.561361
 30
0.0
 40
3.0
100
AcDbArc
 50
90.00002
 51
180.0
  0
ARC
  5
132
100
AcDbEntity
  8
LAY-2
  6
CONTINUOUS
 62
     3
100
AcDbCircle
 10
126.403412
 20
241.56133
 30
0.0
 40
3.0
100
AcDbArc
 50
359.999981
 51
90.00002
  0
LINE
  5
133
100
AcDbEntity
  8
LAY-2
  6
CONTINUOUS
 62
     3
100
AcDbLine
 10
79.403404
 20
208.061361
 30
0.0
 11
79.403404
 21
241.561361
 31
0.0
  0
LINE
  5
134
100
AcDbEntity
  8
LAY-2
  6
DASHED2
 62
     3
100
AcDbLine
 10
129.403427
 20
211.56133
 30
0.0
 11
79.403412
 21
211.56133
 31
0.0
  0
CIRCLE
  5
135
100
AcDbEntity
  8
LAY-2
  6
CONTINUOUS
 62
     3
100
AcDbCircle
 10
89.403412
 20
221.561361
 30
0.0
 40
6.0
  0
CIRCLE
  5
136
100
AcDbEntity
  8
LAY-2
  6
CONTINUOUS
 62
     3
100
AcDbCircle
 10
89.403412
 20
221.561361
 30
0.0
 40
3.25
  0
CIRCLE
  5
137
100
AcDbEntity
  8
LAY-2
  6
CONTINUOUS
 62
     3
100
AcDbCircle
 10
89.403412
 20
237.561361
 30
0.0
 40
6.0
  0
CIRCLE
  5
138
100
AcDbEntity
  8
LAY-2
  6
CONTINUOUS
 62
     3
100
AcDbCircle
 10
89.403412
 20
237.561361
 30
0.0
 40
3.25
  0
CIRCLE
  5
139
100
AcDbEntity
  8
LAY-2
  6
CONTINUOUS
 62
     3
100
AcDbCircle
 10
119.403412
 20
221.561361
 30
0.0
 40
6.0
  0
CIRCLE
  5
13A
100
AcDbEntity
  8
LAY-2
  6
CONTINUOUS
 62
     3
100
AcDbCircle
 10
119.403412
 20
221.561361
 30
0.0
 40
3.25
  0
CIRCLE
  5
13B
100
AcDbEntity
  8
LAY-2
  6
CONTINUOUS
 62
     3
100
AcDbCircle
 10
119.403412
 20
237.561361
 30
0.0
 40
6.0
  0
CIRCLE
  5
13C
100
AcDbEntity
  8
LAY-2
  6
CONTINUOUS
 62
     3
100
AcDbCircle
 10
119.403412
 20
237.561361
 30
0.0
 40
3.25
  0
LINE
  5
13D
100
AcDbEntity
  8
LAY-2
  6
CONTINUOUS
 62
     3
100
AcDbLine
 10
129.4034
 20
211.56133
 30
0.0
 11
129.403412
 21
241.56133
 31
0.0
  0
CIRCLE
  5
13E
100
AcDbEntity
  8
LAY-2
  6
CONTINUOUS
 62
     3
100
AcDbCircle
 10
75.4034
 20
189.56133
 30
0.0
 40
6.25
  0
CIRCLE
  5
13F
100
AcDbEntity
  8
LAY-2
  6
CONTINUOUS
 62
     3
100
AcDbCircle
 10
75.4034
 20
189.56133
 30
0.0
 40
7.5
  0
ARC
  5
140
100
AcDbEntity
  8
LAY-2
  6
CONTINUOUS
 62
     3
100
AcDbCircle
 10
131.403427
 20
203.417714
 30
0.0
 40
2.0
100
AcDbArc
 50
300.000013
 51
359.999981
  0
LINE
  5
141
100
AcDbEntity
  8
LAY-2
  6
CONTINUOUS
 62
     3
100
AcDbLine
 10
133.403427
 20
203.417714
 30
0.0
 11
133.403427
 21
211.56133
 31
0.0
  0
LINE
  5
142
100
AcDbEntity
  8
LAY-2
  6
CONTINUOUS
 62
     3
100
AcDbLine
 10
129.403381
 20
211.56133
 30
0.0
 11
133.403397
 21
211.56133
 31
0.0
  0
ARC
  5
143
100
AcDbEntity
  8
LAY-2
  6
CONTINUOUS
 62
     3
100
AcDbCircle
 10
131.403427
 20
203.417714
 30
0.0
 40
1.4
100
AcDbArc
 50
300.000013
 51
359.999981
  0
LINE
  5
144
100
AcDbEntity
  8
LAY-2
  6
CONTINUOUS
 62
     3
100
AcDbLine
 10
132.803406
 20
211.56133
 30
0.0
 11
132.803421
 21
203.417714
 31
0.0
  0
ARC
  5
145
100
AcDbEntity
  8
LAY-2
  6
CONTINUOUS
 62
     3
100
AcDbCircle
 10
126.403397
 20
203.417745
 30
0.0
 40
3.0
100
AcDbArc
 50
300.000013
 51
359.999981
  0
LINE
  5
146
100
AcDbEntity
  8
LAY-2
  6
CONTINUOUS
 62
     3
100
AcDbLine
 10
129.403397
 20
203.417745
 30
0.0
 11
129.4034
 21
211.56133
 31
0.0
  0
LINE
  5
147
100
AcDbEntity
  8
LAY-2
  6
CONTINUOUS
 62
     3
100
AcDbLine
 10
83.280289
 20
173.324453
 30
0.0
 11
132.403427
 21
201.685689
 31
0.0
  0
LINE
  5
148
100
AcDbEntity
  8
LAY-2
  6
CONTINUOUS
 62
     3
100
AcDbLine
 10
84.103386
 20
174.492482
 30
0.0
 11
132.103409
 21
202.205312
 31
0.0
  0
LINE
  5
149
100
AcDbEntity
  8
LAY-2
  6
CONTINUOUS
 62
     3
100
AcDbLine
 10
82.495674
 20
174.603505
 30
0.0
 11
127.903397
 21
200.819661
 31
0.0
  0
ARC
  5
14A
100
AcDbEntity
  8
LAY-2
  6
CONTINUOUS
 62
     3
100
AcDbCircle
 10
75.403397
 20
189.56133
 30
0.0
 40
18.0
100
AcDbArc
 50
90.00002
 51
295.868397
  0
ARC
  5
14B
100
AcDbEntity
  8
LAY-2
  6
CONTINUOUS
 62
     3
100
AcDbCircle
 10
75.403397
 20
189.56133
 30
0.0
 40
17.4
100
AcDbArc
 50
90.00002
 51
299.999995
  0
ARC
  5
14C
100
AcDbEntity
  8
LAY-2
  6
CONTINUOUS
 62
     3
100
AcDbCircle
 10
75.403404
 20
189.561361
 30
0.0
 40
16.5
100
AcDbArc
 50
90.00002
 51
295.352792
  0
LINE
  5
14D
100
AcDbEntity
  8
LAY-2
  6
CONTINUOUS
 62
     3
100
AcDbLine
 10
79.403404
 20
207.56133
 30
0.0
 11
75.403397
 21
207.56133
 31
0.0
  0
LINE
  5
14E
100
AcDbEntity
  8
LAY-2
  6
CONTINUOUS
 62
     3
100
AcDbLine
 10
75.403404
 20
206.061361
 30
0.0
 11
77.403412
 21
206.061361
 31
0.0
  0
ARC
  5
14F
100
AcDbEntity
  8
LAY-2
  6
CONTINUOUS
 62
     3
100
AcDbCircle
 10
77.403412
 20
208.061361
 30
0.0
 40
2.0
100
AcDbArc
 50
269.999982
 51
0.000021
  0
LINE
  5
150
100
AcDbEntity
  8
LAY-3
  6
CONTINUOUS
 62
     3
100
AcDbLine
 10
679.977325
 20
217.965485
 30
0.0
 11
679.977325
 21
204.965485
 31
0.0
  0
ARC
  5
151
100
AcDbEntity
  8
LAY-3
  6
CONTINUOUS
 62
     3
100
AcDbCircle
 10
680.977325
 20
217.965485
 30
0.0
 40
1.0
100
AcDbArc
 50
90.00002
 51
180.0
  0
ARC
  5
152
100
AcDbEntity
  8
LAY-3
  6
DASHED2
 62
     3
100
AcDbCircle
 10
680.977325
 20
217.965485
 30
0.0
 40
0.4
100
AcDbArc
 50
90.00002
 51
180.0
  0
LINE
  5
153
100
AcDbEntity
  8
LAY-3
  6
DASHED2
 62
     3
100
AcDbLine
 10
680.577332
 20
217.965485
 30
0.0
 11
680.577332
 21
204.965485
 31
0.0
  0
LINE
  5
154
100
AcDbEntity
  8
LAY-3
  6
CONTINUOUS
 62
     3
100
AcDbLine
 10
679.977325
 20
204.965485
 30
0.0
 11
719.977325
 21
204.965485
 31
0.0
  0
LINE
  5
155
100
AcDbEntity
  8
LAY-3
  6
CONTINUOUS
 62
     3
100
AcDbLine
 10
719.977325
 20
218.965485
 30
0.0
 11
680.977325
 21
218.965485
 31
0.0
  0
LINE
  5
156
100
AcDbEntity
  8
LAY-3
  6
DASHED2
 62
     3
100
AcDbLine
 10
719.977325
 20
218.365479
 30
0.0
 11
680.977325
 21
218.365479
 31
0.0
  0
LINE
  5
157
100
AcDbEntity
  8
LAY-3
  6
CONTINUOUS
 62
     3
100
AcDbLine
 10
719.977325
 20
218.965485
 30
0.0
 11
719.977325
 21
204.965485
 31
0.0
  0
LINE
  5
158
100
AcDbEntity
  8
LAY-3
  6
CONTINUOUS
 62
     3
100
AcDbLine
 10
753.977356
 20
212.465485
 30
0.0
 11
753.977356
 21
206.465485
 31
0.0
  0
ARC
  5
159
100
AcDbEntity
  8
LAY-3
  6
CONTINUOUS
 62
     3
100
AcDbCircle
 10
752.477356
 20
206.465485
 30
0.0
 40
1.5
100
AcDbArc
 50
269.999982
 51
0.000021
  0
ARC
  5
15A
100
AcDbEntity
  8
LAY-3
  6
CONTINUOUS
 62
     3
100
AcDbCircle
 10
752.477356
 20
212.465485
 30
0.0
 40
1.5
100
AcDbArc
 50
359.999981
 51
90.00002
  0
LINE
  5
15B
100
AcDbEntity
  8
LAY-3
  6
CONTINUOUS
 62
     3
100
AcDbLine
 10
719.977325
 20
213.965485
 30
0.0
 11
752.477356
 21
213.965485
 31
0.0
  0
LINE
  5
15C
100
AcDbEntity
  8
LAY-3
  6
CONTINUOUS
 62
     3
100
AcDbLine
 10
719.977325
 20
204.965485
 30
0.0
 11
752.477356
 21
204.965485
 31
0.0
  0
LINE
  5
15D
100
AcDbEntity
  8
LAY-3
  6
CONTINUOUS
 62
     3
100
AcDbLine
 10
725.977325
 20
212.465485
 30
0.0
 11
725.977325
 21
206.465485
 31
0.0
  0
ARC
  5
15E
100
AcDbEntity
  8
LAY-3
  6
CONTINUOUS
 62
     3
100
AcDbCircle
 10
727.477325
 20
212.465485
 30
0.0
 40
1.5
100
AcDbArc
 50
90.00002
 51
180.0
  0
ARC
  5
15F
100
AcDbEntity
  8
LAY-3
  6
CONTINUOUS
 62
     3
100
AcDbCircle
 10
727.477325
 20
206.465485
 30
0.0
 40
1.5
100
AcDbArc
 50
180.0
 51
269.999982
  0
LINE
  5
160
100
AcDbEntity
  8
LAY-3
  6
CONTINUOUS
 62
     3
100
AcDbLine
 10
685.477356
 20
204.965485
 30
0.0
 11
710.477356
 21
204.965485
 31
0.0
  0
LINE
  5
161
100
AcDbEntity
  8
LAY-3
  6
DASHED2
 62
     3
100
AcDbLine
 10
738.977356
 20
204.965485
 30
0.0
 11
738.977356
 21
205.465479
 31
0.0
  0
LINE
  5
162
100
AcDbEntity
  8
LAY-3
  6
DASHED2
 62
     3
100
AcDbLine
 10
726.977356
 20
204.965485
 30
0.0
 11
726.977356
 21
205.465479
 31
0.0
  0
LINE
  5
163
100
AcDbEntity
  8
LAY-3
  6
DASHED2
 62
     3
100
AcDbLine
 10
738.977356
 20
205.465479
 30
0.0
 11
726.977356
 21
205.465479
 31
0.0
  0
LINE
  5
164
100
AcDbEntity
  8
LAY-3
  6
CONTINUOUS
 62
     3
100
AcDbLine
 10
736.227356
 20
225.465485
 30
0.0
 11
729.727356
 21
225.465454
 31
0.0
  0
LINE
  5
165
100
AcDbEntity
  8
LAY-3
  6
DASHED2
 62
     3
100
AcDbLine
 10
729.727356
 20
208.215448
 30
0.0
 11
726.977356
 21
205.465417
 31
0.0
  0
LINE
  5
166
100
AcDbEntity
  8
LAY-3
  6
DASHED2
 62
     3
100
AcDbLine
 10
736.227325
 20
208.215509
 30
0.0
 11
738.977356
 21
205.465479
 31
0.0
  0
LINE
  5
167
100
AcDbEntity
  8
LAY-3
  6
DASHED2
 62
     3
100
AcDbLine
 10
736.227356
 20
208.215509
 30
0.0
 11
729.727356
 21
208.215479
 31
0.0
  0
LINE
  5
168
100
AcDbEntity
  8
LAY-3
  6
DASHED2
 62
     3
100
AcDbLine
 10
738.977356
 20
204.965485
 30
0.0
 11
738.977356
 21
205.365479
 31
0.0
  0
LINE
  5
169
100
AcDbEntity
  8
LAY-3
  6
DASHED2
 62
     3
100
AcDbLine
 10
729.727356
 20
208.215448
 30
0.0
 11
729.727356
 21
220.765485
 31
0.0
  0
LINE
  5
16A
100
AcDbEntity
  8
LAY-3
  6
DASHED2
 62
     3
100
AcDbLine
 10
736.227325
 20
208.215509
 30
0.0
 11
736.227325
 21
220.765485
 31
0.0
  0
LINE
  5
16B
100
AcDbEntity
  8
LAY-3
  6
DASHED2
 62
     1
100
AcDbLine
 10
735.727356
 20
208.215509
 30
0.0
 11
735.727356
 21
220.765485
 31
0.0
  0
LINE
  5
16C
100
AcDbEntity
  8
LAY-3
  6
DASHED2
 62
     1
100
AcDbLine
 10
730.227386
 20
208.215479
 30
0.0
 11
730.227386
 21
220.765485
 31
0.0
  0
LINE
  5
16D
100
AcDbEntity
  8
LAY-3
  6
CONTINUOUS
 62
     3
100
AcDbLine
 10
729.727356
 20
220.765485
 30
0.0
 11
729.727356
 21
225.465454
 31
0.0
  0
LINE
  5
16E
100
AcDbEntity
  8
LAY-3
  6
CONTINUOUS
 62
     3
100
AcDbLine
 10
736.227347
 20
220.76545
 30
0.0
 11
736.227356
 21
225.465485
 31
0.0
  0
LINE
  5
16F
100
AcDbEntity
  8
LAY-3
  6
CONTINUOUS
 62
     1
100
AcDbLine
 10
735.727356
 20
220.765485
 30
0.0
 11
735.727356
 21
225.465485
 31
0.0
  0
LINE
  5
170
100
AcDbEntity
  8
LAY-3
  6
CONTINUOUS
 62
     1
100
AcDbLine
 10
730.227365
 20
220.765502
 30
0.0
 11
730.227356
 21
225.465454
 31
0.0
  0
LINE
  5
171
100
AcDbEntity
  8
LAY-3
  6
DASHED2
 62
     3
100
AcDbLine
 10
738.977356
 20
204.965485
 30
0.0
 11
738.977356
 21
205.465479
 31
0.0
  0
LINE
  5
172
100
AcDbEntity
  8
LAY-3
  6
DASHED2
 62
     3
100
AcDbLine
 10
750.977356
 20
204.965485
 30
0.0
 11
750.977356
 21
205.465479
 31
0.0
  0
LINE
  5
173
100
AcDbEntity
  8
LAY-3
  6
DASHED2
 62
     3
100
AcDbLine
 10
738.977356
 20
204.965485
 30
0.0
 11
738.977356
 21
205.465479
 31
0.0
  0
LINE
  5
174
100
AcDbEntity
  8
LAY-3
  6
DASHED2
 62
     3
100
AcDbLine
 10
750.977356
 20
205.465479
 30
0.0
 11
738.977356
 21
205.465479
 31
0.0
  0
LINE
  5
175
100
AcDbEntity
  8
LAY-3
  6
CONTINUOUS
 62
     3
100
AcDbLine
 10
748.227356
 20
225.465485
 30
0.0
 11
741.727356
 21
225.465454
 31
0.0
  0
LINE
  5
176
100
AcDbEntity
  8
LAY-3
  6
DASHED2
 62
     3
100
AcDbLine
 10
741.727356
 20
208.215448
 30
0.0
 11
738.977356
 21
205.465417
 31
0.0
  0
LINE
  5
177
100
AcDbEntity
  8
LAY-3
  6
DASHED2
 62
     3
100
AcDbLine
 10
748.227325
 20
208.215509
 30
0.0
 11
750.977356
 21
205.465479
 31
0.0
  0
LINE
  5
178
100
AcDbEntity
  8
LAY-3
  6
DASHED2
 62
     3
100
AcDbLine
 10
748.227356
 20
208.215509
 30
0.0
 11
741.727356
 21
208.215479
 31
0.0
  0
LINE
  5
179
100
AcDbEntity
  8
LAY-3
  6
DASHED2
 62
     3
100
AcDbLine
 10
750.977356
 20
204.965485
 30
0.0
 11
750.977356
 21
205.365479
 31
0.0
  0
LINE
  5
17A
100
AcDbEntity
  8
LAY-3
  6
DASHED2
 62
     3
100
AcDbLine
 10
741.727356
 20
208.215448
 30
0.0
 11
741.727356
 21
220.765485
 31
0.0
  0
LINE
  5
17B
100
AcDbEntity
  8
LAY-3
  6
DASHED2
 62
     3
100
AcDbLine
 10
748.227325
 20
208.215509
 30
0.0
 11
748.227325
 21
220.765485
 31
0.0
  0
LINE
  5
17C
100
AcDbEntity
  8
LAY-3
  6
DASHED2
 62
     1
100
AcDbLine
 10
747.727356
 20
208.215509
 30
0.0
 11
747.727356
 21
220.765485
 31
0.0
  0
LINE
  5
17D
100
AcDbEntity
  8
LAY-3
  6
DASHED2
 62
     1
100
AcDbLine
 10
742.227386
 20
208.215479
 30
0.0
 11
742.227386
 21
220.765485
 31
0.0
  0
LINE
  5
17E
100
AcDbEntity
  8
LAY-3
  6
CONTINUOUS
 62
     3
100
AcDbLine
 10
741.727356
 20
220.765485
 30
0.0
 11
741.727356
 21
225.465454
 31
0.0
  0
LINE
  5
17F
100
AcDbEntity
  8
LAY-3
  6
CONTINUOUS
 62
     3
100
AcDbLine
 10
748.227347
 20
220.76545
 30
0.0
 11
748.227356
 21
225.465485
 31
0.0
  0
LINE
  5
180
100
AcDbEntity
  8
LAY-3
  6
CONTINUOUS
 62
     1
100
AcDbLine
 10
747.727356
 20
220.765485
 30
0.0
 11
747.727356
 21
225.465485
 31
0.0
  0
LINE
  5
181
100
AcDbEntity
  8
LAY-3
  6
CONTINUOUS
 62
     1
100
AcDbLine
 10
742.227365
 20
220.765502
 30
0.0
 11
742.227356
 21
225.465454
 31
0.0
  0
LINE
  5
182
100
AcDbEntity
  8
LAY-3
  6
DASHED2
 62
     3
100
AcDbLine
 10
750.977356
 20
204.965485
 30
0.0
 11
750.977356
 21
205.465479
 31
0.0
  0
LINE
  5
183
100
AcDbEntity
  8
LAY-3
  6
CONTINUOUS
 62
     3
100
AcDbLine
 10
289.403397
 20
379.985798
 30
0.0
 11
289.403397
 21
407.491089
 31
0.0
  0
LINE
  5
184
100
AcDbEntity
  8
LAY-3
  6
CONTINUOUS
 62
     3
100
AcDbLine
 10
339.403381
 20
383.491089
 30
0.0
 11
339.403397
 21
387.491089
 31
0.0
  0
CIRCLE
  5
185
100
AcDbEntity
  8
LAY-3
  6
DASHED2
 62
     3
100
AcDbCircle
 10
285.403397
 20
361.491089
 30
0.0
 40
14.0
  0
LINE
  5
186
100
AcDbEntity
  8
LAY-3
  6
CONTINUOUS
 62
     3
100
AcDbLine
 10
299.403397
 20
417.491089
 30
0.0
 11
376.403397
 21
417.491089
 31
0.0
  0
LINE
  5
187
100
AcDbEntity
  8
LAY-3
  6
CONTINUOUS
 62
     3
100
AcDbLine
 10
379.403397
 20
414.491089
 30
0.0
 11
379.403397
 21
392.491089
 31
0.0
  0
LINE
  5
188
100
AcDbEntity
  8
LAY-3
  6
CONTINUOUS
 62
     3
100
AcDbLine
 10
376.403397
 20
389.491089
 30
0.0
 11
341.403397
 21
389.491089
 31
0.0
  0
ARC
  5
189
100
AcDbEntity
  8
LAY-3
  6
CONTINUOUS
 62
     3
100
AcDbCircle
 10
341.403397
 20
387.491089
 30
0.0
 40
2.0
100
AcDbArc
 50
90.00002
 51
179.999944
  0
ARC
  5
18A
100
AcDbEntity
  8
LAY-3
  6
CONTINUOUS
 62
     3
100
AcDbCircle
 10
376.403397
 20
392.491089
 30
0.0
 40
3.0
100
AcDbArc
 50
269.999982
 51
0.000021
  0
ARC
  5
18B
100
AcDbEntity
  8
LAY-3
  6
CONTINUOUS
 62
     3
100
AcDbCircle
 10
376.403397
 20
414.491089
 30
0.0
 40
3.0
100
AcDbArc
 50
359.999981
 51
90.00002
  0
ARC
  5
18C
100
AcDbEntity
  8
LAY-3
  6
CONTINUOUS
 62
     3
100
AcDbCircle
 10
299.403397
 20
407.491089
 30
0.0
 40
10.0
100
AcDbArc
 50
90.00002
 51
180.000001
  0
CIRCLE
  5
18D
100
AcDbEntity
  8
LAY-3
  6
DASHED2
 62
     3
100
AcDbCircle
 10
299.403397
 20
396.491089
 30
0.0
 40
6.0
  0
CIRCLE
  5
18E
100
AcDbEntity
  8
LAY-3
  6
CONTINUOUS
 62
     3
100
AcDbCircle
 10
299.403397
 20
396.491089
 30
0.0
 40
3.25
  0
CIRCLE
  5
18F
100
AcDbEntity
  8
LAY-3
  6
DASHED2
 62
     3
100
AcDbCircle
 10
346.403381
 20
396.491089
 30
0.0
 40
6.0
  0
CIRCLE
  5
190
100
AcDbEntity
  8
LAY-3
  6
CONTINUOUS
 62
     3
100
AcDbCircle
 10
346.403381
 20
396.491089
 30
0.0
 40
3.25
  0
CIRCLE
  5
191
100
AcDbEntity
  8
LAY-3
  6
DASHED2
 62
     3
100
AcDbCircle
 10
322.403397
 20
408.491089
 30
0.0
 40
6.0
  0
CIRCLE
  5
192
100
AcDbEntity
  8
LAY-3
  6
CONTINUOUS
 62
     3
100
AcDbCircle
 10
322.403397
 20
408.491089
 30
0.0
 40
3.25
  0
CIRCLE
  5
193
100
AcDbEntity
  8
LAY-3
  6
DASHED2
 62
     3
100
AcDbCircle
 10
369.403381
 20
408.491089
 30
0.0
 40
6.0
  0
CIRCLE
  5
194
100
AcDbEntity
  8
LAY-3
  6
CONTINUOUS
 62
     3
100
AcDbCircle
 10
369.403381
 20
408.491089
 30
0.0
 40
3.25
  0
LINE
  5
195
100
AcDbEntity
  8
LAY-3
  6
CONTINUOUS
 62
     3
100
AcDbLine
 10
289.403397
 20
383.491089
 30
0.0
 11
343.403397
 21
383.491089
 31
0.0
  0
CIRCLE
  5
196
100
AcDbEntity
  8
LAY-3
  6
DASHED2
 62
     3
100
AcDbCircle
 10
285.403377
 20
361.491089
 30
0.0
 40
6.25
  0
ARC
  5
197
100
AcDbEntity
  8
LAY-3
  6
DASHED2
 62
     3
100
AcDbCircle
 10
336.403381
 20
375.347473
 30
0.0
 40
3.0
100
AcDbArc
 50
300.000013
 51
359.999981
  0
ARC
  5
198
100
AcDbEntity
  8
LAY-3
  6
CONTINUOUS
 62
     3
100
AcDbCircle
 10
341.403427
 20
375.347504
 30
0.0
 40
2.0
100
AcDbArc
 50
300.000013
 51
359.999981
  0
LINE
  5
199
100
AcDbEntity
  8
LAY-3
  6
CONTINUOUS
 62
     3
100
AcDbLine
 10
343.403427
 20
375.347504
 30
0.0
 11
343.403427
 21
383.491089
 31
0.0
  0
ARC
  5
19A
100
AcDbEntity
  8
LAY-3
  6
DASHED2
 62
     3
100
AcDbCircle
 10
341.403427
 20
375.347504
 30
0.0
 40
1.4
100
AcDbArc
 50
300.000242
 51
359.999981
  0
LINE
  5
19B
100
AcDbEntity
  8
LAY-3
  6
DASHED2
 62
     3
100
AcDbLine
 10
342.803421
 20
383.491089
 30
0.0
 11
342.803421
 21
375.347504
 31
0.0
  0
LINE
  5
19C
100
AcDbEntity
  8
LAY-3
  6
DASHED2
 62
     3
100
AcDbLine
 10
339.403381
 20
383.491089
 30
0.0
 11
339.403381
 21
375.347473
 31
0.0
  0
LINE
  5
19D
100
AcDbEntity
  8
LAY-3
  6
CONTINUOUS
 62
     3
100
AcDbLine
 10
293.280289
 20
345.254211
 30
0.0
 11
342.403427
 21
373.615448
 31
0.0
  0
LINE
  5
19E
100
AcDbEntity
  8
LAY-3
  6
DASHED2
 62
     3
100
AcDbLine
 10
294.103378
 20
346.422272
 30
0.0
 11
342.103424
 21
374.135071
 31
0.0
  0
LINE
  5
19F
100
AcDbEntity
  8
LAY-3
  6
DASHED2
 62
     3
100
AcDbLine
 10
292.495667
 20
346.533234
 30
0.0
 11
337.903381
 21
372.74939
 31
0.0
  0
ARC
  5
1A0
100
AcDbEntity
  8
LAY-3
  6
CONTINUOUS
 62
     3
100
AcDbCircle
 10
285.403397
 20
361.491089
 30
0.0
 40
18.0
100
AcDbArc
 50
90.00002
 51
295.868397
  0
ARC
  5
1A1
100
AcDbEntity
  8
LAY-3
  6
DASHED2
 62
     3
100
AcDbCircle
 10
285.403397
 20
361.491089
 30
0.0
 40
17.4
100
AcDbArc
 50
90.00002
 51
299.999995
  0
ARC
  5
1A2
100
AcDbEntity
  8
LAY-3
  6
DASHED2
 62
     3
100
AcDbCircle
 10
285.403397
 20
361.491089
 30
0.0
 40
16.5
100
AcDbArc
 50
90.00002
 51
295.352792
  0
LINE
  5
1A3
100
AcDbEntity
  8
LAY-3
  6
DASHED2
 62
     3
100
AcDbLine
 10
285.403397
 20
377.991089
 30
0.0
 11
287.403404
 21
377.991089
 31
0.0
  0
ARC
  5
1A4
100
AcDbEntity
  8
LAY-3
  6
DASHED2
 62
     3
100
AcDbCircle
 10
287.403404
 20
379.991089
 30
0.0
 40
2.0
100
AcDbArc
 50
269.999982
 51
0.000021
  0
LINE
  5
1A5
100
AcDbEntity
  8
LAY-3
  6
CONTINUOUS
 62
     3
100
AcDbLine
 10
289.339888
 20
379.491058
 30
0.0
 11
285.403397
 21
379.491089
 31
0.0
  0
LINE
  5
1A6
100
AcDbEntity
  8
LAY-3
  6
DASHED2
 62
     3
100
AcDbLine
 10
289.403397
 20
379.491058
 30
0.0
 11
289.403397
 21
379.99109
 31
0.0
  0
LINE
  5
1A7
100
AcDbEntity
  8
LAY-4
  6
DASHED2
 62
     3
100
AcDbLine
 10
279.703397
 20
240.06131
 30
0.0
 11
279.703397
 21
235.06131
 31
0.0
  0
LINE
  5
1A8
100
AcDbEntity
  8
LAY-4
  6
DASHED2
 62
     3
100
AcDbLine
 10
279.703397
 20
235.06131
 30
0.0
 11
281.853397
 21
232.91131
 31
0.0
  0
LINE
  5
1A9
100
AcDbEntity
  8
LAY-4
  6
DASHED2
 62
     3
100
AcDbLine
 10
279.703397
 20
240.06131
 30
0.0
 11
281.853397
 21
242.21131
 31
0.0
  0
LINE
  5
1AA
100
AcDbEntity
  8
LAY-4
  6
DASHED2
 62
     3
100
AcDbLine
 10
281.853397
 20
232.91131
 30
0.0
 11
281.853397
 21
242.21131
 31
0.0
  0
LINE
  5
1AB
100
AcDbEntity
  8
LAY-4
  6
DASHED2
 62
     3
100
AcDbLine
 10
281.853397
 20
232.91131
 30
0.0
 11
282.403397
 21
232.91131
 31
0.0
  0
LINE
  5
1AC
100
AcDbEntity
  8
LAY-4
  6
DASHED2
 62
     3
100
AcDbLine
 10
281.853397
 20
242.21131
 30
0.0
 11
282.403397
 21
242.21131
 31
0.0
  0
LINE
  5
1AD
100
AcDbEntity
  8
LAY-4
  6
CONTINUOUS
 62
     3
100
AcDbLine
 10
261.853397
 20
240.06131
 30
0.0
 11
261.853397
 21
235.06131
 31
0.0
  0
LINE
  5
1AE
100
AcDbEntity
  8
LAY-4
  6
DASHED2
 62
     3
100
AcDbLine
 10
270.403397
 20
235.06131
 30
0.0
 11
279.703397
 21
235.06131
 31
0.0
  0
LINE
  5
1AF
100
AcDbEntity
  8
LAY-4
  6
DASHED2
 62
     1
100
AcDbLine
 10
270.403397
 20
235.56131
 30
0.0
 11
279.703397
 21
235.56131
 31
0.0
  0
LINE
  5
1B0
100
AcDbEntity
  8
LAY-4
  6
DASHED2
 62
     1
100
AcDbLine
 10
270.403397
 20
239.56131
 30
0.0
 11
279.703397
 21
239.56131
 31
0.0
  0
LINE
  5
1B1
100
AcDbEntity
  8
LAY-4
  6
DASHED2
 62
     3
100
AcDbLine
 10
270.403397
 20
240.06131
 30
0.0
 11
279.703397
 21
240.06131
 31
0.0
  0
LINE
  5
1B2
100
AcDbEntity
  8
LAY-4
  6
CONTINUOUS
 62
     3
100
AcDbLine
 10
261.853397
 20
235.06131
 30
0.0
 11
270.403397
 21
235.06131
 31
0.0
  0
LINE
  5
1B3
100
AcDbEntity
  8
LAY-4
  6
CONTINUOUS
 62
     1
100
AcDbLine
 10
261.853397
 20
235.56131
 30
0.0
 11
270.403397
 21
235.56131
 31
0.0
  0
LINE
  5
1B4
100
AcDbEntity
  8
LAY-4
  6
CONTINUOUS
 62
     1
100
AcDbLine
 10
261.853397
 20
239.56131
 30
0.0
 11
270.403397
 21
239.56131
 31
0.0
  0
LINE
  5
1B5
100
AcDbEntity
  8
LAY-4
  6
CONTINUOUS
 62
     3
100
AcDbLine
 10
261.853397
 20
240.06131
 30
0.0
 11
270.403397
 21
240.06131
 31
0.0
  0
LINE
  5
1B6
100
AcDbEntity
  8
LAY-4
  6
DASHED2
 62
     3
100
AcDbLine
 10
279.703397
 20
226.06131
 30
0.0
 11
279.703397
 21
221.06131
 31
0.0
  0
LINE
  5
1B7
100
AcDbEntity
  8
LAY-4
  6
DASHED2
 62
     3
100
AcDbLine
 10
279.703397
 20
221.06131
 30
0.0
 11
281.853397
 21
218.91131
 31
0.0
  0
LINE
  5
1B8
100
AcDbEntity
  8
LAY-4
  6
DASHED2
 62
     3
100
AcDbLine
 10
279.703397
 20
226.06131
 30
0.0
 11
281.853397
 21
228.21131
 31
0.0
  0
LINE
  5
1B9
100
AcDbEntity
  8
LAY-4
  6
DASHED2
 62
     3
100
AcDbLine
 10
281.853397
 20
218.91131
 30
0.0
 11
281.853397
 21
228.21131
 31
0.0
  0
LINE
  5
1BA
100
AcDbEntity
  8
LAY-4
  6
DASHED2
 62
     3
100
AcDbLine
 10
281.853397
 20
218.91131
 30
0.0
 11
282.403397
 21
218.91131
 31
0.0
  0
LINE
  5
1BB
100
AcDbEntity
  8
LAY-4
  6
DASHED2
 62
     3
100
AcDbLine
 10
281.853397
 20
228.21131
 30
0.0
 11
282.403397
 21
228.21131
 31
0.0
  0
LINE
  5
1BC
100
AcDbEntity
  8
LAY-4
  6
CONTINUOUS
 62
     3
100
AcDbLine
 10
261.853397
 20
226.06131
 30
0.0
 11
261.853397
 21
221.06131
 31
0.0
  0
LINE
  5
1BD
100
AcDbEntity
  8
LAY-4
  6
DASHED2
 62
     3
100
AcDbLine
 10
270.403397
 20
221.06131
 30
0.0
 11
279.703397
 21
221.06131
 31
0.0
  0
LINE
  5
1BE
100
AcDbEntity
  8
LAY-4
  6
DASHED2
 62
     1
100
AcDbLine
 10
270.403397
 20
221.56131
 30
0.0
 11
279.703397
 21
221.56131
 31
0.0
  0
LINE
  5
1BF
100
AcDbEntity
  8
LAY-4
  6
DASHED2
 62
     1
100
AcDbLine
 10
270.403397
 20
225.56131
 30
0.0
 11
279.703397
 21
225.56131
 31
0.0
  0
LINE
  5
1C0
100
AcDbEntity
  8
LAY-4
  6
DASHED2
 62
     3
100
AcDbLine
 10
270.403397
 20
226.06131
 30
0.0
 11
279.703397
 21
226.06131
 31
0.0
  0
LINE
  5
1C1
100
AcDbEntity
  8
LAY-4
  6
CONTINUOUS
 62
     3
100
AcDbLine
 10
261.853397
 20
221.06131
 30
0.0
 11
270.403397
 21
221.06131
 31
0.0
  0
LINE
  5
1C2
100
AcDbEntity
  8
LAY-4
  6
CONTINUOUS
 62
     1
100
AcDbLine
 10
261.853397
 20
221.56131
 30
0.0
 11
270.403397
 21
221.56131
 31
0.0
  0
LINE
  5
1C3
100
AcDbEntity
  8
LAY-4
  6
CONTINUOUS
 62
     1
100
AcDbLine
 10
261.853397
 20
225.56131
 30
0.0
 11
270.403397
 21
225.56131
 31
0.0
  0
LINE
  5
1C4
100
AcDbEntity
  8
LAY-4
  6
CONTINUOUS
 62
     3
100
AcDbLine
 10
261.853397
 20
226.06131
 30
0.0
 11
270.403397
 21
226.06131
 31
0.0
  0
LINE
  5
1C5
100
AcDbEntity
  8
LAY-4
  6
CONTINUOUS
 62
     3
100
AcDbLine
 10
685.477325
 20
197.965485
 30
0.0
 11
685.477325
 21
204.965515
 31
0.0
  0
LINE
  5
1C6
100
AcDbEntity
  8
LAY-4
  6
CONTINUOUS
 62
     3
100
AcDbLine
 10
710.477325
 20
197.965485
 30
0.0
 11
710.477325
 21
204.965515
 31
0.0
  0
LINE
  5
1C7
100
AcDbEntity
  8
LAY-4
  6
CONTINUOUS
 62
     3
100
AcDbLine
 10
689.091278
 20
188.358032
 30
0.0
 11
690.477356
 21
180.965485
 31
0.0
  0
LINE
  5
1C8
100
AcDbEntity
  8
LAY-4
  6
CONTINUOUS
 62
     3
100
AcDbLine
 10
688.383118
 20
189.135254
 30
0.0
 11
681.977356
 21
190.965485
 31
0.0
  0
ARC
  5
1C9
100
AcDbEntity
  8
LAY-4
  6
CONTINUOUS
 62
     3
100
AcDbCircle
 10
688.108398
 20
188.173737
 30
0.0
 40
1.0
100
AcDbArc
 50
10.619582
 51
74.054662
  0
LINE
  5
1CA
100
AcDbEntity
  8
LAY-4
  6
CONTINUOUS
 62
     3
100
AcDbLine
 10
707.571594
 20
189.135284
 30
0.0
 11
713.977356
 21
190.965485
 31
0.0
  0
LINE
  5
1CB
100
AcDbEntity
  8
LAY-4
  6
CONTINUOUS
 62
     3
100
AcDbLine
 10
706.863464
 20
188.358032
 30
0.0
 11
705.477356
 21
180.965485
 31
0.0
  0
ARC
  5
1CC
100
AcDbEntity
  8
LAY-4
  6
CONTINUOUS
 62
     3
100
AcDbCircle
 10
707.846313
 20
188.173737
 30
0.0
 40
1.0
100
AcDbArc
 50
105.945378
 51
169.380458
  0
LINE
  5
1CD
100
AcDbEntity
  8
LAY-4
  6
CONTINUOUS
 62
     3
100
AcDbLine
 10
688.83493
 20
188.86087
 30
0.0
 11
707.119782
 21
188.86087
 31
0.0
  0
ARC
  5
1CE
100
AcDbEntity
  8
LAY-4
  6
CONTINUOUS
 62
     3
100
AcDbCircle
 10
713.872406
 20
188.968231
 30
0.0
 40
2.0
100
AcDbArc
 50
5.079596
 51
86.992049
  0
ARC
  5
1CF
100
AcDbEntity
  8
LAY-4
  6
CONTINUOUS
 62
     3
100
AcDbCircle
 10
751.977356
 20
182.965485
 30
0.0
 40
2.0
100
AcDbArc
 50
269.999982
 51
0.000021
  0
LINE
  5
1D0
100
AcDbEntity
  8
LAY-4
  6
CONTINUOUS
 62
     3
100
AcDbLine
 10
723.977356
 20
204.965485
 30
0.0
 11
723.977356
 21
199.965485
 31
0.0
  0
LINE
  5
1D1
100
AcDbEntity
  8
LAY-4
  6
CONTINUOUS
 62
     3
100
AcDbLine
 10
719.977783
 20
190.965485
 30
0.0
 11
679.977325
 21
190.965485
 31
0.0
  0
LINE
  5
1D2
100
AcDbEntity
  8
LAY-4
  6
CONTINUOUS
 62
     3
100
AcDbLine
 10
679.977325
 20
190.965485
 30
0.0
 11
679.977325
 21
195.965485
 31
0.0
  0
LINE
  5
1D3
100
AcDbEntity
  8
LAY-4
  6
CONTINUOUS
 62
     3
100
AcDbLine
 10
719.977783
 20
190.965485
 30
0.0
 11
719.977783
 21
195.965485
 31
0.0
  0
LINE
  5
1D4
100
AcDbEntity
  8
LAY-4
  6
CONTINUOUS
 62
     3
100
AcDbLine
 10
681.977325
 20
197.965485
 30
0.0
 11
717.977783
 21
197.965485
 31
0.0
  0
ARC
  5
1D5
100
AcDbEntity
  8
LAY-4
  6
CONTINUOUS
 62
     3
100
AcDbCircle
 10
681.977325
 20
195.965485
 30
0.0
 40
2.0
100
AcDbArc
 50
90.00002
 51
180.0
  0
ARC
  5
1D6
100
AcDbEntity
  8
LAY-4
  6
CONTINUOUS
 62
     3
100
AcDbCircle
 10
717.977783
 20
195.965485
 30
0.0
 40
2.0
100
AcDbArc
 50
359.999981
 51
90.00002
  0
LINE
  5
1D7
100
AcDbEntity
  8
LAY-4
  6
DASHED2
 62
     3
100
AcDbLine
 10
720.977356
 20
196.965485
 30
0.0
 11
719.709839
 21
196.965485
 31
0.0
  0
LINE
  5
1D8
100
AcDbEntity
  8
LAY-4
  6
DASHED2
 62
     3
100
AcDbLine
 10
753.977356
 20
212.465485
 30
0.0
 11
753.977356
 21
267.965515
 31
0.0
  0
LINE
  5
1D9
100
AcDbEntity
  8
LAY-4
  6
DASHED2
 62
     3
100
AcDbLine
 10
750.977356
 20
270.965515
 30
0.0
 11
726.977356
 21
270.965515
 31
0.0
  0
ARC
  5
1DA
100
AcDbEntity
  8
LAY-4
  6
DASHED2
 62
     3
100
AcDbCircle
 10
726.977356
 20
267.965515
 30
0.0
 40
3.0
100
AcDbArc
 50
90.00002
 51
180.0
  0
ARC
  5
1DB
100
AcDbEntity
  8
LAY-4
  6
DASHED2
 62
     3
100
AcDbCircle
 10
750.977356
 20
267.965515
 30
0.0
 40
3.0
100
AcDbArc
 50
359.999981
 51
90.00002
  0
LINE
  5
1DC
100
AcDbEntity
  8
LAY-4
  6
DASHED2
 62
     3
100
AcDbLine
 10
723.977356
 20
204.965485
 30
0.0
 11
723.977356
 21
267.965515
 31
0.0
  0
LINE
  5
1DD
100
AcDbEntity
  8
LAY-4
  6
CONTINUOUS
 62
     3
100
AcDbLine
 10
751.977356
 20
180.965485
 30
0.0
 11
721.57893
 21
180.965485
 31
0.0
  0
LINE
  5
1DE
100
AcDbEntity
  8
LAY-4
  6
DASHED2
 62
     3
100
AcDbLine
 10
721.57893
 20
180.965485
 30
0.0
 11
719.977325
 21
180.965485
 31
0.0
  0
LINE
  5
1DF
100
AcDbEntity
  8
LAY-4
  6
CONTINUOUS
 62
     3
100
AcDbLine
 10
719.977325
 20
180.965485
 30
0.0
 11
690.477356
 21
180.965485
 31
0.0
  0
ARC
  5
1E0
100
AcDbEntity
  8
LAY-4
  6
DASHED2
 62
     3
100
AcDbCircle
 10
720.977356
 20
199.965485
 30
0.0
 40
3.0
100
AcDbArc
 50
269.999982
 51
340.528172
  0
ARC
  5
1E1
100
AcDbEntity
  8
LAY-4
  6
CONTINUOUS
 62
     3
100
AcDbCircle
 10
720.977356
 20
199.965485
 30
0.0
 40
3.0
100
AcDbArc
 50
340.528172
 51
0.000021
  0
LINE
  5
1E2
100
AcDbEntity
  8
LAY-4
  6
CONTINUOUS
 62
     3
100
AcDbLine
 10
753.977356
 20
212.465485
 30
0.0
 11
753.977356
 21
198.965455
 31
0.0
  0
LINE
  5
1E3
100
AcDbEntity
  8
LAY-4
  6
DASHED2
 62
     3
100
AcDbLine
 10
753.977356
 20
198.965455
 30
0.0
 11
753.977356
 21
197.365455
 31
0.0
  0
LINE
  5
1E4
100
AcDbEntity
  8
LAY-4
  6
CONTINUOUS
 62
     3
100
AcDbLine
 10
753.977356
 20
197.365455
 30
0.0
 11
753.977356
 21
182.965485
 31
0.0
  0
CIRCLE
  5
1E5
100
AcDbEntity
  8
LAY-4
  6
DASHED2
 62
     1
100
AcDbCircle
 10
745.977356
 20
220.965515
 30
0.0
 40
2.5
  0
CIRCLE
  5
1E6
100
AcDbEntity
  8
LAY-4
  6
DASHED2
 62
     3
100
AcDbCircle
 10
745.977356
 20
220.965515
 30
0.0
 40
2.0
  0
CIRCLE
  5
1E7
100
AcDbEntity
  8
LAY-4
  6
DASHED2
 62
     3
100
AcDbCircle
 10
731.977356
 20
220.965515
 30
0.0
 40
2.0
  0
CIRCLE
  5
1E8
100
AcDbEntity
  8
LAY-4
  6
DASHED2
 62
     1
100
AcDbCircle
 10
731.977356
 20
220.965515
 30
0.0
 40
2.5
  0
CIRCLE
  5
1E9
100
AcDbEntity
  8
LAY-4
  6
DASHED2
 62
     1
100
AcDbCircle
 10
745.977356
 20
260.965515
 30
0.0
 40
2.5
  0
CIRCLE
  5
1EA
100
AcDbEntity
  8
LAY-4
  6
DASHED2
 62
     3
100
AcDbCircle
 10
745.977356
 20
260.965515
 30
0.0
 40
2.0
  0
CIRCLE
  5
1EB
100
AcDbEntity
  8
LAY-4
  6
DASHED2
 62
     1
100
AcDbCircle
 10
731.977356
 20
260.965515
 30
0.0
 40
2.5
  0
CIRCLE
  5
1EC
100
AcDbEntity
  8
LAY-4
  6
DASHED2
 62
     3
100
AcDbCircle
 10
731.977356
 20
260.965515
 30
0.0
 40
2.0
  0
LINE
  5
1ED
100
AcDbEntity
  8
LAY-4
  6
CONTINUOUS
 62
     3
100
AcDbLine
 10
270.403381
 20
245.56131
 30
0.0
 11
277.403381
 21
245.56131
 31
0.0
  0
LINE
  5
1EE
100
AcDbEntity
  8
LAY-4
  6
CONTINUOUS
 62
     3
100
AcDbLine
 10
278.403381
 20
208.56131
 30
0.0
 11
278.403381
 21
244.56131
 31
0.0
  0
LINE
  5
1EF
100
AcDbEntity
  8
LAY-4
  6
CONTINUOUS
 62
     3
100
AcDbLine
 10
277.403381
 20
215.56131
 30
0.0
 11
270.403381
 21
215.56131
 31
0.0
  0
ARC
  5
1F0
100
AcDbEntity
  8
LAY-4
  6
CONTINUOUS
 62
     3
100
AcDbCircle
 10
270.403381
 20
216.56131
 30
0.0
 40
1.0
100
AcDbArc
 50
180.0
 51
269.999982
  0
ARC
  5
1F1
100
AcDbEntity
  8
LAY-4
  6
CONTINUOUS
 62
     3
100
AcDbCircle
 10
270.403381
 20
244.56131
 30
0.0
 40
1.0
100
AcDbArc
 50
90.00002
 51
180.0
  0
ARC
  5
1F2
100
AcDbEntity
  8
LAY-4
  6
CONTINUOUS
 62
     3
100
AcDbCircle
 10
277.403381
 20
216.56131
 30
0.0
 40
1.0
100
AcDbArc
 50
269.999982
 51
0.000021
  0
ARC
  5
1F3
100
AcDbEntity
  8
LAY-4
  6
CONTINUOUS
 62
     3
100
AcDbCircle
 10
277.403381
 20
244.56131
 30
0.0
 40
1.0
100
AcDbArc
 50
359.999981
 51
90.00002
  0
LINE
  5
1F4
100
AcDbEntity
  8
LAY-4
  6
CONTINUOUS
 62
     2
100
AcDbLine
 10
304.403381
 20
211.56131
 30
0.0
 11
304.403381
 21
211.561309
 31
0.0
  0
CIRCLE
  5
1F5
100
AcDbEntity
  8
LAY-4
  6
CONTINUOUS
 62
     3
100
AcDbCircle
 10
285.403397
 20
189.56131
 30
0.0
 40
5.0
  0
CIRCLE
  5
1F6
100
AcDbEntity
  8
LAY-4
  6
CONTINUOUS
 62
     3
100
AcDbCircle
 10
285.403397
 20
189.56131
 30
0.0
 40
12.5
  0
CIRCLE
  5
1F7
100
AcDbEntity
  8
LAY-4
  6
CONTINUOUS
 62
     3
100
AcDbCircle
 10
285.40339
 20
189.56131
 30
0.0
 40
6.0
  0
ARC
  5
1F8
100
AcDbEntity
  8
LAY-4
  6
DASHED2
 62
     3
100
AcDbCircle
 10
285.40339
 20
189.56131
 30
0.0
 40
9.0
100
AcDbArc
 50
152.288729
 51
95.865743
  0
LINE
  5
1F9
100
AcDbEntity
  8
LAY-4
  6
DASHED2
 62
     3
100
AcDbLine
 10
270.433683
 20
205.038241
 30
0.0
 11
277.378651
 21
194.771782
 31
0.0
  0
LINE
  5
1FA
100
AcDbEntity
  8
LAY-4
  6
DASHED2
 62
     3
100
AcDbLine
 10
278.575098
 20
206.307458
 30
0.0
 11
283.553129
 21
198.948641
 31
0.0
  0
ARC
  5
1FB
100
AcDbEntity
  8
LAY-4
  6
DASHED2
 62
     3
100
AcDbCircle
 10
284.381412
 20
199.508951
 30
0.0
 40
1.0
100
AcDbArc
 50
214.077236
 51
275.865743
  0
ARC
  5
1FC
100
AcDbEntity
  8
LAY-4
  6
DASHED2
 62
     3
100
AcDbCircle
 10
276.550368
 20
194.211472
 30
0.0
 40
1.0
100
AcDbArc
 50
332.288729
 51
34.077236
  0
LINE
  5
1FD
100
AcDbEntity
  8
LAY-4
  6
CONTINUOUS
 62
     3
100
AcDbLine
 10
269.403381
 20
208.56134
 30
0.0
 11
269.403381
 21
220.56131
 31
0.0
  0
LINE
  5
1FE
100
AcDbEntity
  8
LAY-4
  6
CONTINUOUS
 62
     3
100
AcDbLine
 10
269.403381
 20
240.56131
 30
0.0
 11
269.403381
 21
244.56131
 31
0.0
  0
ARC
  5
1FF
100
AcDbEntity
  8
LAY-4
  6
CONTINUOUS
 62
     3
100
AcDbCircle
 10
269.403397
 20
239.56131
 30
0.0
 40
1.0
100
AcDbArc
 50
0.0
 51
90.0
  0
ARC
  5
200
100
AcDbEntity
  8
LAY-4
  6
CONTINUOUS
 62
     3
100
AcDbCircle
 10
269.403397
 20
221.56131
 30
0.0
 40
1.0
100
AcDbArc
 50
270.0
 51
0.0
  0
LINE
  5
201
100
AcDbEntity
  8
LAY-4
  6
CONTINUOUS
 62
     3
100
AcDbLine
 10
270.403397
 20
221.56131
 30
0.0
 11
270.403397
 21
239.56131
 31
0.0
  0
LINE
  5
202
100
AcDbEntity
  8
LAY-4
  6
DASHED2
 62
     3
100
AcDbLine
 10
269.403381
 20
208.4001
 30
0.0
 11
269.403381
 21
189.56131
 31
0.0
  0
ARC
  5
203
100
AcDbEntity
  8
LAY-4
  6
DASHED2
 62
     3
100
AcDbCircle
 10
285.40339
 20
189.56131
 30
0.0
 40
16.0
100
AcDbArc
 50
180.0
 51
98.626952
  0
ARC
  5
204
100
AcDbEntity
  8
LAY-4
  6
CONTINUOUS
 62
     3
100
AcDbCircle
 10
285.40339
 20
189.56131
 30
0.0
 40
18.0
100
AcDbArc
 50
180.0
 51
0.0
  0
ARC
  5
205
100
AcDbEntity
  8
LAY-4
  6
DASHED2
 62
     3
100
AcDbCircle
 10
285.40339
 20
189.56131
 30
0.0
 40
17.2
100
AcDbArc
 50
180.0
 51
0.0
  0
LINE
  5
206
100
AcDbEntity
  8
LAY-4
  6
CONTINUOUS
 62
     3
100
AcDbLine
 10
303.40339
 20
189.56131
 30
0.0
 11
303.40339
 21
211.56131
 31
0.0
  0
LINE
  5
207
100
AcDbEntity
  8
LAY-4
  6
DASHED2
 62
     3
100
AcDbLine
 10
302.60339
 20
189.1
 30
0.0
 11
302.60339
 21
210.961304
 31
0.0
  0
LINE
  5
208
100
AcDbEntity
  8
LAY-4
  6
DASHED2
 62
     3
100
AcDbLine
 10
282.403404
 20
210.961273
 30
0.0
 11
302.60339
 21
210.961304
 31
0.0
  0
LINE
  5
209
100
AcDbEntity
  8
LAY-4
  6
CONTINUOUS
 62
     3
100
AcDbLine
 10
282.403397
 20
211.56134
 30
0.0
 11
304.403381
 21
211.561309
 31
0.0
  0
LINE
  5
20A
100
AcDbEntity
  8
LAY-4
  6
CONTINUOUS
 62
     3
100
AcDbLine
 10
282.403397
 20
208.56131
 30
0.0
 11
282.403397
 21
211.56131
 31
0.0
  0
LINE
  5
20B
100
AcDbEntity
  8
LAY-4
  6
DASHED2
 62
     3
100
AcDbLine
 10
278.403381
 20
206.867768
 30
0.0
 11
278.403381
 21
208.56131
 31
0.0
  0
LINE
  5
20C
100
AcDbEntity
  8
LAY-4
  6
DASHED2
 62
     3
100
AcDbLine
 10
269.403381
 20
208.56134
 30
0.0
 11
269.403381
 21
208.4001
 31
0.0
  0
ARC
  5
20D
100
AcDbEntity
  8
LAY-4
  6
DASHED2
 62
     3
100
AcDbCircle
 10
279.403381
 20
206.867768
 30
0.0
 40
1.0
100
AcDbArc
 50
180.0
 51
214.077236
  0
ARC
  5
20E
100
AcDbEntity
  8
LAY-4
  6
DASHED2
 62
     3
100
AcDbCircle
 10
275.403381
 20
208.4001
 30
0.0
 40
6.0
100
AcDbArc
 50
180.0
 51
214.077236
  0
LINE
  5
20F
100
AcDbEntity
  8
LAY-4
  6
CONTINUOUS
 62
     3
100
AcDbLine
 10
282.403397
 20
211.56131
 30
0.0
 11
282.403397
 21
208.5
 31
0.0
  0
ARC
  5
210
100
AcDbEntity
  8
LAY-4
  6
DASHED2
 62
     3
100
AcDbCircle
 10
282.403381
 20
209.335029
 30
0.0
 40
4.0
100
AcDbArc
 50
191.152916
 51
278.626952
  0
LINE
  5
211
100
AcDbEntity
  8
LAY-4
  6
CONTINUOUS
 62
     3
100
AcDbLine
 10
267.40339
 20
208.56131
 30
0.0
 11
282.403397
 21
208.56131
 31
0.0
  0
LINE
  5
212
100
AcDbEntity
  8
LAY-4
  6
CONTINUOUS
 62
     3
100
AcDbLine
 10
267.40339
 20
189.56131
 30
0.0
 11
267.40339
 21
208.56131
 31
0.0
  0
LINE
  5
213
100
AcDbEntity
  8
LAY-4
  6
DASHED2
 62
     3
100
AcDbLine
 10
268.20339
 20
189.56131
 30
0.0
 11
268.20339
 21
208.56131
 31
0.0
  0
LINE
  5
214
100
AcDbEntity
  8
LAY-4
  6
CONTINUOUS
 62
     3
100
AcDbLine
 10
282.403397
 20
208.56131
 30
0.0
 11
267.40339
 21
208.56131
 31
0.0
  0
LINE
  5
215
100
AcDbEntity
  8
LAY-4
  6
CONTINUOUS
 62
     3
100
AcDbLine
 10
477.313922
 20
188.358032
 30
0.0
 11
478.7
 21
180.965485
 31
0.0
  0
LINE
  5
216
100
AcDbEntity
  8
LAY-4
  6
CONTINUOUS
 62
     3
100
AcDbLine
 10
476.605762
 20
189.135254
 30
0.0
 11
470.2
 21
190.965485
 31
0.0
  0
ARC
  5
217
100
AcDbEntity
  8
LAY-4
  6
CONTINUOUS
 62
     3
100
AcDbCircle
 10
476.331042
 20
188.173737
 30
0.0
 40
1.0
100
AcDbArc
 50
10.619582
 51
74.054662
  0
LINE
  5
218
100
AcDbEntity
  8
LAY-4
  6
CONTINUOUS
 62
     3
100
AcDbLine
 10
495.794238
 20
189.135284
 30
0.0
 11
502.2
 21
190.965485
 31
0.0
  0
LINE
  5
219
100
AcDbEntity
  8
LAY-4
  6
CONTINUOUS
 62
     3
100
AcDbLine
 10
495.086108
 20
188.358032
 30
0.0
 11
493.7
 21
180.965485
 31
0.0
  0
ARC
  5
21A
100
AcDbEntity
  8
LAY-4
  6
CONTINUOUS
 62
     3
100
AcDbCircle
 10
496.068957
 20
188.173737
 30
0.0
 40
1.0
100
AcDbArc
 50
105.945378
 51
169.380458
  0
LINE
  5
21B
100
AcDbEntity
  8
LAY-4
  6
CONTINUOUS
 62
     3
100
AcDbLine
 10
477.057574
 20
188.86087
 30
0.0
 11
495.342426
 21
188.86087
 31
0.0
  0
ARC
  5
21C
100
AcDbEntity
  8
LAY-4
  6
CONTINUOUS
 62
     3
100
AcDbCircle
 10
502.09505
 20
188.968231
 30
0.0
 40
2.0
100
AcDbArc
 50
5.079596
 51
86.992049
  0
ARC
  5
21D
100
AcDbEntity
  8
LAY-4
  6
CONTINUOUS
 62
     3
100
AcDbCircle
 10
540.2
 20
182.965485
 30
0.0
 40
2.0
100
AcDbArc
 50
269.999982
 51
0.000021
  0
LINE
  5
21E
100
AcDbEntity
  8
LAY-4
  6
CONTINUOUS
 62
     3
100
AcDbLine
 10
508.200427
 20
190.965485
 30
0.0
 11
468.199969
 21
190.965485
 31
0.0
  0
LINE
  5
21F
100
AcDbEntity
  8
LAY-4
  6
CONTINUOUS
 62
     3
100
AcDbLine
 10
468.199969
 20
190.965485
 30
0.0
 11
468.199969
 21
195.965485
 31
0.0
  0
LINE
  5
220
100
AcDbEntity
  8
LAY-4
  6
CONTINUOUS
 62
     3
100
AcDbLine
 10
508.200427
 20
190.965485
 30
0.0
 11
508.200427
 21
195.965485
 31
0.0
  0
LINE
  5
221
100
AcDbEntity
  8
LAY-4
  6
CONTINUOUS
 62
     3
100
AcDbLine
 10
470.199969
 20
197.965485
 30
0.0
 11
506.200427
 21
197.965485
 31
0.0
  0
ARC
  5
222
100
AcDbEntity
  8
LAY-4
  6
CONTINUOUS
 62
     3
100
AcDbCircle
 10
470.199969
 20
195.965485
 30
0.0
 40
2.0
100
AcDbArc
 50
90.00002
 51
180.0
  0
ARC
  5
223
100
AcDbEntity
  8
LAY-4
  6
CONTINUOUS
 62
     3
100
AcDbCircle
 10
506.200427
 20
195.965485
 30
0.0
 40
2.0
100
AcDbArc
 50
359.999981
 51
90.00002
  0
LINE
  5
224
100
AcDbEntity
  8
LAY-4
  6
DASHED2
 62
     3
100
AcDbLine
 10
509.2
 20
196.965485
 30
0.0
 11
507.932483
 21
196.965485
 31
0.0
  0
ARC
  5
225
100
AcDbEntity
  8
LAY-4
  6
CONTINUOUS
 62
     3
100
AcDbCircle
 10
509.2
 20
199.965485
 30
0.0
 40
3.0
100
AcDbArc
 50
340.528172
 51
0.000021
  0
LINE
  5
226
100
AcDbEntity
  8
LAY-4
  6
CONTINUOUS
 62
     3
100
AcDbLine
 10
473.699969
 20
204.599442
 30
0.0
 11
475.2
 21
205.465485
 31
0.0
  0
LINE
  5
227
100
AcDbEntity
  8
LAY-4
  6
CONTINUOUS
 62
     3
100
AcDbLine
 10
473.699969
 20
197.965485
 30
0.0
 11
473.699969
 21
204.599442
 31
0.0
  0
LINE
  5
228
100
AcDbEntity
  8
LAY-4
  6
CONTINUOUS
 62
     3
100
AcDbLine
 10
498.700031
 20
204.599442
 30
0.0
 11
497.2
 21
205.465485
 31
0.0
  0
LINE
  5
229
100
AcDbEntity
  8
LAY-4
  6
CONTINUOUS
 62
     3
100
AcDbLine
 10
475.2
 20
205.465485
 30
0.0
 11
497.2
 21
205.465485
 31
0.0
  0
LINE
  5
22A
100
AcDbEntity
  8
LAY-4
  6
CONTINUOUS
 62
     3
100
AcDbLine
 10
498.699969
 20
197.965485
 30
0.0
 11
498.699969
 21
204.599477
 31
0.0
  0
LINE
  5
22B
100
AcDbEntity
  8
LAY-4
  6
CONTINUOUS
 62
     3
100
AcDbLine
 10
473.699969
 20
204.599442
 30
0.0
 11
498.699969
 21
204.599442
 31
0.0
  0
LINE
  5
22C
100
AcDbEntity
  8
LAY-4
  6
CONTINUOUS
 62
     3
100
AcDbLine
 10
491.2
 20
215.465485
 30
0.0
 11
492.2
 21
212.465485
 31
0.0
  0
LINE
  5
22D
100
AcDbEntity
  8
LAY-4
  6
CONTINUOUS
 62
     3
100
AcDbLine
 10
480.2
 20
212.465485
 30
0.0
 11
492.2
 21
212.465485
 31
0.0
  0
LINE
  5
22E
100
AcDbEntity
  8
LAY-4
  6
CONTINUOUS
 62
     3
100
AcDbLine
 10
481.2
 20
215.465485
 30
0.0
 11
480.2
 21
212.465485
 31
0.0
  0
LINE
  5
22F
100
AcDbEntity
  8
LAY-4
  6
CONTINUOUS
 62
     3
100
AcDbLine
 10
492.2
 20
205.465485
 30
0.0
 11
492.2
 21
212.465485
 31
0.0
  0
LINE
  5
230
100
AcDbEntity
  8
LAY-4
  6
CONTINUOUS
 62
     3
100
AcDbLine
 10
480.2
 20
205.465485
 30
0.0
 11
480.2
 21
212.465485
 31
0.0
  0
LINE
  5
231
100
AcDbEntity
  8
LAY-4
  6
CONTINUOUS
 62
     3
100
AcDbLine
 10
481.2
 20
215.465485
 30
0.0
 11
491.2
 21
215.465485
 31
0.0
  0
LINE
  5
232
100
AcDbEntity
  8
LAY-4
  6
CONTINUOUS
 62
     3
100
AcDbLine
 10
542.2
 20
267.965515
 30
0.0
 11
542.2
 21
182.965485
 31
0.0
  0
LINE
  5
233
100
AcDbEntity
  8
LAY-4
  6
CONTINUOUS
 62
     3
100
AcDbLine
 10
539.2
 20
270.965515
 30
0.0
 11
515.2
 21
270.965515
 31
0.0
  0
ARC
  5
234
100
AcDbEntity
  8
LAY-4
  6
CONTINUOUS
 62
     3
100
AcDbCircle
 10
515.2
 20
267.965515
 30
0.0
 40
3.0
100
AcDbArc
 50
90.00002
 51
180.0
  0
ARC
  5
235
100
AcDbEntity
  8
LAY-4
  6
CONTINUOUS
 62
     3
100
AcDbCircle
 10
539.2
 20
267.965515
 30
0.0
 40
3.0
100
AcDbArc
 50
359.999981
 51
90.00002
  0
LINE
  5
236
100
AcDbEntity
  8
LAY-4
  6
CONTINUOUS
 62
     3
100
AcDbLine
 10
512.2
 20
267.965515
 30
0.0
 11
512.2
 21
199.965485
 31
0.0
  0
ARC
  5
237
100
AcDbEntity
  8
LAY-4
  6
CONTINUOUS
 62
     3
100
AcDbCircle
 10
509.2
 20
199.965485
 30
0.0
 40
3.0
100
AcDbArc
 50
269.999982
 51
340.528172
  0
LINE
  5
238
100
AcDbEntity
  8
LAY-4
  6
CONTINUOUS
 62
     3
100
AcDbLine
 10
540.2
 20
180.965485
 30
0.0
 11
478.7
 21
180.965485
 31
0.0
  0
CIRCLE
  5
239
100
AcDbEntity
  8
LAY-4
  6
CONTINUOUS
 62
     1
100
AcDbCircle
 10
520.2
 20
220.965515
 30
0.0
 40
2.5
  0
CIRCLE
  5
23A
100
AcDbEntity
  8
LAY-4
  6
CONTINUOUS
 62
     3
100
AcDbCircle
 10
520.2
 20
220.965515
 30
0.0
 40
2.0
  0
CIRCLE
  5
23B
100
AcDbEntity
  8
LAY-4
  6
CONTINUOUS
 62
     1
100
AcDbCircle
 10
534.2
 20
220.965515
 30
0.0
 40
2.5
  0
CIRCLE
  5
23C
100
AcDbEntity
  8
LAY-4
  6
CONTINUOUS
 62
     3
100
AcDbCircle
 10
534.2
 20
220.965515
 30
0.0
 40
2.0
  0
CIRCLE
  5
23D
100
AcDbEntity
  8
LAY-4
  6
CONTINUOUS
 62
     1
100
AcDbCircle
 10
520.2
 20
260.965515
 30
0.0
 40
2.5
  0
CIRCLE
  5
23E
100
AcDbEntity
  8
LAY-4
  6
CONTINUOUS
 62
     3
100
AcDbCircle
 10
520.2
 20
260.965515
 30
0.0
 40
2.0
  0
CIRCLE
  5
23F
100
AcDbEntity
  8
LAY-4
  6
CONTINUOUS
 62
     1
100
AcDbCircle
 10
534.2
 20
260.965515
 30
0.0
 40
2.5
  0
CIRCLE
  5
240
100
AcDbEntity
  8
LAY-4
  6
CONTINUOUS
 62
     3
100
AcDbCircle
 10
534.2
 20
260.965515
 30
0.0
 40
2.0
  0
LINE
  5
241
100
AcDbEntity
  8
LAY-5
  6
DASHDOT
 62
     1
100
AcDbLine
 10
697.977325
 20
379.866226
 30
0.0
 11
697.977325
 21
422.7
 31
0.0
  0
LINE
  5
242
100
AcDbEntity
  8
LAY-5
  6
DASHDOT
 62
     1
100
AcDbLine
 10
729.977295
 20
398.378952
 30
0.0
 11
729.977295
 21
372.6
 31
0.0
  0
LINE
  5
243
100
AcDbEntity
  8
LAY-5
  6
DASHDOT
 62
     1
100
AcDbLine
 10
745.977295
 20
398.378952
 30
0.0
 11
745.977295
 21
372.6
 31
0.0
  0
LINE
  5
244
100
AcDbEntity
  8
LAY-5
  6
DASHDOT
 62
     1
100
AcDbLine
 10
732.977356
 20
228.9
 30
0.0
 11
732.977356
 21
201.132721
 31
0.0
  0
LINE
  5
245
100
AcDbEntity
  8
LAY-5
  6
DASHDOT
 62
     1
100
AcDbLine
 10
744.977356
 20
228.9
 30
0.0
 11
744.977356
 21
201.132721
 31
0.0
  0
LINE
  5
246
100
AcDbEntity
  8
LAY-5
  6
DASHDOT
 62
     1
100
AcDbLine
 10
697.977356
 20
179.453857
 30
0.0
 11
697.977356
 21
222.056885
 31
0.0
  0
LINE
  5
247
100
AcDbEntity
  8
LAY-5
  6
DASHDOT
 62
     1
100
AcDbLine
 10
731.977356
 20
265.965515
 30
0.0
 11
731.977356
 21
255.965515
 31
0.0
  0
LINE
  5
248
100
AcDbEntity
  8
LAY-5
  6
DASHDOT
 62
     1
100
AcDbLine
 10
745.977356
 20
265.965515
 30
0.0
 11
745.977356
 21
255.965515
 31
0.0
  0
LINE
  5
249
100
AcDbEntity
  8
LAY-5
  6
DASHDOT
 62
     1
100
AcDbLine
 10
740.977356
 20
260.965515
 30
0.0
 11
750.977356
 21
260.965515
 31
0.0
  0
LINE
  5
24A
100
AcDbEntity
  8
LAY-5
  6
DASHDOT
 62
     1
100
AcDbLine
 10
726.977356
 20
260.965515
 30
0.0
 11
736.977356
 21
260.965515
 31
0.0
  0
LINE
  5
24B
100
AcDbEntity
  8
LAY-5
  6
DASHDOT
 62
     1
100
AcDbLine
 10
731.977356
 20
225.965515
 30
0.0
 11
731.977356
 21
215.965515
 31
0.0
  0
LINE
  5
24C
100
AcDbEntity
  8
LAY-5
  6
DASHDOT
 62
     1
100
AcDbLine
 10
745.977356
 20
225.965515
 30
0.0
 11
745.977356
 21
215.965515
 31
0.0
  0
LINE
  5
24D
100
AcDbEntity
  8
LAY-5
  6
DASHDOT
 62
     1
100
AcDbLine
 10
740.977356
 20
220.965515
 30
0.0
 11
750.977356
 21
220.965515
 31
0.0
  0
LINE
  5
24E
100
AcDbEntity
  8
LAY-5
  6
DASHDOT
 62
     1
100
AcDbLine
 10
726.977356
 20
220.965515
 30
0.0
 11
736.977356
 21
220.965515
 31
0.0
  0
LINE
  5
24F
100
AcDbEntity
  8
LAY-5
  6
DASHDOT
 62
     1
100
AcDbLine
 10
729.977295
 20
422.0
 30
0.0
 11
729.977295
 21
398.9
 31
0.0
  0
LINE
  5
250
100
AcDbEntity
  8
LAY-5
  6
DASHDOT
 62
     1
100
AcDbLine
 10
745.977295
 20
422.0
 30
0.0
 11
745.977295
 21
398.9
 31
0.0
  0
LINE
  5
251
100
AcDbEntity
  8
LAY-5
  6
DASHDOT
 62
     1
100
AcDbLine
 10
75.403397
 20
209.919515
 30
0.0
 11
75.403404
 21
167.561361
 31
0.0
  0
LINE
  5
252
100
AcDbEntity
  8
LAY-5
  6
DASHDOT
 62
     1
100
AcDbLine
 10
89.403412
 20
245.883992
 30
0.0
 11
89.403412
 21
213.561361
 31
0.0
  0
LINE
  5
253
100
AcDbEntity
  8
LAY-5
  6
DASHDOT
 62
     1
100
AcDbLine
 10
119.403412
 20
245.883992
 30
0.0
 11
119.403412
 21
213.561361
 31
0.0
  0
LINE
  5
254
100
AcDbEntity
  8
LAY-5
  6
DASHDOT
 62
     1
100
AcDbLine
 10
127.7
 20
221.561361
 30
0.0
 11
110.794922
 21
221.561361
 31
0.0
  0
LINE
  5
255
100
AcDbEntity
  8
LAY-5
  6
DASHDOT
 62
     1
100
AcDbLine
 10
98.382156
 20
221.561361
 30
0.0
 11
81.481705
 21
221.561361
 31
0.0
  0
LINE
  5
256
100
AcDbEntity
  8
LAY-5
  6
DASHDOT
 62
     1
100
AcDbLine
 10
127.7
 20
237.561361
 30
0.0
 11
110.794922
 21
237.561361
 31
0.0
  0
LINE
  5
257
100
AcDbEntity
  8
LAY-5
  6
DASHDOT
 62
     1
100
AcDbLine
 10
98.382156
 20
237.561361
 30
0.0
 11
81.481705
 21
237.561361
 31
0.0
  0
LINE
  5
258
100
AcDbEntity
  8
LAY-5
  6
DASHDOT
 62
     1
100
AcDbLine
 10
74.417981
 20
191.268116
 30
0.0
 11
64.258567
 21
208.864753
 31
0.0
  0
LINE
  5
259
100
AcDbEntity
  8
LAY-5
  6
DASHDOT
 62
     1
100
AcDbLine
 10
114.403381
 20
393.491028
 30
0.0
 11
124.403381
 21
393.491028
 31
0.0
  0
LINE
  5
25A
100
AcDbEntity
  8
LAY-5
  6
DASHDOT
 62
     1
100
AcDbLine
 10
119.403381
 20
388.491028
 30
0.0
 11
119.403381
 21
398.491028
 31
0.0
  0
LINE
  5
25B
100
AcDbEntity
  8
LAY-5
  6
DASHDOT
 62
     1
100
AcDbLine
 10
119.403381
 20
404.491028
 30
0.0
 11
119.403381
 21
414.491028
 31
0.0
  0
LINE
  5
25C
100
AcDbEntity
  8
LAY-5
  6
DASHDOT
 62
     1
100
AcDbLine
 10
114.403381
 20
409.491028
 30
0.0
 11
124.403381
 21
409.491028
 31
0.0
  0
LINE
  5
25D
100
AcDbEntity
  8
LAY-5
  6
DASHDOT
 62
     1
100
AcDbLine
 10
84.403381
 20
409.491028
 30
0.0
 11
94.403381
 21
409.491028
 31
0.0
  0
LINE
  5
25E
100
AcDbEntity
  8
LAY-5
  6
DASHDOT
 62
     1
100
AcDbLine
 10
89.403381
 20
414.491028
 30
0.0
 11
89.403381
 21
404.491028
 31
0.0
  0
LINE
  5
25F
100
AcDbEntity
  8
LAY-5
  6
DASHDOT
 62
     1
100
AcDbLine
 10
84.403381
 20
393.491028
 30
0.0
 11
94.403381
 21
393.491028
 31
0.0
  0
LINE
  5
260
100
AcDbEntity
  8
LAY-5
  6
DASHDOT
 62
     1
100
AcDbLine
 10
89.403381
 20
398.491028
 30
0.0
 11
89.403381
 21
388.491028
 31
0.0
  0
LINE
  5
261
100
AcDbEntity
  8
LAY-5
  6
DASHDOT
 62
     1
100
AcDbLine
 10
75.403372
 20
394.9
 30
0.0
 11
75.403381
 21
339.491119
 31
0.0
  0
LINE
  5
262
100
AcDbEntity
  8
LAY-5
  6
DASHDOT
 62
     1
100
AcDbLine
 10
129.378791
 20
361.491089
 30
0.0
 11
53.649628
 21
361.491089
 31
0.0
  0
LINE
  5
263
100
AcDbEntity
  8
LAY-5
  6
DASHDOT
 62
     1
100
AcDbLine
 10
129.378772
 20
189.56133
 30
0.0
 11
53.649658
 21
189.56133
 31
0.0
  0
LINE
  5
264
100
AcDbEntity
  8
LAY-5
  6
DASHDOT
 62
     1
100
AcDbLine
 10
285.403374
 20
381.548096
 30
0.0
 11
285.403381
 21
339.491119
 31
0.0
  0
LINE
  5
265
100
AcDbEntity
  8
LAY-5
  6
DASHDOT
 62
     1
100
AcDbLine
 10
285.403381
 20
213.715668
 30
0.0
 11
285.403397
 21
169.116028
 31
0.0
  0
LINE
  5
266
100
AcDbEntity
  8
LAY-5
  6
DASHDOT
 62
     1
100
AcDbLine
 10
306.911987
 20
189.56131
 30
0.0
 11
263.649658
 21
189.56131
 31
0.0
  0
LINE
  5
267
100
AcDbEntity
  8
LAY-5
  6
DASHDOT
 62
     1
100
AcDbLine
 10
299.403397
 20
403.6
 30
0.0
 11
299.403397
 21
388.491089
 31
0.0
  0
LINE
  5
268
100
AcDbEntity
  8
LAY-5
  6
DASHDOT
 62
     1
100
AcDbLine
 10
291.403397
 20
396.491089
 30
0.0
 11
307.618301
 21
396.491089
 31
0.0
  0
LINE
  5
269
100
AcDbEntity
  8
LAY-5
  6
DASHDOT
 62
     1
100
AcDbLine
 10
346.403397
 20
403.6
 30
0.0
 11
346.403397
 21
388.491089
 31
0.0
  0
LINE
  5
26A
100
AcDbEntity
  8
LAY-5
  6
DASHDOT
 62
     1
100
AcDbLine
 10
354.3
 20
396.491089
 30
0.0
 11
338.403397
 21
396.491089
 31
0.0
  0
LINE
  5
26B
100
AcDbEntity
  8
LAY-5
  6
DASHDOT
 62
     1
100
AcDbLine
 10
322.403412
 20
416.8
 30
0.0
 11
322.403412
 21
400.491089
 31
0.0
  0
LINE
  5
26C
100
AcDbEntity
  8
LAY-5
  6
DASHDOT
 62
     1
100
AcDbLine
 10
314.403412
 20
408.491089
 30
0.0
 11
330.618317
 21
408.491089
 31
0.0
  0
LINE
  5
26D
100
AcDbEntity
  8
LAY-5
  6
DASHDOT
 62
     1
100
AcDbLine
 10
369.403397
 20
416.8
 30
0.0
 11
369.403397
 21
400.491089
 31
0.0
  0
LINE
  5
26E
100
AcDbEntity
  8
LAY-5
  6
DASHDOT
 62
     1
100
AcDbLine
 10
377.2
 20
408.491089
 30
0.0
 11
361.403397
 21
408.491089
 31
0.0
  0
LINE
  5
26F
100
AcDbEntity
  8
LAY-5
  6
DASHDOT
 62
     1
100
AcDbLine
 10
260.5
 20
223.56131
 30
0.0
 11
283.9
 21
223.56131
 31
0.0
  0
LINE
  5
270
100
AcDbEntity
  8
LAY-5
  6
DASHDOT
 62
     1
100
AcDbLine
 10
260.5
 20
237.56131
 30
0.0
 11
283.9
 21
237.56131
 31
0.0
  0
LINE
  5
271
100
AcDbEntity
  8
LAY-5
  6
DASHDOT
 62
     1
100
AcDbLine
 10
339.378772
 20
361.491089
 30
0.0
 11
263.649628
 21
361.491089
 31
0.0
  0
LINE
  5
272
100
AcDbEntity
  8
LAY-5
  6
DASHDOT
 62
     1
100
AcDbLine
 10
520.2
 20
265.965515
 30
0.0
 11
520.2
 21
255.965515
 31
0.0
  0
LINE
  5
273
100
AcDbEntity
  8
LAY-5
  6
DASHDOT
 62
     1
100
AcDbLine
 10
534.2
 20
265.965515
 30
0.0
 11
534.2
 21
255.965515
 31
0.0
  0
LINE
  5
274
100
AcDbEntity
  8
LAY-5
  6
DASHDOT
 62
     1
100
AcDbLine
 10
529.2
 20
260.965515
 30
0.0
 11
539.2
 21
260.965515
 31
0.0
  0
LINE
  5
275
100
AcDbEntity
  8
LAY-5
  6
DASHDOT
 62
     1
100
AcDbLine
 10
515.2
 20
260.965515
 30
0.0
 11
525.2
 21
260.965515
 31
0.0
  0
LINE
  5
276
100
AcDbEntity
  8
LAY-5
  6
DASHDOT
 62
     1
100
AcDbLine
 10
520.2
 20
225.965515
 30
0.0
 11
520.2
 21
215.965515
 31
0.0
  0
LINE
  5
277
100
AcDbEntity
  8
LAY-5
  6
DASHDOT
 62
     1
100
AcDbLine
 10
534.2
 20
225.965515
 30
0.0
 11
534.2
 21
215.965515
 31
0.0
  0
LINE
  5
278
100
AcDbEntity
  8
LAY-5
  6
DASHDOT
 62
     1
100
AcDbLine
 10
529.2
 20
220.965515
 30
0.0
 11
539.2
 21
220.965515
 31
0.0
  0
LINE
  5
279
100
AcDbEntity
  8
LAY-5
  6
DASHDOT
 62
     1
100
AcDbLine
 10
515.2
 20
220.965515
 30
0.0
 11
525.2
 21
220.965515
 31
0.0
  0
LINE
  5
27A
100
AcDbEntity
  8
LAY-5
  6
DASHDOT
 62
     1
100
AcDbLine
 10
486.2
 20
176.065485
 30
0.0
 11
486.2
 21
225.865485
 31
0.0
  0
TEXT
  5
27B
100
AcDbEntity
  8
LAY-6
  6
CONTINUOUS
 62
     2
100
AcDbText
 10
48.263008
 20
346.624071
 30
0.0
 40
5.0
  1
Ｒ
 50
30.0
 41
0.672
  7
EXCADSTD
 72
     5
 11
51.034289
 21
348.224071
 31
0.0
100
AcDbText
  0
TEXT
  5
27C
100
AcDbEntity
  8
LAY-6
  6
CONTINUOUS
 62
     2
100
AcDbText
 10
51.72711
 20
348.624071
 30
0.0
 40
5.0
  1
１８
 50
30.0
 41
0.672
  7
EXCADSTD
 72
     5
 11
58.077501
 21
352.290471
 31
0.0
100
AcDbText
  0
LINE
  5
27D
100
AcDbEntity
  8
LAY-6
  6
CONTINUOUS
 62
     1
100
AcDbLine
 10
59.814932
 20
352.491058
 30
0.0
 11
75.403389
 21
361.491058
 31
0.0
  0
LINE
  5
27E
100
AcDbEntity
  8
LAY-6
  6
CONTINUOUS
 62
     1
100
AcDbLine
 10
62.163008
 20
354.424071
 30
0.0
 11
59.814932
 21
352.491058
 31
0.0
  0
LINE
  5
27F
100
AcDbEntity
  8
LAY-6
  6
CONTINUOUS
 62
     1
100
AcDbLine
 10
59.814932
 20
352.491058
 30
0.0
 11
62.663008
 21
353.558045
 31
0.0
  0
TEXT
  5
280
100
AcDbEntity
  8
LAY-6
  6
CONTINUOUS
 62
     2
100
AcDbText
 10
126.506274
 20
370.714267
 30
0.0
 40
5.0
  1
３０
 50
285.000002
 41
0.672
  7
EXCADSTD
 72
     5
 11
128.404143
 21
363.631326
 31
0.0
100
AcDbText
  0
TEXT
  5
281
100
AcDbEntity
  8
LAY-6
  6
CONTINUOUS
 62
     2
100
AcDbText
 10
128.576827
 20
362.98686
 30
0.0
 40
5.0
  1
ﾟ
 50
285.000002
 41
0.4
  7
EXCADSTD
 72
     5
 11
128.913291
 21
361.731157
 31
0.0
100
AcDbText
  0
ARC
  5
282
100
AcDbEntity
  8
LAY-6
  6
CONTINUOUS
 62
     1
100
AcDbCircle
 10
111.40365
 20
361.491149
 30
0.0
 40
16.475141
100
AcDbArc
 50
359.999791
 51
30.000214
  0
LINE
  5
283
100
AcDbEntity
  8
LAY-6
  6
CONTINUOUS
 62
     1
100
AcDbLine
 10
127.378791
 20
364.491089
 30
0.0
 11
127.878791
 21
361.491089
 31
0.0
  0
LINE
  5
284
100
AcDbEntity
  8
LAY-6
  6
CONTINUOUS
 62
     1
100
AcDbLine
 10
127.878791
 20
361.491089
 30
0.0
 11
128.378791
 21
364.491089
 31
0.0
  0
LINE
  5
285
100
AcDbEntity
  8
LAY-6
  6
CONTINUOUS
 62
     1
100
AcDbLine
 10
127.604523
 20
367.380697
 30
0.0
 11
125.67151
 21
369.728773
 31
0.0
  0
LINE
  5
286
100
AcDbEntity
  8
LAY-6
  6
CONTINUOUS
 62
     1
100
AcDbLine
 10
125.67151
 20
369.728773
 30
0.0
 11
126.738497
 21
366.880697
 31
0.0
  0
TEXT
  5
287
100
AcDbEntity
  8
LAY-6
  6
CONTINUOUS
 62
     2
100
AcDbText
 10
48.263031
 20
174.694312
 30
0.0
 40
5.0
  1
Ｒ
 50
30.0
 41
0.672
  7
EXCADSTD
 72
     5
 11
51.034312
 21
176.294312
 31
0.0
100
AcDbText
  0
TEXT
  5
288
100
AcDbEntity
  8
LAY-6
  6
CONTINUOUS
 62
     2
100
AcDbText
 10
51.727133
 20
176.694312
 30
0.0
 40
5.0
  1
１８
 50
30.0
 41
0.672
  7
EXCADSTD
 72
     5
 11
58.077524
 21
180.360712
 31
0.0
100
AcDbText
  0
LINE
  5
289
100
AcDbEntity
  8
LAY-6
  6
CONTINUOUS
 62
     1
100
AcDbLine
 10
59.814955
 20
180.561299
 30
0.0
 11
75.403412
 21
189.561299
 31
0.0
  0
LINE
  5
28A
100
AcDbEntity
  8
LAY-6
  6
CONTINUOUS
 62
     1
100
AcDbLine
 10
62.163031
 20
182.494312
 30
0.0
 11
59.814955
 21
180.561299
 31
0.0
  0
LINE
  5
28B
100
AcDbEntity
  8
LAY-6
  6
CONTINUOUS
 62
     1
100
AcDbLine
 10
59.814955
 20
180.561299
 30
0.0
 11
62.663031
 21
181.628286
 31
0.0
  0
TEXT
  5
28C
100
AcDbEntity
  8
LAY-6
  6
CONTINUOUS
 62
     2
100
AcDbText
 10
258.263008
 20
346.624071
 30
0.0
 40
5.0
  1
Ｒ
 50
30.0
 41
0.672
  7
EXCADSTD
 72
     5
 11
261.034289
 21
348.224071
 31
0.0
100
AcDbText
  0
TEXT
  5
28D
100
AcDbEntity
  8
LAY-6
  6
CONTINUOUS
 62
     2
100
AcDbText
 10
261.72711
 20
348.624071
 30
0.0
 40
5.0
  1
１８
 50
30.0
 41
0.672
  7
EXCADSTD
 72
     5
 11
268.077501
 21
352.290471
 31
0.0
100
AcDbText
  0
LINE
  5
28E
100
AcDbEntity
  8
LAY-6
  6
CONTINUOUS
 62
     1
100
AcDbLine
 10
269.814932
 20
352.491058
 30
0.0
 11
285.403389
 21
361.491058
 31
0.0
  0
LINE
  5
28F
100
AcDbEntity
  8
LAY-6
  6
CONTINUOUS
 62
     1
100
AcDbLine
 10
272.163008
 20
354.424071
 30
0.0
 11
269.814932
 21
352.491058
 31
0.0
  0
LINE
  5
290
100
AcDbEntity
  8
LAY-6
  6
CONTINUOUS
 62
     1
100
AcDbLine
 10
269.814932
 20
352.491058
 30
0.0
 11
272.663008
 21
353.558045
 31
0.0
  0
TEXT
  5
291
100
AcDbEntity
  8
LAY-6
  6
CONTINUOUS
 62
     2
100
AcDbText
 10
336.506255
 20
370.714267
 30
0.0
 40
5.0
  1
３０
 50
285.000002
 41
0.672
  7
EXCADSTD
 72
     5
 11
338.404124
 21
363.631326
 31
0.0
100
AcDbText
  0
TEXT
  5
292
100
AcDbEntity
  8
LAY-6
  6
CONTINUOUS
 62
     2
100
AcDbText
 10
338.576808
 20
362.98686
 30
0.0
 40
5.0
  1
ﾟ
 50
285.000002
 41
0.4
  7
EXCADSTD
 72
     5
 11
338.913273
 21
361.731157
 31
0.0
100
AcDbText
  0
ARC
  5
293
100
AcDbEntity
  8
LAY-6
  6
CONTINUOUS
 62
     1
100
AcDbCircle
 10
321.403631
 20
361.491149
 30
0.0
 40
16.475141
100
AcDbArc
 50
359.999791
 51
30.000214
  0
LINE
  5
294
100
AcDbEntity
  8
LAY-6
  6
CONTINUOUS
 62
     1
100
AcDbLine
 10
337.378772
 20
364.491089
 30
0.0
 11
337.878772
 21
361.491089
 31
0.0
  0
LINE
  5
295
100
AcDbEntity
  8
LAY-6
  6
CONTINUOUS
 62
     1
100
AcDbLine
 10
337.878772
 20
361.491089
 30
0.0
 11
338.378772
 21
364.491089
 31
0.0
  0
LINE
  5
296
100
AcDbEntity
  8
LAY-6
  6
CONTINUOUS
 62
     1
100
AcDbLine
 10
337.604504
 20
367.380697
 30
0.0
 11
335.671491
 21
369.728773
 31
0.0
  0
LINE
  5
297
100
AcDbEntity
  8
LAY-6
  6
CONTINUOUS
 62
     1
100
AcDbLine
 10
335.671491
 20
369.728773
 30
0.0
 11
336.738479
 21
366.880697
 31
0.0
  0
TEXT
  5
298
100
AcDbEntity
  8
LAY-6
  6
CONTINUOUS
 62
     2
100
AcDbText
 10
126.506254
 20
198.784508
 30
0.0
 40
5.0
  1
３０
 50
285.000002
 41
0.672
  7
EXCADSTD
 72
     5
 11
128.404123
 21
191.701567
 31
0.0
100
AcDbText
  0
TEXT
  5
299
100
AcDbEntity
  8
LAY-6
  6
CONTINUOUS
 62
     2
100
AcDbText
 10
128.576807
 20
191.057101
 30
0.0
 40
5.0
  1
ﾟ
 50
285.000002
 41
0.4
  7
EXCADSTD
 72
     5
 11
128.913272
 21
189.801398
 31
0.0
100
AcDbText
  0
ARC
  5
29A
100
AcDbEntity
  8
LAY-6
  6
CONTINUOUS
 62
     1
100
AcDbCircle
 10
111.40363
 20
189.56139
 30
0.0
 40
16.475141
100
AcDbArc
 50
359.999791
 51
30.000214
  0
LINE
  5
29B
100
AcDbEntity
  8
LAY-6
  6
CONTINUOUS
 62
     1
100
AcDbLine
 10
127.378772
 20
192.56133
 30
0.0
 11
127.878772
 21
189.56133
 31
0.0
  0
LINE
  5
29C
100
AcDbEntity
  8
LAY-6
  6
CONTINUOUS
 62
     1
100
AcDbLine
 10
127.878772
 20
189.56133
 30
0.0
 11
128.378772
 21
192.56133
 31
0.0
  0
LINE
  5
29D
100
AcDbEntity
  8
LAY-6
  6
CONTINUOUS
 62
     1
100
AcDbLine
 10
127.604503
 20
195.450938
 30
0.0
 11
125.67149
 21
197.799014
 31
0.0
  0
LINE
  5
29E
100
AcDbEntity
  8
LAY-6
  6
CONTINUOUS
 62
     1
100
AcDbLine
 10
125.67149
 20
197.799014
 30
0.0
 11
126.738478
 21
194.950938
 31
0.0
  0
LINE
  5
29F
100
AcDbEntity
  8
LAY-6
  6
CONTINUOUS
 62
     1
100
AcDbLine
 10
75.403381
 20
339.491119
 30
0.0
 11
75.403381
 21
335.5
 31
0.0
  0
LINE
  5
2A0
100
AcDbEntity
  8
LAY-6
  6
CONTINUOUS
 62
     1
100
AcDbLine
 10
133.403427
 20
375.347473
 30
0.0
 11
133.403427
 21
335.5
 31
0.0
  0
TEXT
  5
2A1
100
AcDbEntity
  8
LAY-6
  6
CONTINUOUS
 62
     2
100
AcDbText
 10
100.403404
 20
337.5
 30
0.0
 40
5.0
  1
５８
 41
0.672
  7
EXCADSTD
 72
     5
 11
107.736204
 21
337.5
 31
0.0
100
AcDbText
  0
LINE
  5
2A2
100
AcDbEntity
  8
LAY-6
  6
CONTINUOUS
 62
     1
100
AcDbLine
 10
75.403381
 20
337.0
 30
0.0
 11
133.403427
 21
337.0
 31
0.0
  0
LINE
  5
2A3
100
AcDbEntity
  8
LAY-6
  6
CONTINUOUS
 62
     1
100
AcDbLine
 10
78.403381
 20
337.5
 30
0.0
 11
75.403381
 21
337.0
 31
0.0
  0
LINE
  5
2A4
100
AcDbEntity
  8
LAY-6
  6
CONTINUOUS
 62
     1
100
AcDbLine
 10
75.403381
 20
337.0
 30
0.0
 11
78.403381
 21
336.5
 31
0.0
  0
LINE
  5
2A5
100
AcDbEntity
  8
LAY-6
  6
CONTINUOUS
 62
     1
100
AcDbLine
 10
130.403427
 20
336.5
 30
0.0
 11
133.403427
 21
337.0
 31
0.0
  0
LINE
  5
2A6
100
AcDbEntity
  8
LAY-6
  6
CONTINUOUS
 62
     1
100
AcDbLine
 10
133.403427
 20
337.0
 30
0.0
 11
130.403427
 21
337.5
 31
0.0
  0
LINE
  5
2A7
100
AcDbEntity
  8
LAY-6
  6
CONTINUOUS
 62
     1
100
AcDbLine
 10
129.378791
 20
361.491089
 30
0.0
 11
148.9
 21
361.491089
 31
0.0
  0
TEXT
  5
2A8
100
AcDbEntity
  8
LAY-6
  6
CONTINUOUS
 62
     2
100
AcDbText
 10
146.9
 20
366.991092
 30
0.0
 40
5.0
  1
１９
 50
90.0
 41
0.672
  7
EXCADSTD
 72
     5
 11
146.9
 21
374.323892
 31
0.0
100
AcDbText
  0
LINE
  5
2A9
100
AcDbEntity
  8
LAY-6
  6
CONTINUOUS
 62
     1
100
AcDbLine
 10
147.4
 20
361.491089
 30
0.0
 11
147.4
 21
380.491095
 31
0.0
  0
LINE
  5
2AA
100
AcDbEntity
  8
LAY-6
  6
CONTINUOUS
 62
     1
100
AcDbLine
 10
146.9
 20
364.491089
 30
0.0
 11
147.4
 21
361.491089
 31
0.0
  0
LINE
  5
2AB
100
AcDbEntity
  8
LAY-6
  6
CONTINUOUS
 62
     1
100
AcDbLine
 10
147.4
 20
361.491089
 30
0.0
 11
147.9
 21
364.491089
 31
0.0
  0
LINE
  5
2AC
100
AcDbEntity
  8
LAY-6
  6
CONTINUOUS
 62
     1
100
AcDbLine
 10
147.9
 20
377.491095
 30
0.0
 11
147.4
 21
380.491095
 31
0.0
  0
LINE
  5
2AD
100
AcDbEntity
  8
LAY-6
  6
CONTINUOUS
 62
     1
100
AcDbLine
 10
147.4
 20
380.491095
 30
0.0
 11
146.9
 21
377.491095
 31
0.0
  0
LINE
  5
2AE
100
AcDbEntity
  8
LAY-6
  6
CONTINUOUS
 62
     1
100
AcDbLine
 10
126.403381
 20
420.491058
 30
0.0
 11
148.9
 21
420.491058
 31
0.0
  0
TEXT
  5
2AF
100
AcDbEntity
  8
LAY-6
  6
CONTINUOUS
 62
     2
100
AcDbText
 10
146.9
 20
396.491076
 30
0.0
 40
5.0
  1
４０
 50
90.0
 41
0.672
  7
EXCADSTD
 72
     5
 11
146.9
 21
403.823876
 31
0.0
100
AcDbText
  0
LINE
  5
2B0
100
AcDbEntity
  8
LAY-6
  6
CONTINUOUS
 62
     1
100
AcDbLine
 10
147.4
 20
380.491095
 30
0.0
 11
147.4
 21
420.491058
 31
0.0
  0
LINE
  5
2B1
100
AcDbEntity
  8
LAY-6
  6
CONTINUOUS
 62
     1
100
AcDbLine
 10
146.9
 20
383.491095
 30
0.0
 11
147.4
 21
380.491095
 31
0.0
  0
LINE
  5
2B2
100
AcDbEntity
  8
LAY-6
  6
CONTINUOUS
 62
     1
100
AcDbLine
 10
147.4
 20
380.491095
 30
0.0
 11
147.9
 21
383.491095
 31
0.0
  0
LINE
  5
2B3
100
AcDbEntity
  8
LAY-6
  6
CONTINUOUS
 62
     1
100
AcDbLine
 10
147.9
 20
417.491058
 30
0.0
 11
147.4
 21
420.491058
 31
0.0
  0
LINE
  5
2B4
100
AcDbEntity
  8
LAY-6
  6
CONTINUOUS
 62
     1
100
AcDbLine
 10
147.4
 20
420.491058
 30
0.0
 11
146.9
 21
417.491058
 31
0.0
  0
LINE
  5
2B5
100
AcDbEntity
  8
LAY-6
  6
CONTINUOUS
 62
     1
100
AcDbLine
 10
79.403404
 20
241.561361
 30
0.0
 11
79.403404
 21
261.4
 31
0.0
  0
LINE
  5
2B6
100
AcDbEntity
  8
LAY-6
  6
CONTINUOUS
 62
     1
100
AcDbLine
 10
89.403412
 20
245.883992
 30
0.0
 11
89.403412
 21
261.4
 31
0.0
  0
TEXT
  5
2B7
100
AcDbEntity
  8
LAY-6
  6
CONTINUOUS
 62
     2
100
AcDbText
 10
80.403408
 20
260.4
 30
0.0
 40
5.0
  1
１０
 41
0.672
  7
EXCADSTD
 72
     5
 11
87.736208
 21
260.4
 31
0.0
100
AcDbText
  0
LINE
  5
2B8
100
AcDbEntity
  8
LAY-6
  6
CONTINUOUS
 62
     1
100
AcDbLine
 10
79.403404
 20
259.9
 30
0.0
 11
89.403412
 21
259.9
 31
0.0
  0
LINE
  5
2B9
100
AcDbEntity
  8
LAY-6
  6
CONTINUOUS
 62
     1
100
AcDbLine
 10
82.403404
 20
260.4
 30
0.0
 11
79.403404
 21
259.9
 31
0.0
  0
LINE
  5
2BA
100
AcDbEntity
  8
LAY-6
  6
CONTINUOUS
 62
     1
100
AcDbLine
 10
79.403404
 20
259.9
 30
0.0
 11
82.403404
 21
259.4
 31
0.0
  0
LINE
  5
2BB
100
AcDbEntity
  8
LAY-6
  6
CONTINUOUS
 62
     1
100
AcDbLine
 10
86.403412
 20
259.4
 30
0.0
 11
89.403412
 21
259.9
 31
0.0
  0
LINE
  5
2BC
100
AcDbEntity
  8
LAY-6
  6
CONTINUOUS
 62
     1
100
AcDbLine
 10
89.403412
 20
259.9
 30
0.0
 11
86.403412
 21
260.4
 31
0.0
  0
LINE
  5
2BD
100
AcDbEntity
  8
LAY-6
  6
CONTINUOUS
 62
     1
100
AcDbLine
 10
119.403412
 20
245.883992
 30
0.0
 11
119.403412
 21
261.4
 31
0.0
  0
TEXT
  5
2BE
100
AcDbEntity
  8
LAY-6
  6
CONTINUOUS
 62
     2
100
AcDbText
 10
100.403412
 20
260.4
 30
0.0
 40
5.0
  1
３０
 41
0.672
  7
EXCADSTD
 72
     5
 11
107.736212
 21
260.4
 31
0.0
100
AcDbText
  0
LINE
  5
2BF
100
AcDbEntity
  8
LAY-6
  6
CONTINUOUS
 62
     1
100
AcDbLine
 10
89.403412
 20
259.9
 30
0.0
 11
119.403412
 21
259.9
 31
0.0
  0
LINE
  5
2C0
100
AcDbEntity
  8
LAY-6
  6
CONTINUOUS
 62
     1
100
AcDbLine
 10
92.403412
 20
260.4
 30
0.0
 11
89.403412
 21
259.9
 31
0.0
  0
LINE
  5
2C1
100
AcDbEntity
  8
LAY-6
  6
CONTINUOUS
 62
     1
100
AcDbLine
 10
89.403412
 20
259.9
 30
0.0
 11
92.403412
 21
259.4
 31
0.0
  0
LINE
  5
2C2
100
AcDbEntity
  8
LAY-6
  6
CONTINUOUS
 62
     1
100
AcDbLine
 10
116.403412
 20
259.4
 30
0.0
 11
119.403412
 21
259.9
 31
0.0
  0
LINE
  5
2C3
100
AcDbEntity
  8
LAY-6
  6
CONTINUOUS
 62
     1
100
AcDbLine
 10
119.403412
 20
259.9
 30
0.0
 11
116.403412
 21
260.4
 31
0.0
  0
LINE
  5
2C4
100
AcDbEntity
  8
LAY-6
  6
CONTINUOUS
 62
     1
100
AcDbLine
 10
129.403412
 20
241.56133
 30
0.0
 11
129.403412
 21
261.4
 31
0.0
  0
TEXT
  5
2C5
100
AcDbEntity
  8
LAY-6
  6
CONTINUOUS
 62
     2
100
AcDbText
 10
120.403412
 20
260.4
 30
0.0
 40
5.0
  1
１０
 41
0.672
  7
EXCADSTD
 72
     5
 11
127.736212
 21
260.4
 31
0.0
100
AcDbText
  0
LINE
  5
2C6
100
AcDbEntity
  8
LAY-6
  6
CONTINUOUS
 62
     1
100
AcDbLine
 10
119.403412
 20
259.9
 30
0.0
 11
129.403412
 21
259.9
 31
0.0
  0
LINE
  5
2C7
100
AcDbEntity
  8
LAY-6
  6
CONTINUOUS
 62
     1
100
AcDbLine
 10
122.403412
 20
260.4
 30
0.0
 11
119.403412
 21
259.9
 31
0.0
  0
LINE
  5
2C8
100
AcDbEntity
  8
LAY-6
  6
CONTINUOUS
 62
     1
100
AcDbLine
 10
119.403412
 20
259.9
 30
0.0
 11
122.403412
 21
259.4
 31
0.0
  0
LINE
  5
2C9
100
AcDbEntity
  8
LAY-6
  6
CONTINUOUS
 62
     1
100
AcDbLine
 10
126.403412
 20
259.4
 30
0.0
 11
129.403412
 21
259.9
 31
0.0
  0
LINE
  5
2CA
100
AcDbEntity
  8
LAY-6
  6
CONTINUOUS
 62
     1
100
AcDbLine
 10
129.403412
 20
259.9
 30
0.0
 11
126.403412
 21
260.4
 31
0.0
  0
LINE
  5
2CB
100
AcDbEntity
  8
LAY-6
  6
CONTINUOUS
 62
     1
100
AcDbLine
 10
75.403394
 20
249.961604
 30
0.0
 11
75.403394
 21
273.3
 31
0.0
  0
LINE
  5
2CC
100
AcDbEntity
  8
LAY-6
  6
CONTINUOUS
 62
     1
100
AcDbLine
 10
79.403404
 20
261.4
 30
0.0
 11
79.403404
 21
273.3
 31
0.0
  0
TEXT
  5
2CD
100
AcDbEntity
  8
LAY-6
  6
CONTINUOUS
 62
     2
100
AcDbText
 10
75.403399
 20
272.3
 30
0.0
 40
5.0
  1
４
 41
0.672
  7
EXCADSTD
 72
     5
 11
78.603399
 21
272.3
 31
0.0
100
AcDbText
  0
LINE
  5
2CE
100
AcDbEntity
  8
LAY-6
  6
CONTINUOUS
 62
     1
100
AcDbLine
 10
70.403394
 20
271.8
 30
0.0
 11
75.403394
 21
271.8
 31
0.0
  0
LINE
  5
2CF
100
AcDbEntity
  8
LAY-6
  6
CONTINUOUS
 62
     1
100
AcDbLine
 10
79.403404
 20
271.8
 30
0.0
 11
84.403404
 21
271.8
 31
0.0
  0
LINE
  5
2D0
100
AcDbEntity
  8
LAY-6
  6
CONTINUOUS
 62
     1
100
AcDbLine
 10
72.403394
 20
271.3
 30
0.0
 11
75.403394
 21
271.8
 31
0.0
  0
LINE
  5
2D1
100
AcDbEntity
  8
LAY-6
  6
CONTINUOUS
 62
     1
100
AcDbLine
 10
75.403394
 20
271.8
 30
0.0
 11
72.403394
 21
272.3
 31
0.0
  0
LINE
  5
2D2
100
AcDbEntity
  8
LAY-6
  6
CONTINUOUS
 62
     1
100
AcDbLine
 10
82.403404
 20
272.3
 30
0.0
 11
79.403404
 21
271.8
 31
0.0
  0
LINE
  5
2D3
100
AcDbEntity
  8
LAY-6
  6
CONTINUOUS
 62
     1
100
AcDbLine
 10
79.403404
 20
271.8
 30
0.0
 11
82.403404
 21
271.3
 31
0.0
  0
LINE
  5
2D4
100
AcDbEntity
  8
LAY-6
  6
CONTINUOUS
 62
     1
100
AcDbLine
 10
129.403412
 20
261.4
 30
0.0
 11
129.403412
 21
273.3
 31
0.0
  0
TEXT
  5
2D5
100
AcDbEntity
  8
LAY-6
  6
CONTINUOUS
 62
     2
100
AcDbText
 10
100.403408
 20
272.3
 30
0.0
 40
5.0
  1
５０
 41
0.672
  7
EXCADSTD
 72
     5
 11
107.736208
 21
272.3
 31
0.0
100
AcDbText
  0
LINE
  5
2D6
100
AcDbEntity
  8
LAY-6
  6
CONTINUOUS
 62
     1
100
AcDbLine
 10
79.403404
 20
271.8
 30
0.0
 11
129.403412
 21
271.8
 31
0.0
  0
LINE
  5
2D7
100
AcDbEntity
  8
LAY-6
  6
CONTINUOUS
 62
     1
100
AcDbLine
 10
82.403404
 20
272.3
 30
0.0
 11
79.403404
 21
271.8
 31
0.0
  0
LINE
  5
2D8
100
AcDbEntity
  8
LAY-6
  6
CONTINUOUS
 62
     1
100
AcDbLine
 10
79.403404
 20
271.8
 30
0.0
 11
82.403404
 21
271.3
 31
0.0
  0
LINE
  5
2D9
100
AcDbEntity
  8
LAY-6
  6
CONTINUOUS
 62
     1
100
AcDbLine
 10
126.403412
 20
271.3
 30
0.0
 11
129.403412
 21
271.8
 31
0.0
  0
LINE
  5
2DA
100
AcDbEntity
  8
LAY-6
  6
CONTINUOUS
 62
     1
100
AcDbLine
 10
129.403412
 20
271.8
 30
0.0
 11
126.403412
 21
272.3
 31
0.0
  0
LINE
  5
2DB
100
AcDbEntity
  8
LAY-6
  6
CONTINUOUS
 62
     1
100
AcDbLine
 10
75.403404
 20
167.561361
 30
0.0
 11
75.403404
 21
164.2
 31
0.0
  0
LINE
  5
2DC
100
AcDbEntity
  8
LAY-6
  6
CONTINUOUS
 62
     1
100
AcDbLine
 10
133.403427
 20
203.417714
 30
0.0
 11
133.403427
 21
164.2
 31
0.0
  0
TEXT
  5
2DD
100
AcDbEntity
  8
LAY-6
  6
CONTINUOUS
 62
     2
100
AcDbText
 10
100.403416
 20
166.2
 30
0.0
 40
5.0
  1
５８
 41
0.672
  7
EXCADSTD
 72
     5
 11
107.736216
 21
166.2
 31
0.0
100
AcDbText
  0
LINE
  5
2DE
100
AcDbEntity
  8
LAY-6
  6
CONTINUOUS
 62
     1
100
AcDbLine
 10
75.403404
 20
165.7
 30
0.0
 11
133.403427
 21
165.7
 31
0.0
  0
LINE
  5
2DF
100
AcDbEntity
  8
LAY-6
  6
CONTINUOUS
 62
     1
100
AcDbLine
 10
78.403404
 20
166.2
 30
0.0
 11
75.403404
 21
165.7
 31
0.0
  0
LINE
  5
2E0
100
AcDbEntity
  8
LAY-6
  6
CONTINUOUS
 62
     1
100
AcDbLine
 10
75.403404
 20
165.7
 30
0.0
 11
78.403404
 21
165.2
 31
0.0
  0
LINE
  5
2E1
100
AcDbEntity
  8
LAY-6
  6
CONTINUOUS
 62
     1
100
AcDbLine
 10
130.403427
 20
165.2
 30
0.0
 11
133.403427
 21
165.7
 31
0.0
  0
LINE
  5
2E2
100
AcDbEntity
  8
LAY-6
  6
CONTINUOUS
 62
     1
100
AcDbLine
 10
133.403427
 20
165.7
 30
0.0
 11
130.403427
 21
166.2
 31
0.0
  0
LINE
  5
2E3
100
AcDbEntity
  8
LAY-6
  6
CONTINUOUS
 62
     1
100
AcDbLine
 10
127.7
 20
221.561361
 30
0.0
 11
147.1
 21
221.561361
 31
0.0
  0
TEXT
  5
2E4
100
AcDbEntity
  8
LAY-6
  6
CONTINUOUS
 62
     2
100
AcDbText
 10
145.1
 20
212.561482
 30
0.0
 40
5.0
  1
１０
 50
90.0
 41
0.672
  7
EXCADSTD
 72
     5
 11
145.1
 21
219.894282
 31
0.0
100
AcDbText
  0
LINE
  5
2E5
100
AcDbEntity
  8
LAY-6
  6
CONTINUOUS
 62
     1
100
AcDbLine
 10
145.6
 20
211.561604
 30
0.0
 11
145.6
 21
221.561361
 31
0.0
  0
LINE
  5
2E6
100
AcDbEntity
  8
LAY-6
  6
CONTINUOUS
 62
     1
100
AcDbLine
 10
145.1
 20
214.561604
 30
0.0
 11
145.6
 21
211.561604
 31
0.0
  0
LINE
  5
2E7
100
AcDbEntity
  8
LAY-6
  6
CONTINUOUS
 62
     1
100
AcDbLine
 10
145.6
 20
211.561604
 30
0.0
 11
146.1
 21
214.561604
 31
0.0
  0
LINE
  5
2E8
100
AcDbEntity
  8
LAY-6
  6
CONTINUOUS
 62
     1
100
AcDbLine
 10
146.1
 20
218.561361
 30
0.0
 11
145.6
 21
221.561361
 31
0.0
  0
LINE
  5
2E9
100
AcDbEntity
  8
LAY-6
  6
CONTINUOUS
 62
     1
100
AcDbLine
 10
145.6
 20
221.561361
 30
0.0
 11
145.1
 21
218.561361
 31
0.0
  0
LINE
  5
2EA
100
AcDbEntity
  8
LAY-6
  6
CONTINUOUS
 62
     1
100
AcDbLine
 10
127.7
 20
237.561361
 30
0.0
 11
147.1
 21
237.561361
 31
0.0
  0
TEXT
  5
2EB
100
AcDbEntity
  8
LAY-6
  6
CONTINUOUS
 62
     2
100
AcDbText
 10
145.1
 20
225.561361
 30
0.0
 40
5.0
  1
１６
 50
90.0
 41
0.672
  7
EXCADSTD
 72
     5
 11
145.1
 21
232.894161
 31
0.0
100
AcDbText
  0
LINE
  5
2EC
100
AcDbEntity
  8
LAY-6
  6
CONTINUOUS
 62
     1
100
AcDbLine
 10
145.6
 20
221.561361
 30
0.0
 11
145.6
 21
237.561361
 31
0.0
  0
LINE
  5
2ED
100
AcDbEntity
  8
LAY-6
  6
CONTINUOUS
 62
     1
100
AcDbLine
 10
145.1
 20
224.561361
 30
0.0
 11
145.6
 21
221.561361
 31
0.0
  0
LINE
  5
2EE
100
AcDbEntity
  8
LAY-6
  6
CONTINUOUS
 62
     1
100
AcDbLine
 10
145.6
 20
221.561361
 30
0.0
 11
146.1
 21
224.561361
 31
0.0
  0
LINE
  5
2EF
100
AcDbEntity
  8
LAY-6
  6
CONTINUOUS
 62
     1
100
AcDbLine
 10
146.1
 20
234.561361
 30
0.0
 11
145.6
 21
237.561361
 31
0.0
  0
LINE
  5
2F0
100
AcDbEntity
  8
LAY-6
  6
CONTINUOUS
 62
     1
100
AcDbLine
 10
145.6
 20
237.561361
 30
0.0
 11
145.1
 21
234.561361
 31
0.0
  0
LINE
  5
2F1
100
AcDbEntity
  8
LAY-6
  6
CONTINUOUS
 62
     1
100
AcDbLine
 10
129.378772
 20
189.56133
 30
0.0
 11
158.6
 21
189.56133
 31
0.0
  0
TEXT
  5
2F2
100
AcDbEntity
  8
LAY-6
  6
CONTINUOUS
 62
     2
100
AcDbText
 10
156.6
 20
196.561467
 30
0.0
 40
5.0
  1
２２
 50
90.0
 41
0.672
  7
EXCADSTD
 72
     5
 11
156.6
 21
203.894267
 31
0.0
100
AcDbText
  0
LINE
  5
2F3
100
AcDbEntity
  8
LAY-6
  6
CONTINUOUS
 62
     1
100
AcDbLine
 10
157.1
 20
189.56133
 30
0.0
 11
157.1
 21
211.561604
 31
0.0
  0
LINE
  5
2F4
100
AcDbEntity
  8
LAY-6
  6
CONTINUOUS
 62
     1
100
AcDbLine
 10
156.6
 20
192.56133
 30
0.0
 11
157.1
 21
189.56133
 31
0.0
  0
LINE
  5
2F5
100
AcDbEntity
  8
LAY-6
  6
CONTINUOUS
 62
     1
100
AcDbLine
 10
157.1
 20
189.56133
 30
0.0
 11
157.6
 21
192.56133
 31
0.0
  0
LINE
  5
2F6
100
AcDbEntity
  8
LAY-6
  6
CONTINUOUS
 62
     1
100
AcDbLine
 10
157.6
 20
208.561604
 30
0.0
 11
157.1
 21
211.561604
 31
0.0
  0
LINE
  5
2F7
100
AcDbEntity
  8
LAY-6
  6
CONTINUOUS
 62
     1
100
AcDbLine
 10
157.1
 20
211.561604
 30
0.0
 11
156.6
 21
208.561604
 31
0.0
  0
LINE
  5
2F8
100
AcDbEntity
  8
LAY-6
  6
CONTINUOUS
 62
     1
100
AcDbLine
 10
126.403412
 20
244.56133
 30
0.0
 11
158.6
 21
244.56133
 31
0.0
  0
TEXT
  5
2F9
100
AcDbEntity
  8
LAY-6
  6
CONTINUOUS
 62
     2
100
AcDbText
 10
156.6
 20
224.061467
 30
0.0
 40
5.0
  1
３３
 50
90.0
 41
0.672
  7
EXCADSTD
 72
     5
 11
156.6
 21
231.394267
 31
0.0
100
AcDbText
  0
LINE
  5
2FA
100
AcDbEntity
  8
LAY-6
  6
CONTINUOUS
 62
     1
100
AcDbLine
 10
157.1
 20
211.561604
 30
0.0
 11
157.1
 21
244.56133
 31
0.0
  0
LINE
  5
2FB
100
AcDbEntity
  8
LAY-6
  6
CONTINUOUS
 62
     1
100
AcDbLine
 10
156.6
 20
214.561604
 30
0.0
 11
157.1
 21
211.561604
 31
0.0
  0
LINE
  5
2FC
100
AcDbEntity
  8
LAY-6
  6
CONTINUOUS
 62
     1
100
AcDbLine
 10
157.1
 20
211.561604
 30
0.0
 11
157.6
 21
214.561604
 31
0.0
  0
LINE
  5
2FD
100
AcDbEntity
  8
LAY-6
  6
CONTINUOUS
 62
     1
100
AcDbLine
 10
157.6
 20
241.56133
 30
0.0
 11
157.1
 21
244.56133
 31
0.0
  0
LINE
  5
2FE
100
AcDbEntity
  8
LAY-6
  6
CONTINUOUS
 62
     1
100
AcDbLine
 10
157.1
 20
244.56133
 30
0.0
 11
156.6
 21
241.56133
 31
0.0
  0
POLYLINE
  5
2FF
100
AcDbEntity
  8
LAY-6
  6
CONTINUOUS
 62
     1
100
AcDb2dPolyline
 66
     1
 10
0.0
 20
0.0
 30
0.0
 70
   128
  0
VERTEX
  5
300
100
AcDbEntity
  8
LAY-6
  6
CONTINUOUS
 62
     1
100
AcDbVertex
100
AcDb2dVertex
 10
67.153388
 20
203.850771
 30
0.0
  0
VERTEX
  5
301
100
AcDbEntity
  8
LAY-6
  6
CONTINUOUS
 62
     1
100
AcDbVertex
100
AcDb2dVertex
 10
57.33942
 20
214.939438
 30
0.0
  0
VERTEX
  5
302
100
AcDbEntity
  8
LAY-6
  6
CONTINUOUS
 62
     1
100
AcDbVertex
100
AcDb2dVertex
 10
35.23942
 20
214.939438
 30
0.0
  0
SEQEND
  5
303
100
AcDbEntity
  8
LAY-6
  6
CONTINUOUS
 62
     1
  0
LINE
  5
304
100
AcDbEntity
  8
LAY-6
  6
CONTINUOUS
 62
     1
100
AcDbLine
 10
64.790707
 20
205.765905
 30
0.0
 11
67.153388
 21
203.850771
 31
0.0
  0
LINE
  5
305
100
AcDbEntity
  8
LAY-6
  6
CONTINUOUS
 62
     1
100
AcDbLine
 10
67.153388
 20
203.850771
 30
0.0
 11
65.539544
 21
206.428659
 31
0.0
  0
TEXT
  5
306
100
AcDbEntity
  8
LAY-6
  6
CONTINUOUS
 62
     2
100
AcDbText
 10
35.23942
 20
214.939438
 30
0.0
 40
5.0
  1
セットネジ
 41
0.672
  7
EXCADSTD
 72
     5
 11
55.23942
 21
214.939438
 31
0.0
100
AcDbText
  0
LINE
  5
307
100
AcDbEntity
  8
LAY-6
  6
CONTINUOUS
 62
     1
100
AcDbLine
 10
299.403397
 20
403.6
 30
0.0
 11
299.403397
 21
434.9
 31
0.0
  0
TEXT
  5
308
100
AcDbEntity
  8
LAY-6
  6
CONTINUOUS
 62
     2
100
AcDbText
 10
290.403397
 20
433.9
 30
0.0
 40
5.0
  1
１０
 41
0.672
  7
EXCADSTD
 72
     5
 11
297.736197
 21
433.9
 31
0.0
100
AcDbText
  0
LINE
  5
309
100
AcDbEntity
  8
LAY-6
  6
CONTINUOUS
 62
     1
100
AcDbLine
 10
289.403397
 20
433.4
 30
0.0
 11
299.403397
 21
433.4
 31
0.0
  0
LINE
  5
30A
100
AcDbEntity
  8
LAY-6
  6
CONTINUOUS
 62
     1
100
AcDbLine
 10
292.403397
 20
433.9
 30
0.0
 11
289.403397
 21
433.4
 31
0.0
  0
LINE
  5
30B
100
AcDbEntity
  8
LAY-6
  6
CONTINUOUS
 62
     1
100
AcDbLine
 10
289.403397
 20
433.4
 30
0.0
 11
292.403397
 21
432.9
 31
0.0
  0
LINE
  5
30C
100
AcDbEntity
  8
LAY-6
  6
CONTINUOUS
 62
     1
100
AcDbLine
 10
296.403397
 20
432.9
 30
0.0
 11
299.403397
 21
433.4
 31
0.0
  0
LINE
  5
30D
100
AcDbEntity
  8
LAY-6
  6
CONTINUOUS
 62
     1
100
AcDbLine
 10
299.403397
 20
433.4
 30
0.0
 11
296.403397
 21
433.9
 31
0.0
  0
LINE
  5
30E
100
AcDbEntity
  8
LAY-6
  6
CONTINUOUS
 62
     1
100
AcDbLine
 10
322.403412
 20
416.8
 30
0.0
 11
322.403412
 21
434.9
 31
0.0
  0
TEXT
  5
30F
100
AcDbEntity
  8
LAY-6
  6
CONTINUOUS
 62
     2
100
AcDbText
 10
306.903405
 20
433.9
 30
0.0
 40
5.0
  1
２３
 41
0.672
  7
EXCADSTD
 72
     5
 11
314.236205
 21
433.9
 31
0.0
100
AcDbText
  0
LINE
  5
310
100
AcDbEntity
  8
LAY-6
  6
CONTINUOUS
 62
     1
100
AcDbLine
 10
299.403397
 20
433.4
 30
0.0
 11
322.403412
 21
433.4
 31
0.0
  0
LINE
  5
311
100
AcDbEntity
  8
LAY-6
  6
CONTINUOUS
 62
     1
100
AcDbLine
 10
302.403397
 20
433.9
 30
0.0
 11
299.403397
 21
433.4
 31
0.0
  0
LINE
  5
312
100
AcDbEntity
  8
LAY-6
  6
CONTINUOUS
 62
     1
100
AcDbLine
 10
299.403397
 20
433.4
 30
0.0
 11
302.403397
 21
432.9
 31
0.0
  0
LINE
  5
313
100
AcDbEntity
  8
LAY-6
  6
CONTINUOUS
 62
     1
100
AcDbLine
 10
319.403412
 20
432.9
 30
0.0
 11
322.403412
 21
433.4
 31
0.0
  0
LINE
  5
314
100
AcDbEntity
  8
LAY-6
  6
CONTINUOUS
 62
     1
100
AcDbLine
 10
322.403412
 20
433.4
 30
0.0
 11
319.403412
 21
433.9
 31
0.0
  0
LINE
  5
315
100
AcDbEntity
  8
LAY-6
  6
CONTINUOUS
 62
     1
100
AcDbLine
 10
346.403397
 20
403.6
 30
0.0
 11
346.403397
 21
434.9
 31
0.0
  0
TEXT
  5
316
100
AcDbEntity
  8
LAY-6
  6
CONTINUOUS
 62
     2
100
AcDbText
 10
330.403405
 20
433.9
 30
0.0
 40
5.0
  1
２４
 41
0.672
  7
EXCADSTD
 72
     5
 11
337.736205
 21
433.9
 31
0.0
100
AcDbText
  0
LINE
  5
317
100
AcDbEntity
  8
LAY-6
  6
CONTINUOUS
 62
     1
100
AcDbLine
 10
322.403412
 20
433.4
 30
0.0
 11
346.403397
 21
433.4
 31
0.0
  0
LINE
  5
318
100
AcDbEntity
  8
LAY-6
  6
CONTINUOUS
 62
     1
100
AcDbLine
 10
325.403412
 20
433.9
 30
0.0
 11
322.403412
 21
433.4
 31
0.0
  0
LINE
  5
319
100
AcDbEntity
  8
LAY-6
  6
CONTINUOUS
 62
     1
100
AcDbLine
 10
322.403412
 20
433.4
 30
0.0
 11
325.403412
 21
432.9
 31
0.0
  0
LINE
  5
31A
100
AcDbEntity
  8
LAY-6
  6
CONTINUOUS
 62
     1
100
AcDbLine
 10
343.403397
 20
432.9
 30
0.0
 11
346.403397
 21
433.4
 31
0.0
  0
LINE
  5
31B
100
AcDbEntity
  8
LAY-6
  6
CONTINUOUS
 62
     1
100
AcDbLine
 10
346.403397
 20
433.4
 30
0.0
 11
343.403397
 21
433.9
 31
0.0
  0
LINE
  5
31C
100
AcDbEntity
  8
LAY-6
  6
CONTINUOUS
 62
     1
100
AcDbLine
 10
369.403397
 20
416.8
 30
0.0
 11
369.403397
 21
434.9
 31
0.0
  0
TEXT
  5
31D
100
AcDbEntity
  8
LAY-6
  6
CONTINUOUS
 62
     2
100
AcDbText
 10
353.903397
 20
433.9
 30
0.0
 40
5.0
  1
２３
 41
0.672
  7
EXCADSTD
 72
     5
 11
361.236197
 21
433.9
 31
0.0
100
AcDbText
  0
LINE
  5
31E
100
AcDbEntity
  8
LAY-6
  6
CONTINUOUS
 62
     1
100
AcDbLine
 10
346.403397
 20
433.4
 30
0.0
 11
369.403397
 21
433.4
 31
0.0
  0
LINE
  5
31F
100
AcDbEntity
  8
LAY-6
  6
CONTINUOUS
 62
     1
100
AcDbLine
 10
349.403397
 20
433.9
 30
0.0
 11
346.403397
 21
433.4
 31
0.0
  0
LINE
  5
320
100
AcDbEntity
  8
LAY-6
  6
CONTINUOUS
 62
     1
100
AcDbLine
 10
346.403397
 20
433.4
 30
0.0
 11
349.403397
 21
432.9
 31
0.0
  0
LINE
  5
321
100
AcDbEntity
  8
LAY-6
  6
CONTINUOUS
 62
     1
100
AcDbLine
 10
366.403397
 20
432.9
 30
0.0
 11
369.403397
 21
433.4
 31
0.0
  0
LINE
  5
322
100
AcDbEntity
  8
LAY-6
  6
CONTINUOUS
 62
     1
100
AcDbLine
 10
369.403397
 20
433.4
 30
0.0
 11
366.403397
 21
433.9
 31
0.0
  0
TEXT
  5
323
100
AcDbEntity
  8
LAY-6
  6
CONTINUOUS
 62
     2
100
AcDbText
 10
370.403397
 20
433.9
 30
0.0
 40
5.0
  1
１０
 41
0.672
  7
EXCADSTD
 72
     5
 11
377.736197
 21
433.9
 31
0.0
100
AcDbText
  0
LINE
  5
324
100
AcDbEntity
  8
LAY-6
  6
CONTINUOUS
 62
     1
100
AcDbLine
 10
369.403397
 20
433.4
 30
0.0
 11
379.403397
 21
433.4
 31
0.0
  0
LINE
  5
325
100
AcDbEntity
  8
LAY-6
  6
CONTINUOUS
 62
     1
100
AcDbLine
 10
372.403397
 20
433.9
 30
0.0
 11
369.403397
 21
433.4
 31
0.0
  0
LINE
  5
326
100
AcDbEntity
  8
LAY-6
  6
CONTINUOUS
 62
     1
100
AcDbLine
 10
369.403397
 20
433.4
 30
0.0
 11
372.403397
 21
432.9
 31
0.0
  0
LINE
  5
327
100
AcDbEntity
  8
LAY-6
  6
CONTINUOUS
 62
     1
100
AcDbLine
 10
376.403397
 20
432.9
 30
0.0
 11
379.403397
 21
433.4
 31
0.0
  0
LINE
  5
328
100
AcDbEntity
  8
LAY-6
  6
CONTINUOUS
 62
     1
100
AcDbLine
 10
379.403397
 20
433.4
 30
0.0
 11
376.403397
 21
433.9
 31
0.0
  0
LINE
  5
329
100
AcDbEntity
  8
LAY-6
  6
CONTINUOUS
 62
     1
100
AcDbLine
 10
285.403381
 20
339.491119
 30
0.0
 11
285.403381
 21
336.7
 31
0.0
  0
LINE
  5
32A
100
AcDbEntity
  8
LAY-6
  6
CONTINUOUS
 62
     1
100
AcDbLine
 10
343.403427
 20
375.347504
 30
0.0
 11
343.403427
 21
336.7
 31
0.0
  0
TEXT
  5
32B
100
AcDbEntity
  8
LAY-6
  6
CONTINUOUS
 62
     2
100
AcDbText
 10
310.403404
 20
338.7
 30
0.0
 40
5.0
  1
５８
 41
0.672
  7
EXCADSTD
 72
     5
 11
317.736204
 21
338.7
 31
0.0
100
AcDbText
  0
LINE
  5
32C
100
AcDbEntity
  8
LAY-6
  6
CONTINUOUS
 62
     1
100
AcDbLine
 10
285.403381
 20
338.2
 30
0.0
 11
343.403427
 21
338.2
 31
0.0
  0
LINE
  5
32D
100
AcDbEntity
  8
LAY-6
  6
CONTINUOUS
 62
     1
100
AcDbLine
 10
288.403381
 20
338.7
 30
0.0
 11
285.403381
 21
338.2
 31
0.0
  0
LINE
  5
32E
100
AcDbEntity
  8
LAY-6
  6
CONTINUOUS
 62
     1
100
AcDbLine
 10
285.403381
 20
338.2
 30
0.0
 11
288.403381
 21
337.7
 31
0.0
  0
LINE
  5
32F
100
AcDbEntity
  8
LAY-6
  6
CONTINUOUS
 62
     1
100
AcDbLine
 10
340.403427
 20
337.7
 30
0.0
 11
343.403427
 21
338.2
 31
0.0
  0
LINE
  5
330
100
AcDbEntity
  8
LAY-6
  6
CONTINUOUS
 62
     1
100
AcDbLine
 10
343.403427
 20
338.2
 30
0.0
 11
340.403427
 21
338.7
 31
0.0
  0
LINE
  5
331
100
AcDbEntity
  8
LAY-6
  6
CONTINUOUS
 62
     1
100
AcDbLine
 10
376.403397
 20
389.491089
 30
0.0
 11
393.9
 21
389.491089
 31
0.0
  0
LINE
  5
332
100
AcDbEntity
  8
LAY-6
  6
CONTINUOUS
 62
     1
100
AcDbLine
 10
354.3
 20
396.491089
 30
0.0
 11
393.9
 21
396.491089
 31
0.0
  0
TEXT
  5
333
100
AcDbEntity
  8
LAY-6
  6
CONTINUOUS
 62
     2
100
AcDbText
 10
391.9
 20
390.991089
 30
0.0
 40
5.0
  1
７
 50
90.0
 41
0.672
  7
EXCADSTD
 72
     5
 11
391.9
 21
394.191089
 31
0.0
100
AcDbText
  0
LINE
  5
334
100
AcDbEntity
  8
LAY-6
  6
CONTINUOUS
 62
     1
100
AcDbLine
 10
392.4
 20
389.491089
 30
0.0
 11
392.4
 21
396.491089
 31
0.0
  0
LINE
  5
335
100
AcDbEntity
  8
LAY-6
  6
CONTINUOUS
 62
     1
100
AcDbLine
 10
391.9
 20
392.491089
 30
0.0
 11
392.4
 21
389.491089
 31
0.0
  0
LINE
  5
336
100
AcDbEntity
  8
LAY-6
  6
CONTINUOUS
 62
     1
100
AcDbLine
 10
392.4
 20
389.491089
 30
0.0
 11
392.9
 21
392.491089
 31
0.0
  0
LINE
  5
337
100
AcDbEntity
  8
LAY-6
  6
CONTINUOUS
 62
     1
100
AcDbLine
 10
392.9
 20
393.491089
 30
0.0
 11
392.4
 21
396.491089
 31
0.0
  0
LINE
  5
338
100
AcDbEntity
  8
LAY-6
  6
CONTINUOUS
 62
     1
100
AcDbLine
 10
392.4
 20
396.491089
 30
0.0
 11
391.9
 21
393.491089
 31
0.0
  0
LINE
  5
339
100
AcDbEntity
  8
LAY-6
  6
CONTINUOUS
 62
     1
100
AcDbLine
 10
377.2
 20
408.491089
 30
0.0
 11
393.9
 21
408.491089
 31
0.0
  0
TEXT
  5
33A
100
AcDbEntity
  8
LAY-6
  6
CONTINUOUS
 62
     2
100
AcDbText
 10
391.9
 20
398.491089
 30
0.0
 40
5.0
  1
１２
 50
90.0
 41
0.672
  7
EXCADSTD
 72
     5
 11
391.9
 21
405.823889
 31
0.0
100
AcDbText
  0
LINE
  5
33B
100
AcDbEntity
  8
LAY-6
  6
CONTINUOUS
 62
     1
100
AcDbLine
 10
392.4
 20
396.491089
 30
0.0
 11
392.4
 21
408.491089
 31
0.0
  0
LINE
  5
33C
100
AcDbEntity
  8
LAY-6
  6
CONTINUOUS
 62
     1
100
AcDbLine
 10
391.9
 20
399.491089
 30
0.0
 11
392.4
 21
396.491089
 31
0.0
  0
LINE
  5
33D
100
AcDbEntity
  8
LAY-6
  6
CONTINUOUS
 62
     1
100
AcDbLine
 10
392.4
 20
396.491089
 30
0.0
 11
392.9
 21
399.491089
 31
0.0
  0
LINE
  5
33E
100
AcDbEntity
  8
LAY-6
  6
CONTINUOUS
 62
     1
100
AcDbLine
 10
392.9
 20
405.491089
 30
0.0
 11
392.4
 21
408.491089
 31
0.0
  0
LINE
  5
33F
100
AcDbEntity
  8
LAY-6
  6
CONTINUOUS
 62
     1
100
AcDbLine
 10
392.4
 20
408.491089
 30
0.0
 11
391.9
 21
405.491089
 31
0.0
  0
LINE
  5
340
100
AcDbEntity
  8
LAY-6
  6
CONTINUOUS
 62
     1
100
AcDbLine
 10
339.378772
 20
361.491089
 30
0.0
 11
406.7
 21
361.491089
 31
0.0
  0
LINE
  5
341
100
AcDbEntity
  8
LAY-6
  6
CONTINUOUS
 62
     1
100
AcDbLine
 10
440.403375
 20
383.491363
 30
0.0
 11
403.7
 21
383.491363
 31
0.0
  0
TEXT
  5
342
100
AcDbEntity
  8
LAY-6
  6
CONTINUOUS
 62
     2
100
AcDbText
 10
404.7
 20
368.491226
 30
0.0
 40
5.0
  1
２２
 50
90.0
 41
0.672
  7
EXCADSTD
 72
     5
 11
404.7
 21
375.824026
 31
0.0
100
AcDbText
  0
LINE
  5
343
100
AcDbEntity
  8
LAY-6
  6
CONTINUOUS
 62
     1
100
AcDbLine
 10
405.2
 20
361.491089
 30
0.0
 11
405.2
 21
383.491363
 31
0.0
  0
LINE
  5
344
100
AcDbEntity
  8
LAY-6
  6
CONTINUOUS
 62
     1
100
AcDbLine
 10
404.7
 20
364.491089
 30
0.0
 11
405.2
 21
361.491089
 31
0.0
  0
LINE
  5
345
100
AcDbEntity
  8
LAY-6
  6
CONTINUOUS
 62
     1
100
AcDbLine
 10
405.2
 20
361.491089
 30
0.0
 11
405.7
 21
364.491089
 31
0.0
  0
LINE
  5
346
100
AcDbEntity
  8
LAY-6
  6
CONTINUOUS
 62
     1
100
AcDbLine
 10
405.7
 20
380.491363
 30
0.0
 11
405.2
 21
383.491363
 31
0.0
  0
LINE
  5
347
100
AcDbEntity
  8
LAY-6
  6
CONTINUOUS
 62
     1
100
AcDbLine
 10
405.2
 20
383.491363
 30
0.0
 11
404.7
 21
380.491363
 31
0.0
  0
LINE
  5
348
100
AcDbEntity
  8
LAY-6
  6
CONTINUOUS
 62
     1
100
AcDbLine
 10
376.403397
 20
417.491089
 30
0.0
 11
406.7
 21
417.491089
 31
0.0
  0
TEXT
  5
349
100
AcDbEntity
  8
LAY-6
  6
CONTINUOUS
 62
     2
100
AcDbText
 10
404.7
 20
399.491089
 30
0.0
 40
5.0
  1
２８
 50
90.0
 41
0.672
  7
EXCADSTD
 72
     5
 11
404.7
 21
406.823889
 31
0.0
100
AcDbText
  0
LINE
  5
34A
100
AcDbEntity
  8
LAY-6
  6
CONTINUOUS
 62
     1
100
AcDbLine
 10
405.2
 20
389.491089
 30
0.0
 11
405.2
 21
417.491089
 31
0.0
  0
LINE
  5
34B
100
AcDbEntity
  8
LAY-6
  6
CONTINUOUS
 62
     1
100
AcDbLine
 10
404.7
 20
392.491089
 30
0.0
 11
405.2
 21
389.491089
 31
0.0
  0
LINE
  5
34C
100
AcDbEntity
  8
LAY-6
  6
CONTINUOUS
 62
     1
100
AcDbLine
 10
405.2
 20
389.491089
 30
0.0
 11
405.7
 21
392.491089
 31
0.0
  0
LINE
  5
34D
100
AcDbEntity
  8
LAY-6
  6
CONTINUOUS
 62
     1
100
AcDbLine
 10
405.7
 20
414.491089
 30
0.0
 11
405.2
 21
417.491089
 31
0.0
  0
LINE
  5
34E
100
AcDbEntity
  8
LAY-6
  6
CONTINUOUS
 62
     1
100
AcDbLine
 10
405.2
 20
417.491089
 30
0.0
 11
404.7
 21
414.491089
 31
0.0
  0
LINE
  5
34F
100
AcDbEntity
  8
LAY-6
  6
CONTINUOUS
 62
     1
100
AcDbLine
 10
303.403381
 20
211.56131
 30
0.0
 11
318.9
 21
211.56131
 31
0.0
  0
LINE
  5
350
100
AcDbEntity
  8
LAY-6
  6
CONTINUOUS
 62
     1
100
AcDbLine
 10
306.911987
 20
189.56131
 30
0.0
 11
318.9
 21
189.56131
 31
0.0
  0
TEXT
  5
351
100
AcDbEntity
  8
LAY-6
  6
CONTINUOUS
 62
     2
100
AcDbText
 10
316.9
 20
196.56131
 30
0.0
 40
5.0
  1
２２
 50
90.0
 41
0.672
  7
EXCADSTD
 72
     5
 11
316.9
 21
203.89411
 31
0.0
100
AcDbText
  0
LINE
  5
352
100
AcDbEntity
  8
LAY-6
  6
CONTINUOUS
 62
     1
100
AcDbLine
 10
317.4
 20
211.56131
 30
0.0
 11
317.4
 21
189.56131
 31
0.0
  0
LINE
  5
353
100
AcDbEntity
  8
LAY-6
  6
CONTINUOUS
 62
     1
100
AcDbLine
 10
317.9
 20
208.56131
 30
0.0
 11
317.4
 21
211.56131
 31
0.0
  0
LINE
  5
354
100
AcDbEntity
  8
LAY-6
  6
CONTINUOUS
 62
     1
100
AcDbLine
 10
317.4
 20
211.56131
 30
0.0
 11
316.9
 21
208.56131
 31
0.0
  0
LINE
  5
355
100
AcDbEntity
  8
LAY-6
  6
CONTINUOUS
 62
     1
100
AcDbLine
 10
316.9
 20
192.56131
 30
0.0
 11
317.4
 21
189.56131
 31
0.0
  0
LINE
  5
356
100
AcDbEntity
  8
LAY-6
  6
CONTINUOUS
 62
     1
100
AcDbLine
 10
317.4
 20
189.56131
 30
0.0
 11
317.9
 21
192.56131
 31
0.0
  0
LINE
  5
357
100
AcDbEntity
  8
LAY-6
  6
CONTINUOUS
 62
     1
100
AcDbLine
 10
285.403381
 20
213.715668
 30
0.0
 11
285.403381
 21
231.7
 31
0.0
  0
TEXT
  5
358
100
AcDbEntity
  8
LAY-6
  6
CONTINUOUS
 62
     2
100
AcDbText
 10
281.903385
 20
230.7
 30
0.0
 40
5.0
  1
３
 41
0.672
  7
EXCADSTD
 72
     5
 11
285.103385
 21
230.7
 31
0.0
100
AcDbText
  0
LINE
  5
359
100
AcDbEntity
  8
LAY-6
  6
CONTINUOUS
 62
     1
100
AcDbLine
 10
277.40339
 20
230.2
 30
0.0
 11
282.40339
 21
230.2
 31
0.0
  0
LINE
  5
35A
100
AcDbEntity
  8
LAY-6
  6
CONTINUOUS
 62
     1
100
AcDbLine
 10
285.403381
 20
230.2
 30
0.0
 11
290.403381
 21
230.2
 31
0.0
  0
LINE
  5
35B
100
AcDbEntity
  8
LAY-6
  6
CONTINUOUS
 62
     1
100
AcDbLine
 10
279.40339
 20
229.7
 30
0.0
 11
282.40339
 21
230.2
 31
0.0
  0
LINE
  5
35C
100
AcDbEntity
  8
LAY-6
  6
CONTINUOUS
 62
     1
100
AcDbLine
 10
282.40339
 20
230.2
 30
0.0
 11
279.40339
 21
230.7
 31
0.0
  0
LINE
  5
35D
100
AcDbEntity
  8
LAY-6
  6
CONTINUOUS
 62
     1
100
AcDbLine
 10
288.403381
 20
230.7
 30
0.0
 11
285.403381
 21
230.2
 31
0.0
  0
LINE
  5
35E
100
AcDbEntity
  8
LAY-6
  6
CONTINUOUS
 62
     1
100
AcDbLine
 10
285.403381
 20
230.2
 30
0.0
 11
288.403381
 21
229.7
 31
0.0
  0
LINE
  5
35F
100
AcDbEntity
  8
LAY-6
  6
CONTINUOUS
 62
     1
100
AcDbLine
 10
269.403381
 20
244.56131
 30
0.0
 11
269.403381
 21
261.8
 31
0.0
  0
LINE
  5
360
100
AcDbEntity
  8
LAY-6
  6
CONTINUOUS
 62
     1
100
AcDbLine
 10
278.403381
 20
253.561316
 30
0.0
 11
278.403381
 21
261.8
 31
0.0
  0
TEXT
  5
361
100
AcDbEntity
  8
LAY-6
  6
CONTINUOUS
 62
     2
100
AcDbText
 10
271.903381
 20
260.8
 30
0.0
 40
5.0
  1
９
 41
0.672
  7
EXCADSTD
 72
     5
 11
275.103381
 21
260.8
 31
0.0
100
AcDbText
  0
LINE
  5
362
100
AcDbEntity
  8
LAY-6
  6
CONTINUOUS
 62
     1
100
AcDbLine
 10
269.403381
 20
260.3
 30
0.0
 11
278.403381
 21
260.3
 31
0.0
  0
LINE
  5
363
100
AcDbEntity
  8
LAY-6
  6
CONTINUOUS
 62
     1
100
AcDbLine
 10
272.403381
 20
260.8
 30
0.0
 11
269.403381
 21
260.3
 31
0.0
  0
LINE
  5
364
100
AcDbEntity
  8
LAY-6
  6
CONTINUOUS
 62
     1
100
AcDbLine
 10
269.403381
 20
260.3
 30
0.0
 11
272.403381
 21
259.8
 31
0.0
  0
LINE
  5
365
100
AcDbEntity
  8
LAY-6
  6
CONTINUOUS
 62
     1
100
AcDbLine
 10
275.403381
 20
259.8
 30
0.0
 11
278.403381
 21
260.3
 31
0.0
  0
LINE
  5
366
100
AcDbEntity
  8
LAY-6
  6
CONTINUOUS
 62
     1
100
AcDbLine
 10
278.403381
 20
260.3
 30
0.0
 11
275.403381
 21
260.8
 31
0.0
  0
LINE
  5
367
100
AcDbEntity
  8
LAY-6
  6
CONTINUOUS
 62
     1
100
AcDbLine
 10
282.40339
 20
253.561316
 30
0.0
 11
282.40339
 21
261.8
 31
0.0
  0
TEXT
  5
368
100
AcDbEntity
  8
LAY-6
  6
CONTINUOUS
 62
     2
100
AcDbText
 10
278.403385
 20
260.8
 30
0.0
 40
5.0
  1
４
 41
0.672
  7
EXCADSTD
 72
     5
 11
281.603385
 21
260.8
 31
0.0
100
AcDbText
  0
LINE
  5
369
100
AcDbEntity
  8
LAY-6
  6
CONTINUOUS
 62
     1
100
AcDbLine
 10
273.403381
 20
260.3
 30
0.0
 11
278.403381
 21
260.3
 31
0.0
  0
LINE
  5
36A
100
AcDbEntity
  8
LAY-6
  6
CONTINUOUS
 62
     1
100
AcDbLine
 10
282.40339
 20
260.3
 30
0.0
 11
287.40339
 21
260.3
 31
0.0
  0
LINE
  5
36B
100
AcDbEntity
  8
LAY-6
  6
CONTINUOUS
 62
     1
100
AcDbLine
 10
275.403381
 20
259.8
 30
0.0
 11
278.403381
 21
260.3
 31
0.0
  0
LINE
  5
36C
100
AcDbEntity
  8
LAY-6
  6
CONTINUOUS
 62
     1
100
AcDbLine
 10
278.403381
 20
260.3
 30
0.0
 11
275.403381
 21
260.8
 31
0.0
  0
LINE
  5
36D
100
AcDbEntity
  8
LAY-6
  6
CONTINUOUS
 62
     1
100
AcDbLine
 10
285.40339
 20
260.8
 30
0.0
 11
282.40339
 21
260.3
 31
0.0
  0
LINE
  5
36E
100
AcDbEntity
  8
LAY-6
  6
CONTINUOUS
 62
     1
100
AcDbLine
 10
282.40339
 20
260.3
 30
0.0
 11
285.40339
 21
259.8
 31
0.0
  0
LINE
  5
36F
100
AcDbEntity
  8
LAY-6
  6
CONTINUOUS
 62
     1
100
AcDbLine
 10
267.403397
 20
208.56131
 30
0.0
 11
253.4
 21
208.56131
 31
0.0
  0
LINE
  5
370
100
AcDbEntity
  8
LAY-6
  6
CONTINUOUS
 62
     1
100
AcDbLine
 10
270.403381
 20
215.56131
 30
0.0
 11
253.4
 21
215.56131
 31
0.0
  0
TEXT
  5
371
100
AcDbEntity
  8
LAY-6
  6
CONTINUOUS
 62
     2
100
AcDbText
 10
254.4
 20
210.06131
 30
0.0
 40
5.0
  1
７
 50
90.0
 41
0.672
  7
EXCADSTD
 72
     5
 11
254.4
 21
213.26131
 31
0.0
100
AcDbText
  0
LINE
  5
372
100
AcDbEntity
  8
LAY-6
  6
CONTINUOUS
 62
     1
100
AcDbLine
 10
254.9
 20
208.56131
 30
0.0
 11
254.9
 21
215.56131
 31
0.0
  0
LINE
  5
373
100
AcDbEntity
  8
LAY-6
  6
CONTINUOUS
 62
     1
100
AcDbLine
 10
254.4
 20
211.56131
 30
0.0
 11
254.9
 21
208.56131
 31
0.0
  0
LINE
  5
374
100
AcDbEntity
  8
LAY-6
  6
CONTINUOUS
 62
     1
100
AcDbLine
 10
254.9
 20
208.56131
 30
0.0
 11
255.4
 21
211.56131
 31
0.0
  0
LINE
  5
375
100
AcDbEntity
  8
LAY-6
  6
CONTINUOUS
 62
     1
100
AcDbLine
 10
255.4
 20
212.56131
 30
0.0
 11
254.9
 21
215.56131
 31
0.0
  0
LINE
  5
376
100
AcDbEntity
  8
LAY-6
  6
CONTINUOUS
 62
     1
100
AcDbLine
 10
254.9
 20
215.56131
 30
0.0
 11
254.4
 21
212.56131
 31
0.0
  0
LINE
  5
377
100
AcDbEntity
  8
LAY-6
  6
CONTINUOUS
 62
     1
100
AcDbLine
 10
270.403381
 20
245.56131
 30
0.0
 11
253.4
 21
245.56131
 31
0.0
  0
TEXT
  5
378
100
AcDbEntity
  8
LAY-6
  6
CONTINUOUS
 62
     2
100
AcDbText
 10
254.4
 20
226.56131
 30
0.0
 40
5.0
  1
３０
 50
90.0
 41
0.672
  7
EXCADSTD
 72
     5
 11
254.4
 21
233.89411
 31
0.0
100
AcDbText
  0
LINE
  5
379
100
AcDbEntity
  8
LAY-6
  6
CONTINUOUS
 62
     1
100
AcDbLine
 10
254.9
 20
215.56131
 30
0.0
 11
254.9
 21
245.56131
 31
0.0
  0
LINE
  5
37A
100
AcDbEntity
  8
LAY-6
  6
CONTINUOUS
 62
     1
100
AcDbLine
 10
254.4
 20
218.56131
 30
0.0
 11
254.9
 21
215.56131
 31
0.0
  0
LINE
  5
37B
100
AcDbEntity
  8
LAY-6
  6
CONTINUOUS
 62
     1
100
AcDbLine
 10
254.9
 20
215.56131
 30
0.0
 11
255.4
 21
218.56131
 31
0.0
  0
LINE
  5
37C
100
AcDbEntity
  8
LAY-6
  6
CONTINUOUS
 62
     1
100
AcDbLine
 10
255.4
 20
242.56131
 30
0.0
 11
254.9
 21
245.56131
 31
0.0
  0
LINE
  5
37D
100
AcDbEntity
  8
LAY-6
  6
CONTINUOUS
 62
     1
100
AcDbLine
 10
254.9
 20
245.56131
 30
0.0
 11
254.4
 21
242.56131
 31
0.0
  0
LINE
  5
37E
100
AcDbEntity
  8
LAY-6
  6
CONTINUOUS
 62
     1
100
AcDbLine
 10
263.649658
 20
189.56131
 30
0.0
 11
242.8
 21
189.56131
 31
0.0
  0
LINE
  5
37F
100
AcDbEntity
  8
LAY-6
  6
CONTINUOUS
 62
     1
100
AcDbLine
 10
253.4
 20
208.56131
 30
0.0
 11
242.8
 21
208.56131
 31
0.0
  0
TEXT
  5
380
100
AcDbEntity
  8
LAY-6
  6
CONTINUOUS
 62
     2
100
AcDbText
 10
243.8
 20
195.06131
 30
0.0
 40
5.0
  1
１９
 50
90.0
 41
0.672
  7
EXCADSTD
 72
     5
 11
243.8
 21
202.39411
 31
0.0
100
AcDbText
  0
LINE
  5
381
100
AcDbEntity
  8
LAY-6
  6
CONTINUOUS
 62
     1
100
AcDbLine
 10
244.3
 20
189.56131
 30
0.0
 11
244.3
 21
208.56131
 31
0.0
  0
LINE
  5
382
100
AcDbEntity
  8
LAY-6
  6
CONTINUOUS
 62
     1
100
AcDbLine
 10
243.8
 20
192.56131
 30
0.0
 11
244.3
 21
189.56131
 31
0.0
  0
LINE
  5
383
100
AcDbEntity
  8
LAY-6
  6
CONTINUOUS
 62
     1
100
AcDbLine
 10
244.3
 20
189.56131
 30
0.0
 11
244.8
 21
192.56131
 31
0.0
  0
LINE
  5
384
100
AcDbEntity
  8
LAY-6
  6
CONTINUOUS
 62
     1
100
AcDbLine
 10
244.8
 20
205.56131
 30
0.0
 11
244.3
 21
208.56131
 31
0.0
  0
LINE
  5
385
100
AcDbEntity
  8
LAY-6
  6
CONTINUOUS
 62
     1
100
AcDbLine
 10
244.3
 20
208.56131
 30
0.0
 11
243.8
 21
205.56131
 31
0.0
  0
LINE
  5
386
100
AcDbEntity
  8
LAY-6
  6
CONTINUOUS
 62
     1
100
AcDbLine
 10
253.4
 20
245.56131
 30
0.0
 11
242.8
 21
245.56131
 31
0.0
  0
TEXT
  5
387
100
AcDbEntity
  8
LAY-6
  6
CONTINUOUS
 62
     2
100
AcDbText
 10
243.8
 20
223.06131
 30
0.0
 40
5.0
  1
３７
 50
90.0
 41
0.672
  7
EXCADSTD
 72
     5
 11
243.8
 21
230.39411
 31
0.0
100
AcDbText
  0
LINE
  5
388
100
AcDbEntity
  8
LAY-6
  6
CONTINUOUS
 62
     1
100
AcDbLine
 10
244.3
 20
208.56131
 30
0.0
 11
244.3
 21
245.56131
 31
0.0
  0
LINE
  5
389
100
AcDbEntity
  8
LAY-6
  6
CONTINUOUS
 62
     1
100
AcDbLine
 10
243.8
 20
211.56131
 30
0.0
 11
244.3
 21
208.56131
 31
0.0
  0
LINE
  5
38A
100
AcDbEntity
  8
LAY-6
  6
CONTINUOUS
 62
     1
100
AcDbLine
 10
244.3
 20
208.56131
 30
0.0
 11
244.8
 21
211.56131
 31
0.0
  0
LINE
  5
38B
100
AcDbEntity
  8
LAY-6
  6
CONTINUOUS
 62
     1
100
AcDbLine
 10
244.8
 20
242.56131
 30
0.0
 11
244.3
 21
245.56131
 31
0.0
  0
LINE
  5
38C
100
AcDbEntity
  8
LAY-6
  6
CONTINUOUS
 62
     1
100
AcDbLine
 10
244.3
 20
245.56131
 30
0.0
 11
243.8
 21
242.56131
 31
0.0
  0
LINE
  5
38D
100
AcDbEntity
  8
LAY-6
  6
CONTINUOUS
 62
     1
100
AcDbLine
 10
697.977325
 20
422.7
 30
0.0
 11
697.977325
 21
439.1
 31
0.0
  0
LINE
  5
38E
100
AcDbEntity
  8
LAY-6
  6
CONTINUOUS
 62
     1
100
AcDbLine
 10
716.977295
 20
423.215201
 30
0.0
 11
716.977295
 21
438.7
 31
0.0
  0
TEXT
  5
38F
100
AcDbEntity
  8
LAY-6
  6
CONTINUOUS
 62
     2
100
AcDbText
 10
703.47731
 20
437.7
 30
0.0
 40
5.0
  1
１９
 41
0.672
  7
EXCADSTD
 72
     5
 11
710.81011
 21
437.7
 31
0.0
100
AcDbText
  0
LINE
  5
390
100
AcDbEntity
  8
LAY-6
  6
CONTINUOUS
 62
     1
100
AcDbLine
 10
697.977325
 20
437.2
 30
0.0
 11
716.977295
 21
437.2
 31
0.0
  0
LINE
  5
391
100
AcDbEntity
  8
LAY-6
  6
CONTINUOUS
 62
     1
100
AcDbLine
 10
700.977325
 20
437.7
 30
0.0
 11
697.977325
 21
437.2
 31
0.0
  0
LINE
  5
392
100
AcDbEntity
  8
LAY-6
  6
CONTINUOUS
 62
     1
100
AcDbLine
 10
697.977325
 20
437.2
 30
0.0
 11
700.977325
 21
436.7
 31
0.0
  0
LINE
  5
393
100
AcDbEntity
  8
LAY-6
  6
CONTINUOUS
 62
     1
100
AcDbLine
 10
713.977295
 20
436.7
 30
0.0
 11
716.977295
 21
437.2
 31
0.0
  0
LINE
  5
394
100
AcDbEntity
  8
LAY-6
  6
CONTINUOUS
 62
     1
100
AcDbLine
 10
716.977295
 20
437.2
 30
0.0
 11
713.977295
 21
437.7
 31
0.0
  0
LINE
  5
395
100
AcDbEntity
  8
LAY-6
  6
CONTINUOUS
 62
     1
100
AcDbLine
 10
756.977325
 20
412.315201
 30
0.0
 11
756.977325
 21
438.7
 31
0.0
  0
TEXT
  5
396
100
AcDbEntity
  8
LAY-6
  6
CONTINUOUS
 62
     2
100
AcDbText
 10
732.97731
 20
437.7
 30
0.0
 40
5.0
  1
４０
 41
0.672
  7
EXCADSTD
 72
     5
 11
740.31011
 21
437.7
 31
0.0
100
AcDbText
  0
LINE
  5
397
100
AcDbEntity
  8
LAY-6
  6
CONTINUOUS
 62
     1
100
AcDbLine
 10
716.977295
 20
437.2
 30
0.0
 11
756.977325
 21
437.2
 31
0.0
  0
LINE
  5
398
100
AcDbEntity
  8
LAY-6
  6
CONTINUOUS
 62
     1
100
AcDbLine
 10
719.977295
 20
437.7
 30
0.0
 11
716.977295
 21
437.2
 31
0.0
  0
LINE
  5
399
100
AcDbEntity
  8
LAY-6
  6
CONTINUOUS
 62
     1
100
AcDbLine
 10
716.977295
 20
437.2
 30
0.0
 11
719.977295
 21
436.7
 31
0.0
  0
LINE
  5
39A
100
AcDbEntity
  8
LAY-6
  6
CONTINUOUS
 62
     1
100
AcDbLine
 10
753.977325
 20
436.7
 30
0.0
 11
756.977325
 21
437.2
 31
0.0
  0
LINE
  5
39B
100
AcDbEntity
  8
LAY-6
  6
CONTINUOUS
 62
     1
100
AcDbLine
 10
756.977325
 20
437.2
 30
0.0
 11
753.977325
 21
437.7
 31
0.0
  0
LINE
  5
39C
100
AcDbEntity
  8
LAY-6
  6
CONTINUOUS
 62
     1
100
AcDbLine
 10
697.977325
 20
379.866226
 30
0.0
 11
697.977325
 21
363.3
 31
0.0
  0
LINE
  5
39D
100
AcDbEntity
  8
LAY-6
  6
CONTINUOUS
 62
     1
100
AcDbLine
 10
719.977722
 20
395.215171
 30
0.0
 11
719.977722
 21
363.3
 31
0.0
  0
TEXT
  5
39E
100
AcDbEntity
  8
LAY-6
  6
CONTINUOUS
 62
     2
100
AcDbText
 10
704.977524
 20
365.3
 30
0.0
 40
5.0
  1
２２
 41
0.672
  7
EXCADSTD
 72
     5
 11
712.310324
 21
365.3
 31
0.0
100
AcDbText
  0
LINE
  5
39F
100
AcDbEntity
  8
LAY-6
  6
CONTINUOUS
 62
     1
100
AcDbLine
 10
697.977325
 20
364.8
 30
0.0
 11
719.977722
 21
364.8
 31
0.0
  0
LINE
  5
3A0
100
AcDbEntity
  8
LAY-6
  6
CONTINUOUS
 62
     1
100
AcDbLine
 10
700.977325
 20
365.3
 30
0.0
 11
697.977325
 21
364.8
 31
0.0
  0
LINE
  5
3A1
100
AcDbEntity
  8
LAY-6
  6
CONTINUOUS
 62
     1
100
AcDbLine
 10
697.977325
 20
364.8
 30
0.0
 11
700.977325
 21
364.3
 31
0.0
  0
LINE
  5
3A2
100
AcDbEntity
  8
LAY-6
  6
CONTINUOUS
 62
     1
100
AcDbLine
 10
716.977722
 20
364.3
 30
0.0
 11
719.977722
 21
364.8
 31
0.0
  0
LINE
  5
3A3
100
AcDbEntity
  8
LAY-6
  6
CONTINUOUS
 62
     1
100
AcDbLine
 10
719.977722
 20
364.8
 30
0.0
 11
716.977722
 21
365.3
 31
0.0
  0
LINE
  5
3A4
100
AcDbEntity
  8
LAY-6
  6
CONTINUOUS
 62
     1
100
AcDbLine
 10
752.977325
 20
389.315231
 30
0.0
 11
752.977325
 21
363.3
 31
0.0
  0
TEXT
  5
3A5
100
AcDbEntity
  8
LAY-6
  6
CONTINUOUS
 62
     2
100
AcDbText
 10
732.477523
 20
365.3
 30
0.0
 40
5.0
  1
３３
 41
0.672
  7
EXCADSTD
 72
     5
 11
739.810323
 21
365.3
 31
0.0
100
AcDbText
  0
LINE
  5
3A6
100
AcDbEntity
  8
LAY-6
  6
CONTINUOUS
 62
     1
100
AcDbLine
 10
719.977722
 20
364.8
 30
0.0
 11
752.977325
 21
364.8
 31
0.0
  0
LINE
  5
3A7
100
AcDbEntity
  8
LAY-6
  6
CONTINUOUS
 62
     1
100
AcDbLine
 10
722.977722
 20
365.3
 30
0.0
 11
719.977722
 21
364.8
 31
0.0
  0
LINE
  5
3A8
100
AcDbEntity
  8
LAY-6
  6
CONTINUOUS
 62
     1
100
AcDbLine
 10
719.977722
 20
364.8
 30
0.0
 11
722.977722
 21
364.3
 31
0.0
  0
LINE
  5
3A9
100
AcDbEntity
  8
LAY-6
  6
CONTINUOUS
 62
     1
100
AcDbLine
 10
749.977325
 20
364.3
 30
0.0
 11
752.977325
 21
364.8
 31
0.0
  0
LINE
  5
3AA
100
AcDbEntity
  8
LAY-6
  6
CONTINUOUS
 62
     1
100
AcDbLine
 10
752.977325
 20
364.8
 30
0.0
 11
749.977325
 21
365.3
 31
0.0
  0
LINE
  5
3AB
100
AcDbEntity
  8
LAY-6
  6
CONTINUOUS
 62
     1
100
AcDbLine
 10
680.977325
 20
382.815231
 30
0.0
 11
670.6
 21
382.815231
 31
0.0
  0
LINE
  5
3AC
100
AcDbEntity
  8
LAY-6
  6
CONTINUOUS
 62
     1
100
AcDbLine
 10
679.977325
 20
396.815231
 30
0.0
 11
670.6
 21
396.815231
 31
0.0
  0
TEXT
  5
3AD
100
AcDbEntity
  8
LAY-6
  6
CONTINUOUS
 62
     2
100
AcDbText
 10
671.6
 20
385.815231
 30
0.0
 40
5.0
  1
１４
 50
90.0
 41
0.672
  7
EXCADSTD
 72
     5
 11
671.6
 21
393.148031
 31
0.0
100
AcDbText
  0
LINE
  5
3AE
100
AcDbEntity
  8
LAY-6
  6
CONTINUOUS
 62
     1
100
AcDbLine
 10
672.1
 20
382.815231
 30
0.0
 11
672.1
 21
396.815231
 31
0.0
  0
LINE
  5
3AF
100
AcDbEntity
  8
LAY-6
  6
CONTINUOUS
 62
     1
100
AcDbLine
 10
671.6
 20
385.815231
 30
0.0
 11
672.1
 21
382.815231
 31
0.0
  0
LINE
  5
3B0
100
AcDbEntity
  8
LAY-6
  6
CONTINUOUS
 62
     1
100
AcDbLine
 10
672.1
 20
382.815231
 30
0.0
 11
672.6
 21
385.815231
 31
0.0
  0
LINE
  5
3B1
100
AcDbEntity
  8
LAY-6
  6
CONTINUOUS
 62
     1
100
AcDbLine
 10
672.6
 20
393.815231
 30
0.0
 11
672.1
 21
396.815231
 31
0.0
  0
LINE
  5
3B2
100
AcDbEntity
  8
LAY-6
  6
CONTINUOUS
 62
     1
100
AcDbLine
 10
672.1
 20
396.815231
 30
0.0
 11
671.6
 21
393.815231
 31
0.0
  0
LINE
  5
3B3
100
AcDbEntity
  8
LAY-6
  6
CONTINUOUS
 62
     1
100
AcDbLine
 10
680.977295
 20
399.815201
 30
0.0
 11
670.6
 21
399.815201
 31
0.0
  0
TEXT
  5
3B4
100
AcDbEntity
  8
LAY-6
  6
CONTINUOUS
 62
     2
100
AcDbText
 10
664.8
 20
384.315216
 30
0.0
 40
5.0
  1
２．５～４．５
 50
90.0
 41
0.672
  7
EXCADSTD
 72
     5
 11
664.8
 21
412.315216
 31
0.0
100
AcDbText
  0
LINE
  5
3B5
100
AcDbEntity
  8
LAY-6
  6
CONTINUOUS
 62
     1
100
AcDbLine
 10
679.977295
 20
413.815201
 30
0.0
 11
670.6
 21
413.815201
 31
0.0
  0
TEXT
  5
3B6
100
AcDbEntity
  8
LAY-6
  6
CONTINUOUS
 62
     2
100
AcDbText
 10
671.6
 20
402.815201
 30
0.0
 40
5.0
  1
１４
 50
90.0
 41
0.672
  7
EXCADSTD
 72
     5
 11
671.6
 21
410.148001
 31
0.0
100
AcDbText
  0
LINE
  5
3B7
100
AcDbEntity
  8
LAY-6
  6
CONTINUOUS
 62
     1
100
AcDbLine
 10
672.1
 20
399.815201
 30
0.0
 11
672.1
 21
413.815201
 31
0.0
  0
LINE
  5
3B8
100
AcDbEntity
  8
LAY-6
  6
CONTINUOUS
 62
     1
100
AcDbLine
 10
671.6
 20
402.815201
 30
0.0
 11
672.1
 21
399.815201
 31
0.0
  0
LINE
  5
3B9
100
AcDbEntity
  8
LAY-6
  6
CONTINUOUS
 62
     1
100
AcDbLine
 10
672.1
 20
399.815201
 30
0.0
 11
672.6
 21
402.815201
 31
0.0
  0
LINE
  5
3BA
100
AcDbEntity
  8
LAY-6
  6
CONTINUOUS
 62
     1
100
AcDbLine
 10
672.6
 20
410.815201
 30
0.0
 11
672.1
 21
413.815201
 31
0.0
  0
LINE
  5
3BB
100
AcDbEntity
  8
LAY-6
  6
CONTINUOUS
 62
     1
100
AcDbLine
 10
672.1
 20
413.815201
 30
0.0
 11
671.6
 21
410.815201
 31
0.0
  0
LINE
  5
3BC
100
AcDbEntity
  8
LAY-6
  6
CONTINUOUS
 62
     1
100
AcDbLine
 10
719.977295
 20
387.815231
 30
0.0
 11
709.1
 21
387.815231
 31
0.0
  0
LINE
  5
3BD
100
AcDbEntity
  8
LAY-6
  6
CONTINUOUS
 62
     1
100
AcDbLine
 10
719.977295
 20
396.815231
 30
0.0
 11
709.1
 21
396.815231
 31
0.0
  0
TEXT
  5
3BE
100
AcDbEntity
  8
LAY-6
  6
CONTINUOUS
 62
     2
100
AcDbText
 10
710.1
 20
390.315231
 30
0.0
 40
5.0
  1
９
 50
90.0
 41
0.672
  7
EXCADSTD
 72
     5
 11
710.1
 21
393.515231
 31
0.0
100
AcDbText
  0
LINE
  5
3BF
100
AcDbEntity
  8
LAY-6
  6
CONTINUOUS
 62
     1
100
AcDbLine
 10
710.6
 20
387.815231
 30
0.0
 11
710.6
 21
396.815231
 31
0.0
  0
LINE
  5
3C0
100
AcDbEntity
  8
LAY-6
  6
CONTINUOUS
 62
     1
100
AcDbLine
 10
710.1
 20
390.815231
 30
0.0
 11
710.6
 21
387.815231
 31
0.0
  0
LINE
  5
3C1
100
AcDbEntity
  8
LAY-6
  6
CONTINUOUS
 62
     1
100
AcDbLine
 10
710.6
 20
387.815231
 30
0.0
 11
711.1
 21
390.815231
 31
0.0
  0
LINE
  5
3C2
100
AcDbEntity
  8
LAY-6
  6
CONTINUOUS
 62
     1
100
AcDbLine
 10
711.1
 20
393.815231
 30
0.0
 11
710.6
 21
396.815231
 31
0.0
  0
LINE
  5
3C3
100
AcDbEntity
  8
LAY-6
  6
CONTINUOUS
 62
     1
100
AcDbLine
 10
710.6
 20
396.815231
 30
0.0
 11
710.1
 21
393.815231
 31
0.0
  0
LINE
  5
3C4
100
AcDbEntity
  8
LAY-6
  6
CONTINUOUS
 62
     1
100
AcDbLine
 10
761.977295
 20
399.815201
 30
0.0
 11
774.6
 21
399.815201
 31
0.0
  0
LINE
  5
3C5
100
AcDbEntity
  8
LAY-6
  6
CONTINUOUS
 62
     1
100
AcDbLine
 10
755.477325
 20
404.815201
 30
0.0
 11
774.6
 21
404.815201
 31
0.0
  0
TEXT
  5
3C6
100
AcDbEntity
  8
LAY-6
  6
CONTINUOUS
 62
     2
100
AcDbText
 10
772.9
 20
370.115201
 30
0.0
 40
5.0
  1
４．５～６．５
 50
90.0
 41
0.672
  7
EXCADSTD
 72
     5
 11
772.9
 21
398.115201
 31
0.0
100
AcDbText
  0
LINE
  5
3C7
100
AcDbEntity
  8
LAY-6
  6
CONTINUOUS
 62
     1
100
AcDbLine
 10
773.1
 20
394.815201
 30
0.0
 11
773.1
 21
399.815201
 31
0.0
  0
LINE
  5
3C8
100
AcDbEntity
  8
LAY-6
  6
CONTINUOUS
 62
     1
100
AcDbLine
 10
773.1
 20
404.815201
 30
0.0
 11
773.1
 21
409.815201
 31
0.0
  0
LINE
  5
3C9
100
AcDbEntity
  8
LAY-6
  6
CONTINUOUS
 62
     1
100
AcDbLine
 10
773.6
 20
396.815201
 30
0.0
 11
773.1
 21
399.815201
 31
0.0
  0
LINE
  5
3CA
100
AcDbEntity
  8
LAY-6
  6
CONTINUOUS
 62
     1
100
AcDbLine
 10
773.1
 20
399.815201
 30
0.0
 11
772.6
 21
396.815201
 31
0.0
  0
LINE
  5
3CB
100
AcDbEntity
  8
LAY-6
  6
CONTINUOUS
 62
     1
100
AcDbLine
 10
772.6
 20
407.815201
 30
0.0
 11
773.1
 21
404.815201
 31
0.0
  0
LINE
  5
3CC
100
AcDbEntity
  8
LAY-6
  6
CONTINUOUS
 62
     1
100
AcDbLine
 10
773.1
 20
404.815201
 30
0.0
 11
773.6
 21
407.815201
 31
0.0
  0
LINE
  5
3CD
100
AcDbEntity
  8
LAY-6
  6
CONTINUOUS
 62
     1
100
AcDbLine
 10
755.477325
 20
413.815201
 30
0.0
 11
774.6
 21
413.815201
 31
0.0
  0
TEXT
  5
3CE
100
AcDbEntity
  8
LAY-6
  6
CONTINUOUS
 62
     2
100
AcDbText
 10
772.6
 20
407.315201
 30
0.0
 40
5.0
  1
９
 50
90.0
 41
0.672
  7
EXCADSTD
 72
     5
 11
772.6
 21
410.515201
 31
0.0
100
AcDbText
  0
LINE
  5
3CF
100
AcDbEntity
  8
LAY-6
  6
CONTINUOUS
 62
     1
100
AcDbLine
 10
773.1
 20
404.815201
 30
0.0
 11
773.1
 21
413.815201
 31
0.0
  0
LINE
  5
3D0
100
AcDbEntity
  8
LAY-6
  6
CONTINUOUS
 62
     1
100
AcDbLine
 10
772.6
 20
407.815201
 30
0.0
 11
773.1
 21
404.815201
 31
0.0
  0
LINE
  5
3D1
100
AcDbEntity
  8
LAY-6
  6
CONTINUOUS
 62
     1
100
AcDbLine
 10
773.1
 20
404.815201
 30
0.0
 11
773.6
 21
407.815201
 31
0.0
  0
LINE
  5
3D2
100
AcDbEntity
  8
LAY-6
  6
CONTINUOUS
 62
     1
100
AcDbLine
 10
773.6
 20
410.815201
 30
0.0
 11
773.1
 21
413.815201
 31
0.0
  0
LINE
  5
3D3
100
AcDbEntity
  8
LAY-6
  6
CONTINUOUS
 62
     1
100
AcDbLine
 10
773.1
 20
413.815201
 30
0.0
 11
772.6
 21
410.815201
 31
0.0
  0
LINE
  5
3D4
100
AcDbEntity
  8
LAY-6
  6
CONTINUOUS
 62
     1
100
AcDbLine
 10
719.977294
 20
317.999909
 30
0.0
 11
719.977294
 21
297.2
 31
0.0
  0
LINE
  5
3D5
100
AcDbEntity
  8
LAY-6
  6
CONTINUOUS
 62
     1
100
AcDbLine
 10
759.977294
 20
317.999909
 30
0.0
 11
759.977294
 21
297.2
 31
0.0
  0
TEXT
  5
3D6
100
AcDbEntity
  8
LAY-6
  6
CONTINUOUS
 62
     2
100
AcDbText
 10
731.977294
 20
299.2
 30
0.0
 40
5.0
  1
４０以上
 41
0.672
  7
EXCADSTD
 72
     5
 11
747.977294
 21
299.2
 31
0.0
100
AcDbText
  0
LINE
  5
3D7
100
AcDbEntity
  8
LAY-6
  6
CONTINUOUS
 62
     1
100
AcDbLine
 10
719.977294
 20
298.7
 30
0.0
 11
759.977294
 21
298.7
 31
0.0
  0
LINE
  5
3D8
100
AcDbEntity
  8
LAY-6
  6
CONTINUOUS
 62
     1
100
AcDbLine
 10
722.977294
 20
299.2
 30
0.0
 11
719.977294
 21
298.7
 31
0.0
  0
LINE
  5
3D9
100
AcDbEntity
  8
LAY-6
  6
CONTINUOUS
 62
     1
100
AcDbLine
 10
719.977294
 20
298.7
 30
0.0
 11
722.977294
 21
298.2
 31
0.0
  0
LINE
  5
3DA
100
AcDbEntity
  8
LAY-6
  6
CONTINUOUS
 62
     1
100
AcDbLine
 10
756.977294
 20
298.2
 30
0.0
 11
759.977294
 21
298.7
 31
0.0
  0
LINE
  5
3DB
100
AcDbEntity
  8
LAY-6
  6
CONTINUOUS
 62
     1
100
AcDbLine
 10
759.977294
 20
298.7
 30
0.0
 11
756.977294
 21
299.2
 31
0.0
  0
LINE
  5
3DC
100
AcDbEntity
  8
LAY-6
  6
CONTINUOUS
 62
     1
100
AcDbLine
 10
679.977325
 20
190.965485
 30
0.0
 11
670.2
 21
190.965485
 31
0.0
  0
LINE
  5
3DD
100
AcDbEntity
  8
LAY-6
  6
CONTINUOUS
 62
     1
100
AcDbLine
 10
681.977325
 20
197.965485
 30
0.0
 11
670.2
 21
197.965485
 31
0.0
  0
TEXT
  5
3DE
100
AcDbEntity
  8
LAY-6
  6
CONTINUOUS
 62
     2
100
AcDbText
 10
671.2
 20
192.465485
 30
0.0
 40
5.0
  1
７
 50
90.0
 41
0.672
  7
EXCADSTD
 72
     5
 11
671.2
 21
195.665485
 31
0.0
100
AcDbText
  0
LINE
  5
3DF
100
AcDbEntity
  8
LAY-6
  6
CONTINUOUS
 62
     1
100
AcDbLine
 10
671.7
 20
190.965485
 30
0.0
 11
671.7
 21
197.965485
 31
0.0
  0
LINE
  5
3E0
100
AcDbEntity
  8
LAY-6
  6
CONTINUOUS
 62
     1
100
AcDbLine
 10
671.2
 20
193.965485
 30
0.0
 11
671.7
 21
190.965485
 31
0.0
  0
LINE
  5
3E1
100
AcDbEntity
  8
LAY-6
  6
CONTINUOUS
 62
     1
100
AcDbLine
 10
671.7
 20
190.965485
 30
0.0
 11
672.2
 21
193.965485
 31
0.0
  0
LINE
  5
3E2
100
AcDbEntity
  8
LAY-6
  6
CONTINUOUS
 62
     1
100
AcDbLine
 10
672.2
 20
194.965485
 30
0.0
 11
671.7
 21
197.965485
 31
0.0
  0
LINE
  5
3E3
100
AcDbEntity
  8
LAY-6
  6
CONTINUOUS
 62
     1
100
AcDbLine
 10
671.7
 20
197.965485
 30
0.0
 11
671.2
 21
194.965485
 31
0.0
  0
LINE
  5
3E4
100
AcDbEntity
  8
LAY-6
  6
CONTINUOUS
 62
     1
100
AcDbLine
 10
679.977325
 20
204.965485
 30
0.0
 11
670.2
 21
204.965485
 31
0.0
  0
TEXT
  5
3E5
100
AcDbEntity
  8
LAY-6
  6
CONTINUOUS
 62
     2
100
AcDbText
 10
671.2
 20
199.465485
 30
0.0
 40
5.0
  1
７
 50
90.0
 41
0.672
  7
EXCADSTD
 72
     5
 11
671.2
 21
202.665485
 31
0.0
100
AcDbText
  0
LINE
  5
3E6
100
AcDbEntity
  8
LAY-6
  6
CONTINUOUS
 62
     1
100
AcDbLine
 10
671.7
 20
197.965485
 30
0.0
 11
671.7
 21
204.965485
 31
0.0
  0
LINE
  5
3E7
100
AcDbEntity
  8
LAY-6
  6
CONTINUOUS
 62
     1
100
AcDbLine
 10
671.2
 20
200.965485
 30
0.0
 11
671.7
 21
197.965485
 31
0.0
  0
LINE
  5
3E8
100
AcDbEntity
  8
LAY-6
  6
CONTINUOUS
 62
     1
100
AcDbLine
 10
671.7
 20
197.965485
 30
0.0
 11
672.2
 21
200.965485
 31
0.0
  0
LINE
  5
3E9
100
AcDbEntity
  8
LAY-6
  6
CONTINUOUS
 62
     1
100
AcDbLine
 10
672.2
 20
201.965485
 30
0.0
 11
671.7
 21
204.965485
 31
0.0
  0
LINE
  5
3EA
100
AcDbEntity
  8
LAY-6
  6
CONTINUOUS
 62
     1
100
AcDbLine
 10
671.7
 20
204.965485
 30
0.0
 11
671.2
 21
201.965485
 31
0.0
  0
LINE
  5
3EB
100
AcDbEntity
  8
LAY-6
  6
CONTINUOUS
 62
     1
100
AcDbLine
 10
680.977325
 20
218.965485
 30
0.0
 11
670.2
 21
218.965485
 31
0.0
  0
TEXT
  5
3EC
100
AcDbEntity
  8
LAY-6
  6
CONTINUOUS
 62
     2
100
AcDbText
 10
671.2
 20
207.965485
 30
0.0
 40
5.0
  1
１４
 50
90.0
 41
0.672
  7
EXCADSTD
 72
     5
 11
671.2
 21
215.298285
 31
0.0
100
AcDbText
  0
LINE
  5
3ED
100
AcDbEntity
  8
LAY-6
  6
CONTINUOUS
 62
     1
100
AcDbLine
 10
671.7
 20
204.965485
 30
0.0
 11
671.7
 21
218.965485
 31
0.0
  0
LINE
  5
3EE
100
AcDbEntity
  8
LAY-6
  6
CONTINUOUS
 62
     1
100
AcDbLine
 10
671.2
 20
207.965485
 30
0.0
 11
671.7
 21
204.965485
 31
0.0
  0
LINE
  5
3EF
100
AcDbEntity
  8
LAY-6
  6
CONTINUOUS
 62
     1
100
AcDbLine
 10
671.7
 20
204.965485
 30
0.0
 11
672.2
 21
207.965485
 31
0.0
  0
LINE
  5
3F0
100
AcDbEntity
  8
LAY-6
  6
CONTINUOUS
 62
     1
100
AcDbLine
 10
672.2
 20
215.965485
 30
0.0
 11
671.7
 21
218.965485
 31
0.0
  0
LINE
  5
3F1
100
AcDbEntity
  8
LAY-6
  6
CONTINUOUS
 62
     1
100
AcDbLine
 10
671.7
 20
218.965485
 30
0.0
 11
671.2
 21
215.965485
 31
0.0
  0
LINE
  5
3F2
100
AcDbEntity
  8
LAY-6
  6
CONTINUOUS
 62
     1
100
AcDbLine
 10
690.477356
 20
180.965485
 30
0.0
 11
660.0
 21
180.965485
 31
0.0
  0
LINE
  5
3F3
100
AcDbEntity
  8
LAY-6
  6
CONTINUOUS
 62
     1
100
AcDbLine
 10
670.2
 20
197.965485
 30
0.0
 11
660.0
 21
197.965485
 31
0.0
  0
TEXT
  5
3F4
100
AcDbEntity
  8
LAY-6
  6
CONTINUOUS
 62
     2
100
AcDbText
 10
661.0
 20
185.465485
 30
0.0
 40
5.0
  1
１７
 50
90.0
 41
0.672
  7
EXCADSTD
 72
     5
 11
661.0
 21
192.798285
 31
0.0
100
AcDbText
  0
LINE
  5
3F5
100
AcDbEntity
  8
LAY-6
  6
CONTINUOUS
 62
     1
100
AcDbLine
 10
661.5
 20
180.965485
 30
0.0
 11
661.5
 21
197.965485
 31
0.0
  0
LINE
  5
3F6
100
AcDbEntity
  8
LAY-6
  6
CONTINUOUS
 62
     1
100
AcDbLine
 10
661.0
 20
183.965485
 30
0.0
 11
661.5
 21
180.965485
 31
0.0
  0
LINE
  5
3F7
100
AcDbEntity
  8
LAY-6
  6
CONTINUOUS
 62
     1
100
AcDbLine
 10
661.5
 20
180.965485
 30
0.0
 11
662.0
 21
183.965485
 31
0.0
  0
LINE
  5
3F8
100
AcDbEntity
  8
LAY-6
  6
CONTINUOUS
 62
     1
100
AcDbLine
 10
662.0
 20
194.965485
 30
0.0
 11
661.5
 21
197.965485
 31
0.0
  0
LINE
  5
3F9
100
AcDbEntity
  8
LAY-6
  6
CONTINUOUS
 62
     1
100
AcDbLine
 10
661.5
 20
197.965485
 30
0.0
 11
661.0
 21
194.965485
 31
0.0
  0
LINE
  5
3FA
100
AcDbEntity
  8
LAY-6
  6
CONTINUOUS
 62
     1
100
AcDbLine
 10
752.477356
 20
204.965485
 30
0.0
 11
772.9
 21
204.965485
 31
0.0
  0
LINE
  5
3FB
100
AcDbEntity
  8
LAY-6
  6
CONTINUOUS
 62
     1
100
AcDbLine
 10
756.077294
 20
213.965485
 30
0.0
 11
772.9
 21
213.965485
 31
0.0
  0
TEXT
  5
3FC
100
AcDbEntity
  8
LAY-6
  6
CONTINUOUS
 62
     2
100
AcDbText
 10
770.9
 20
207.465485
 30
0.0
 40
5.0
  1
９
 50
90.0
 41
0.672
  7
EXCADSTD
 72
     5
 11
770.9
 21
210.665485
 31
0.0
100
AcDbText
  0
LINE
  5
3FD
100
AcDbEntity
  8
LAY-6
  6
CONTINUOUS
 62
     1
100
AcDbLine
 10
771.4
 20
204.965485
 30
0.0
 11
771.4
 21
213.965485
 31
0.0
  0
LINE
  5
3FE
100
AcDbEntity
  8
LAY-6
  6
CONTINUOUS
 62
     1
100
AcDbLine
 10
770.9
 20
207.965485
 30
0.0
 11
771.4
 21
204.965485
 31
0.0
  0
LINE
  5
3FF
100
AcDbEntity
  8
LAY-6
  6
CONTINUOUS
 62
     1
100
AcDbLine
 10
771.4
 20
204.965485
 30
0.0
 11
771.9
 21
207.965485
 31
0.0
  0
LINE
  5
400
100
AcDbEntity
  8
LAY-6
  6
CONTINUOUS
 62
     1
100
AcDbLine
 10
771.9
 20
210.965485
 30
0.0
 11
771.4
 21
213.965485
 31
0.0
  0
LINE
  5
401
100
AcDbEntity
  8
LAY-6
  6
CONTINUOUS
 62
     1
100
AcDbLine
 10
771.4
 20
213.965485
 30
0.0
 11
770.9
 21
210.965485
 31
0.0
  0
LINE
  5
402
100
AcDbEntity
  8
LAY-6
  6
CONTINUOUS
 62
     1
100
AcDbLine
 10
751.977356
 20
180.965485
 30
0.0
 11
780.8
 21
180.965485
 31
0.0
  0
LINE
  5
403
100
AcDbEntity
  8
LAY-6
  6
CONTINUOUS
 62
     1
100
AcDbLine
 10
750.977356
 20
270.965515
 30
0.0
 11
780.8
 21
270.965515
 31
0.0
  0
TEXT
  5
404
100
AcDbEntity
  8
LAY-6
  6
CONTINUOUS
 62
     2
100
AcDbText
 10
778.8
 20
221.9655
 30
0.0
 40
5.0
  1
９０
 50
90.0
 41
0.672
  7
EXCADSTD
 72
     5
 11
778.8
 21
229.2983
 31
0.0
100
AcDbText
  0
LINE
  5
405
100
AcDbEntity
  8
LAY-6
  6
CONTINUOUS
 62
     1
100
AcDbLine
 10
779.3
 20
180.965485
 30
0.0
 11
779.3
 21
270.965515
 31
0.0
  0
LINE
  5
406
100
AcDbEntity
  8
LAY-6
  6
CONTINUOUS
 62
     1
100
AcDbLine
 10
778.8
 20
183.965485
 30
0.0
 11
779.3
 21
180.965485
 31
0.0
  0
LINE
  5
407
100
AcDbEntity
  8
LAY-6
  6
CONTINUOUS
 62
     1
100
AcDbLine
 10
779.3
 20
180.965485
 30
0.0
 11
779.8
 21
183.965485
 31
0.0
  0
LINE
  5
408
100
AcDbEntity
  8
LAY-6
  6
CONTINUOUS
 62
     1
100
AcDbLine
 10
779.8
 20
267.965515
 30
0.0
 11
779.3
 21
270.965515
 31
0.0
  0
LINE
  5
409
100
AcDbEntity
  8
LAY-6
  6
CONTINUOUS
 62
     1
100
AcDbLine
 10
779.3
 20
270.965515
 30
0.0
 11
778.8
 21
267.965515
 31
0.0
  0
LINE
  5
40A
100
AcDbEntity
  8
LAY-6
  6
CONTINUOUS
 62
     1
100
AcDbLine
 10
760.376867
 20
198.965455
 30
0.0
 11
789.9
 21
198.965455
 31
0.0
  0
LINE
  5
40B
100
AcDbEntity
  8
LAY-6
  6
CONTINUOUS
 62
     1
100
AcDbLine
 10
772.9
 20
204.965485
 30
0.0
 11
789.9
 21
204.965485
 31
0.0
  0
TEXT
  5
40C
100
AcDbEntity
  8
LAY-6
  6
CONTINUOUS
 62
     2
100
AcDbText
 10
787.9
 20
199.96547
 30
0.0
 40
5.0
  1
６
 50
90.0
 41
0.672
  7
EXCADSTD
 72
     5
 11
787.9
 21
203.16547
 31
0.0
100
AcDbText
  0
LINE
  5
40D
100
AcDbEntity
  8
LAY-6
  6
CONTINUOUS
 62
     1
100
AcDbLine
 10
788.4
 20
193.965455
 30
0.0
 11
788.4
 21
198.965455
 31
0.0
  0
LINE
  5
40E
100
AcDbEntity
  8
LAY-6
  6
CONTINUOUS
 62
     1
100
AcDbLine
 10
788.4
 20
204.965485
 30
0.0
 11
788.4
 21
209.965485
 31
0.0
  0
LINE
  5
40F
100
AcDbEntity
  8
LAY-6
  6
CONTINUOUS
 62
     1
100
AcDbLine
 10
788.9
 20
195.965455
 30
0.0
 11
788.4
 21
198.965455
 31
0.0
  0
LINE
  5
410
100
AcDbEntity
  8
LAY-6
  6
CONTINUOUS
 62
     1
100
AcDbLine
 10
788.4
 20
198.965455
 30
0.0
 11
787.9
 21
195.965455
 31
0.0
  0
LINE
  5
411
100
AcDbEntity
  8
LAY-6
  6
CONTINUOUS
 62
     1
100
AcDbLine
 10
787.9
 20
207.965485
 30
0.0
 11
788.4
 21
204.965485
 31
0.0
  0
LINE
  5
412
100
AcDbEntity
  8
LAY-6
  6
CONTINUOUS
 62
     1
100
AcDbLine
 10
788.4
 20
204.965485
 30
0.0
 11
788.9
 21
207.965485
 31
0.0
  0
LINE
  5
413
100
AcDbEntity
  8
LAY-6
  6
CONTINUOUS
 62
     1
100
AcDbLine
 10
758.377722
 20
396.815171
 30
0.0
 11
789.9
 21
396.815171
 31
0.0
  0
TEXT
  5
414
100
AcDbEntity
  8
LAY-6
  6
CONTINUOUS
 62
     2
100
AcDbText
 10
787.9
 20
296.890328
 30
0.0
 40
5.0
  1
ＤＨ
 50
90.0
 41
0.672
  7
EXCADSTD
 72
     5
 11
787.9
 21
304.223128
 31
0.0
100
AcDbText
  0
LINE
  5
415
100
AcDbEntity
  8
LAY-6
  6
CONTINUOUS
 62
     1
100
AcDbLine
 10
788.4
 20
204.965485
 30
0.0
 11
788.4
 21
396.815171
 31
0.0
  0
LINE
  5
416
100
AcDbEntity
  8
LAY-6
  6
CONTINUOUS
 62
     1
100
AcDbLine
 10
787.9
 20
207.965485
 30
0.0
 11
788.4
 21
204.965485
 31
0.0
  0
LINE
  5
417
100
AcDbEntity
  8
LAY-6
  6
CONTINUOUS
 62
     1
100
AcDbLine
 10
788.4
 20
204.965485
 30
0.0
 11
788.9
 21
207.965485
 31
0.0
  0
LINE
  5
418
100
AcDbEntity
  8
LAY-6
  6
CONTINUOUS
 62
     1
100
AcDbLine
 10
788.9
 20
393.815171
 30
0.0
 11
788.4
 21
396.815171
 31
0.0
  0
LINE
  5
419
100
AcDbEntity
  8
LAY-6
  6
CONTINUOUS
 62
     1
100
AcDbLine
 10
788.4
 20
396.815171
 30
0.0
 11
787.9
 21
393.815171
 31
0.0
  0
LINE
  5
41A
100
AcDbEntity
  8
LAY-6
  6
CONTINUOUS
 62
     1
100
AcDbLine
 10
761.977295
 20
399.815201
 30
0.0
 11
789.9
 21
399.815201
 31
0.0
  0
TEXT
  5
41B
100
AcDbEntity
  8
LAY-6
  6
CONTINUOUS
 62
     2
100
AcDbText
 10
787.9
 20
396.315186
 30
0.0
 40
5.0
  1
３
 50
90.0
 41
0.672
  7
EXCADSTD
 72
     5
 11
787.9
 21
399.515186
 31
0.0
100
AcDbText
  0
LINE
  5
41C
100
AcDbEntity
  8
LAY-6
  6
CONTINUOUS
 62
     1
100
AcDbLine
 10
788.4
 20
391.815171
 30
0.0
 11
788.4
 21
396.815171
 31
0.0
  0
LINE
  5
41D
100
AcDbEntity
  8
LAY-6
  6
CONTINUOUS
 62
     1
100
AcDbLine
 10
788.4
 20
399.815201
 30
0.0
 11
788.4
 21
404.815201
 31
0.0
  0
LINE
  5
41E
100
AcDbEntity
  8
LAY-6
  6
CONTINUOUS
 62
     1
100
AcDbLine
 10
788.9
 20
393.815171
 30
0.0
 11
788.4
 21
396.815171
 31
0.0
  0
LINE
  5
41F
100
AcDbEntity
  8
LAY-6
  6
CONTINUOUS
 62
     1
100
AcDbLine
 10
788.4
 20
396.815171
 30
0.0
 11
787.9
 21
393.815171
 31
0.0
  0
LINE
  5
420
100
AcDbEntity
  8
LAY-6
  6
CONTINUOUS
 62
     1
100
AcDbLine
 10
787.9
 20
402.815201
 30
0.0
 11
788.4
 21
399.815201
 31
0.0
  0
LINE
  5
421
100
AcDbEntity
  8
LAY-6
  6
CONTINUOUS
 62
     1
100
AcDbLine
 10
788.4
 20
399.815201
 30
0.0
 11
788.9
 21
402.815201
 31
0.0
  0
LINE
  5
422
100
AcDbEntity
  8
LAY-6
  6
CONTINUOUS
 62
     1
100
AcDbLine
 10
697.977356
 20
222.056885
 30
0.0
 11
697.977356
 21
236.8
 31
0.0
  0
LINE
  5
423
100
AcDbEntity
  8
LAY-6
  6
CONTINUOUS
 62
     1
100
AcDbLine
 10
719.977294
 20
204.965485
 30
0.0
 11
719.977294
 21
236.8
 31
0.0
  0
TEXT
  5
424
100
AcDbEntity
  8
LAY-6
  6
CONTINUOUS
 62
     2
100
AcDbText
 10
704.977325
 20
235.8
 30
0.0
 40
5.0
  1
２２
 41
0.672
  7
EXCADSTD
 72
     5
 11
712.310125
 21
235.8
 31
0.0
100
AcDbText
  0
LINE
  5
425
100
AcDbEntity
  8
LAY-6
  6
CONTINUOUS
 62
     1
100
AcDbLine
 10
697.977356
 20
235.3
 30
0.0
 11
719.977294
 21
235.3
 31
0.0
  0
LINE
  5
426
100
AcDbEntity
  8
LAY-6
  6
CONTINUOUS
 62
     1
100
AcDbLine
 10
700.977356
 20
235.8
 30
0.0
 11
697.977356
 21
235.3
 31
0.0
  0
LINE
  5
427
100
AcDbEntity
  8
LAY-6
  6
CONTINUOUS
 62
     1
100
AcDbLine
 10
697.977356
 20
235.3
 30
0.0
 11
700.977356
 21
234.8
 31
0.0
  0
LINE
  5
428
100
AcDbEntity
  8
LAY-6
  6
CONTINUOUS
 62
     1
100
AcDbLine
 10
716.977294
 20
234.8
 30
0.0
 11
719.977294
 21
235.3
 31
0.0
  0
LINE
  5
429
100
AcDbEntity
  8
LAY-6
  6
CONTINUOUS
 62
     1
100
AcDbLine
 10
719.977294
 20
235.3
 30
0.0
 11
716.977294
 21
235.8
 31
0.0
  0
LINE
  5
42A
100
AcDbEntity
  8
LAY-6
  6
CONTINUOUS
 62
     1
100
AcDbLine
 10
753.977356
 20
235.9
 30
0.0
 11
753.977356
 21
233.8
 31
0.0
  0
TEXT
  5
42B
100
AcDbEntity
  8
LAY-6
  6
CONTINUOUS
 62
     2
100
AcDbText
 10
732.977325
 20
235.8
 30
0.0
 40
5.0
  1
３４
 41
0.672
  7
EXCADSTD
 72
     5
 11
740.310125
 21
235.8
 31
0.0
100
AcDbText
  0
LINE
  5
42C
100
AcDbEntity
  8
LAY-6
  6
CONTINUOUS
 62
     1
100
AcDbLine
 10
719.977294
 20
235.3
 30
0.0
 11
753.977356
 21
235.3
 31
0.0
  0
LINE
  5
42D
100
AcDbEntity
  8
LAY-6
  6
CONTINUOUS
 62
     1
100
AcDbLine
 10
722.977294
 20
235.8
 30
0.0
 11
719.977294
 21
235.3
 31
0.0
  0
LINE
  5
42E
100
AcDbEntity
  8
LAY-6
  6
CONTINUOUS
 62
     1
100
AcDbLine
 10
719.977294
 20
235.3
 30
0.0
 11
722.977294
 21
234.8
 31
0.0
  0
LINE
  5
42F
100
AcDbEntity
  8
LAY-6
  6
CONTINUOUS
 62
     1
100
AcDbLine
 10
750.977356
 20
234.8
 30
0.0
 11
753.977356
 21
235.3
 31
0.0
  0
LINE
  5
430
100
AcDbEntity
  8
LAY-6
  6
CONTINUOUS
 62
     1
100
AcDbLine
 10
753.977356
 20
235.3
 30
0.0
 11
750.977356
 21
235.8
 31
0.0
  0
LINE
  5
431
100
AcDbEntity
  8
LAY-6
  6
CONTINUOUS
 62
     1
100
AcDbLine
 10
697.977356
 20
236.8
 30
0.0
 11
697.977356
 21
253.0
 31
0.0
  0
LINE
  5
432
100
AcDbEntity
  8
LAY-6
  6
CONTINUOUS
 62
     1
100
AcDbLine
 10
716.976867
 20
218.965485
 30
0.0
 11
716.976867
 21
253.0
 31
0.0
  0
TEXT
  5
433
100
AcDbEntity
  8
LAY-6
  6
CONTINUOUS
 62
     2
100
AcDbText
 10
703.477111
 20
252.0
 30
0.0
 40
5.0
  1
１９
 41
0.672
  7
EXCADSTD
 72
     5
 11
710.809912
 21
252.0
 31
0.0
100
AcDbText
  0
LINE
  5
434
100
AcDbEntity
  8
LAY-6
  6
CONTINUOUS
 62
     1
100
AcDbLine
 10
697.977356
 20
251.5
 30
0.0
 11
716.976867
 21
251.5
 31
0.0
  0
LINE
  5
435
100
AcDbEntity
  8
LAY-6
  6
CONTINUOUS
 62
     1
100
AcDbLine
 10
700.977356
 20
252.0
 30
0.0
 11
697.977356
 21
251.5
 31
0.0
  0
LINE
  5
436
100
AcDbEntity
  8
LAY-6
  6
CONTINUOUS
 62
     1
100
AcDbLine
 10
697.977356
 20
251.5
 30
0.0
 11
700.977356
 21
251.0
 31
0.0
  0
LINE
  5
437
100
AcDbEntity
  8
LAY-6
  6
CONTINUOUS
 62
     1
100
AcDbLine
 10
713.976867
 20
251.0
 30
0.0
 11
716.976867
 21
251.5
 31
0.0
  0
LINE
  5
438
100
AcDbEntity
  8
LAY-6
  6
CONTINUOUS
 62
     1
100
AcDbLine
 10
716.976867
 20
251.5
 30
0.0
 11
713.976867
 21
252.0
 31
0.0
  0
LINE
  5
439
100
AcDbEntity
  8
LAY-6
  6
CONTINUOUS
 62
     1
100
AcDbLine
 10
723.977356
 20
245.0
 30
0.0
 11
723.977356
 21
253.0
 31
0.0
  0
TEXT
  5
43A
100
AcDbEntity
  8
LAY-6
  6
CONTINUOUS
 62
     2
100
AcDbText
 10
716.777112
 20
252.4
 30
0.0
 40
5.0
  1
７
 41
0.672
  7
EXCADSTD
 72
     5
 11
719.977112
 21
252.4
 31
0.0
100
AcDbText
  0
LINE
  5
43B
100
AcDbEntity
  8
LAY-6
  6
CONTINUOUS
 62
     1
100
AcDbLine
 10
716.976867
 20
251.5
 30
0.0
 11
723.977356
 21
251.5
 31
0.0
  0
LINE
  5
43C
100
AcDbEntity
  8
LAY-6
  6
CONTINUOUS
 62
     1
100
AcDbLine
 10
719.976867
 20
252.0
 30
0.0
 11
716.976867
 21
251.5
 31
0.0
  0
LINE
  5
43D
100
AcDbEntity
  8
LAY-6
  6
CONTINUOUS
 62
     1
100
AcDbLine
 10
716.976867
 20
251.5
 30
0.0
 11
719.976867
 21
251.0
 31
0.0
  0
LINE
  5
43E
100
AcDbEntity
  8
LAY-6
  6
CONTINUOUS
 62
     1
100
AcDbLine
 10
720.977356
 20
251.0
 30
0.0
 11
723.977356
 21
251.5
 31
0.0
  0
LINE
  5
43F
100
AcDbEntity
  8
LAY-6
  6
CONTINUOUS
 62
     1
100
AcDbLine
 10
723.977356
 20
251.5
 30
0.0
 11
720.977356
 21
252.0
 31
0.0
  0
LINE
  5
440
100
AcDbEntity
  8
LAY-6
  6
CONTINUOUS
 62
     1
100
AcDbLine
 10
753.977356
 20
252.9
 30
0.0
 11
753.977356
 21
250.0
 31
0.0
  0
TEXT
  5
441
100
AcDbEntity
  8
LAY-6
  6
CONTINUOUS
 62
     2
100
AcDbText
 10
734.977356
 20
252.0
 30
0.0
 40
5.0
  1
３０
 41
0.672
  7
EXCADSTD
 72
     5
 11
742.310156
 21
252.0
 31
0.0
100
AcDbText
  0
LINE
  5
442
100
AcDbEntity
  8
LAY-6
  6
CONTINUOUS
 62
     1
100
AcDbLine
 10
723.977356
 20
251.5
 30
0.0
 11
753.977356
 21
251.5
 31
0.0
  0
LINE
  5
443
100
AcDbEntity
  8
LAY-6
  6
CONTINUOUS
 62
     1
100
AcDbLine
 10
726.977356
 20
252.0
 30
0.0
 11
723.977356
 21
251.5
 31
0.0
  0
LINE
  5
444
100
AcDbEntity
  8
LAY-6
  6
CONTINUOUS
 62
     1
100
AcDbLine
 10
723.977356
 20
251.5
 30
0.0
 11
726.977356
 21
251.0
 31
0.0
  0
LINE
  5
445
100
AcDbEntity
  8
LAY-6
  6
CONTINUOUS
 62
     1
100
AcDbLine
 10
750.977356
 20
251.0
 30
0.0
 11
753.977356
 21
251.5
 31
0.0
  0
LINE
  5
446
100
AcDbEntity
  8
LAY-6
  6
CONTINUOUS
 62
     1
100
AcDbLine
 10
753.977356
 20
251.5
 30
0.0
 11
750.977356
 21
252.0
 31
0.0
  0
POLYLINE
  5
447
100
AcDbEntity
  8
LAY-6
  6
CONTINUOUS
 62
     1
100
AcDb2dPolyline
 66
     1
 10
0.0
 20
0.0
 30
0.0
 70
   128
  0
VERTEX
  5
448
100
AcDbEntity
  8
LAY-6
  6
CONTINUOUS
 62
     1
100
AcDbVertex
100
AcDb2dVertex
 10
729.977295
 20
376.415262
 30
0.0
  0
VERTEX
  5
449
100
AcDbEntity
  8
LAY-6
  6
CONTINUOUS
 62
     1
100
AcDbVertex
100
AcDb2dVertex
 10
723.7
 20
345.3
 30
0.0
  0
VERTEX
  5
44A
100
AcDbEntity
  8
LAY-6
  6
CONTINUOUS
 62
     1
100
AcDbVertex
100
AcDb2dVertex
 10
666.4
 20
345.3
 30
0.0
  0
SEQEND
  5
44B
100
AcDbEntity
  8
LAY-6
  6
CONTINUOUS
 62
     1
  0
LINE
  5
44C
100
AcDbEntity
  8
LAY-6
  6
CONTINUOUS
 62
     1
100
AcDbLine
 10
729.874143
 20
373.37563
 30
0.0
 11
729.977295
 21
376.415262
 31
0.0
  0
LINE
  5
44D
100
AcDbEntity
  8
LAY-6
  6
CONTINUOUS
 62
     1
100
AcDbLine
 10
729.977295
 20
376.415262
 30
0.0
 11
728.893893
 21
373.573389
 31
0.0
  0
TEXT
  5
44E
100
AcDbEntity
  8
LAY-6
  6
CONTINUOUS
 62
     2
100
AcDbText
 10
666.4
 20
345.3
 30
0.0
 40
5.0
  1
４－Ｍ６×２０サラ小ネジ
 41
0.672
  7
EXCADSTD
 72
     5
 11
714.4
 21
345.3
 31
0.0
100
AcDbText
  0
POLYLINE
  5
44F
100
AcDbEntity
  8
LAY-6
  6
CONTINUOUS
 62
     1
100
AcDb2dPolyline
 66
     1
 10
0.0
 20
0.0
 30
0.0
 70
   128
  0
VERTEX
  5
450
100
AcDbEntity
  8
LAY-6
  6
CONTINUOUS
 62
     1
100
AcDbVertex
100
AcDb2dVertex
 10
732.977356
 20
224.965469
 30
0.0
  0
VERTEX
  5
451
100
AcDbEntity
  8
LAY-6
  6
CONTINUOUS
 62
     1
100
AcDbVertex
100
AcDb2dVertex
 10
726.4
 20
265.9
 30
0.0
  0
VERTEX
  5
452
100
AcDbEntity
  8
LAY-6
  6
CONTINUOUS
 62
     1
100
AcDbVertex
100
AcDb2dVertex
 10
665.9
 20
265.9
 30
0.0
  0
SEQEND
  5
453
100
AcDbEntity
  8
LAY-6
  6
CONTINUOUS
 62
     1
  0
LINE
  5
454
100
AcDbEntity
  8
LAY-6
  6
CONTINUOUS
 62
     1
100
AcDbLine
 10
732.007753
 20
227.848154
 30
0.0
 11
732.977356
 21
224.965469
 31
0.0
  0
LINE
  5
455
100
AcDbEntity
  8
LAY-6
  6
CONTINUOUS
 62
     1
100
AcDbLine
 10
732.977356
 20
224.965469
 30
0.0
 11
732.995089
 21
228.006799
 31
0.0
  0
TEXT
  5
456
100
AcDbEntity
  8
LAY-6
  6
CONTINUOUS
 62
     2
100
AcDbText
 10
665.9
 20
265.9
 30
0.0
 40
5.0
  1
４－Ｍ６×２０サラ小ネジ
 41
0.672
  7
EXCADSTD
 72
     5
 11
713.9
 21
265.9
 31
0.0
100
AcDbText
  0
TEXT
  5
457
100
AcDbEntity
  8
LAY-6
  6
CONTINUOUS
 62
     2
100
AcDbText
 10
310.403389
 20
385.8
 30
0.0
 40
5.0
  1
５０
 41
0.672
  7
EXCADSTD
 72
     5
 11
317.736189
 21
385.8
 31
0.0
100
AcDbText
  0
LINE
  5
458
100
AcDbEntity
  8
LAY-6
  6
CONTINUOUS
 62
     1
100
AcDbLine
 10
289.403397
 20
385.3
 30
0.0
 11
339.403381
 21
385.3
 31
0.0
  0
LINE
  5
459
100
AcDbEntity
  8
LAY-6
  6
CONTINUOUS
 62
     1
100
AcDbLine
 10
292.403397
 20
385.8
 30
0.0
 11
289.403397
 21
385.3
 31
0.0
  0
LINE
  5
45A
100
AcDbEntity
  8
LAY-6
  6
CONTINUOUS
 62
     1
100
AcDbLine
 10
289.403397
 20
385.3
 30
0.0
 11
292.403397
 21
384.8
 31
0.0
  0
LINE
  5
45B
100
AcDbEntity
  8
LAY-6
  6
CONTINUOUS
 62
     1
100
AcDbLine
 10
336.403381
 20
384.8
 30
0.0
 11
339.403381
 21
385.3
 31
0.0
  0
LINE
  5
45C
100
AcDbEntity
  8
LAY-6
  6
CONTINUOUS
 62
     1
100
AcDbLine
 10
339.403381
 20
385.3
 30
0.0
 11
336.403381
 21
385.8
 31
0.0
  0
TEXT
  5
45D
100
AcDbEntity
  8
LAY-6
  6
CONTINUOUS
 62
     2
100
AcDbText
 10
664.671573
 20
424.471573
 30
0.0
 40
5.656854
  1
１
 41
0.84
  7
EXCADSTD
 72
     5
 11
669.197056
 21
424.471573
 31
0.0
100
AcDbText
  0
POLYLINE
  5
45E
100
AcDbEntity
  8
LAY-6
  6
CONTINUOUS
 62
     1
100
AcDb2dPolyline
 66
     1
 10
0.0
 20
0.0
 30
0.0
 70
   128
  0
VERTEX
  5
45F
100
AcDbEntity
  8
LAY-6
  6
CONTINUOUS
 62
     1
100
AcDbVertex
100
AcDb2dVertex
 10
684.4
 20
413.915201
 30
0.0
  0
VERTEX
  5
460
100
AcDbEntity
  8
LAY-6
  6
CONTINUOUS
 62
     1
100
AcDbVertex
100
AcDb2dVertex
 10
670.635675
 20
424.816546
 30
0.0
  0
SEQEND
  5
461
100
AcDbEntity
  8
LAY-6
  6
CONTINUOUS
 62
     1
  0
LINE
  5
462
100
AcDbEntity
  8
LAY-6
  6
CONTINUOUS
 62
     1
100
AcDbLine
 10
681.737812
 20
415.385832
 30
0.0
 11
684.4
 21
413.915201
 31
0.0
  0
LINE
  5
463
100
AcDbEntity
  8
LAY-6
  6
CONTINUOUS
 62
     1
100
AcDbLine
 10
684.4
 20
413.915201
 30
0.0
 11
682.358676
 21
416.169751
 31
0.0
  0
CIRCLE
  5
464
100
AcDbEntity
  8
LAY-6
  6
CONTINUOUS
 62
     1
100
AcDbCircle
 10
667.5
 20
427.3
 30
0.0
 40
4.0
  0
CIRCLE
  5
465
100
AcDbEntity
  8
LAY-6
  6
CONTINUOUS
 62
     1
100
AcDbCircle
 10
672.1
 20
364.9
 30
0.0
 40
4.0
  0
POLYLINE
  5
466
100
AcDbEntity
  8
LAY-6
  6
CONTINUOUS
 62
     1
100
AcDb2dPolyline
 66
     1
 10
0.0
 20
0.0
 30
0.0
 70
   128
  0
VERTEX
  5
467
100
AcDbEntity
  8
LAY-6
  6
CONTINUOUS
 62
     1
100
AcDbVertex
100
AcDb2dVertex
 10
689.2
 20
382.815231
 30
0.0
  0
VERTEX
  5
468
100
AcDbEntity
  8
LAY-6
  6
CONTINUOUS
 62
     1
100
AcDbVertex
100
AcDb2dVertex
 10
674.861827
 20
367.793495
 30
0.0
  0
SEQEND
  5
469
100
AcDbEntity
  8
LAY-6
  6
CONTINUOUS
 62
     1
  0
LINE
  5
46A
100
AcDbEntity
  8
LAY-6
  6
CONTINUOUS
 62
     1
100
AcDbLine
 10
687.490317
 20
380.299881
 30
0.0
 11
689.2
 21
382.815231
 31
0.0
  0
LINE
  5
46B
100
AcDbEntity
  8
LAY-6
  6
CONTINUOUS
 62
     1
100
AcDbLine
 10
689.2
 20
382.815231
 30
0.0
 11
686.766943
 21
380.990338
 31
0.0
  0
TEXT
  5
46C
100
AcDbEntity
  8
LAY-6
  6
CONTINUOUS
 62
     2
100
AcDbText
 10
669.271573
 20
362.071573
 30
0.0
 40
5.656854
  1
２
 41
0.84
  7
EXCADSTD
 72
     5
 11
673.797056
 21
362.071573
 31
0.0
100
AcDbText
  0
CIRCLE
  5
46D
100
AcDbEntity
  8
LAY-6
  6
CONTINUOUS
 62
     1
100
AcDbCircle
 10
671.7
 20
235.2
 30
0.0
 40
4.0
  0
POLYLINE
  5
46E
100
AcDbEntity
  8
LAY-6
  6
CONTINUOUS
 62
     1
100
AcDb2dPolyline
 66
     1
 10
0.0
 20
0.0
 30
0.0
 70
   128
  0
VERTEX
  5
46F
100
AcDbEntity
  8
LAY-6
  6
CONTINUOUS
 62
     1
100
AcDbVertex
100
AcDb2dVertex
 10
689.2
 20
218.965485
 30
0.0
  0
VERTEX
  5
470
100
AcDbEntity
  8
LAY-6
  6
CONTINUOUS
 62
     1
100
AcDbVertex
100
AcDb2dVertex
 10
674.632467
 20
232.479589
 30
0.0
  0
SEQEND
  5
471
100
AcDbEntity
  8
LAY-6
  6
CONTINUOUS
 62
     1
  0
LINE
  5
472
100
AcDbEntity
  8
LAY-6
  6
CONTINUOUS
 62
     1
100
AcDbLine
 10
686.660598
 20
220.639235
 30
0.0
 11
689.2
 21
218.965485
 31
0.0
  0
LINE
  5
473
100
AcDbEntity
  8
LAY-6
  6
CONTINUOUS
 62
     1
100
AcDbLine
 10
689.2
 20
218.965485
 30
0.0
 11
687.340701
 21
221.372351
 31
0.0
  0
TEXT
  5
474
100
AcDbEntity
  8
LAY-6
  6
CONTINUOUS
 62
     2
100
AcDbText
 10
668.871573
 20
232.371573
 30
0.0
 40
5.656854
  1
３
 41
0.84
  7
EXCADSTD
 72
     5
 11
673.397056
 21
232.371573
 31
0.0
100
AcDbText
  0
CIRCLE
  5
475
100
AcDbEntity
  8
LAY-6
  6
CONTINUOUS
 62
     1
100
AcDbCircle
 10
744.1
 20
161.8
 30
0.0
 40
4.0
  0
POLYLINE
  5
476
100
AcDbEntity
  8
LAY-6
  6
CONTINUOUS
 62
     1
100
AcDb2dPolyline
 66
     1
 10
0.0
 20
0.0
 30
0.0
 70
   128
  0
VERTEX
  5
477
100
AcDbEntity
  8
LAY-6
  6
CONTINUOUS
 62
     1
100
AcDbVertex
100
AcDb2dVertex
 10
734.2
 20
180.965485
 30
0.0
  0
VERTEX
  5
478
100
AcDbEntity
  8
LAY-6
  6
CONTINUOUS
 62
     1
100
AcDbVertex
100
AcDb2dVertex
 10
742.264237
 20
165.353867
 30
0.0
  0
SEQEND
  5
479
100
AcDbEntity
  8
LAY-6
  6
CONTINUOUS
 62
     1
  0
LINE
  5
47A
100
AcDbEntity
  8
LAY-6
  6
CONTINUOUS
 62
     1
100
AcDbLine
 10
736.021056
 20
178.529555
 30
0.0
 11
734.2
 21
180.965485
 31
0.0
  0
LINE
  5
47B
100
AcDbEntity
  8
LAY-6
  6
CONTINUOUS
 62
     1
100
AcDbLine
 10
734.2
 20
180.965485
 30
0.0
 11
735.132589
 21
178.070614
 31
0.0
  0
TEXT
  5
47C
100
AcDbEntity
  8
LAY-6
  6
CONTINUOUS
 62
     2
100
AcDbText
 10
741.271573
 20
158.971573
 30
0.0
 40
5.656854
  1
４
 41
0.84
  7
EXCADSTD
 72
     5
 11
745.797056
 21
158.971573
 31
0.0
100
AcDbText
  0
TEXT
  5
47D
100
AcDbEntity
  8
LAY-6
  6
CONTINUOUS
 62
     2
100
AcDbText
 10
319.087214
 20
267.675885
 30
0.0
 40
5.0
  1
４－Ｍ５×２０皿小ネジ(P=0.8)(別途)
 41
0.576198
  7
EXCADSTD
 72
     5
 11
389.087214
 21
267.675885
 31
0.0
100
AcDbText
  0
POLYLINE
  5
47E
100
AcDbEntity
  8
LAY-6
  6
CONTINUOUS
 62
     1
100
AcDb2dPolyline
 66
     1
 10
0.0
 20
0.0
 30
0.0
 70
   128
  0
VERTEX
  5
47F
100
AcDbEntity
  8
LAY-6
  6
CONTINUOUS
 62
     1
100
AcDbVertex
100
AcDb2dVertex
 10
282.40339
 20
237.56131
 30
0.0
  0
VERTEX
  5
480
100
AcDbEntity
  8
LAY-6
  6
CONTINUOUS
 62
     1
100
AcDbVertex
100
AcDb2dVertex
 10
319.087214
 20
267.175885
 30
0.0
  0
VERTEX
  5
481
100
AcDbEntity
  8
LAY-6
  6
CONTINUOUS
 62
     1
100
AcDbVertex
100
AcDb2dVertex
 10
390.4
 20
267.175886
 30
0.0
  0
SEQEND
  5
482
100
AcDbEntity
  8
LAY-6
  6
CONTINUOUS
 62
     1
  0
LINE
  5
483
100
AcDbEntity
  8
LAY-6
  6
CONTINUOUS
 62
     1
100
AcDbLine
 10
284.423595
 20
239.834803
 30
0.0
 11
282.40339
 21
237.56131
 31
0.0
  0
LINE
  5
484
100
AcDbEntity
  8
LAY-6
  6
CONTINUOUS
 62
     1
100
AcDbLine
 10
282.40339
 20
237.56131
 30
0.0
 11
285.051744
 21
239.05671
 31
0.0
  0
TEXT
  5
485
100
AcDbEntity
  8
LAY-6
  6
CONTINUOUS
 62
     2
100
AcDbText
 10
320.287214
 20
260.675885
 30
0.0
 40
5.0
  1
（タップ穴加工付はオプション）
 41
0.672
  7
EXCADSTD
 72
     5
 11
380.287214
 21
260.675886
 31
0.0
100
AcDbText
  0
TEXT
  5
486
100
AcDbEntity
  8
LAY-6
  6
CONTINUOUS
 62
     2
100
AcDbText
 10
768.0
 20
236.4
 30
0.0
 40
5.0
  1
裏板３.２ｔ以上（別途）
 41
0.654222
  7
EXCADSTD
 72
     5
 11
814.0
 21
236.4
 31
0.0
100
AcDbText
  0
POLYLINE
  5
487
100
AcDbEntity
  8
LAY-6
  6
CONTINUOUS
 62
     1
100
AcDb2dPolyline
 66
     1
 10
0.0
 20
0.0
 30
0.0
 70
   128
  0
VERTEX
  5
488
100
AcDbEntity
  8
LAY-6
  6
CONTINUOUS
 62
     1
100
AcDbVertex
100
AcDb2dVertex
 10
755.117733
 20
218.465485
 30
0.0
  0
VERTEX
  5
489
100
AcDbEntity
  8
LAY-6
  6
CONTINUOUS
 62
     1
100
AcDbVertex
100
AcDb2dVertex
 10
767.5
 20
235.9
 30
0.0
  0
VERTEX
  5
48A
100
AcDbEntity
  8
LAY-6
  6
CONTINUOUS
 62
     1
100
AcDbVertex
100
AcDb2dVertex
 10
814.5
 20
235.9
 30
0.0
  0
SEQEND
  5
48B
100
AcDbEntity
  8
LAY-6
  6
CONTINUOUS
 62
     1
  0
LINE
  5
48C
100
AcDbEntity
  8
LAY-6
  6
CONTINUOUS
 62
     1
100
AcDbLine
 10
756.004044
 20
220.289098
 30
0.0
 11
755.117733
 21
218.465485
 31
0.0
  0
LINE
  5
48D
100
AcDbEntity
  8
LAY-6
  6
CONTINUOUS
 62
     1
100
AcDbLine
 10
755.117733
 20
218.465485
 30
0.0
 11
756.547577
 21
219.903072
 31
0.0
  0
TEXT
  5
48E
100
AcDbEntity
  8
LAY-6
  6
CONTINUOUS
 62
     2
100
AcDbText
 10
750.167638
 20
349.348683
 30
0.0
 40
5.0
  1
裏板３.２ｔ以上（別途）
 41
0.654222
  7
EXCADSTD
 72
     5
 11
796.167638
 21
349.348683
 31
0.0
100
AcDbText
  0
POLYLINE
  5
48F
100
AcDbEntity
  8
LAY-6
  6
CONTINUOUS
 62
     1
100
AcDb2dPolyline
 66
     1
 10
0.0
 20
0.0
 30
0.0
 70
   128
  0
VERTEX
  5
490
100
AcDbEntity
  8
LAY-6
  6
CONTINUOUS
 62
     1
100
AcDbVertex
100
AcDb2dVertex
 10
738.8
 20
383.315201
 30
0.0
  0
VERTEX
  5
491
100
AcDbEntity
  8
LAY-6
  6
CONTINUOUS
 62
     1
100
AcDbVertex
100
AcDb2dVertex
 10
748.035276
 20
348.848683
 30
0.0
  0
VERTEX
  5
492
100
AcDbEntity
  8
LAY-6
  6
CONTINUOUS
 62
     1
100
AcDbVertex
100
AcDb2dVertex
 10
798.3
 20
348.848683
 30
0.0
  0
SEQEND
  5
493
100
AcDbEntity
  8
LAY-6
  6
CONTINUOUS
 62
     1
  0
LINE
  5
494
100
AcDbEntity
  8
LAY-6
  6
CONTINUOUS
 62
     1
100
AcDbLine
 10
739.639613
 20
381.469622
 30
0.0
 11
738.8
 21
383.315201
 31
0.0
  0
LINE
  5
495
100
AcDbEntity
  8
LAY-6
  6
CONTINUOUS
 62
     1
100
AcDbLine
 10
738.8
 20
383.315201
 30
0.0
 11
738.995663
 21
381.297076
 31
0.0
  0
TEXT
  5
496
100
AcDbEntity
  8
LAY-6
  6
CONTINUOUS
 62
     2
100
AcDbText
 10
770.54153
 20
441.452873
 30
0.0
 40
5.0
  1
裏板（別途）
 41
0.672
  7
EXCADSTD
 72
     5
 11
794.54153
 21
441.452873
 31
0.0
100
AcDbText
  0
POLYLINE
  5
497
100
AcDbEntity
  8
LAY-6
  6
CONTINUOUS
 62
     1
100
AcDb2dPolyline
 66
     1
 10
0.0
 20
0.0
 30
0.0
 70
   128
  0
VERTEX
  5
498
100
AcDbEntity
  8
LAY-6
  6
CONTINUOUS
 62
     1
100
AcDbVertex
100
AcDb2dVertex
 10
760.1
 20
404.815201
 30
0.0
  0
VERTEX
  5
499
100
AcDbEntity
  8
LAY-6
  6
CONTINUOUS
 62
     1
100
AcDbVertex
100
AcDb2dVertex
 10
769.78306
 20
440.952873
 30
0.0
  0
VERTEX
  5
49A
100
AcDbEntity
  8
LAY-6
  6
CONTINUOUS
 62
     1
100
AcDbVertex
100
AcDb2dVertex
 10
795.3
 20
440.952873
 30
0.0
  0
SEQEND
  5
49B
100
AcDbEntity
  8
LAY-6
  6
CONTINUOUS
 62
     1
  0
LINE
  5
49C
100
AcDbEntity
  8
LAY-6
  6
CONTINUOUS
 62
     1
100
AcDbLine
 10
760.295663
 20
406.833326
 30
0.0
 11
760.1
 21
404.815201
 31
0.0
  0
LINE
  5
49D
100
AcDbEntity
  8
LAY-6
  6
CONTINUOUS
 62
     1
100
AcDbLine
 10
760.1
 20
404.815201
 30
0.0
 11
760.939613
 21
406.66078
 31
0.0
  0
LINE
  5
49E
100
AcDbEntity
  8
LAY-6
  6
CONTINUOUS
 62
     1
100
AcDbLine
 10
704.227295
 20
398.815201
 30
0.0
 11
704.227295
 21
399.9
 31
0.0
  0
LINE
  5
49F
100
AcDbEntity
  8
LAY-6
  6
CONTINUOUS
 62
     1
100
AcDbLine
 10
691.727295
 20
398.5
 30
0.0
 11
691.727295
 21
399.9
 31
0.0
  0
LINE
  5
4A0
100
AcDbEntity
  8
LAY-6
  6
CONTINUOUS
 62
     1
100
AcDbLine
 10
709.227295
 20
398.4
 30
0.0
 11
685.7
 21
398.4
 31
0.0
  0
LINE
  5
4A1
100
AcDbEntity
  8
LAY-6
  6
CONTINUOUS
 62
     1
100
AcDbLine
 10
706.227295
 20
398.733333
 30
0.0
 11
704.227295
 21
398.4
 31
0.0
  0
LINE
  5
4A2
100
AcDbEntity
  8
LAY-6
  6
CONTINUOUS
 62
     1
100
AcDbLine
 10
704.227295
 20
398.4
 30
0.0
 11
706.227295
 21
398.066667
 31
0.0
  0
LINE
  5
4A3
100
AcDbEntity
  8
LAY-6
  6
CONTINUOUS
 62
     1
100
AcDbLine
 10
689.727295
 20
398.066667
 30
0.0
 11
691.727295
 21
398.4
 31
0.0
  0
LINE
  5
4A4
100
AcDbEntity
  8
LAY-6
  6
CONTINUOUS
 62
     1
100
AcDbLine
 10
691.727295
 20
398.4
 30
0.0
 11
689.727295
 21
398.733333
 31
0.0
  0
POLYLINE
  5
4A5
100
AcDbEntity
  8
LAY-6
  6
CONTINUOUS
 62
     1
100
AcDb2dPolyline
 66
     1
 10
0.0
 20
0.0
 30
0.0
 70
   128
  0
VERTEX
  5
4A6
100
AcDbEntity
  8
LAY-6
  6
CONTINUOUS
 62
     1
100
AcDbVertex
100
AcDb2dVertex
 10
697.96
 20
398.4
 30
0.0
  0
VERTEX
  5
4A7
100
AcDbEntity
  8
LAY-6
  6
CONTINUOUS
 62
     1
100
AcDbVertex
100
AcDb2dVertex
 10
686.345434
 20
355.053851
 30
0.0
  0
VERTEX
  5
4A8
100
AcDbEntity
  8
LAY-6
  6
CONTINUOUS
 62
     1
100
AcDbVertex
100
AcDb2dVertex
 10
707.8
 20
355.053851
 30
0.0
  0
SEQEND
  5
4A9
100
AcDbEntity
  8
LAY-6
  6
CONTINUOUS
 62
     1
  0
CIRCLE
  5
4AA
100
AcDbEntity
  8
LAY-6
  6
CONTINUOUS
 62
     1
100
AcDbCircle
 10
697.96
 20
398.4
 30
0.0
 40
0.5
  0
CIRCLE
  5
4AB
100
AcDbEntity
  8
LAY-6
  6
CONTINUOUS
 62
     1
100
AcDbCircle
 10
697.96
 20
398.4
 30
0.0
 40
0.25
  0
TEXT
  5
4AC
100
AcDbEntity
  8
LAY-6
  6
CONTINUOUS
 62
     2
100
AcDbText
 10
688.072717
 20
355.553851
 30
0.0
 40
5.0
  1
φ１２.５
 41
0.62784
  7
EXCADSTD
 72
     5
 11
706.072717
 21
355.553851
 31
0.0
100
AcDbText
  0
TEXT
  5
4AD
100
AcDbEntity
  8
LAY-6
  6
CONTINUOUS
 62
     2
100
AcDbText
 10
645.760816
 20
434.086898
 30
0.0
 40
5.0
  1
トロよけキャップ
 41
0.672
  7
EXCADSTD
 72
     5
 11
677.760816
 21
434.086898
 31
0.0
100
AcDbText
  0
LINE
  5
4AE
100
AcDbEntity
  8
LAY-6
  6
CONTINUOUS
 62
     1
100
AcDbLine
 10
688.577325
 20
415.315201
 30
0.0
 11
688.577325
 21
432.0
 31
0.0
  0
LINE
  5
4AF
100
AcDbEntity
  8
LAY-6
  6
CONTINUOUS
 62
     1
100
AcDbLine
 10
707.377325
 20
415.315201
 30
0.0
 11
707.377325
 21
432.1
 31
0.0
  0
TEXT
  5
4B0
100
AcDbEntity
  8
LAY-6
  6
CONTINUOUS
 62
     2
100
AcDbText
 10
689.877325
 20
431.3
 30
0.0
 40
5.0
  1
φ
 41
0.672
  7
EXCADSTD
 72
     5
 11
693.077325
 21
431.3
 31
0.0
100
AcDbText
  0
TEXT
  5
4B1
100
AcDbEntity
  8
LAY-6
  6
CONTINUOUS
 62
     2
100
AcDbText
 10
693.877325
 20
431.3
 30
0.0
 40
5.0
  1
１８.８
 41
0.616
  7
EXCADSTD
 72
     5
 11
707.877325
 21
431.3
 31
0.0
100
AcDbText
  0
LINE
  5
4B2
100
AcDbEntity
  8
LAY-6
  6
CONTINUOUS
 62
     1
100
AcDbLine
 10
688.577325
 20
430.8
 30
0.0
 11
707.377325
 21
430.8
 31
0.0
  0
LINE
  5
4B3
100
AcDbEntity
  8
LAY-6
  6
CONTINUOUS
 62
     1
100
AcDbLine
 10
691.577325
 20
431.3
 30
0.0
 11
688.577325
 21
430.8
 31
0.0
  0
LINE
  5
4B4
100
AcDbEntity
  8
LAY-6
  6
CONTINUOUS
 62
     1
100
AcDbLine
 10
688.577325
 20
430.8
 30
0.0
 11
691.577325
 21
430.3
 31
0.0
  0
LINE
  5
4B5
100
AcDbEntity
  8
LAY-6
  6
CONTINUOUS
 62
     1
100
AcDbLine
 10
704.377325
 20
430.3
 30
0.0
 11
707.377325
 21
430.8
 31
0.0
  0
LINE
  5
4B6
100
AcDbEntity
  8
LAY-6
  6
CONTINUOUS
 62
     1
100
AcDbLine
 10
707.377325
 20
430.8
 30
0.0
 11
704.377325
 21
431.3
 31
0.0
  0
LINE
  5
4B7
100
AcDbEntity
  8
LAY-6
  6
CONTINUOUS
 62
     1
100
AcDbLine
 10
691.077325
 20
417.815201
 30
0.0
 11
670.61
 21
417.815201
 31
0.0
  0
LINE
  5
4B8
100
AcDbEntity
  8
LAY-6
  6
CONTINUOUS
 62
     1
100
AcDbLine
 10
678.07
 20
413.815201
 30
0.0
 11
670.61
 21
413.815201
 31
0.0
  0
TEXT
  5
4B9
100
AcDbEntity
  8
LAY-6
  6
CONTINUOUS
 62
     2
100
AcDbText
 10
671.56
 20
413.765201
 30
0.0
 40
5.0
  1
４
 50
90.0
 41
0.672
  7
EXCADSTD
 72
     5
 11
671.56
 21
416.965201
 31
0.0
100
AcDbText
  0
LINE
  5
4BA
100
AcDbEntity
  8
LAY-6
  6
CONTINUOUS
 62
     1
100
AcDbLine
 10
672.11
 20
422.28
 30
0.0
 11
672.11
 21
408.815201
 31
0.0
  0
LINE
  5
4BB
100
AcDbEntity
  8
LAY-6
  6
CONTINUOUS
 62
     1
100
AcDbLine
 10
671.61
 20
420.815201
 30
0.0
 11
672.11
 21
417.815201
 31
0.0
  0
LINE
  5
4BC
100
AcDbEntity
  8
LAY-6
  6
CONTINUOUS
 62
     1
100
AcDbLine
 10
672.11
 20
417.815201
 30
0.0
 11
672.61
 21
420.815201
 31
0.0
  0
LINE
  5
4BD
100
AcDbEntity
  8
LAY-6
  6
CONTINUOUS
 62
     1
100
AcDbLine
 10
672.61
 20
410.815201
 30
0.0
 11
672.11
 21
413.815201
 31
0.0
  0
LINE
  5
4BE
100
AcDbEntity
  8
LAY-6
  6
CONTINUOUS
 62
     1
100
AcDbLine
 10
672.11
 20
413.815201
 30
0.0
 11
671.61
 21
410.815201
 31
0.0
  0
TEXT
  5
4BF
100
AcDbEntity
  8
LAY-6
  6
CONTINUOUS
 62
     2
100
AcDbText
 10
257.995062
 20
168.672048
 30
0.0
 40
5.0
  1
Ｒ
 50
38.722756
 41
0.672
  7
EXCADSTD
 72
     5
 11
260.491644
 21
170.673816
 31
0.0
100
AcDbText
  0
TEXT
  5
4C0
100
AcDbEntity
  8
LAY-6
  6
CONTINUOUS
 62
     2
100
AcDbText
 10
261.11579
 20
171.174258
 30
0.0
 40
5.0
  1
１８
 50
38.722756
 41
0.672
  7
EXCADSTD
 72
     5
 11
266.836709
 21
175.76131
 31
0.0
100
AcDbText
  0
LINE
  5
4C1
100
AcDbEntity
  8
LAY-6
  6
CONTINUOUS
 62
     1
100
AcDbLine
 10
257.980055
 20
167.573187
 30
0.0
 11
285.40339
 21
189.56131
 31
0.0
  0
LINE
  5
4C2
100
AcDbEntity
  8
LAY-6
  6
CONTINUOUS
 62
     1
100
AcDbLine
 10
272.71196
 20
179.81253
 30
0.0
 11
271.360113
 21
178.301364
 31
0.0
  0
LINE
  5
4C3
100
AcDbEntity
  8
LAY-6
  6
CONTINUOUS
 62
     1
100
AcDbLine
 10
271.360113
 20
178.301364
 30
0.0
 11
273.128995
 21
179.292408
 31
0.0
  0
LINE
  5
4C4
100
AcDbEntity
  8
LAY-6
  6
CONTINUOUS
 62
     1
100
AcDbLine
 10
267.4
 20
188.0
 30
0.0
 11
267.4
 21
153.0
 31
0.0
  0
LINE
  5
4C5
100
AcDbEntity
  8
LAY-6
  6
CONTINUOUS
 62
     1
100
AcDbLine
 10
303.40339
 20
189.06131
 30
0.0
 11
303.40339
 21
153.0
 31
0.0
  0
TEXT
  5
4C6
100
AcDbEntity
  8
LAY-6
  6
CONTINUOUS
 62
     2
100
AcDbText
 10
281.401695
 20
154.5
 30
0.0
 40
5.0
  1
３６
 41
0.672
  7
EXCADSTD
 72
     5
 11
288.734495
 21
154.5
 31
0.0
100
AcDbText
  0
LINE
  5
4C7
100
AcDbEntity
  8
LAY-6
  6
CONTINUOUS
 62
     1
100
AcDbLine
 10
267.4
 20
154.0
 30
0.0
 11
303.40339
 21
154.0
 31
0.0
  0
LINE
  5
4C8
100
AcDbEntity
  8
LAY-6
  6
CONTINUOUS
 62
     1
100
AcDbLine
 10
269.4
 20
154.333333
 30
0.0
 11
267.4
 21
154.0
 31
0.0
  0
LINE
  5
4C9
100
AcDbEntity
  8
LAY-6
  6
CONTINUOUS
 62
     1
100
AcDbLine
 10
267.4
 20
154.0
 30
0.0
 11
269.4
 21
153.666667
 31
0.0
  0
LINE
  5
4CA
100
AcDbEntity
  8
LAY-6
  6
CONTINUOUS
 62
     1
100
AcDbLine
 10
301.40339
 20
153.666667
 30
0.0
 11
303.40339
 21
154.0
 31
0.0
  0
LINE
  5
4CB
100
AcDbEntity
  8
LAY-6
  6
CONTINUOUS
 62
     1
100
AcDbLine
 10
303.40339
 20
154.0
 30
0.0
 11
301.40339
 21
154.333333
 31
0.0
  0
TEXT
  5
4CC
100
AcDbEntity
  8
LAY-6
  6
CONTINUOUS
 62
     2
100
AcDbText
 10
136.83719
 20
443.105664
 30
0.0
 40
5.0
  1
（タップ穴加工付はオプション）
 41
0.672
  7
EXCADSTD
 72
     5
 11
196.83719
 21
443.105665
 31
0.0
100
AcDbText
  0
TEXT
  5
4CD
100
AcDbEntity
  8
LAY-6
  6
CONTINUOUS
 62
     2
100
AcDbText
 10
659.173791
 20
125.234424
 30
0.0
 40
6.0
  1
※本軸座は型枠付の製品ですが床面にも埋め込まれる為
 41
0.672
  7
EXCADSTD
 72
     5
 11
779.173796
 21
125.234424
 31
0.0
100
AcDbText
  0
TEXT
  5
4CE
100
AcDbEntity
  8
LAY-6
  6
CONTINUOUS
 62
     2
100
AcDbText
 10
659.173791
 20
119.234424
 30
0.0
 40
6.0
  1
　枠取付完了後は取外しは出来ません。
 41
0.672
  7
EXCADSTD
 72
     5
 11
745.573794
 21
119.234424
 31
0.0
100
AcDbText
  0
ARC
  5
4CF
100
AcDbEntity
  8
LAY-6
  6
CONTINUOUS
 62
     4
100
AcDbCircle
 10
771.999999
 20
79.0
 30
0.0
 40
18.0
100
AcDbArc
 50
180.0
 51
225.487766
  0
ARC
  5
4D0
100
AcDbEntity
  8
LAY-6
  6
CONTINUOUS
 62
     4
100
AcDbCircle
 10
736.0
 20
79.0
 30
0.0
 40
18.0
100
AcDbArc
 50
314.424746
 51
0.0
  0
LINE
  5
4D1
100
AcDbEntity
  8
LAY-6
  6
CONTINUOUS
 62
     4
100
AcDbLine
 10
757.658807
 20
68.122032
 30
0.0
 11
776.5
 21
79.0
 31
0.0
  0
LINE
  5
4D2
100
AcDbEntity
  8
LAY-6
  6
CONTINUOUS
 62
     4
100
AcDbLine
 10
750.341193
 20
68.122032
 30
0.0
 11
731.499999
 21
79.0
 31
0.0
  0
LINE
  5
4D3
100
AcDbEntity
  8
LAY-6
  6
CONTINUOUS
 62
     4
100
AcDbLine
 10
731.5
 20
79.0
 30
0.0
 11
776.5
 21
79.0
 31
0.0
  0
LINE
  5
4D4
100
AcDbEntity
  8
LAY-6
  6
CONTINUOUS
 62
     4
100
AcDbLine
 10
776.5
 20
82.75
 30
0.0
 11
784.0
 21
82.75
 31
0.0
  0
LINE
  5
4D5
100
AcDbEntity
  8
LAY-6
  6
CONTINUOUS
 62
     4
100
AcDbLine
 10
731.5
 20
82.75
 30
0.0
 11
724.0
 21
82.75
 31
0.0
  0
LINE
  5
4D6
100
AcDbEntity
  8
LAY-6
  6
CONTINUOUS
 62
     4
100
AcDbLine
 10
731.5
 20
75.25
 30
0.0
 11
724.0
 21
75.25
 31
0.0
  0
LINE
  5
4D7
100
AcDbEntity
  8
LAY-6
  6
CONTINUOUS
 62
     4
100
AcDbLine
 10
731.5
 20
75.25
 30
0.0
 11
731.5
 21
82.75
 31
0.0
  0
LINE
  5
4D8
100
AcDbEntity
  8
LAY-6
  6
CONTINUOUS
 62
     4
100
AcDbLine
 10
724.0
 20
75.25
 30
0.0
 11
724.0
 21
82.75
 31
0.0
  0
LINE
  5
4D9
100
AcDbEntity
  8
LAY-6
  6
CONTINUOUS
 62
     4
100
AcDbLine
 10
776.5
 20
75.25
 30
0.0
 11
784.0
 21
75.25
 31
0.0
  0
LINE
  5
4DA
100
AcDbEntity
  8
LAY-6
  6
CONTINUOUS
 62
     4
100
AcDbLine
 10
776.5
 20
75.25
 30
0.0
 11
776.5
 21
82.75
 31
0.0
  0
LINE
  5
4DB
100
AcDbEntity
  8
LAY-6
  6
CONTINUOUS
 62
     4
100
AcDbLine
 10
784.0
 20
75.25
 30
0.0
 11
784.0
 21
82.75
 31
0.0
  0
LINE
  5
4DC
100
AcDbEntity
  8
LAY-6
  6
CONTINUOUS
 62
     2
100
AcDbLine
 10
760.000003
 20
91.765001
 30
0.0
 11
754.0
 21
85.764998
 31
0.0
  0
LINE
  5
4DD
100
AcDbEntity
  8
LAY-6
  6
CONTINUOUS
 62
     2
100
AcDbLine
 10
757.0
 20
91.765
 30
0.0
 11
760.000003
 21
91.765001
 31
0.0
  0
LINE
  5
4DE
100
AcDbEntity
  8
LAY-6
  6
CONTINUOUS
 62
     2
100
AcDbLine
 10
748.000003
 20
91.764995
 30
0.0
 11
754.0
 21
85.764998
 31
0.0
  0
LINE
  5
4DF
100
AcDbEntity
  8
LAY-6
  6
CONTINUOUS
 62
     2
100
AcDbLine
 10
748.000003
 20
91.764995
 30
0.0
 11
751.0
 21
91.764996
 31
0.0
  0
LINE
  5
4E0
100
AcDbEntity
  8
LAY-6
  6
CONTINUOUS
 62
     2
100
AcDbLine
 10
757.0
 20
91.765
 30
0.0
 11
757.0
 21
97.765
 31
0.0
  0
LINE
  5
4E1
100
AcDbEntity
  8
LAY-6
  6
CONTINUOUS
 62
     2
100
AcDbLine
 10
757.0
 20
97.765
 30
0.0
 11
754.0
 21
97.765
 31
0.0
  0
LINE
  5
4E2
100
AcDbEntity
  8
LAY-6
  6
CONTINUOUS
 62
     2
100
AcDbLine
 10
754.0
 20
97.765
 30
0.0
 11
751.0
 21
97.765
 31
0.0
  0
LINE
  5
4E3
100
AcDbEntity
  8
LAY-6
  6
CONTINUOUS
 62
     2
100
AcDbLine
 10
751.0
 20
91.764996
 30
0.0
 11
751.0
 21
97.764999
 31
0.0
  0
TEXT
  5
4E4
100
AcDbEntity
  8
LAY-6
  6
CONTINUOUS
 62
     2
100
AcDbText
 10
720.322841
 20
104.108318
 30
0.0
 40
9.0
  1
ドアの開き勝手基準
 41
0.672
  7
EXCADSTD
 72
     5
 11
785.122844
 21
104.108318
 31
0.0
100
AcDbText
  0
LINE
  5
4E5
100
AcDbEntity
  8
LAY-6
  6
CONTINUOUS
 62
     2
100
AcDbLine
 10
719.113457
 20
102.279497
 30
0.0
 11
788.263457
 21
102.279497
 31
0.0
  0
TEXT
  5
4E6
100
AcDbEntity
  8
LAY-6
  6
CONTINUOUS
 62
     2
100
AcDbText
 10
716.244428
 20
49.110529
 30
0.0
 40
9.0
  1
本図は右開きを示します
 41
0.672
  7
EXCADSTD
 72
     5
 11
795.444431
 21
49.110529
 31
0.0
100
AcDbText
  0
TEXT
  5
4E7
100
AcDbEntity
  8
LAY-6
  6
CONTINUOUS
 62
     2
100
AcDbText
 10
745.813134
 20
70.896519
 30
0.0
 40
7.5
  1
右
 41
0.672
  7
EXCADSTD
 72
     5
 11
750.613134
 21
70.896519
 31
0.0
100
AcDbText
  0
TEXT
  5
4E8
100
AcDbEntity
  8
LAY-6
  6
CONTINUOUS
 62
     2
100
AcDbText
 10
756.528085
 20
70.885
 30
0.0
 40
7.5
  1
左
 41
0.672
  7
EXCADSTD
 72
     5
 11
761.328085
 21
70.885
 31
0.0
100
AcDbText
  0
LINE
  5
4E9
100
AcDbEntity
  8
LAY-6
  6
CONTINUOUS
 62
     1
100
AcDbLine
 10
72.403377
 20
425.991095
 30
0.0
 11
72.403377
 21
442.5
 31
0.0
  0
LINE
  5
4EA
100
AcDbEntity
  8
LAY-6
  6
CONTINUOUS
 62
     1
100
AcDbLine
 10
75.403372
 20
395.4
 30
0.0
 11
75.403372
 21
442.5
 31
0.0
  0
TEXT
  5
4EB
100
AcDbEntity
  8
LAY-6
  6
CONTINUOUS
 62
     2
100
AcDbText
 10
65.403377
 20
441.5
 30
0.0
 40
5.0
  1
３
 41
0.672
  7
EXCADSTD
 72
     5
 11
68.603377
 21
441.5
 31
0.0
100
AcDbText
  0
LINE
  5
4EC
100
AcDbEntity
  8
LAY-6
  6
CONTINUOUS
 62
     1
100
AcDbLine
 10
64.903377
 20
441.0
 30
0.0
 11
75.403372
 21
441.0
 31
0.0
  0
LINE
  5
4ED
100
AcDbEntity
  8
LAY-6
  6
CONTINUOUS
 62
     1
100
AcDbLine
 10
69.403377
 20
440.5
 30
0.0
 11
72.403377
 21
441.0
 31
0.0
  0
LINE
  5
4EE
100
AcDbEntity
  8
LAY-6
  6
CONTINUOUS
 62
     1
100
AcDbLine
 10
72.403377
 20
441.0
 30
0.0
 11
69.403377
 21
441.5
 31
0.0
  0
LINE
  5
4EF
100
AcDbEntity
  8
LAY-6
  6
CONTINUOUS
 62
     1
100
AcDbLine
 10
79.403381
 20
417.991058
 30
0.0
 11
79.403381
 21
442.5
 31
0.0
  0
TEXT
  5
4F0
100
AcDbEntity
  8
LAY-6
  6
CONTINUOUS
 62
     2
100
AcDbText
 10
75.403376
 20
441.5
 30
0.0
 40
5.0
  1
４
 41
0.672
  7
EXCADSTD
 72
     5
 11
78.603376
 21
441.5
 31
0.0
100
AcDbText
  0
LINE
  5
4F1
100
AcDbEntity
  8
LAY-6
  6
CONTINUOUS
 62
     1
100
AcDbLine
 10
75.403372
 20
441.0
 30
0.0
 11
79.403381
 21
441.0
 31
0.0
  0
CIRCLE
  5
4F2
100
AcDbEntity
  8
LAY-6
  6
CONTINUOUS
 62
     1
100
AcDbCircle
 10
75.403372
 20
441.0
 30
0.0
 40
0.5
  0
CIRCLE
  5
4F3
100
AcDbEntity
  8
LAY-6
  6
CONTINUOUS
 62
     1
100
AcDbCircle
 10
75.403372
 20
441.0
 30
0.0
 40
0.25
  0
LINE
  5
4F4
100
AcDbEntity
  8
LAY-6
  6
CONTINUOUS
 62
     1
100
AcDbLine
 10
129.403381
 20
417.991058
 30
0.0
 11
129.403381
 21
442.5
 31
0.0
  0
TEXT
  5
4F5
100
AcDbEntity
  8
LAY-6
  6
CONTINUOUS
 62
     2
100
AcDbText
 10
100.403381
 20
441.5
 30
0.0
 40
5.0
  1
５０
 41
0.672
  7
EXCADSTD
 72
     5
 11
107.736181
 21
441.5
 31
0.0
100
AcDbText
  0
LINE
  5
4F6
100
AcDbEntity
  8
LAY-6
  6
CONTINUOUS
 62
     1
100
AcDbLine
 10
79.403381
 20
441.0
 30
0.0
 11
129.403381
 21
441.0
 31
0.0
  0
LINE
  5
4F7
100
AcDbEntity
  8
LAY-6
  6
CONTINUOUS
 62
     1
100
AcDbLine
 10
82.403381
 20
441.5
 30
0.0
 11
79.403381
 21
441.0
 31
0.0
  0
LINE
  5
4F8
100
AcDbEntity
  8
LAY-6
  6
CONTINUOUS
 62
     1
100
AcDbLine
 10
79.403381
 20
441.0
 30
0.0
 11
82.403381
 21
440.5
 31
0.0
  0
LINE
  5
4F9
100
AcDbEntity
  8
LAY-6
  6
CONTINUOUS
 62
     1
100
AcDbLine
 10
126.403381
 20
440.5
 30
0.0
 11
129.403381
 21
441.0
 31
0.0
  0
LINE
  5
4FA
100
AcDbEntity
  8
LAY-6
  6
CONTINUOUS
 62
     1
100
AcDbLine
 10
129.403381
 20
441.0
 30
0.0
 11
126.403381
 21
441.5
 31
0.0
  0
LINE
  5
4FB
100
AcDbEntity
  8
LAY-6
  6
CONTINUOUS
 62
     1
100
AcDbLine
 10
72.403377
 20
425.991095
 30
0.0
 11
72.403377
 21
450.2
 31
0.0
  0
LINE
  5
4FC
100
AcDbEntity
  8
LAY-6
  6
CONTINUOUS
 62
     1
100
AcDbLine
 10
79.403381
 20
417.991058
 30
0.0
 11
79.403381
 21
450.2
 31
0.0
  0
TEXT
  5
4FD
100
AcDbEntity
  8
LAY-6
  6
CONTINUOUS
 62
     2
100
AcDbText
 10
73.903379
 20
449.2
 30
0.0
 40
5.0
  1
７
 41
0.672
  7
EXCADSTD
 72
     5
 11
77.103379
 21
449.2
 31
0.0
100
AcDbText
  0
LINE
  5
4FE
100
AcDbEntity
  8
LAY-6
  6
CONTINUOUS
 62
     1
100
AcDbLine
 10
72.403377
 20
448.7
 30
0.0
 11
79.403381
 21
448.7
 31
0.0
  0
LINE
  5
4FF
100
AcDbEntity
  8
LAY-6
  6
CONTINUOUS
 62
     1
100
AcDbLine
 10
75.403377
 20
449.2
 30
0.0
 11
72.403377
 21
448.7
 31
0.0
  0
LINE
  5
500
100
AcDbEntity
  8
LAY-6
  6
CONTINUOUS
 62
     1
100
AcDbLine
 10
72.403377
 20
448.7
 30
0.0
 11
75.403377
 21
448.2
 31
0.0
  0
LINE
  5
501
100
AcDbEntity
  8
LAY-6
  6
CONTINUOUS
 62
     1
100
AcDbLine
 10
76.403381
 20
448.2
 30
0.0
 11
79.403381
 21
448.7
 31
0.0
  0
LINE
  5
502
100
AcDbEntity
  8
LAY-6
  6
CONTINUOUS
 62
     1
100
AcDbLine
 10
79.403381
 20
448.7
 30
0.0
 11
76.403381
 21
449.2
 31
0.0
  0
LINE
  5
503
100
AcDbEntity
  8
LAY-6
  6
CONTINUOUS
 62
     1
100
AcDbLine
 10
79.403381
 20
417.991058
 30
0.0
 11
79.403381
 21
433.1
 31
0.0
  0
LINE
  5
504
100
AcDbEntity
  8
LAY-6
  6
CONTINUOUS
 62
     1
100
AcDbLine
 10
89.403381
 20
414.991028
 30
0.0
 11
89.403381
 21
433.1
 31
0.0
  0
TEXT
  5
505
100
AcDbEntity
  8
LAY-6
  6
CONTINUOUS
 62
     2
100
AcDbText
 10
79.603381
 20
432.1
 30
0.0
 40
5.0
  1
(
 41
0.4
  7
EXCADSTD
 72
     5
 11
80.903381
 21
432.1
 31
0.0
100
AcDbText
  0
TEXT
  5
506
100
AcDbEntity
  8
LAY-6
  6
CONTINUOUS
 62
     2
100
AcDbText
 10
81.603381
 20
432.1
 30
0.0
 40
5.0
  1
１０
 41
0.672
  7
EXCADSTD
 72
     5
 11
88.936181
 21
432.1
 31
0.0
100
AcDbText
  0
TEXT
  5
507
100
AcDbEntity
  8
LAY-6
  6
CONTINUOUS
 62
     2
100
AcDbText
 10
89.603381
 20
432.1
 30
0.0
 40
5.0
  1
)
 41
0.4
  7
EXCADSTD
 72
     5
 11
90.903381
 21
432.1
 31
0.0
100
AcDbText
  0
LINE
  5
508
100
AcDbEntity
  8
LAY-6
  6
CONTINUOUS
 62
     1
100
AcDbLine
 10
79.403381
 20
431.6
 30
0.0
 11
89.403381
 21
431.6
 31
0.0
  0
LINE
  5
509
100
AcDbEntity
  8
LAY-6
  6
CONTINUOUS
 62
     1
100
AcDbLine
 10
82.403381
 20
432.1
 30
0.0
 11
79.403381
 21
431.6
 31
0.0
  0
LINE
  5
50A
100
AcDbEntity
  8
LAY-6
  6
CONTINUOUS
 62
     1
100
AcDbLine
 10
79.403381
 20
431.6
 30
0.0
 11
82.403381
 21
431.1
 31
0.0
  0
LINE
  5
50B
100
AcDbEntity
  8
LAY-6
  6
CONTINUOUS
 62
     1
100
AcDbLine
 10
86.403381
 20
431.1
 30
0.0
 11
89.403381
 21
431.6
 31
0.0
  0
LINE
  5
50C
100
AcDbEntity
  8
LAY-6
  6
CONTINUOUS
 62
     1
100
AcDbLine
 10
89.403381
 20
431.6
 30
0.0
 11
86.403381
 21
432.1
 31
0.0
  0
LINE
  5
50D
100
AcDbEntity
  8
LAY-6
  6
CONTINUOUS
 62
     1
100
AcDbLine
 10
119.403381
 20
414.991028
 30
0.0
 11
119.403381
 21
433.1
 31
0.0
  0
TEXT
  5
50E
100
AcDbEntity
  8
LAY-6
  6
CONTINUOUS
 62
     2
100
AcDbText
 10
96.403381
 20
432.1
 30
0.0
 40
5.0
  1
（
 41
0.672
  7
EXCADSTD
 72
     5
 11
99.603381
 21
432.1
 31
0.0
100
AcDbText
  0
TEXT
  5
50F
100
AcDbEntity
  8
LAY-6
  6
CONTINUOUS
 62
     2
100
AcDbText
 10
100.403381
 20
432.1
 30
0.0
 40
5.0
  1
３０
 41
0.672
  7
EXCADSTD
 72
     5
 11
107.736181
 21
432.1
 31
0.0
100
AcDbText
  0
TEXT
  5
510
100
AcDbEntity
  8
LAY-6
  6
CONTINUOUS
 62
     2
100
AcDbText
 10
108.403381
 20
432.1
 30
0.0
 40
5.0
  1
）
 41
0.672
  7
EXCADSTD
 72
     5
 11
111.603381
 21
432.1
 31
0.0
100
AcDbText
  0
LINE
  5
511
100
AcDbEntity
  8
LAY-6
  6
CONTINUOUS
 62
     1
100
AcDbLine
 10
89.403381
 20
431.6
 30
0.0
 11
119.403381
 21
431.6
 31
0.0
  0
LINE
  5
512
100
AcDbEntity
  8
LAY-6
  6
CONTINUOUS
 62
     1
100
AcDbLine
 10
92.403381
 20
432.1
 30
0.0
 11
89.403381
 21
431.6
 31
0.0
  0
LINE
  5
513
100
AcDbEntity
  8
LAY-6
  6
CONTINUOUS
 62
     1
100
AcDbLine
 10
89.403381
 20
431.6
 30
0.0
 11
92.403381
 21
431.1
 31
0.0
  0
LINE
  5
514
100
AcDbEntity
  8
LAY-6
  6
CONTINUOUS
 62
     1
100
AcDbLine
 10
116.403381
 20
431.1
 30
0.0
 11
119.403381
 21
431.6
 31
0.0
  0
LINE
  5
515
100
AcDbEntity
  8
LAY-6
  6
CONTINUOUS
 62
     1
100
AcDbLine
 10
119.403381
 20
431.6
 30
0.0
 11
116.403381
 21
432.1
 31
0.0
  0
LINE
  5
516
100
AcDbEntity
  8
LAY-6
  6
CONTINUOUS
 62
     1
100
AcDbLine
 10
133.903427
 20
380.491095
 30
0.0
 11
140.0
 21
380.491095
 31
0.0
  0
LINE
  5
517
100
AcDbEntity
  8
LAY-6
  6
CONTINUOUS
 62
     1
100
AcDbLine
 10
124.903381
 20
393.491028
 30
0.0
 11
140.0
 21
393.491028
 31
0.0
  0
TEXT
  5
518
100
AcDbEntity
  8
LAY-6
  6
CONTINUOUS
 62
     2
100
AcDbText
 10
138.0
 20
378.991061
 30
0.0
 40
5.0
  1
（
 50
90.0
 41
0.672
  7
EXCADSTD
 72
     5
 11
138.0
 21
382.191061
 31
0.0
100
AcDbText
  0
TEXT
  5
519
100
AcDbEntity
  8
LAY-6
  6
CONTINUOUS
 62
     2
100
AcDbText
 10
138.0
 20
382.991061
 30
0.0
 40
5.0
  1
１３
 50
90.0
 41
0.672
  7
EXCADSTD
 72
     5
 11
138.0
 21
390.323861
 31
0.0
100
AcDbText
  0
TEXT
  5
51A
100
AcDbEntity
  8
LAY-6
  6
CONTINUOUS
 62
     2
100
AcDbText
 10
138.0
 20
390.991061
 30
0.0
 40
5.0
  1
）
 50
90.0
 41
0.672
  7
EXCADSTD
 72
     5
 11
138.0
 21
394.191061
 31
0.0
100
AcDbText
  0
LINE
  5
51B
100
AcDbEntity
  8
LAY-6
  6
CONTINUOUS
 62
     1
100
AcDbLine
 10
138.5
 20
380.491095
 30
0.0
 11
138.5
 21
393.491028
 31
0.0
  0
LINE
  5
51C
100
AcDbEntity
  8
LAY-6
  6
CONTINUOUS
 62
     1
100
AcDbLine
 10
138.0
 20
383.491095
 30
0.0
 11
138.5
 21
380.491095
 31
0.0
  0
LINE
  5
51D
100
AcDbEntity
  8
LAY-6
  6
CONTINUOUS
 62
     1
100
AcDbLine
 10
138.5
 20
380.491095
 30
0.0
 11
139.0
 21
383.491095
 31
0.0
  0
LINE
  5
51E
100
AcDbEntity
  8
LAY-6
  6
CONTINUOUS
 62
     1
100
AcDbLine
 10
139.0
 20
390.491028
 30
0.0
 11
138.5
 21
393.491028
 31
0.0
  0
LINE
  5
51F
100
AcDbEntity
  8
LAY-6
  6
CONTINUOUS
 62
     1
100
AcDbLine
 10
138.5
 20
393.491028
 30
0.0
 11
138.0
 21
390.491028
 31
0.0
  0
LINE
  5
520
100
AcDbEntity
  8
LAY-6
  6
CONTINUOUS
 62
     1
100
AcDbLine
 10
124.903381
 20
409.491028
 30
0.0
 11
140.0
 21
409.491028
 31
0.0
  0
TEXT
  5
521
100
AcDbEntity
  8
LAY-6
  6
CONTINUOUS
 62
     2
100
AcDbText
 10
138.0
 20
393.491028
 30
0.0
 40
5.0
  1
（
 50
90.0
 41
0.672
  7
EXCADSTD
 72
     5
 11
138.0
 21
396.691028
 31
0.0
100
AcDbText
  0
TEXT
  5
522
100
AcDbEntity
  8
LAY-6
  6
CONTINUOUS
 62
     2
100
AcDbText
 10
138.0
 20
397.491028
 30
0.0
 40
5.0
  1
１６
 50
90.0
 41
0.672
  7
EXCADSTD
 72
     5
 11
138.0
 21
404.823828
 31
0.0
100
AcDbText
  0
TEXT
  5
523
100
AcDbEntity
  8
LAY-6
  6
CONTINUOUS
 62
     2
100
AcDbText
 10
138.0
 20
405.491028
 30
0.0
 40
5.0
  1
）
 50
90.0
 41
0.672
  7
EXCADSTD
 72
     5
 11
138.0
 21
408.691028
 31
0.0
100
AcDbText
  0
LINE
  5
524
100
AcDbEntity
  8
LAY-6
  6
CONTINUOUS
 62
     1
100
AcDbLine
 10
138.5
 20
393.491028
 30
0.0
 11
138.5
 21
409.491028
 31
0.0
  0
LINE
  5
525
100
AcDbEntity
  8
LAY-6
  6
CONTINUOUS
 62
     1
100
AcDbLine
 10
138.0
 20
396.491028
 30
0.0
 11
138.5
 21
393.491028
 31
0.0
  0
LINE
  5
526
100
AcDbEntity
  8
LAY-6
  6
CONTINUOUS
 62
     1
100
AcDbLine
 10
138.5
 20
393.491028
 30
0.0
 11
139.0
 21
396.491028
 31
0.0
  0
LINE
  5
527
100
AcDbEntity
  8
LAY-6
  6
CONTINUOUS
 62
     1
100
AcDbLine
 10
139.0
 20
406.491028
 30
0.0
 11
138.5
 21
409.491028
 31
0.0
  0
LINE
  5
528
100
AcDbEntity
  8
LAY-6
  6
CONTINUOUS
 62
     1
100
AcDbLine
 10
138.5
 20
409.491028
 30
0.0
 11
138.0
 21
406.491028
 31
0.0
  0
TEXT
  5
529
100
AcDbEntity
  8
LAY-6
  6
CONTINUOUS
 62
     2
100
AcDbText
 10
138.75
 20
449.0
 30
0.0
 40
5.0
  1
４－Ｍ５×２０皿小ネジ(P=0.8)(別途)
 41
0.576198
  7
EXCADSTD
 72
     5
 11
208.75
 21
449.0
 31
0.0
100
AcDbText
  0
POLYLINE
  5
52A
100
AcDbEntity
  8
LAY-6
  6
CONTINUOUS
 62
     1
100
AcDb2dPolyline
 66
     1
 10
0.0
 20
0.0
 30
0.0
 70
   128
  0
VERTEX
  5
52B
100
AcDbEntity
  8
LAY-6
  6
CONTINUOUS
 62
     1
100
AcDbVertex
100
AcDb2dVertex
 10
119.403381
 20
409.491128
 30
0.0
  0
VERTEX
  5
52C
100
AcDbEntity
  8
LAY-6
  6
CONTINUOUS
 62
     1
100
AcDbVertex
100
AcDb2dVertex
 10
137.2
 20
448.5
 30
0.0
  0
VERTEX
  5
52D
100
AcDbEntity
  8
LAY-6
  6
CONTINUOUS
 62
     1
100
AcDbVertex
100
AcDb2dVertex
 10
210.3
 20
448.5
 30
0.0
  0
SEQEND
  5
52E
100
AcDbEntity
  8
LAY-6
  6
CONTINUOUS
 62
     1
  0
LINE
  5
52F
100
AcDbEntity
  8
LAY-6
  6
CONTINUOUS
 62
     1
100
AcDbLine
 10
119.930247
 20
411.449066
 30
0.0
 11
119.403381
 21
409.491128
 31
0.0
  0
LINE
  5
530
100
AcDbEntity
  8
LAY-6
  6
CONTINUOUS
 62
     1
100
AcDbLine
 10
119.403381
 20
409.491128
 30
0.0
 11
120.536775
 21
411.172356
 31
0.0
  0
LINE
  5
531
100
AcDbEntity
  8
LAY-6
  6
CONTINUOUS
 62
     1
100
AcDbLine
 10
376.903397
 20
389.491089
 30
0.0
 11
406.7
 21
389.491089
 31
0.0
  0
TEXT
  5
532
100
AcDbEntity
  8
LAY-6
  6
CONTINUOUS
 62
     2
100
AcDbText
 10
404.7
 20
384.491089
 30
0.0
 40
5.0
  1
６
 50
90.0
 41
0.672
  7
EXCADSTD
 72
     5
 11
404.7
 21
387.691089
 31
0.0
100
AcDbText
  0
LINE
  5
533
100
AcDbEntity
  8
LAY-6
  6
CONTINUOUS
 62
     1
100
AcDbLine
 10
405.2
 20
389.491089
 30
0.0
 11
405.2
 21
383.491089
 31
0.0
  0
LINE
  5
534
100
AcDbEntity
  8
LAY-6
  6
CONTINUOUS
 62
     1
100
AcDbLine
 10
405.7
 20
386.491089
 30
0.0
 11
405.2
 21
389.491089
 31
0.0
  0
LINE
  5
535
100
AcDbEntity
  8
LAY-6
  6
CONTINUOUS
 62
     1
100
AcDbLine
 10
405.2
 20
389.491089
 30
0.0
 11
404.7
 21
386.491089
 31
0.0
  0
LINE
  5
536
100
AcDbEntity
  8
LAY-6
  6
CONTINUOUS
 62
     1
100
AcDbLine
 10
404.7
 20
386.491089
 30
0.0
 11
405.2
 21
383.491089
 31
0.0
  0
LINE
  5
537
100
AcDbEntity
  8
LAY-6
  6
CONTINUOUS
 62
     1
100
AcDbLine
 10
405.2
 20
383.491089
 30
0.0
 11
405.7
 21
386.491089
 31
0.0
  0
LINE
  5
538
100
AcDbEntity
  8
LAY-6
  6
CONTINUOUS
 62
     1
100
AcDbLine
 10
285.403371
 20
422.391363
 30
0.0
 11
285.403371
 21
443.5
 31
0.0
  0
LINE
  5
539
100
AcDbEntity
  8
LAY-6
  6
CONTINUOUS
 62
     1
100
AcDbLine
 10
289.403397
 20
407.991089
 30
0.0
 11
289.403397
 21
443.5
 31
0.0
  0
TEXT
  5
53A
100
AcDbEntity
  8
LAY-6
  6
CONTINUOUS
 62
     2
100
AcDbText
 10
285.403384
 20
442.5
 30
0.0
 40
5.0
  1
４
 41
0.672
  7
EXCADSTD
 72
     5
 11
288.603384
 21
442.5
 31
0.0
100
AcDbText
  0
LINE
  5
53B
100
AcDbEntity
  8
LAY-6
  6
CONTINUOUS
 62
     1
100
AcDbLine
 10
280.403371
 20
442.0
 30
0.0
 11
289.403397
 21
442.0
 31
0.0
  0
LINE
  5
53C
100
AcDbEntity
  8
LAY-6
  6
CONTINUOUS
 62
     1
100
AcDbLine
 10
282.403371
 20
441.5
 30
0.0
 11
285.403371
 21
442.0
 31
0.0
  0
LINE
  5
53D
100
AcDbEntity
  8
LAY-6
  6
CONTINUOUS
 62
     1
100
AcDbLine
 10
285.403371
 20
442.0
 30
0.0
 11
282.403371
 21
442.5
 31
0.0
  0
LINE
  5
53E
100
AcDbEntity
  8
LAY-6
  6
CONTINUOUS
 62
     1
100
AcDbLine
 10
379.403397
 20
414.991089
 30
0.0
 11
379.403397
 21
443.5
 31
0.0
  0
TEXT
  5
53F
100
AcDbEntity
  8
LAY-6
  6
CONTINUOUS
 62
     2
100
AcDbText
 10
330.403397
 20
442.5
 30
0.0
 40
5.0
  1
９０
 41
0.672
  7
EXCADSTD
 72
     5
 11
337.736197
 21
442.5
 31
0.0
100
AcDbText
  0
LINE
  5
540
100
AcDbEntity
  8
LAY-6
  6
CONTINUOUS
 62
     1
100
AcDbLine
 10
289.403397
 20
442.0
 30
0.0
 11
379.403397
 21
442.0
 31
0.0
  0
LINE
  5
541
100
AcDbEntity
  8
LAY-6
  6
CONTINUOUS
 62
     1
100
AcDbLine
 10
292.403397
 20
442.5
 30
0.0
 11
289.403397
 21
442.0
 31
0.0
  0
LINE
  5
542
100
AcDbEntity
  8
LAY-6
  6
CONTINUOUS
 62
     1
100
AcDbLine
 10
289.403397
 20
442.0
 30
0.0
 11
292.403397
 21
441.5
 31
0.0
  0
LINE
  5
543
100
AcDbEntity
  8
LAY-6
  6
CONTINUOUS
 62
     1
100
AcDbLine
 10
376.403397
 20
441.5
 30
0.0
 11
379.403397
 21
442.0
 31
0.0
  0
LINE
  5
544
100
AcDbEntity
  8
LAY-6
  6
CONTINUOUS
 62
     1
100
AcDbLine
 10
379.403397
 20
442.0
 30
0.0
 11
376.403397
 21
442.5
 31
0.0
  0
LINE
  5
545
100
AcDbEntity
  8
LAY-6
  6
CONTINUOUS
 62
     1
100
AcDbLine
 10
672.1
 20
398.3
 30
0.0
 11
663.8
 21
398.3
 31
0.0
  0
LINE
  5
546
100
AcDbEntity
  8
LAY-6
  6
CONTINUOUS
 62
     1
100
AcDbLine
 10
773.1
 20
399.815201
 30
0.0
 11
773.1
 21
370.0
 31
0.0
  0
TEXT
  5
547
100
AcDbEntity
  8
LAY-6
  6
CONTINUOUS
 62
     2
100
AcDbText
 10
734.851575
 20
330.349622
 30
0.0
 40
6.0
  1
ド　ア
 41
0.672
  7
EXCADSTD
 72
     5
 11
749.251576
 21
330.349622
 31
0.0
100
AcDbText
  0
TEXT
  5
548
100
AcDbEntity
  8
LAY-6
  6
CONTINUOUS
 62
     2
100
AcDbText
 10
772.751575
 20
421.149622
 30
0.0
 40
6.0
  1
上　枠
 41
0.672
  7
EXCADSTD
 72
     5
 11
787.151576
 21
421.149622
 31
0.0
100
AcDbText
  0
LINE
  5
549
100
AcDbEntity
  8
LAY-6
  6
CONTINUOUS
 62
     1
100
AcDbLine
 10
672.1
 20
399.815201
 30
0.0
 11
672.1
 21
396.815231
 31
0.0
  0
LINE
  5
54A
100
AcDbEntity
  8
LAY-6
  6
CONTINUOUS
 62
     1
100
AcDbLine
 10
773.1
 20
404.815201
 30
0.0
 11
773.1
 21
399.815201
 31
0.0
  0
LINE
  5
54B
100
AcDbEntity
  8
LAY-6
  6
CONTINUOUS
 62
     1
100
AcDbLine
 10
788.4
 20
399.815201
 30
0.0
 11
788.4
 21
396.815171
 31
0.0
  0
LINE
  5
54C
100
AcDbEntity
  8
LAY-6
  6
CONTINUOUS
 62
     1
100
AcDbLine
 10
788.4
 20
204.965485
 30
0.0
 11
788.4
 21
198.965455
 31
0.0
  0
POLYLINE
  5
54D
100
AcDbEntity
  8
LAY-6
  6
CONTINUOUS
 62
     1
100
AcDb2dPolyline
 66
     1
 10
0.0
 20
0.0
 30
0.0
 70
   128
  0
VERTEX
  5
54E
100
AcDbEntity
  8
LAY-6
  6
CONTINUOUS
 62
     1
100
AcDbVertex
100
AcDb2dVertex
 10
694.5
 20
417.815201
 30
0.0
  0
VERTEX
  5
54F
100
AcDbEntity
  8
LAY-6
  6
CONTINUOUS
 62
     1
100
AcDbVertex
100
AcDb2dVertex
 10
678.1
 20
433.8
 30
0.0
  0
VERTEX
  5
550
100
AcDbEntity
  8
LAY-6
  6
CONTINUOUS
 62
     1
100
AcDbVertex
100
AcDb2dVertex
 10
646.0
 20
433.8
 30
0.0
  0
SEQEND
  5
551
100
AcDbEntity
  8
LAY-6
  6
CONTINUOUS
 62
     1
  0
LINE
  5
552
100
AcDbEntity
  8
LAY-6
  6
CONTINUOUS
 62
     1
100
AcDbLine
 10
692.835111
 20
418.972464
 30
0.0
 11
694.5
 21
417.815201
 31
0.0
  0
LINE
  5
553
100
AcDbEntity
  8
LAY-6
  6
CONTINUOUS
 62
     1
100
AcDbLine
 10
694.5
 20
417.815201
 30
0.0
 11
693.300434
 21
419.449873
 31
0.0
  0
TEXT
  5
554
100
AcDbEntity
  8
LAY-6
  6
CONTINUOUS
 62
     2
100
AcDbText
 10
732.573791
 20
158.434424
 30
0.0
 40
6.0
  1
※
 41
0.672
  7
EXCADSTD
 72
     5
 11
736.413791
 21
158.434424
 31
0.0
100
AcDbText
  0
TEXT
  5
555
100
AcDbEntity
  8
LAY-6
  6
CONTINUOUS
 62
     2
100
AcDbText
 10
622.151147
 20
185.999909
 30
0.0
 40
6.0
  1
床　面
 41
0.672
  7
EXCADSTD
 72
     5
 11
636.551148
 21
185.999909
 31
0.0
100
AcDbText
  0
LINE
  5
556
100
AcDbEntity
  8
LAY-6
  6
CONTINUOUS
 62
     1
100
AcDbLine
 10
486.2
 20
222.056885
 30
0.0
 11
486.2
 21
236.8
 31
0.0
  0
LINE
  5
557
100
AcDbEntity
  8
LAY-6
  6
CONTINUOUS
 62
     1
100
AcDbLine
 10
486.2
 20
236.8
 30
0.0
 11
486.2
 21
246.965485
 31
0.0
  0
TEXT
  5
558
100
AcDbEntity
  8
LAY-6
  6
CONTINUOUS
 62
     2
100
AcDbText
 10
491.699755
 20
245.965485
 30
0.0
 40
5.0
  1
１９
 41
0.672
  7
EXCADSTD
 72
     5
 11
499.032555
 21
245.965485
 31
0.0
100
AcDbText
  0
LINE
  5
559
100
AcDbEntity
  8
LAY-6
  6
CONTINUOUS
 62
     1
100
AcDbLine
 10
486.2
 20
245.465485
 30
0.0
 11
505.199511
 21
245.465485
 31
0.0
  0
LINE
  5
55A
100
AcDbEntity
  8
LAY-6
  6
CONTINUOUS
 62
     1
100
AcDbLine
 10
489.2
 20
245.965485
 30
0.0
 11
486.2
 21
245.465485
 31
0.0
  0
LINE
  5
55B
100
AcDbEntity
  8
LAY-6
  6
CONTINUOUS
 62
     1
100
AcDbLine
 10
486.2
 20
245.465485
 30
0.0
 11
489.2
 21
244.965485
 31
0.0
  0
LINE
  5
55C
100
AcDbEntity
  8
LAY-6
  6
CONTINUOUS
 62
     1
100
AcDbLine
 10
502.199511
 20
244.965485
 30
0.0
 11
505.199511
 21
245.465485
 31
0.0
  0
LINE
  5
55D
100
AcDbEntity
  8
LAY-6
  6
CONTINUOUS
 62
     1
100
AcDbLine
 10
505.199511
 20
245.465485
 30
0.0
 11
502.199511
 21
245.965485
 31
0.0
  0
TEXT
  5
55E
100
AcDbEntity
  8
LAY-6
  6
CONTINUOUS
 62
     2
100
AcDbText
 10
506.699755
 20
245.965485
 30
0.0
 40
5.0
  1
７
 41
0.672
  7
EXCADSTD
 72
     5
 11
509.899755
 21
245.965485
 31
0.0
100
AcDbText
  0
LINE
  5
55F
100
AcDbEntity
  8
LAY-6
  6
CONTINUOUS
 62
     1
100
AcDbLine
 10
505.199511
 20
245.465485
 30
0.0
 11
512.2
 21
245.465485
 31
0.0
  0
LINE
  5
560
100
AcDbEntity
  8
LAY-6
  6
CONTINUOUS
 62
     1
100
AcDbLine
 10
508.199511
 20
245.965485
 30
0.0
 11
505.199511
 21
245.465485
 31
0.0
  0
LINE
  5
561
100
AcDbEntity
  8
LAY-6
  6
CONTINUOUS
 62
     1
100
AcDbLine
 10
505.199511
 20
245.465485
 30
0.0
 11
508.199511
 21
244.965485
 31
0.0
  0
LINE
  5
562
100
AcDbEntity
  8
LAY-6
  6
CONTINUOUS
 62
     1
100
AcDbLine
 10
509.2
 20
244.965485
 30
0.0
 11
512.2
 21
245.465485
 31
0.0
  0
LINE
  5
563
100
AcDbEntity
  8
LAY-6
  6
CONTINUOUS
 62
     1
100
AcDbLine
 10
512.2
 20
245.465485
 30
0.0
 11
509.2
 21
245.965485
 31
0.0
  0
TEXT
  5
564
100
AcDbEntity
  8
LAY-6
  6
CONTINUOUS
 62
     2
100
AcDbText
 10
523.2
 20
245.965485
 30
0.0
 40
5.0
  1
３０
 41
0.672
  7
EXCADSTD
 72
     5
 11
530.5328
 21
245.965485
 31
0.0
100
AcDbText
  0
LINE
  5
565
100
AcDbEntity
  8
LAY-6
  6
CONTINUOUS
 62
     1
100
AcDbLine
 10
512.2
 20
245.465485
 30
0.0
 11
542.2
 21
245.465485
 31
0.0
  0
LINE
  5
566
100
AcDbEntity
  8
LAY-6
  6
CONTINUOUS
 62
     1
100
AcDbLine
 10
515.2
 20
245.965485
 30
0.0
 11
512.2
 21
245.465485
 31
0.0
  0
LINE
  5
567
100
AcDbEntity
  8
LAY-6
  6
CONTINUOUS
 62
     1
100
AcDbLine
 10
512.2
 20
245.465485
 30
0.0
 11
515.2
 21
244.965485
 31
0.0
  0
LINE
  5
568
100
AcDbEntity
  8
LAY-6
  6
CONTINUOUS
 62
     1
100
AcDbLine
 10
539.2
 20
244.965485
 30
0.0
 11
542.2
 21
245.465485
 31
0.0
  0
LINE
  5
569
100
AcDbEntity
  8
LAY-6
  6
CONTINUOUS
 62
     1
100
AcDbLine
 10
542.2
 20
245.465485
 30
0.0
 11
539.2
 21
245.965485
 31
0.0
  0
CIRCLE
  5
56A
100
AcDbEntity
  8
LAY-6
  6
CONTINUOUS
 62
     1
100
AcDbCircle
 10
532.322644
 20
161.8
 30
0.0
 40
4.0
  0
POLYLINE
  5
56B
100
AcDbEntity
  8
LAY-6
  6
CONTINUOUS
 62
     1
100
AcDb2dPolyline
 66
     1
 10
0.0
 20
0.0
 30
0.0
 70
   128
  0
VERTEX
  5
56C
100
AcDbEntity
  8
LAY-6
  6
CONTINUOUS
 62
     1
100
AcDbVertex
100
AcDb2dVertex
 10
522.422644
 20
180.965485
 30
0.0
  0
VERTEX
  5
56D
100
AcDbEntity
  8
LAY-6
  6
CONTINUOUS
 62
     1
100
AcDbVertex
100
AcDb2dVertex
 10
530.486881
 20
165.353867
 30
0.0
  0
SEQEND
  5
56E
100
AcDbEntity
  8
LAY-6
  6
CONTINUOUS
 62
     1
  0
LINE
  5
56F
100
AcDbEntity
  8
LAY-6
  6
CONTINUOUS
 62
     1
100
AcDbLine
 10
524.2437
 20
178.529555
 30
0.0
 11
522.422644
 21
180.965485
 31
0.0
  0
LINE
  5
570
100
AcDbEntity
  8
LAY-6
  6
CONTINUOUS
 62
     1
100
AcDbLine
 10
522.422644
 20
180.965485
 30
0.0
 11
523.355233
 21
178.070614
 31
0.0
  0
TEXT
  5
571
100
AcDbEntity
  8
LAY-6
  6
CONTINUOUS
 62
     2
100
AcDbText
 10
529.922644
 20
158.8
 30
0.0
 40
6.0
  1
４
 41
0.672
  7
EXCADSTD
 72
     5
 11
533.762644
 21
158.8
 31
0.0
100
AcDbText
  0
LINE
  5
572
100
AcDbEntity
  8
LAY-6
  6
CONTINUOUS
 62
     1
100
AcDbLine
 10
512.2
 20
268.465515
 30
0.0
 11
512.2
 21
291.665485
 31
0.0
  0
LINE
  5
573
100
AcDbEntity
  8
LAY-6
  6
CONTINUOUS
 62
     1
100
AcDbLine
 10
520.2
 20
266.465515
 30
0.0
 11
520.2
 21
291.665485
 31
0.0
  0
TEXT
  5
574
100
AcDbEntity
  8
LAY-6
  6
CONTINUOUS
 62
     2
100
AcDbText
 10
497.2
 20
290.665485
 30
0.0
 40
5.0
  1
（
 41
0.672
  7
EXCADSTD
 72
     5
 11
500.4
 21
290.665485
 31
0.0
100
AcDbText
  0
TEXT
  5
575
100
AcDbEntity
  8
LAY-6
  6
CONTINUOUS
 62
     2
100
AcDbText
 10
501.2
 20
290.665485
 30
0.0
 40
5.0
  1
８
 41
0.672
  7
EXCADSTD
 72
     5
 11
504.4
 21
290.665485
 31
0.0
100
AcDbText
  0
TEXT
  5
576
100
AcDbEntity
  8
LAY-6
  6
CONTINUOUS
 62
     2
100
AcDbText
 10
505.2
 20
290.665485
 30
0.0
 40
5.0
  1
）
 41
0.672
  7
EXCADSTD
 72
     5
 11
508.4
 21
290.665485
 31
0.0
100
AcDbText
  0
LINE
  5
577
100
AcDbEntity
  8
LAY-6
  6
CONTINUOUS
 62
     1
100
AcDbLine
 10
496.7
 20
290.165485
 30
0.0
 11
523.2
 21
290.165485
 31
0.0
  0
LINE
  5
578
100
AcDbEntity
  8
LAY-6
  6
CONTINUOUS
 62
     1
100
AcDbLine
 10
509.2
 20
289.665485
 30
0.0
 11
512.2
 21
290.165485
 31
0.0
  0
LINE
  5
579
100
AcDbEntity
  8
LAY-6
  6
CONTINUOUS
 62
     1
100
AcDbLine
 10
512.2
 20
290.165485
 30
0.0
 11
509.2
 21
290.665485
 31
0.0
  0
LINE
  5
57A
100
AcDbEntity
  8
LAY-6
  6
CONTINUOUS
 62
     1
100
AcDbLine
 10
523.2
 20
290.665485
 30
0.0
 11
520.2
 21
290.165485
 31
0.0
  0
LINE
  5
57B
100
AcDbEntity
  8
LAY-6
  6
CONTINUOUS
 62
     1
100
AcDbLine
 10
520.2
 20
290.165485
 30
0.0
 11
523.2
 21
289.665485
 31
0.0
  0
LINE
  5
57C
100
AcDbEntity
  8
LAY-6
  6
CONTINUOUS
 62
     1
100
AcDbLine
 10
534.2
 20
266.465515
 30
0.0
 11
534.2
 21
291.665485
 31
0.0
  0
TEXT
  5
57D
100
AcDbEntity
  8
LAY-6
  6
CONTINUOUS
 62
     2
100
AcDbText
 10
519.2
 20
290.665485
 30
0.0
 40
5.0
  1
（
 41
0.672
  7
EXCADSTD
 72
     5
 11
522.4
 21
290.665485
 31
0.0
100
AcDbText
  0
TEXT
  5
57E
100
AcDbEntity
  8
LAY-6
  6
CONTINUOUS
 62
     2
100
AcDbText
 10
523.2
 20
290.665485
 30
0.0
 40
5.0
  1
１４
 41
0.672
  7
EXCADSTD
 72
     5
 11
530.5328
 21
290.665485
 31
0.0
100
AcDbText
  0
TEXT
  5
57F
100
AcDbEntity
  8
LAY-6
  6
CONTINUOUS
 62
     2
100
AcDbText
 10
531.2
 20
290.665485
 30
0.0
 40
5.0
  1
）
 41
0.672
  7
EXCADSTD
 72
     5
 11
534.4
 21
290.665485
 31
0.0
100
AcDbText
  0
LINE
  5
580
100
AcDbEntity
  8
LAY-6
  6
CONTINUOUS
 62
     1
100
AcDbLine
 10
520.2
 20
290.165485
 30
0.0
 11
534.2
 21
290.165485
 31
0.0
  0
LINE
  5
581
100
AcDbEntity
  8
LAY-6
  6
CONTINUOUS
 62
     1
100
AcDbLine
 10
523.2
 20
290.665485
 30
0.0
 11
520.2
 21
290.165485
 31
0.0
  0
LINE
  5
582
100
AcDbEntity
  8
LAY-6
  6
CONTINUOUS
 62
     1
100
AcDbLine
 10
520.2
 20
290.165485
 30
0.0
 11
523.2
 21
289.665485
 31
0.0
  0
LINE
  5
583
100
AcDbEntity
  8
LAY-6
  6
CONTINUOUS
 62
     1
100
AcDbLine
 10
531.2
 20
289.665485
 30
0.0
 11
534.2
 21
290.165485
 31
0.0
  0
LINE
  5
584
100
AcDbEntity
  8
LAY-6
  6
CONTINUOUS
 62
     1
100
AcDbLine
 10
534.2
 20
290.165485
 30
0.0
 11
531.2
 21
290.665485
 31
0.0
  0
LINE
  5
585
100
AcDbEntity
  8
LAY-6
  6
CONTINUOUS
 62
     1
100
AcDbLine
 10
539.7
 20
270.965515
 30
0.0
 11
571.3
 21
270.965515
 31
0.0
  0
LINE
  5
586
100
AcDbEntity
  8
LAY-6
  6
CONTINUOUS
 62
     1
100
AcDbLine
 10
540.7
 20
180.965485
 30
0.0
 11
571.3
 21
180.965485
 31
0.0
  0
TEXT
  5
587
100
AcDbEntity
  8
LAY-6
  6
CONTINUOUS
 62
     2
100
AcDbText
 10
569.3
 20
221.9655
 30
0.0
 40
5.0
  1
９０
 50
90.0
 41
0.672
  7
EXCADSTD
 72
     5
 11
569.3
 21
229.2983
 31
0.0
100
AcDbText
  0
LINE
  5
588
100
AcDbEntity
  8
LAY-6
  6
CONTINUOUS
 62
     1
100
AcDbLine
 10
569.8
 20
270.965515
 30
0.0
 11
569.8
 21
180.965485
 31
0.0
  0
LINE
  5
589
100
AcDbEntity
  8
LAY-6
  6
CONTINUOUS
 62
     1
100
AcDbLine
 10
570.3
 20
267.965515
 30
0.0
 11
569.8
 21
270.965515
 31
0.0
  0
LINE
  5
58A
100
AcDbEntity
  8
LAY-6
  6
CONTINUOUS
 62
     1
100
AcDbLine
 10
569.8
 20
270.965515
 30
0.0
 11
569.3
 21
267.965515
 31
0.0
  0
LINE
  5
58B
100
AcDbEntity
  8
LAY-6
  6
CONTINUOUS
 62
     1
100
AcDbLine
 10
569.3
 20
183.965485
 30
0.0
 11
569.8
 21
180.965485
 31
0.0
  0
LINE
  5
58C
100
AcDbEntity
  8
LAY-6
  6
CONTINUOUS
 62
     1
100
AcDbLine
 10
569.8
 20
180.965485
 30
0.0
 11
570.3
 21
183.965485
 31
0.0
  0
LINE
  5
58D
100
AcDbEntity
  8
LAY-6
  6
CONTINUOUS
 62
     1
100
AcDbLine
 10
540.7
 20
180.965485
 30
0.0
 11
562.9
 21
180.965485
 31
0.0
  0
LINE
  5
58E
100
AcDbEntity
  8
LAY-6
  6
CONTINUOUS
 62
     1
100
AcDbLine
 10
539.7
 20
220.965515
 30
0.0
 11
562.9
 21
220.965515
 31
0.0
  0
TEXT
  5
58F
100
AcDbEntity
  8
LAY-6
  6
CONTINUOUS
 62
     2
100
AcDbText
 10
560.9
 20
192.9655
 30
0.0
 40
5.0
  1
（
 50
90.0
 41
0.672
  7
EXCADSTD
 72
     5
 11
560.9
 21
196.1655
 31
0.0
100
AcDbText
  0
TEXT
  5
590
100
AcDbEntity
  8
LAY-6
  6
CONTINUOUS
 62
     2
100
AcDbText
 10
560.9
 20
196.9655
 30
0.0
 40
5.0
  1
４０
 50
90.0
 41
0.672
  7
EXCADSTD
 72
     5
 11
560.9
 21
204.2983
 31
0.0
100
AcDbText
  0
TEXT
  5
591
100
AcDbEntity
  8
LAY-6
  6
CONTINUOUS
 62
     2
100
AcDbText
 10
560.9
 20
204.9655
 30
0.0
 40
5.0
  1
）
 50
90.0
 41
0.672
  7
EXCADSTD
 72
     5
 11
560.9
 21
208.1655
 31
0.0
100
AcDbText
  0
LINE
  5
592
100
AcDbEntity
  8
LAY-6
  6
CONTINUOUS
 62
     1
100
AcDbLine
 10
561.4
 20
180.965485
 30
0.0
 11
561.4
 21
220.965515
 31
0.0
  0
LINE
  5
593
100
AcDbEntity
  8
LAY-6
  6
CONTINUOUS
 62
     1
100
AcDbLine
 10
560.9
 20
183.965485
 30
0.0
 11
561.4
 21
180.965485
 31
0.0
  0
LINE
  5
594
100
AcDbEntity
  8
LAY-6
  6
CONTINUOUS
 62
     1
100
AcDbLine
 10
561.4
 20
180.965485
 30
0.0
 11
561.9
 21
183.965485
 31
0.0
  0
LINE
  5
595
100
AcDbEntity
  8
LAY-6
  6
CONTINUOUS
 62
     1
100
AcDbLine
 10
561.9
 20
217.965515
 30
0.0
 11
561.4
 21
220.965515
 31
0.0
  0
LINE
  5
596
100
AcDbEntity
  8
LAY-6
  6
CONTINUOUS
 62
     1
100
AcDbLine
 10
561.4
 20
220.965515
 30
0.0
 11
560.9
 21
217.965515
 31
0.0
  0
LINE
  5
597
100
AcDbEntity
  8
LAY-6
  6
CONTINUOUS
 62
     1
100
AcDbLine
 10
539.7
 20
260.965515
 30
0.0
 11
562.9
 21
260.965515
 31
0.0
  0
TEXT
  5
598
100
AcDbEntity
  8
LAY-6
  6
CONTINUOUS
 62
     2
100
AcDbText
 10
560.9
 20
232.965515
 30
0.0
 40
5.0
  1
（
 50
90.0
 41
0.672
  7
EXCADSTD
 72
     5
 11
560.9
 21
236.165515
 31
0.0
100
AcDbText
  0
TEXT
  5
599
100
AcDbEntity
  8
LAY-6
  6
CONTINUOUS
 62
     2
100
AcDbText
 10
560.9
 20
236.965515
 30
0.0
 40
5.0
  1
４０
 50
90.0
 41
0.672
  7
EXCADSTD
 72
     5
 11
560.9
 21
244.298315
 31
0.0
100
AcDbText
  0
TEXT
  5
59A
100
AcDbEntity
  8
LAY-6
  6
CONTINUOUS
 62
     2
100
AcDbText
 10
560.9
 20
244.965515
 30
0.0
 40
5.0
  1
）
 50
90.0
 41
0.672
  7
EXCADSTD
 72
     5
 11
560.9
 21
248.165515
 31
0.0
100
AcDbText
  0
LINE
  5
59B
100
AcDbEntity
  8
LAY-6
  6
CONTINUOUS
 62
     1
100
AcDbLine
 10
561.4
 20
220.965515
 30
0.0
 11
561.4
 21
260.965515
 31
0.0
  0
LINE
  5
59C
100
AcDbEntity
  8
LAY-6
  6
CONTINUOUS
 62
     1
100
AcDbLine
 10
560.9
 20
223.965515
 30
0.0
 11
561.4
 21
220.965515
 31
0.0
  0
LINE
  5
59D
100
AcDbEntity
  8
LAY-6
  6
CONTINUOUS
 62
     1
100
AcDbLine
 10
561.4
 20
220.965515
 30
0.0
 11
561.9
 21
223.965515
 31
0.0
  0
LINE
  5
59E
100
AcDbEntity
  8
LAY-6
  6
CONTINUOUS
 62
     1
100
AcDbLine
 10
561.9
 20
257.965515
 30
0.0
 11
561.4
 21
260.965515
 31
0.0
  0
LINE
  5
59F
100
AcDbEntity
  8
LAY-6
  6
CONTINUOUS
 62
     1
100
AcDbLine
 10
561.4
 20
260.965515
 30
0.0
 11
560.9
 21
257.965515
 31
0.0
  0
LINE
  5
5A0
100
AcDbEntity
  8
LAY-6
  6
CONTINUOUS
 62
     1
100
AcDbLine
 10
48.849721
 20
346.160291
 30
0.0
 11
59.814932
 21
352.491058
 31
0.0
  0
LINE
  5
5A1
100
AcDbEntity
  8
LAY-6
  6
CONTINUOUS
 62
     1
100
AcDbLine
 10
48.849744
 20
174.230532
 30
0.0
 11
59.814955
 21
180.561299
 31
0.0
  0
INSERT
  5
5A2
100
AcDbEntity
  8
LAY-6
  6
CONTINUOUS
 62
     0
100
AcDbBlockReference
  2
SYM-1
 10
35.0
 20
289.0
 30
0.0
  0
TEXT
  5
5A3
100
AcDbEntity
  8
LAY-6
  6
CONTINUOUS
 62
     2
100
AcDbText
 10
52.499996
 20
410.677379
 30
0.0
 40
6.0
  1
竪　枠
 41
0.672
  7
EXCADSTD
 72
     5
 11
66.899997
 21
410.677379
 31
0.0
100
AcDbText
  0
TEXT
  5
5A4
100
AcDbEntity
  8
LAY-6
  6
CONTINUOUS
 62
     2
100
AcDbText
 10
159.299996
 20
387.977379
 30
0.0
 40
6.0
  1
上　枠
 41
0.672
  7
EXCADSTD
 72
     5
 11
173.699997
 21
387.977379
 31
0.0
100
AcDbText
  0
TEXT
  5
5A5
100
AcDbEntity
  8
LAY-6
  6
CONTINUOUS
 62
     2
100
AcDbText
 10
174.900011
 20
225.384373
 30
0.0
 40
6.0
  1
ド　ア
 41
0.672
  7
EXCADSTD
 72
     5
 11
189.300012
 21
225.384373
 31
0.0
100
AcDbText
  0
INSERT
  5
5A6
100
AcDbEntity
  8
LAY-6
  6
CONTINUOUS
 62
     0
100
AcDbBlockReference
  2
SYM-2
 10
37.0
 20
459.0
 30
0.0
  0
LINE
  5
5A7
100
AcDbEntity
  8
LAY-6
  6
CONTINUOUS
 62
     1
100
AcDbLine
 10
79.403404
 20
271.8
 30
0.0
 11
75.403394
 21
271.8
 31
0.0
  0
LINE
  5
5A8
100
AcDbEntity
  8
LAY-6
  6
CONTINUOUS
 62
     3
100
AcDbLine
 10
75.403374
 20
379.491058
 30
0.0
 11
75.403374
 21
378.891058
 31
0.0
  0
LINE
  5
5A9
100
AcDbEntity
  8
LAY-6
  6
CONTINUOUS
 62
     3
100
AcDbLine
 10
75.403397
 20
207.56133
 30
0.0
 11
75.403397
 21
206.961324
 31
0.0
  0
LINE
  5
5AA
100
AcDbEntity
  8
LAY-6
  6
CONTINUOUS
 62
     1
100
AcDbLine
 10
258.849721
 20
346.160291
 30
0.0
 11
269.814932
 21
352.491058
 31
0.0
  0
INSERT
  5
5AB
100
AcDbEntity
  8
LAY-6
  6
CONTINUOUS
 62
     0
100
AcDbBlockReference
  2
SYM-3
 10
268.0
 20
458.0
 30
0.0
  0
INSERT
  5
5AC
100
AcDbEntity
  8
LAY-6
  6
CONTINUOUS
 62
     0
100
AcDbBlockReference
  2
SYM-4
 10
267.0
 20
289.0
 30
0.0
  0
TEXT
  5
5AD
100
AcDbEntity
  8
LAY-6
  6
CONTINUOUS
 62
     2
100
AcDbText
 10
414.899983
 20
397.077373
 30
0.0
 40
6.0
  1
ド　ア
 41
0.672
  7
EXCADSTD
 72
     5
 11
429.299984
 21
397.077373
 31
0.0
100
AcDbText
  0
TEXT
  5
5AE
100
AcDbEntity
  8
LAY-6
  6
CONTINUOUS
 62
     2
100
AcDbText
 10
248.996598
 20
262.216027
 30
0.0
 40
6.0
  1
竪　枠
 41
0.672
  7
EXCADSTD
 72
     5
 11
263.396598
 21
262.216027
 31
0.0
100
AcDbText
  0
TEXT
  5
5AF
100
AcDbEntity
  8
LAY-6
  6
CONTINUOUS
 62
     2
100
AcDbText
 10
337.099979
 20
220.577337
 30
0.0
 40
6.0
  1
沓　摺
 41
0.672
  7
EXCADSTD
 72
     5
 11
351.499979
 21
220.577337
 31
0.0
100
AcDbText
  0
LINE
  5
5B0
100
AcDbEntity
  8
LAY-6
  6
CONTINUOUS
 62
     1
100
AcDbLine
 10
278.403381
 20
260.3
 30
0.0
 11
282.40339
 21
260.3
 31
0.0
  0
LINE
  5
5B1
100
AcDbEntity
  8
LAY-6
  6
CONTINUOUS
 62
     1
100
AcDbLine
 10
282.40339
 20
230.2
 30
0.0
 11
285.403381
 21
230.2
 31
0.0
  0
LINE
  5
5B2
100
AcDbEntity
  8
LAY-6
  6
DASHED2
 62
     3
100
AcDbLine
 10
285.403374
 20
379.491089
 30
0.0
 11
285.403374
 21
378.891089
 31
0.0
  0
TEXT
  5
5B3
100
AcDbEntity
  8
LAY-6
  6
CONTINUOUS
 62
     2
100
AcDbText
 10
520.773791
 20
158.699909
 30
0.0
 40
6.0
  1
※
 41
0.672
  7
EXCADSTD
 72
     5
 11
524.613791
 21
158.699909
 31
0.0
100
AcDbText
  0
TEXT
  5
5B4
100
AcDbEntity
  8
LAY-6
  6
CONTINUOUS
 62
     2
100
AcDbText
 10
424.473791
 20
185.999909
 30
0.0
 40
6.0
  1
床　面
 41
0.672
  7
EXCADSTD
 72
     5
 11
438.873792
 21
185.999909
 31
0.0
100
AcDbText
  0
TEXT
  5
5B5
100
AcDbEntity
  8
LAY-6
  6
CONTINUOUS
 62
     2
100
AcDbText
 10
334.0
 20
87.0
 30
0.0
 40
9.0
  1
■タップ型(①④タ ップ穴加工付)は品番の後にＴＡＰを付けて下さい。(オプション)　発注例：１１Ｃ ＴＡＰ
 41
0.651408
  7
EXCADSTD
 72
     5
 11
690.399991
 21
87.0
 31
0.0
100
AcDbText
  0
TEXT
  5
5B6
100
AcDbEntity
  8
LAY-6
  6
CONTINUOUS
 62
     2
100
AcDbText
 10
334.0
 20
78.0
 30
0.0
 40
9.0
  1
　タップ穴は(　)内寸法をご参照下さい。
 41
0.65056
  7
EXCADSTD
 72
     5
 11
470.799996
 21
78.0
 31
0.0
100
AcDbText
  0
TEXT
  5
5B7
100
AcDbEntity
  8
LAY-6
  6
CONTINUOUS
 62
     2
100
AcDbText
 10
334.0
 20
69.0
 30
0.0
 40
9.0
  1
■①カバー３㎜伸ばしは品番の後に①Ｔを付けて下さい。(オプション)　発注例：１１Ｃ ①Ｔ
 41
0.657521
  7
EXCADSTD
 72
     5
 11
639.999992
 21
69.0
 31
0.0
100
AcDbText
  0
LINE
  5
5B8
100
AcDbEntity
  8
LAY-9
  6
CONTINUOUS
 62
     1
100
AcDbLine
 10
761.874008
 20
401.415201
 30
0.0
 11
761.977295
 21
401.518488
 31
0.0
  0
LINE
  5
5B9
100
AcDbEntity
  8
LAY-9
  6
CONTINUOUS
 62
     1
100
AcDbLine
 10
725.104456
 20
401.415201
 30
0.0
 11
728.504456
 21
404.815201
 31
0.0
  0
LINE
  5
5BA
100
AcDbEntity
  8
LAY-9
  6
CONTINUOUS
 62
     1
100
AcDbLine
 10
727.932883
 20
401.415201
 30
0.0
 11
731.332883
 21
404.815201
 31
0.0
  0
LINE
  5
5BB
100
AcDbEntity
  8
LAY-9
  6
CONTINUOUS
 62
     1
100
AcDbLine
 10
751.731873
 20
401.415201
 30
0.0
 11
755.131873
 21
404.815201
 31
0.0
  0
LINE
  5
5BC
100
AcDbEntity
  8
LAY-9
  6
CONTINUOUS
 62
     1
100
AcDbLine
 10
754.5603
 20
401.415201
 30
0.0
 11
757.9603
 21
404.815201
 31
0.0
  0
LINE
  5
5BD
100
AcDbEntity
  8
LAY-9
  6
CONTINUOUS
 62
     1
100
AcDbLine
 10
719.977722
 20
396.815171
 30
0.0
 11
719.977722
 21
362.949622
 31
0.0
  0
LINE
  5
5BE
100
AcDbEntity
  8
LAY-9
  6
CONTINUOUS
 62
     1
100
AcDbLine
 10
728.718164
 20
383.315201
 30
0.0
 11
733.218183
 21
387.81522
 31
0.0
  0
LINE
  5
5BF
100
AcDbEntity
  8
LAY-9
  6
CONTINUOUS
 62
     1
100
AcDbLine
 10
731.546591
 20
383.315201
 30
0.0
 11
736.046608
 21
387.815218
 31
0.0
  0
LINE
  5
5C0
100
AcDbEntity
  8
LAY-9
  6
CONTINUOUS
 62
     1
100
AcDbLine
 10
748.718164
 20
383.315201
 30
0.0
 11
753.218183
 21
387.81522
 31
0.0
  0
LINE
  5
5C1
100
AcDbEntity
  8
LAY-9
  6
CONTINUOUS
 62
     1
100
AcDbLine
 10
751.546591
 20
383.315201
 30
0.0
 11
756.046608
 21
387.815218
 31
0.0
  0
LINE
  5
5C2
100
AcDbEntity
  8
LAY-9
  6
CONTINUOUS
 62
     1
100
AcDbLine
 10
727.789306
 20
213.965485
 30
0.0
 11
732.289306
 21
218.465485
 31
0.0
  0
LINE
  5
5C3
100
AcDbEntity
  8
LAY-9
  6
CONTINUOUS
 62
     1
100
AcDbLine
 10
730.617733
 20
213.965485
 30
0.0
 11
735.117733
 21
218.465485
 31
0.0
  0
LINE
  5
5C4
100
AcDbEntity
  8
LAY-9
  6
CONTINUOUS
 62
     1
100
AcDbLine
 10
747.789306
 20
213.965485
 30
0.0
 11
752.289306
 21
218.465485
 31
0.0
  0
LINE
  5
5C5
100
AcDbEntity
  8
LAY-9
  6
CONTINUOUS
 62
     1
100
AcDbLine
 10
750.617733
 20
213.965485
 30
0.0
 11
755.117733
 21
218.465485
 31
0.0
  0
LINE
  5
5C6
100
AcDbEntity
  8
LAY-9
  6
CONTINUOUS
 62
     1
100
AcDbLine
 10
278.403381
 20
242.916079
 30
0.0
 11
280.80339
 21
245.316088
 31
0.0
  0
LINE
  5
5C7
100
AcDbEntity
  8
LAY-9
  6
CONTINUOUS
 62
     1
100
AcDbLine
 10
278.403381
 20
240.087652
 30
0.0
 11
280.80339
 21
242.487661
 31
0.0
  0
LINE
  5
5C8
100
AcDbEntity
  8
LAY-9
  6
CONTINUOUS
 62
     1
100
AcDbLine
 10
278.403381
 20
220.288662
 30
0.0
 11
280.80339
 21
222.688671
 31
0.0
  0
LINE
  5
5C9
100
AcDbEntity
  8
LAY-9
  6
CONTINUOUS
 62
     1
100
AcDbLine
 10
278.403381
 20
217.460235
 30
0.0
 11
280.80339
 21
219.860244
 31
0.0
  0
LINE
  5
5CA
100
AcDbEntity
  8
LAY-9
  6
CONTINUOUS
 62
     1
100
AcDbLine
 10
718.577295
 20
399.815201
 30
0.0
 11
761.977295
 21
399.815201
 31
0.0
  0
LINE
  5
5CB
100
AcDbEntity
  8
LAY-9
  6
CONTINUOUS
 62
     1
100
AcDbLine
 10
763.577295
 20
384.315201
 30
0.0
 11
767.8
 21
384.315201
 31
0.0
  0
LINE
  5
5CC
100
AcDbEntity
  8
LAY-9
  6
CONTINUOUS
 62
     1
100
AcDbLine
 10
718.577295
 20
401.415201
 30
0.0
 11
761.977295
 21
401.415201
 31
0.0
  0
LINE
  5
5CD
100
AcDbEntity
  8
LAY-9
  6
CONTINUOUS
 62
     1
100
AcDbLine
 10
763.577295
 20
399.815201
 30
0.0
 11
763.577295
 21
385.915201
 31
0.0
  0
LINE
  5
5CE
100
AcDbEntity
  8
LAY-9
  6
CONTINUOUS
 62
     1
100
AcDbLine
 10
763.577295
 20
385.915201
 30
0.0
 11
767.8
 21
385.915201
 31
0.0
  0
ARC
  5
5CF
100
AcDbEntity
  8
LAY-9
  6
CONTINUOUS
 62
     1
100
AcDbCircle
 10
718.577295
 20
401.415201
 30
0.0
 40
1.6
100
AcDbArc
 50
180.0
 51
270.0
  0
ARC
  5
5D0
100
AcDbEntity
  8
LAY-9
  6
CONTINUOUS
 62
     1
100
AcDbCircle
 10
761.977295
 20
399.815201
 30
0.0
 40
1.6
100
AcDbArc
 50
0.0
 51
90.0
  0
ARC
  5
5D1
100
AcDbEntity
  8
LAY-9
  6
CONTINUOUS
 62
     1
100
AcDbCircle
 10
763.577295
 20
385.915201
 30
0.0
 40
1.6
100
AcDbArc
 50
180.0
 51
270.0
  0
LINE
  5
5D2
100
AcDbEntity
  8
LAY-9
  6
CONTINUOUS
 62
     1
100
AcDbLine
 10
721.577722
 20
396.815171
 30
0.0
 11
758.377722
 21
396.815171
 31
0.0
  0
LINE
  5
5D3
100
AcDbEntity
  8
LAY-9
  6
CONTINUOUS
 62
     1
100
AcDbLine
 10
758.377722
 20
395.215171
 30
0.0
 11
752.977325
 21
395.215171
 31
0.0
  0
LINE
  5
5D4
100
AcDbEntity
  8
LAY-9
  6
CONTINUOUS
 62
     1
100
AcDbLine
 10
756.077722
 20
392.915171
 30
0.0
 11
752.977325
 21
392.915171
 31
0.0
  0
LINE
  5
5D5
100
AcDbEntity
  8
LAY-9
  6
CONTINUOUS
 62
     1
100
AcDbLine
 10
723.877722
 20
387.815228
 30
0.0
 11
723.877722
 21
380.215171
 31
0.0
  0
LINE
  5
5D6
100
AcDbEntity
  8
LAY-9
  6
CONTINUOUS
 62
     1
100
AcDbLine
 10
756.077722
 20
380.215171
 30
0.0
 11
756.077722
 21
392.915171
 31
0.0
  0
LINE
  5
5D7
100
AcDbEntity
  8
LAY-9
  6
CONTINUOUS
 62
     1
100
AcDbLine
 10
756.077722
 20
380.215171
 30
0.0
 11
758.377722
 21
380.215171
 31
0.0
  0
LINE
  5
5D8
100
AcDbEntity
  8
LAY-9
  6
CONTINUOUS
 62
     1
100
AcDbLine
 10
723.877722
 20
380.215171
 30
0.0
 11
721.577722
 21
380.215171
 31
0.0
  0
ARC
  5
5D9
100
AcDbEntity
  8
LAY-9
  6
CONTINUOUS
 62
     1
100
AcDbCircle
 10
758.377722
 20
395.215171
 30
0.0
 40
1.6
100
AcDbArc
 50
0.0
 51
90.0
  0
ARC
  5
5DA
100
AcDbEntity
  8
LAY-9
  6
CONTINUOUS
 62
     1
100
AcDbCircle
 10
756.077722
 20
392.915171
 30
0.0
 40
2.3
100
AcDbArc
 50
0.0
 51
90.0
  0
LINE
  5
5DB
100
AcDbEntity
  8
LAY-9
  6
CONTINUOUS
 62
     1
100
AcDbLine
 10
751.477325
 20
387.815201
 30
0.0
 11
756.077722
 21
387.815201
 31
0.0
  0
LINE
  5
5DC
100
AcDbEntity
  8
LAY-9
  6
CONTINUOUS
 62
     1
100
AcDbLine
 10
723.877722
 20
383.315201
 30
0.0
 11
756.077722
 21
383.315201
 31
0.0
  0
LINE
  5
5DD
100
AcDbEntity
  8
LAY-9
  6
DIVIDE
 62
     1
100
AcDbLine
 10
715.551575
 20
323.049622
 30
0.0
 11
765.851575
 21
323.049622
 31
0.0
  0
LINE
  5
5DE
100
AcDbEntity
  8
LAY-9
  6
CONTINUOUS
 62
     1
100
AcDbLine
 10
719.977722
 20
395.215171
 30
0.0
 11
719.977722
 21
323.049622
 31
0.0
  0
LINE
  5
5DF
100
AcDbEntity
  8
LAY-9
  6
CONTINUOUS
 62
     1
100
AcDbLine
 10
721.577722
 20
387.81523
 30
0.0
 11
721.577722
 21
323.049622
 31
0.0
  0
LINE
  5
5E0
100
AcDbEntity
  8
LAY-9
  6
CONTINUOUS
 62
     1
100
AcDbLine
 10
718.577295
 20
404.815201
 30
0.0
 11
718.577295
 21
401.415201
 31
0.0
  0
LINE
  5
5E1
100
AcDbEntity
  8
LAY-9
  6
CONTINUOUS
 62
     1
100
AcDbLine
 10
761.977295
 20
404.815201
 30
0.0
 11
761.977295
 21
401.415201
 31
0.0
  0
LINE
  5
5E2
100
AcDbEntity
  8
LAY-9
  6
CONTINUOUS
 62
     1
100
AcDbLine
 10
716.977295
 20
323.049622
 30
0.0
 11
716.977295
 21
382.815231
 31
0.0
  0
LINE
  5
5E3
100
AcDbEntity
  8
LAY-9
  6
CONTINUOUS
 62
     1
100
AcDbLine
 10
755.477325
 20
404.815201
 30
0.0
 11
761.977295
 21
404.815201
 31
0.0
  0
LINE
  5
5E4
100
AcDbEntity
  8
LAY-9
  6
CONTINUOUS
 62
     1
100
AcDbLine
 10
721.577325
 20
198.965455
 30
0.0
 11
760.376867
 21
198.965455
 31
0.0
  0
LINE
  5
5E5
100
AcDbEntity
  8
LAY-9
  6
CONTINUOUS
 62
     1
100
AcDbLine
 10
760.376867
 20
197.365455
 30
0.0
 11
721.57893
 21
197.365455
 31
0.0
  0
LINE
  5
5E6
100
AcDbEntity
  8
LAY-9
  6
CONTINUOUS
 62
     1
100
AcDbLine
 10
720.02893
 20
178.965455
 30
0.0
 11
721.57893
 21
178.965455
 31
0.0
  0
ARC
  5
5E7
100
AcDbEntity
  8
LAY-9
  6
CONTINUOUS
 62
     1
100
AcDbCircle
 10
721.577325
 20
197.365455
 30
0.0
 40
1.6
100
AcDbArc
 50
90.0
 51
180.0
  0
LINE
  5
5E8
100
AcDbEntity
  8
LAY-9
  6
CONTINUOUS
 62
     1
100
AcDbLine
 10
721.57893
 20
197.365455
 30
0.0
 11
721.57893
 21
178.965455
 31
0.0
  0
LINE
  5
5E9
100
AcDbEntity
  8
LAY-9
  6
CONTINUOUS
 62
     1
100
AcDbLine
 10
759.977294
 20
204.965485
 30
0.0
 11
752.477356
 21
204.965485
 31
0.0
  0
LINE
  5
5EA
100
AcDbEntity
  8
LAY-9
  6
CONTINUOUS
 62
     1
100
AcDbLine
 10
751.068725
 20
213.965485
 30
0.0
 11
756.077294
 21
213.965485
 31
0.0
  0
LINE
  5
5EB
100
AcDbEntity
  8
LAY-9
  6
CONTINUOUS
 62
     1
100
AcDbLine
 10
723.877294
 20
218.465485
 30
0.0
 11
756.077294
 21
218.465485
 31
0.0
  0
LINE
  5
5EC
100
AcDbEntity
  8
LAY-9
  6
CONTINUOUS
 62
     1
100
AcDbLine
 10
723.877294
 20
220.765485
 30
0.0
 11
756.077294
 21
220.765485
 31
0.0
  0
LINE
  5
5ED
100
AcDbEntity
  8
LAY-9
  6
CONTINUOUS
 62
     1
100
AcDbLine
 10
723.877294
 20
218.465485
 30
0.0
 11
723.877294
 21
213.965485
 31
0.0
  0
ARC
  5
5EE
100
AcDbEntity
  8
LAY-9
  6
CONTINUOUS
 62
     1
100
AcDbCircle
 10
723.877294
 20
218.465485
 30
0.0
 40
2.3
100
AcDbArc
 50
90.0
 51
180.0
  0
LINE
  5
5EF
100
AcDbEntity
  8
LAY-9
  6
CONTINUOUS
 62
     1
100
AcDbLine
 10
756.077294
 20
218.465485
 30
0.0
 11
756.077294
 21
204.965485
 31
0.0
  0
ARC
  5
5F0
100
AcDbEntity
  8
LAY-9
  6
CONTINUOUS
 62
     1
100
AcDbCircle
 10
756.077294
 20
218.465485
 30
0.0
 40
2.3
100
AcDbArc
 50
0.0
 51
90.0
  0
LINE
  5
5F1
100
AcDbEntity
  8
LAY-9
  6
DIVIDE
 62
     1
100
AcDbLine
 10
715.551147
 20
317.999909
 30
0.0
 11
765.851147
 21
317.999909
 31
0.0
  0
LINE
  5
5F2
100
AcDbEntity
  8
LAY-9
  6
CONTINUOUS
 62
     1
100
AcDbLine
 10
719.977294
 20
317.999909
 30
0.0
 11
719.977294
 21
204.965485
 31
0.0
  0
LINE
  5
5F3
100
AcDbEntity
  8
LAY-9
  6
CONTINUOUS
 62
     1
100
AcDbLine
 10
759.977294
 20
317.999909
 30
0.0
 11
759.977294
 21
204.965485
 31
0.0
  0
LINE
  5
5F4
100
AcDbEntity
  8
LAY-9
  6
CONTINUOUS
 62
     1
100
AcDbLine
 10
758.377294
 20
204.965485
 30
0.0
 11
758.377294
 21
317.999909
 31
0.0
  0
LINE
  5
5F5
100
AcDbEntity
  8
LAY-9
  6
CONTINUOUS
 62
     1
100
AcDbLine
 10
721.577294
 20
317.999909
 30
0.0
 11
721.577294
 21
213.965485
 31
0.0
  0
LINE
  5
5F6
100
AcDbEntity
  8
LAY-9
  6
CONTINUOUS
 62
     1
100
AcDbLine
 10
716.976867
 20
218.965485
 30
0.0
 11
716.976867
 21
317.999909
 31
0.0
  0
LINE
  5
5F7
100
AcDbEntity
  8
LAY-9
  6
CONTINUOUS
 62
     1
100
AcDbLine
 10
761.976867
 20
317.999909
 30
0.0
 11
761.976867
 21
178.965455
 31
0.0
  0
LINE
  5
5F8
100
AcDbEntity
  8
LAY-9
  6
CONTINUOUS
 62
     1
100
AcDbLine
 10
719.977325
 20
178.965455
 30
0.0
 11
719.977325
 21
204.965485
 31
0.0
  0
LINE
  5
5F9
100
AcDbEntity
  8
LAY-9
  6
CONTINUOUS
 62
     1
100
AcDbLine
 10
680.245257
 20
196.965455
 30
0.0
 11
612.051147
 21
196.965455
 31
0.0
  0
LINE
  5
5FA
100
AcDbEntity
  8
LAY-9
  6
CONTINUOUS
 62
     1
100
AcDbLine
 10
761.976867
 20
178.965455
 30
0.0
 11
760.376867
 21
178.965455
 31
0.0
  0
LINE
  5
5FB
100
AcDbEntity
  8
LAY-9
  6
CONTINUOUS
 62
     1
100
AcDbLine
 10
760.376867
 20
178.965455
 30
0.0
 11
760.376867
 21
197.365455
 31
0.0
  0
ARC
  5
5FC
100
AcDbEntity
  8
LAY-9
  6
CONTINUOUS
 62
     1
100
AcDbCircle
 10
760.376867
 20
197.365455
 30
0.0
 40
1.6
100
AcDbArc
 50
0.0
 51
90.0
  0
LINE
  5
5FD
100
AcDbEntity
  8
LAY-9
  6
CONTINUOUS
 62
     1
100
AcDbLine
 10
761.976867
 20
196.965455
 30
0.0
 11
793.2
 21
196.965455
 31
0.0
  0
LINE
  5
5FE
100
AcDbEntity
  8
LAY-9
  6
CONTINUOUS
 62
     1
100
AcDbLine
 10
718.577295
 20
424.815201
 30
0.0
 11
731.977295
 21
424.815201
 31
0.0
  0
LINE
  5
5FF
100
AcDbEntity
  8
LAY-9
  6
CONTINUOUS
 62
     1
100
AcDbLine
 10
731.977295
 20
424.815201
 30
0.0
 11
731.977295
 21
423.215201
 31
0.0
  0
LINE
  5
600
100
AcDbEntity
  8
LAY-9
  6
CONTINUOUS
 62
     1
100
AcDbLine
 10
731.977295
 20
423.215201
 30
0.0
 11
718.577295
 21
423.215201
 31
0.0
  0
ARC
  5
601
100
AcDbEntity
  8
LAY-9
  6
CONTINUOUS
 62
     1
100
AcDbCircle
 10
718.577295
 20
423.215201
 30
0.0
 40
1.6
100
AcDbArc
 50
90.0
 51
180.0
  0
LINE
  5
602
100
AcDbEntity
  8
LAY-9
  6
CONTINUOUS
 62
     1
100
AcDbLine
 10
718.577295
 20
423.215201
 30
0.0
 11
718.577295
 21
413.815201
 31
0.0
  0
LINE
  5
603
100
AcDbEntity
  8
LAY-9
  6
CONTINUOUS
 62
     1
100
AcDbLine
 10
716.977295
 20
396.815201
 30
0.0
 11
716.977295
 21
423.215201
 31
0.0
  0
LINE
  5
604
100
AcDbEntity
  8
LAY-9
  6
CONTINUOUS
 62
     1
100
AcDbLine
 10
761.977295
 20
399.815201
 30
0.0
 11
761.977295
 21
356.4
 31
0.0
  0
LINE
  5
605
100
AcDbEntity
  8
LAY-9
  6
CONTINUOUS
 62
     1
100
AcDbLine
 10
761.977295
 20
346.0
 30
0.0
 11
761.977295
 21
323.049622
 31
0.0
  0
LINE
  5
606
100
AcDbEntity
  8
LAY-9
  6
CONTINUOUS
 62
     1
100
AcDbLine
 10
759.977722
 20
395.215171
 30
0.0
 11
759.977722
 21
356.4
 31
0.0
  0
LINE
  5
607
100
AcDbEntity
  8
LAY-9
  6
CONTINUOUS
 62
     1
100
AcDbLine
 10
759.977722
 20
346.0
 30
0.0
 11
759.977722
 21
323.049622
 31
0.0
  0
LINE
  5
608
100
AcDbEntity
  8
LAY-9
  6
CONTINUOUS
 62
     1
100
AcDbLine
 10
758.377722
 20
323.049622
 30
0.0
 11
758.377722
 21
346.0
 31
0.0
  0
LINE
  5
609
100
AcDbEntity
  8
LAY-9
  6
CONTINUOUS
 62
     1
100
AcDbLine
 10
758.377722
 20
356.4
 30
0.0
 11
758.377722
 21
395.215171
 31
0.0
  0
POLYLINE
  5
60A
100
AcDbEntity
  8
LAY-9
  6
CONTINUOUS
 62
     1
100
AcDb2dPolyline
 66
     1
 10
0.0
 20
0.0
 30
0.0
 70
   128
  0
VERTEX
  5
60B
100
AcDbEntity
  8
LAY-9
  6
CONTINUOUS
 62
     1
100
AcDbVertex
100
AcDb2dVertex
 10
612.051147
 20
196.965455
 30
0.0
  0
VERTEX
  5
60C
100
AcDbEntity
  8
LAY-9
  6
CONTINUOUS
 62
     1
100
AcDbVertex
100
AcDb2dVertex
 10
612.024056
 20
196.897278
 30
0.0
  0
VERTEX
  5
60D
100
AcDbEntity
  8
LAY-9
  6
CONTINUOUS
 62
     1
100
AcDbVertex
100
AcDb2dVertex
 10
611.949323
 20
196.703602
 30
0.0
  0
VERTEX
  5
60E
100
AcDbEntity
  8
LAY-9
  6
CONTINUOUS
 62
     1
100
AcDbVertex
100
AcDb2dVertex
 10
611.836756
 20
196.400711
 30
0.0
  0
VERTEX
  5
60F
100
AcDbEntity
  8
LAY-9
  6
CONTINUOUS
 62
     1
100
AcDbVertex
100
AcDb2dVertex
 10
611.696162
 20
196.00489
 30
0.0
  0
VERTEX
  5
610
100
AcDbEntity
  8
LAY-9
  6
CONTINUOUS
 62
     1
100
AcDbVertex
100
AcDb2dVertex
 10
611.537351
 20
195.532421
 30
0.0
  0
VERTEX
  5
611
100
AcDbEntity
  8
LAY-9
  6
CONTINUOUS
 62
     1
100
AcDbVertex
100
AcDb2dVertex
 10
611.370128
 20
194.999589
 30
0.0
  0
VERTEX
  5
612
100
AcDbEntity
  8
LAY-9
  6
CONTINUOUS
 62
     1
100
AcDbVertex
100
AcDb2dVertex
 10
611.204304
 20
194.422677
 30
0.0
  0
VERTEX
  5
613
100
AcDbEntity
  8
LAY-9
  6
CONTINUOUS
 62
     1
100
AcDbVertex
100
AcDb2dVertex
 10
611.049686
 20
193.817969
 30
0.0
  0
VERTEX
  5
614
100
AcDbEntity
  8
LAY-9
  6
CONTINUOUS
 62
     1
100
AcDbVertex
100
AcDb2dVertex
 10
610.916081
 20
193.201749
 30
0.0
  0
VERTEX
  5
615
100
AcDbEntity
  8
LAY-9
  6
CONTINUOUS
 62
     1
100
AcDbVertex
100
AcDb2dVertex
 10
610.813299
 20
192.590301
 30
0.0
  0
VERTEX
  5
616
100
AcDbEntity
  8
LAY-9
  6
CONTINUOUS
 62
     1
100
AcDbVertex
100
AcDb2dVertex
 10
610.751147
 20
191.999909
 30
0.0
  0
VERTEX
  5
617
100
AcDbEntity
  8
LAY-9
  6
CONTINUOUS
 62
     1
100
AcDbVertex
100
AcDb2dVertex
 10
610.736076
 20
191.506478
 30
0.0
  0
VERTEX
  5
618
100
AcDbEntity
  8
LAY-9
  6
CONTINUOUS
 62
     1
100
AcDbVertex
100
AcDb2dVertex
 10
610.756294
 20
191.039584
 30
0.0
  0
VERTEX
  5
619
100
AcDbEntity
  8
LAY-9
  6
CONTINUOUS
 62
     1
100
AcDbVertex
100
AcDb2dVertex
 10
610.807708
 20
190.596608
 30
0.0
  0
VERTEX
  5
61A
100
AcDbEntity
  8
LAY-9
  6
CONTINUOUS
 62
     1
100
AcDbVertex
100
AcDb2dVertex
 10
610.886227
 20
190.174935
 30
0.0
  0
VERTEX
  5
61B
100
AcDbEntity
  8
LAY-9
  6
CONTINUOUS
 62
     1
100
AcDbVertex
100
AcDb2dVertex
 10
610.987761
 20
189.771949
 30
0.0
  0
VERTEX
  5
61C
100
AcDbEntity
  8
LAY-9
  6
CONTINUOUS
 62
     1
100
AcDbVertex
100
AcDb2dVertex
 10
611.108218
 20
189.385032
 30
0.0
  0
VERTEX
  5
61D
100
AcDbEntity
  8
LAY-9
  6
CONTINUOUS
 62
     1
100
AcDbVertex
100
AcDb2dVertex
 10
611.243506
 20
189.011568
 30
0.0
  0
VERTEX
  5
61E
100
AcDbEntity
  8
LAY-9
  6
CONTINUOUS
 62
     1
100
AcDbVertex
100
AcDb2dVertex
 10
611.389534
 20
188.64894
 30
0.0
  0
VERTEX
  5
61F
100
AcDbEntity
  8
LAY-9
  6
CONTINUOUS
 62
     1
100
AcDbVertex
100
AcDb2dVertex
 10
611.542211
 20
188.294532
 30
0.0
  0
VERTEX
  5
620
100
AcDbEntity
  8
LAY-9
  6
CONTINUOUS
 62
     1
100
AcDbVertex
100
AcDb2dVertex
 10
611.697446
 20
187.945727
 30
0.0
  0
VERTEX
  5
621
100
AcDbEntity
  8
LAY-9
  6
CONTINUOUS
 62
     1
100
AcDbVertex
100
AcDb2dVertex
 10
611.851147
 20
187.599909
 30
0.0
  0
VERTEX
  5
622
100
AcDbEntity
  8
LAY-9
  6
CONTINUOUS
 62
     1
100
AcDbVertex
100
AcDb2dVertex
 10
612.052632
 20
187.127771
 30
0.0
  0
VERTEX
  5
623
100
AcDbEntity
  8
LAY-9
  6
CONTINUOUS
 62
     1
100
AcDbVertex
100
AcDb2dVertex
 10
612.241163
 20
186.652031
 30
0.0
  0
VERTEX
  5
624
100
AcDbEntity
  8
LAY-9
  6
CONTINUOUS
 62
     1
100
AcDbVertex
100
AcDb2dVertex
 10
612.414293
 20
186.168395
 30
0.0
  0
VERTEX
  5
625
100
AcDbEntity
  8
LAY-9
  6
CONTINUOUS
 62
     1
100
AcDbVertex
100
AcDb2dVertex
 10
612.569573
 20
185.672572
 30
0.0
  0
VERTEX
  5
626
100
AcDbEntity
  8
LAY-9
  6
CONTINUOUS
 62
     1
100
AcDbVertex
100
AcDb2dVertex
 10
612.704556
 20
185.160267
 30
0.0
  0
VERTEX
  5
627
100
AcDbEntity
  8
LAY-9
  6
CONTINUOUS
 62
     1
100
AcDbVertex
100
AcDb2dVertex
 10
612.816795
 20
184.627187
 30
0.0
  0
VERTEX
  5
628
100
AcDbEntity
  8
LAY-9
  6
CONTINUOUS
 62
     1
100
AcDbVertex
100
AcDb2dVertex
 10
612.903841
 20
184.069039
 30
0.0
  0
VERTEX
  5
629
100
AcDbEntity
  8
LAY-9
  6
CONTINUOUS
 62
     1
100
AcDbVertex
100
AcDb2dVertex
 10
612.963247
 20
183.481531
 30
0.0
  0
VERTEX
  5
62A
100
AcDbEntity
  8
LAY-9
  6
CONTINUOUS
 62
     1
100
AcDbVertex
100
AcDb2dVertex
 10
612.992565
 20
182.860369
 30
0.0
  0
VERTEX
  5
62B
100
AcDbEntity
  8
LAY-9
  6
CONTINUOUS
 62
     1
100
AcDbVertex
100
AcDb2dVertex
 10
612.989348
 20
182.201259
 30
0.0
  0
VERTEX
  5
62C
100
AcDbEntity
  8
LAY-9
  6
CONTINUOUS
 62
     1
100
AcDbVertex
100
AcDb2dVertex
 10
612.951147
 20
181.499909
 30
0.0
  0
VERTEX
  5
62D
100
AcDbEntity
  8
LAY-9
  6
CONTINUOUS
 62
     1
100
AcDbVertex
100
AcDb2dVertex
 10
612.890424
 20
180.869434
 30
0.0
  0
VERTEX
  5
62E
100
AcDbEntity
  8
LAY-9
  6
CONTINUOUS
 62
     1
100
AcDbVertex
100
AcDb2dVertex
 10
612.808296
 20
180.221547
 30
0.0
  0
VERTEX
  5
62F
100
AcDbEntity
  8
LAY-9
  6
CONTINUOUS
 62
     1
100
AcDbVertex
100
AcDb2dVertex
 10
612.710493
 20
179.57257
 30
0.0
  0
VERTEX
  5
630
100
AcDbEntity
  8
LAY-9
  6
CONTINUOUS
 62
     1
100
AcDbVertex
100
AcDb2dVertex
 10
612.602741
 20
178.938822
 30
0.0
  0
VERTEX
  5
631
100
AcDbEntity
  8
LAY-9
  6
CONTINUOUS
 62
     1
100
AcDbVertex
100
AcDb2dVertex
 10
612.490771
 20
178.336623
 30
0.0
  0
VERTEX
  5
632
100
AcDbEntity
  8
LAY-9
  6
CONTINUOUS
 62
     1
100
AcDbVertex
100
AcDb2dVertex
 10
612.38031
 20
177.782295
 30
0.0
  0
VERTEX
  5
633
100
AcDbEntity
  8
LAY-9
  6
CONTINUOUS
 62
     1
100
AcDbVertex
100
AcDb2dVertex
 10
612.277088
 20
177.292157
 30
0.0
  0
VERTEX
  5
634
100
AcDbEntity
  8
LAY-9
  6
CONTINUOUS
 62
     1
100
AcDbVertex
100
AcDb2dVertex
 10
612.186831
 20
176.882529
 30
0.0
  0
VERTEX
  5
635
100
AcDbEntity
  8
LAY-9
  6
CONTINUOUS
 62
     1
100
AcDbVertex
100
AcDb2dVertex
 10
612.11527
 20
176.569731
 30
0.0
  0
VERTEX
  5
636
100
AcDbEntity
  8
LAY-9
  6
CONTINUOUS
 62
     1
100
AcDbVertex
100
AcDb2dVertex
 10
612.068133
 20
176.370085
 30
0.0
  0
VERTEX
  5
637
100
AcDbEntity
  8
LAY-9
  6
CONTINUOUS
 62
     1
100
AcDbVertex
100
AcDb2dVertex
 10
612.051147
 20
176.299909
 30
0.0
  0
SEQEND
  5
638
100
AcDbEntity
  8
LAY-9
  6
CONTINUOUS
 62
     1
  0
LINE
  5
639
100
AcDbEntity
  8
LAY-9
  6
CONTINUOUS
 62
     1
100
AcDbLine
 10
469.699968
 20
197.965485
 30
0.0
 11
451.1
 21
197.965485
 31
0.0
  0
LINE
  5
63A
100
AcDbEntity
  8
LAY-9
  6
CONTINUOUS
 62
     1
100
AcDbLine
 10
478.2
 20
180.965485
 30
0.0
 11
451.1
 21
180.965485
 31
0.0
  0
TEXT
  5
63B
100
AcDbEntity
  8
LAY-9
  6
CONTINUOUS
 62
     2
100
AcDbText
 10
452.1
 20
185.465485
 30
0.0
 40
5.0
  1
１７
 50
90.0
 41
0.672
  7
EXCADSTD
 72
     5
 11
452.1
 21
192.798285
 31
0.0
100
AcDbText
  0
LINE
  5
63C
100
AcDbEntity
  8
LAY-9
  6
CONTINUOUS
 62
     1
100
AcDbLine
 10
452.6
 20
197.965485
 30
0.0
 11
452.6
 21
180.965485
 31
0.0
  0
LINE
  5
63D
100
AcDbEntity
  8
LAY-9
  6
CONTINUOUS
 62
     1
100
AcDbLine
 10
453.1
 20
194.965485
 30
0.0
 11
452.6
 21
197.965485
 31
0.0
  0
LINE
  5
63E
100
AcDbEntity
  8
LAY-9
  6
CONTINUOUS
 62
     1
100
AcDbLine
 10
452.6
 20
197.965485
 30
0.0
 11
452.1
 21
194.965485
 31
0.0
  0
LINE
  5
63F
100
AcDbEntity
  8
LAY-9
  6
CONTINUOUS
 62
     1
100
AcDbLine
 10
452.1
 20
183.965485
 30
0.0
 11
452.6
 21
180.965485
 31
0.0
  0
LINE
  5
640
100
AcDbEntity
  8
LAY-9
  6
CONTINUOUS
 62
     1
100
AcDbLine
 10
452.6
 20
180.965485
 30
0.0
 11
453.1
 21
183.965485
 31
0.0
  0
LINE
  5
641
100
AcDbEntity
  8
LAY-9
  6
CONTINUOUS
 62
     1
100
AcDbLine
 10
72.403377
 20
382.091095
 30
0.0
 11
72.403377
 21
425.491095
 31
0.0
  0
LINE
  5
642
100
AcDbEntity
  8
LAY-9
  6
CONTINUOUS
 62
     1
100
AcDbLine
 10
72.403377
 20
425.491095
 30
0.0
 11
85.803377
 21
425.491095
 31
0.0
  0
LINE
  5
643
100
AcDbEntity
  8
LAY-9
  6
CONTINUOUS
 62
     1
100
AcDbLine
 10
52.403377
 20
382.091095
 30
0.0
 11
52.403377
 21
395.491095
 31
0.0
  0
LINE
  5
644
100
AcDbEntity
  8
LAY-9
  6
CONTINUOUS
 62
     1
100
AcDbLine
 10
52.403377
 20
395.491095
 30
0.0
 11
54.003377
 21
395.491095
 31
0.0
  0
LINE
  5
645
100
AcDbEntity
  8
LAY-9
  6
CONTINUOUS
 62
     1
100
AcDbLine
 10
54.003377
 20
382.091095
 30
0.0
 11
70.803377
 21
382.091095
 31
0.0
  0
LINE
  5
646
100
AcDbEntity
  8
LAY-9
  6
CONTINUOUS
 62
     1
100
AcDbLine
 10
70.803377
 20
382.091095
 30
0.0
 11
70.803377
 21
425.491095
 31
0.0
  0
LINE
  5
647
100
AcDbEntity
  8
LAY-9
  6
CONTINUOUS
 62
     1
100
AcDbLine
 10
72.403377
 20
427.091095
 30
0.0
 11
85.803377
 21
427.091095
 31
0.0
  0
LINE
  5
648
100
AcDbEntity
  8
LAY-9
  6
CONTINUOUS
 62
     1
100
AcDbLine
 10
54.003377
 20
395.491095
 30
0.0
 11
54.003377
 21
382.091095
 31
0.0
  0
ARC
  5
649
100
AcDbEntity
  8
LAY-9
  6
CONTINUOUS
 62
     1
100
AcDbCircle
 10
85.803377
 20
427.091095
 30
0.0
 40
1.6
100
AcDbArc
 50
270.0
 51
0.0
  0
ARC
  5
64A
100
AcDbEntity
  8
LAY-9
  6
CONTINUOUS
 62
     1
100
AcDbCircle
 10
72.403377
 20
425.491095
 30
0.0
 40
1.6
100
AcDbArc
 50
90.0
 51
180.0
  0
ARC
  5
64B
100
AcDbEntity
  8
LAY-9
  6
CONTINUOUS
 62
     1
100
AcDbCircle
 10
70.803377
 20
382.091095
 30
0.0
 40
1.6
100
AcDbArc
 50
270.0
 51
0.0
  0
ARC
  5
64C
100
AcDbEntity
  8
LAY-9
  6
CONTINUOUS
 62
     1
100
AcDbCircle
 10
54.003377
 20
382.091095
 30
0.0
 40
1.6
100
AcDbArc
 50
180.0
 51
270.0
  0
POLYLINE
  5
64D
100
AcDbEntity
  8
LAY-9
  6
CONTINUOUS
 62
     1
100
AcDb2dPolyline
 66
     1
 10
0.0
 20
0.0
 30
0.0
 70
   128
  0
VERTEX
  5
64E
100
AcDbEntity
  8
LAY-9
  6
CONTINUOUS
 62
     1
100
AcDbVertex
100
AcDb2dVertex
 10
185.299996
 20
425.491095
 30
0.0
  0
VERTEX
  5
64F
100
AcDbEntity
  8
LAY-9
  6
CONTINUOUS
 62
     1
100
AcDbVertex
100
AcDb2dVertex
 10
185.360455
 20
425.302207
 30
0.0
  0
VERTEX
  5
650
100
AcDbEntity
  8
LAY-9
  6
CONTINUOUS
 62
     1
100
AcDbVertex
100
AcDb2dVertex
 10
185.526904
 20
424.766093
 30
0.0
  0
VERTEX
  5
651
100
AcDbEntity
  8
LAY-9
  6
CONTINUOUS
 62
     1
100
AcDbVertex
100
AcDb2dVertex
 10
185.776953
 20
423.928582
 30
0.0
  0
VERTEX
  5
652
100
AcDbEntity
  8
LAY-9
  6
CONTINUOUS
 62
     1
100
AcDbVertex
100
AcDb2dVertex
 10
186.088209
 20
422.835499
 30
0.0
  0
VERTEX
  5
653
100
AcDbEntity
  8
LAY-9
  6
CONTINUOUS
 62
     1
100
AcDbVertex
100
AcDb2dVertex
 10
186.438283
 20
421.532672
 30
0.0
  0
VERTEX
  5
654
100
AcDbEntity
  8
LAY-9
  6
CONTINUOUS
 62
     1
100
AcDbVertex
100
AcDb2dVertex
 10
186.804784
 20
420.065927
 30
0.0
  0
VERTEX
  5
655
100
AcDbEntity
  8
LAY-9
  6
CONTINUOUS
 62
     1
100
AcDbVertex
100
AcDb2dVertex
 10
187.16532
 20
418.481091
 30
0.0
  0
VERTEX
  5
656
100
AcDbEntity
  8
LAY-9
  6
CONTINUOUS
 62
     1
100
AcDbVertex
100
AcDb2dVertex
 10
187.4975
 20
416.823992
 30
0.0
  0
VERTEX
  5
657
100
AcDbEntity
  8
LAY-9
  6
CONTINUOUS
 62
     1
100
AcDbVertex
100
AcDb2dVertex
 10
187.778933
 20
415.140455
 30
0.0
  0
VERTEX
  5
658
100
AcDbEntity
  8
LAY-9
  6
CONTINUOUS
 62
     1
100
AcDbVertex
100
AcDb2dVertex
 10
187.987229
 20
413.476309
 30
0.0
  0
VERTEX
  5
659
100
AcDbEntity
  8
LAY-9
  6
CONTINUOUS
 62
     1
100
AcDbVertex
100
AcDb2dVertex
 10
188.099996
 20
411.877379
 30
0.0
  0
VERTEX
  5
65A
100
AcDbEntity
  8
LAY-9
  6
CONTINUOUS
 62
     1
100
AcDbVertex
100
AcDb2dVertex
 10
188.10936
 20
410.677213
 30
0.0
  0
VERTEX
  5
65B
100
AcDbEntity
  8
LAY-9
  6
CONTINUOUS
 62
     1
100
AcDbVertex
100
AcDb2dVertex
 10
188.049522
 20
409.54116
 30
0.0
  0
VERTEX
  5
65C
100
AcDbEntity
  8
LAY-9
  6
CONTINUOUS
 62
     1
100
AcDbVertex
100
AcDb2dVertex
 10
187.925956
 20
408.46301
 30
0.0
  0
VERTEX
  5
65D
100
AcDbEntity
  8
LAY-9
  6
CONTINUOUS
 62
     1
100
AcDbVertex
100
AcDb2dVertex
 10
187.744135
 20
407.436556
 30
0.0
  0
VERTEX
  5
65E
100
AcDbEntity
  8
LAY-9
  6
CONTINUOUS
 62
     1
100
AcDbVertex
100
AcDb2dVertex
 10
187.509533
 20
406.45559
 30
0.0
  0
VERTEX
  5
65F
100
AcDbEntity
  8
LAY-9
  6
CONTINUOUS
 62
     1
100
AcDbVertex
100
AcDb2dVertex
 10
187.227621
 20
405.513903
 30
0.0
  0
VERTEX
  5
660
100
AcDbEntity
  8
LAY-9
  6
CONTINUOUS
 62
     1
100
AcDbVertex
100
AcDb2dVertex
 10
186.903875
 20
404.605288
 30
0.0
  0
VERTEX
  5
661
100
AcDbEntity
  8
LAY-9
  6
CONTINUOUS
 62
     1
100
AcDbVertex
100
AcDb2dVertex
 10
186.543765
 20
403.723536
 30
0.0
  0
VERTEX
  5
662
100
AcDbEntity
  8
LAY-9
  6
CONTINUOUS
 62
     1
100
AcDbVertex
100
AcDb2dVertex
 10
186.152767
 20
402.862439
 30
0.0
  0
VERTEX
  5
663
100
AcDbEntity
  8
LAY-9
  6
CONTINUOUS
 62
     1
100
AcDbVertex
100
AcDb2dVertex
 10
185.736353
 20
402.01579
 30
0.0
  0
VERTEX
  5
664
100
AcDbEntity
  8
LAY-9
  6
CONTINUOUS
 62
     1
100
AcDbVertex
100
AcDb2dVertex
 10
185.299996
 20
401.177379
 30
0.0
  0
VERTEX
  5
665
100
AcDbEntity
  8
LAY-9
  6
CONTINUOUS
 62
     1
100
AcDbVertex
100
AcDb2dVertex
 10
184.803392
 20
400.254687
 30
0.0
  0
VERTEX
  5
666
100
AcDbEntity
  8
LAY-9
  6
CONTINUOUS
 62
     1
100
AcDbVertex
100
AcDb2dVertex
 10
184.304322
 20
399.326346
 30
0.0
  0
VERTEX
  5
667
100
AcDbEntity
  8
LAY-9
  6
CONTINUOUS
 62
     1
100
AcDbVertex
100
AcDb2dVertex
 10
183.817928
 20
398.384237
 30
0.0
  0
VERTEX
  5
668
100
AcDbEntity
  8
LAY-9
  6
CONTINUOUS
 62
     1
100
AcDbVertex
100
AcDb2dVertex
 10
183.35935
 20
397.420241
 30
0.0
  0
VERTEX
  5
669
100
AcDbEntity
  8
LAY-9
  6
CONTINUOUS
 62
     1
100
AcDbVertex
100
AcDb2dVertex
 10
182.943729
 20
396.426238
 30
0.0
  0
VERTEX
  5
66A
100
AcDbEntity
  8
LAY-9
  6
CONTINUOUS
 62
     1
100
AcDbVertex
100
AcDb2dVertex
 10
182.586206
 20
395.394108
 30
0.0
  0
VERTEX
  5
66B
100
AcDbEntity
  8
LAY-9
  6
CONTINUOUS
 62
     1
100
AcDbVertex
100
AcDb2dVertex
 10
182.301922
 20
394.315733
 30
0.0
  0
VERTEX
  5
66C
100
AcDbEntity
  8
LAY-9
  6
CONTINUOUS
 62
     1
100
AcDbVertex
100
AcDb2dVertex
 10
182.106018
 20
393.182991
 30
0.0
  0
VERTEX
  5
66D
100
AcDbEntity
  8
LAY-9
  6
CONTINUOUS
 62
     1
100
AcDbVertex
100
AcDb2dVertex
 10
182.013635
 20
391.987765
 30
0.0
  0
VERTEX
  5
66E
100
AcDbEntity
  8
LAY-9
  6
CONTINUOUS
 62
     1
100
AcDbVertex
100
AcDb2dVertex
 10
182.039914
 20
390.721934
 30
0.0
  0
VERTEX
  5
66F
100
AcDbEntity
  8
LAY-9
  6
CONTINUOUS
 62
     1
100
AcDbVertex
100
AcDb2dVertex
 10
182.199996
 20
389.377379
 30
0.0
  0
VERTEX
  5
670
100
AcDbEntity
  8
LAY-9
  6
CONTINUOUS
 62
     1
100
AcDbVertex
100
AcDb2dVertex
 10
182.420123
 20
388.286401
 30
0.0
  0
VERTEX
  5
671
100
AcDbEntity
  8
LAY-9
  6
CONTINUOUS
 62
     1
100
AcDbVertex
100
AcDb2dVertex
 10
182.709808
 20
387.170821
 30
0.0
  0
VERTEX
  5
672
100
AcDbEntity
  8
LAY-9
  6
CONTINUOUS
 62
     1
100
AcDbVertex
100
AcDb2dVertex
 10
183.049979
 20
386.057716
 30
0.0
  0
VERTEX
  5
673
100
AcDbEntity
  8
LAY-9
  6
CONTINUOUS
 62
     1
100
AcDbVertex
100
AcDb2dVertex
 10
183.42156
 20
384.974162
 30
0.0
  0
VERTEX
  5
674
100
AcDbEntity
  8
LAY-9
  6
CONTINUOUS
 62
     1
100
AcDbVertex
100
AcDb2dVertex
 10
183.805481
 20
383.947234
 30
0.0
  0
VERTEX
  5
675
100
AcDbEntity
  8
LAY-9
  6
CONTINUOUS
 62
     1
100
AcDbVertex
100
AcDb2dVertex
 10
184.182666
 20
383.004009
 30
0.0
  0
VERTEX
  5
676
100
AcDbEntity
  8
LAY-9
  6
CONTINUOUS
 62
     1
100
AcDbVertex
100
AcDb2dVertex
 10
184.534042
 20
382.171563
 30
0.0
  0
VERTEX
  5
677
100
AcDbEntity
  8
LAY-9
  6
CONTINUOUS
 62
     1
100
AcDbVertex
100
AcDb2dVertex
 10
184.840537
 20
381.476972
 30
0.0
  0
VERTEX
  5
678
100
AcDbEntity
  8
LAY-9
  6
CONTINUOUS
 62
     1
100
AcDbVertex
100
AcDb2dVertex
 10
185.083077
 20
380.947314
 30
0.0
  0
VERTEX
  5
679
100
AcDbEntity
  8
LAY-9
  6
CONTINUOUS
 62
     1
100
AcDbVertex
100
AcDb2dVertex
 10
185.242587
 20
380.609662
 30
0.0
  0
VERTEX
  5
67A
100
AcDbEntity
  8
LAY-9
  6
CONTINUOUS
 62
     1
100
AcDbVertex
100
AcDb2dVertex
 10
185.299996
 20
380.491095
 30
0.0
  0
SEQEND
  5
67B
100
AcDbEntity
  8
LAY-9
  6
CONTINUOUS
 62
     1
  0
LINE
  5
67C
100
AcDbEntity
  8
LAY-9
  6
CONTINUOUS
 62
     1
100
AcDbLine
 10
75.403398
 20
213.161604
 30
0.0
 11
75.403394
 21
249.961604
 31
0.0
  0
LINE
  5
67D
100
AcDbEntity
  8
LAY-9
  6
CONTINUOUS
 62
     1
100
AcDbLine
 10
77.003394
 20
251.561604
 30
0.0
 11
200.403394
 21
251.561604
 31
0.0
  0
ARC
  5
67E
100
AcDbEntity
  8
LAY-9
  6
CONTINUOUS
 62
     1
100
AcDbCircle
 10
77.003394
 20
249.961604
 30
0.0
 40
1.6
100
AcDbArc
 50
90.0
 51
180.000006
  0
ARC
  5
67F
100
AcDbEntity
  8
LAY-9
  6
CONTINUOUS
 62
     1
100
AcDbCircle
 10
77.003398
 20
213.161604
 30
0.0
 40
1.6
100
AcDbArc
 50
180.000006
 51
270.0
  0
POLYLINE
  5
680
100
AcDbEntity
  8
LAY-9
  6
CONTINUOUS
 62
     1
100
AcDb2dPolyline
 66
     1
 10
0.0
 20
0.0
 30
0.0
 70
   128
  0
VERTEX
  5
681
100
AcDbEntity
  8
LAY-9
  6
CONTINUOUS
 62
     1
100
AcDbVertex
100
AcDb2dVertex
 10
200.403394
 20
251.561604
 30
0.0
  0
VERTEX
  5
682
100
AcDbEntity
  8
LAY-9
  6
CONTINUOUS
 62
     1
100
AcDbVertex
100
AcDb2dVertex
 10
200.453395
 20
251.420136
 30
0.0
  0
VERTEX
  5
683
100
AcDbEntity
  8
LAY-9
  6
CONTINUOUS
 62
     1
100
AcDbVertex
100
AcDb2dVertex
 10
200.591321
 20
251.018225
 30
0.0
  0
VERTEX
  5
684
100
AcDbEntity
  8
LAY-9
  6
CONTINUOUS
 62
     1
100
AcDbVertex
100
AcDb2dVertex
 10
200.799054
 20
250.389606
 30
0.0
  0
VERTEX
  5
685
100
AcDbEntity
  8
LAY-9
  6
CONTINUOUS
 62
     1
100
AcDbVertex
100
AcDb2dVertex
 10
201.058479
 20
249.568017
 30
0.0
  0
VERTEX
  5
686
100
AcDbEntity
  8
LAY-9
  6
CONTINUOUS
 62
     1
100
AcDbVertex
100
AcDb2dVertex
 10
201.351478
 20
248.587194
 30
0.0
  0
VERTEX
  5
687
100
AcDbEntity
  8
LAY-9
  6
CONTINUOUS
 62
     1
100
AcDbVertex
100
AcDb2dVertex
 10
201.659935
 20
247.480874
 30
0.0
  0
VERTEX
  5
688
100
AcDbEntity
  8
LAY-9
  6
CONTINUOUS
 62
     1
100
AcDbVertex
100
AcDb2dVertex
 10
201.965733
 20
246.282795
 30
0.0
  0
VERTEX
  5
689
100
AcDbEntity
  8
LAY-9
  6
CONTINUOUS
 62
     1
100
AcDbVertex
100
AcDb2dVertex
 10
202.250756
 20
245.026692
 30
0.0
  0
VERTEX
  5
68A
100
AcDbEntity
  8
LAY-9
  6
CONTINUOUS
 62
     1
100
AcDbVertex
100
AcDb2dVertex
 10
202.496887
 20
243.746303
 30
0.0
  0
VERTEX
  5
68B
100
AcDbEntity
  8
LAY-9
  6
CONTINUOUS
 62
     1
100
AcDbVertex
100
AcDb2dVertex
 10
202.686009
 20
242.475365
 30
0.0
  0
VERTEX
  5
68C
100
AcDbEntity
  8
LAY-9
  6
CONTINUOUS
 62
     1
100
AcDbVertex
100
AcDb2dVertex
 10
202.800006
 20
241.247614
 30
0.0
  0
VERTEX
  5
68D
100
AcDbEntity
  8
LAY-9
  6
CONTINUOUS
 62
     1
100
AcDbVertex
100
AcDb2dVertex
 10
202.826514
 20
240.173828
 30
0.0
  0
VERTEX
  5
68E
100
AcDbEntity
  8
LAY-9
  6
CONTINUOUS
 62
     1
100
AcDbVertex
100
AcDb2dVertex
 10
202.780905
 20
239.159951
 30
0.0
  0
VERTEX
  5
68F
100
AcDbEntity
  8
LAY-9
  6
CONTINUOUS
 62
     1
100
AcDbVertex
100
AcDb2dVertex
 10
202.670905
 20
238.200025
 30
0.0
  0
VERTEX
  5
690
100
AcDbEntity
  8
LAY-9
  6
CONTINUOUS
 62
     1
100
AcDbVertex
100
AcDb2dVertex
 10
202.504241
 20
237.288089
 30
0.0
  0
VERTEX
  5
691
100
AcDbEntity
  8
LAY-9
  6
CONTINUOUS
 62
     1
100
AcDbVertex
100
AcDb2dVertex
 10
202.288639
 20
236.418182
 30
0.0
  0
VERTEX
  5
692
100
AcDbEntity
  8
LAY-9
  6
CONTINUOUS
 62
     1
100
AcDbVertex
100
AcDb2dVertex
 10
202.031826
 20
235.584346
 30
0.0
  0
VERTEX
  5
693
100
AcDbEntity
  8
LAY-9
  6
CONTINUOUS
 62
     1
100
AcDbVertex
100
AcDb2dVertex
 10
201.741528
 20
234.78062
 30
0.0
  0
VERTEX
  5
694
100
AcDbEntity
  8
LAY-9
  6
CONTINUOUS
 62
     1
100
AcDbVertex
100
AcDb2dVertex
 10
201.42547
 20
234.001043
 30
0.0
  0
VERTEX
  5
695
100
AcDbEntity
  8
LAY-9
  6
CONTINUOUS
 62
     1
100
AcDbVertex
100
AcDb2dVertex
 10
201.09138
 20
233.239657
 30
0.0
  0
VERTEX
  5
696
100
AcDbEntity
  8
LAY-9
  6
CONTINUOUS
 62
     1
100
AcDbVertex
100
AcDb2dVertex
 10
200.746983
 20
232.490501
 30
0.0
  0
VERTEX
  5
697
100
AcDbEntity
  8
LAY-9
  6
CONTINUOUS
 62
     1
100
AcDbVertex
100
AcDb2dVertex
 10
200.400006
 20
231.747614
 30
0.0
  0
VERTEX
  5
698
100
AcDbEntity
  8
LAY-9
  6
CONTINUOUS
 62
     1
100
AcDbVertex
100
AcDb2dVertex
 10
199.981884
 20
230.837824
 30
0.0
  0
VERTEX
  5
699
100
AcDbEntity
  8
LAY-9
  6
CONTINUOUS
 62
     1
100
AcDbVertex
100
AcDb2dVertex
 10
199.58046
 20
229.920237
 30
0.0
  0
VERTEX
  5
69A
100
AcDbEntity
  8
LAY-9
  6
CONTINUOUS
 62
     1
100
AcDbVertex
100
AcDb2dVertex
 10
199.204709
 20
228.986588
 30
0.0
  0
VERTEX
  5
69B
100
AcDbEntity
  8
LAY-9
  6
CONTINUOUS
 62
     1
100
AcDbVertex
100
AcDb2dVertex
 10
198.863608
 20
228.028614
 30
0.0
  0
VERTEX
  5
69C
100
AcDbEntity
  8
LAY-9
  6
CONTINUOUS
 62
     1
100
AcDbVertex
100
AcDb2dVertex
 10
198.56613
 20
227.038053
 30
0.0
  0
VERTEX
  5
69D
100
AcDbEntity
  8
LAY-9
  6
CONTINUOUS
 62
     1
100
AcDbVertex
100
AcDb2dVertex
 10
198.321253
 20
226.006642
 30
0.0
  0
VERTEX
  5
69E
100
AcDbEntity
  8
LAY-9
  6
CONTINUOUS
 62
     1
100
AcDbVertex
100
AcDb2dVertex
 10
198.137951
 20
224.926116
 30
0.0
  0
VERTEX
  5
69F
100
AcDbEntity
  8
LAY-9
  6
CONTINUOUS
 62
     1
100
AcDbVertex
100
AcDb2dVertex
 10
198.0252
 20
223.788214
 30
0.0
  0
VERTEX
  5
6A0
100
AcDbEntity
  8
LAY-9
  6
CONTINUOUS
 62
     1
100
AcDbVertex
100
AcDb2dVertex
 10
197.991975
 20
222.584672
 30
0.0
  0
VERTEX
  5
6A1
100
AcDbEntity
  8
LAY-9
  6
CONTINUOUS
 62
     1
100
AcDbVertex
100
AcDb2dVertex
 10
198.047252
 20
221.307226
 30
0.0
  0
VERTEX
  5
6A2
100
AcDbEntity
  8
LAY-9
  6
CONTINUOUS
 62
     1
100
AcDbVertex
100
AcDb2dVertex
 10
198.200006
 20
219.947614
 30
0.0
  0
VERTEX
  5
6A3
100
AcDbEntity
  8
LAY-9
  6
CONTINUOUS
 62
     1
100
AcDbVertex
100
AcDb2dVertex
 10
198.373399
 20
218.914457
 30
0.0
  0
VERTEX
  5
6A4
100
AcDbEntity
  8
LAY-9
  6
CONTINUOUS
 62
     1
100
AcDbVertex
100
AcDb2dVertex
 10
198.589798
 20
217.859451
 30
0.0
  0
VERTEX
  5
6A5
100
AcDbEntity
  8
LAY-9
  6
CONTINUOUS
 62
     1
100
AcDbVertex
100
AcDb2dVertex
 10
198.836661
 20
216.807932
 30
0.0
  0
VERTEX
  5
6A6
100
AcDbEntity
  8
LAY-9
  6
CONTINUOUS
 62
     1
100
AcDbVertex
100
AcDb2dVertex
 10
199.101449
 20
215.785234
 30
0.0
  0
VERTEX
  5
6A7
100
AcDbEntity
  8
LAY-9
  6
CONTINUOUS
 62
     1
100
AcDbVertex
100
AcDb2dVertex
 10
199.371619
 20
214.816695
 30
0.0
  0
VERTEX
  5
6A8
100
AcDbEntity
  8
LAY-9
  6
CONTINUOUS
 62
     1
100
AcDbVertex
100
AcDb2dVertex
 10
199.634631
 20
213.927651
 30
0.0
  0
VERTEX
  5
6A9
100
AcDbEntity
  8
LAY-9
  6
CONTINUOUS
 62
     1
100
AcDbVertex
100
AcDb2dVertex
 10
199.877945
 20
213.143437
 30
0.0
  0
VERTEX
  5
6AA
100
AcDbEntity
  8
LAY-9
  6
CONTINUOUS
 62
     1
100
AcDbVertex
100
AcDb2dVertex
 10
200.08902
 20
212.489389
 30
0.0
  0
VERTEX
  5
6AB
100
AcDbEntity
  8
LAY-9
  6
CONTINUOUS
 62
     1
100
AcDbVertex
100
AcDb2dVertex
 10
200.255314
 20
211.990843
 30
0.0
  0
VERTEX
  5
6AC
100
AcDbEntity
  8
LAY-9
  6
CONTINUOUS
 62
     1
100
AcDbVertex
100
AcDb2dVertex
 10
200.364287
 20
211.673136
 30
0.0
  0
VERTEX
  5
6AD
100
AcDbEntity
  8
LAY-9
  6
CONTINUOUS
 62
     1
100
AcDbVertex
100
AcDb2dVertex
 10
200.403398
 20
211.561604
 30
0.0
  0
SEQEND
  5
6AE
100
AcDbEntity
  8
LAY-9
  6
CONTINUOUS
 62
     1
  0
LINE
  5
6AF
100
AcDbEntity
  8
LAY-9
  6
CONTINUOUS
 62
     1
100
AcDbLine
 10
79.403381
 20
380.491095
 30
0.0
 11
54.003377
 21
380.491095
 31
0.0
  0
LINE
  5
6B0
100
AcDbEntity
  8
LAY-9
  6
CONTINUOUS
 62
     1
100
AcDbLine
 10
77.003398
 20
211.561604
 30
0.0
 11
79.403404
 21
211.561604
 31
0.0
  0
LINE
  5
6B1
100
AcDbEntity
  8
LAY-9
  6
CONTINUOUS
 62
     1
100
AcDbLine
 10
87.403377
 20
427.091095
 30
0.0
 11
87.403377
 21
430.7
 31
0.0
  0
LINE
  5
6B2
100
AcDbEntity
  8
LAY-9
  6
CONTINUOUS
 62
     1
100
AcDbLine
 10
85.803377
 20
427.091095
 30
0.0
 11
85.803377
 21
430.7
 31
0.0
  0
LINE
  5
6B3
100
AcDbEntity
  8
LAY-9
  6
CONTINUOUS
 62
     1
100
AcDbLine
 10
185.299996
 20
380.491095
 30
0.0
 11
133.403427
 21
380.491095
 31
0.0
  0
LINE
  5
6B4
100
AcDbEntity
  8
LAY-9
  6
CONTINUOUS
 62
     1
100
AcDbLine
 10
85.803377
 20
437.6
 30
0.0
 11
85.803377
 21
440.491095
 31
0.0
  0
LINE
  5
6B5
100
AcDbEntity
  8
LAY-9
  6
CONTINUOUS
 62
     1
100
AcDbLine
 10
87.403377
 20
437.6
 30
0.0
 11
87.403377
 21
440.491095
 31
0.0
  0
LINE
  5
6B6
100
AcDbEntity
  8
LAY-9
  6
CONTINUOUS
 62
     1
100
AcDbLine
 10
133.403427
 20
211.561604
 30
0.0
 11
200.403398
 21
211.561604
 31
0.0
  0
LINE
  5
6B7
100
AcDbEntity
  8
LAY-9
  6
CONTINUOUS
 62
     1
100
AcDbLine
 10
285.403375
 20
385.091363
 30
0.0
 11
285.403371
 21
421.891363
 31
0.0
  0
LINE
  5
6B8
100
AcDbEntity
  8
LAY-9
  6
CONTINUOUS
 62
     1
100
AcDbLine
 10
287.003371
 20
423.491363
 30
0.0
 11
440.403371
 21
423.491363
 31
0.0
  0
ARC
  5
6B9
100
AcDbEntity
  8
LAY-9
  6
CONTINUOUS
 62
     1
100
AcDbCircle
 10
287.003371
 20
421.891363
 30
0.0
 40
1.6
100
AcDbArc
 50
90.0
 51
180.000006
  0
ARC
  5
6BA
100
AcDbEntity
  8
LAY-9
  6
CONTINUOUS
 62
     1
100
AcDbCircle
 10
287.003375
 20
385.091363
 30
0.0
 40
1.6
100
AcDbArc
 50
180.000006
 51
270.0
  0
POLYLINE
  5
6BB
100
AcDbEntity
  8
LAY-9
  6
CONTINUOUS
 62
     1
100
AcDb2dPolyline
 66
     1
 10
0.0
 20
0.0
 30
0.0
 70
   128
  0
VERTEX
  5
6BC
100
AcDbEntity
  8
LAY-9
  6
CONTINUOUS
 62
     1
100
AcDbVertex
100
AcDb2dVertex
 10
440.403371
 20
423.491363
 30
0.0
  0
VERTEX
  5
6BD
100
AcDbEntity
  8
LAY-9
  6
CONTINUOUS
 62
     1
100
AcDbVertex
100
AcDb2dVertex
 10
440.453372
 20
423.349895
 30
0.0
  0
VERTEX
  5
6BE
100
AcDbEntity
  8
LAY-9
  6
CONTINUOUS
 62
     1
100
AcDbVertex
100
AcDb2dVertex
 10
440.591298
 20
422.947984
 30
0.0
  0
VERTEX
  5
6BF
100
AcDbEntity
  8
LAY-9
  6
CONTINUOUS
 62
     1
100
AcDbVertex
100
AcDb2dVertex
 10
440.799031
 20
422.319365
 30
0.0
  0
VERTEX
  5
6C0
100
AcDbEntity
  8
LAY-9
  6
CONTINUOUS
 62
     1
100
AcDbVertex
100
AcDb2dVertex
 10
441.058456
 20
421.497776
 30
0.0
  0
VERTEX
  5
6C1
100
AcDbEntity
  8
LAY-9
  6
CONTINUOUS
 62
     1
100
AcDbVertex
100
AcDb2dVertex
 10
441.351455
 20
420.516953
 30
0.0
  0
VERTEX
  5
6C2
100
AcDbEntity
  8
LAY-9
  6
CONTINUOUS
 62
     1
100
AcDbVertex
100
AcDb2dVertex
 10
441.659912
 20
419.410633
 30
0.0
  0
VERTEX
  5
6C3
100
AcDbEntity
  8
LAY-9
  6
CONTINUOUS
 62
     1
100
AcDbVertex
100
AcDb2dVertex
 10
441.96571
 20
418.212554
 30
0.0
  0
VERTEX
  5
6C4
100
AcDbEntity
  8
LAY-9
  6
CONTINUOUS
 62
     1
100
AcDbVertex
100
AcDb2dVertex
 10
442.250733
 20
416.956451
 30
0.0
  0
VERTEX
  5
6C5
100
AcDbEntity
  8
LAY-9
  6
CONTINUOUS
 62
     1
100
AcDbVertex
100
AcDb2dVertex
 10
442.496864
 20
415.676062
 30
0.0
  0
VERTEX
  5
6C6
100
AcDbEntity
  8
LAY-9
  6
CONTINUOUS
 62
     1
100
AcDbVertex
100
AcDb2dVertex
 10
442.685986
 20
414.405124
 30
0.0
  0
VERTEX
  5
6C7
100
AcDbEntity
  8
LAY-9
  6
CONTINUOUS
 62
     1
100
AcDbVertex
100
AcDb2dVertex
 10
442.799983
 20
413.177373
 30
0.0
  0
VERTEX
  5
6C8
100
AcDbEntity
  8
LAY-9
  6
CONTINUOUS
 62
     1
100
AcDbVertex
100
AcDb2dVertex
 10
442.826491
 20
412.103587
 30
0.0
  0
VERTEX
  5
6C9
100
AcDbEntity
  8
LAY-9
  6
CONTINUOUS
 62
     1
100
AcDbVertex
100
AcDb2dVertex
 10
442.780881
 20
411.08971
 30
0.0
  0
VERTEX
  5
6CA
100
AcDbEntity
  8
LAY-9
  6
CONTINUOUS
 62
     1
100
AcDbVertex
100
AcDb2dVertex
 10
442.670882
 20
410.129784
 30
0.0
  0
VERTEX
  5
6CB
100
AcDbEntity
  8
LAY-9
  6
CONTINUOUS
 62
     1
100
AcDbVertex
100
AcDb2dVertex
 10
442.504218
 20
409.217848
 30
0.0
  0
VERTEX
  5
6CC
100
AcDbEntity
  8
LAY-9
  6
CONTINUOUS
 62
     1
100
AcDbVertex
100
AcDb2dVertex
 10
442.288616
 20
408.347941
 30
0.0
  0
VERTEX
  5
6CD
100
AcDbEntity
  8
LAY-9
  6
CONTINUOUS
 62
     1
100
AcDbVertex
100
AcDb2dVertex
 10
442.031803
 20
407.514105
 30
0.0
  0
VERTEX
  5
6CE
100
AcDbEntity
  8
LAY-9
  6
CONTINUOUS
 62
     1
100
AcDbVertex
100
AcDb2dVertex
 10
441.741505
 20
406.710379
 30
0.0
  0
VERTEX
  5
6CF
100
AcDbEntity
  8
LAY-9
  6
CONTINUOUS
 62
     1
100
AcDbVertex
100
AcDb2dVertex
 10
441.425447
 20
405.930802
 30
0.0
  0
VERTEX
  5
6D0
100
AcDbEntity
  8
LAY-9
  6
CONTINUOUS
 62
     1
100
AcDbVertex
100
AcDb2dVertex
 10
441.091357
 20
405.169416
 30
0.0
  0
VERTEX
  5
6D1
100
AcDbEntity
  8
LAY-9
  6
CONTINUOUS
 62
     1
100
AcDbVertex
100
AcDb2dVertex
 10
440.74696
 20
404.42026
 30
0.0
  0
VERTEX
  5
6D2
100
AcDbEntity
  8
LAY-9
  6
CONTINUOUS
 62
     1
100
AcDbVertex
100
AcDb2dVertex
 10
440.399983
 20
403.677373
 30
0.0
  0
VERTEX
  5
6D3
100
AcDbEntity
  8
LAY-9
  6
CONTINUOUS
 62
     1
100
AcDbVertex
100
AcDb2dVertex
 10
439.981861
 20
402.767583
 30
0.0
  0
VERTEX
  5
6D4
100
AcDbEntity
  8
LAY-9
  6
CONTINUOUS
 62
     1
100
AcDbVertex
100
AcDb2dVertex
 10
439.580437
 20
401.849996
 30
0.0
  0
VERTEX
  5
6D5
100
AcDbEntity
  8
LAY-9
  6
CONTINUOUS
 62
     1
100
AcDbVertex
100
AcDb2dVertex
 10
439.204686
 20
400.916347
 30
0.0
  0
VERTEX
  5
6D6
100
AcDbEntity
  8
LAY-9
  6
CONTINUOUS
 62
     1
100
AcDbVertex
100
AcDb2dVertex
 10
438.863585
 20
399.958373
 30
0.0
  0
VERTEX
  5
6D7
100
AcDbEntity
  8
LAY-9
  6
CONTINUOUS
 62
     1
100
AcDbVertex
100
AcDb2dVertex
 10
438.566107
 20
398.967812
 30
0.0
  0
VERTEX
  5
6D8
100
AcDbEntity
  8
LAY-9
  6
CONTINUOUS
 62
     1
100
AcDbVertex
100
AcDb2dVertex
 10
438.32123
 20
397.936401
 30
0.0
  0
VERTEX
  5
6D9
100
AcDbEntity
  8
LAY-9
  6
CONTINUOUS
 62
     1
100
AcDbVertex
100
AcDb2dVertex
 10
438.137928
 20
396.855875
 30
0.0
  0
VERTEX
  5
6DA
100
AcDbEntity
  8
LAY-9
  6
CONTINUOUS
 62
     1
100
AcDbVertex
100
AcDb2dVertex
 10
438.025177
 20
395.717973
 30
0.0
  0
VERTEX
  5
6DB
100
AcDbEntity
  8
LAY-9
  6
CONTINUOUS
 62
     1
100
AcDbVertex
100
AcDb2dVertex
 10
437.991952
 20
394.514431
 30
0.0
  0
VERTEX
  5
6DC
100
AcDbEntity
  8
LAY-9
  6
CONTINUOUS
 62
     1
100
AcDbVertex
100
AcDb2dVertex
 10
438.047229
 20
393.236985
 30
0.0
  0
VERTEX
  5
6DD
100
AcDbEntity
  8
LAY-9
  6
CONTINUOUS
 62
     1
100
AcDbVertex
100
AcDb2dVertex
 10
438.199983
 20
391.877373
 30
0.0
  0
VERTEX
  5
6DE
100
AcDbEntity
  8
LAY-9
  6
CONTINUOUS
 62
     1
100
AcDbVertex
100
AcDb2dVertex
 10
438.373376
 20
390.844216
 30
0.0
  0
VERTEX
  5
6DF
100
AcDbEntity
  8
LAY-9
  6
CONTINUOUS
 62
     1
100
AcDbVertex
100
AcDb2dVertex
 10
438.589775
 20
389.78921
 30
0.0
  0
VERTEX
  5
6E0
100
AcDbEntity
  8
LAY-9
  6
CONTINUOUS
 62
     1
100
AcDbVertex
100
AcDb2dVertex
 10
438.836638
 20
388.737691
 30
0.0
  0
VERTEX
  5
6E1
100
AcDbEntity
  8
LAY-9
  6
CONTINUOUS
 62
     1
100
AcDbVertex
100
AcDb2dVertex
 10
439.101426
 20
387.714993
 30
0.0
  0
VERTEX
  5
6E2
100
AcDbEntity
  8
LAY-9
  6
CONTINUOUS
 62
     1
100
AcDbVertex
100
AcDb2dVertex
 10
439.371596
 20
386.746454
 30
0.0
  0
VERTEX
  5
6E3
100
AcDbEntity
  8
LAY-9
  6
CONTINUOUS
 62
     1
100
AcDbVertex
100
AcDb2dVertex
 10
439.634608
 20
385.85741
 30
0.0
  0
VERTEX
  5
6E4
100
AcDbEntity
  8
LAY-9
  6
CONTINUOUS
 62
     1
100
AcDbVertex
100
AcDb2dVertex
 10
439.877922
 20
385.073196
 30
0.0
  0
VERTEX
  5
6E5
100
AcDbEntity
  8
LAY-9
  6
CONTINUOUS
 62
     1
100
AcDbVertex
100
AcDb2dVertex
 10
440.088997
 20
384.419148
 30
0.0
  0
VERTEX
  5
6E6
100
AcDbEntity
  8
LAY-9
  6
CONTINUOUS
 62
     1
100
AcDbVertex
100
AcDb2dVertex
 10
440.255291
 20
383.920602
 30
0.0
  0
VERTEX
  5
6E7
100
AcDbEntity
  8
LAY-9
  6
CONTINUOUS
 62
     1
100
AcDbVertex
100
AcDb2dVertex
 10
440.364264
 20
383.602895
 30
0.0
  0
VERTEX
  5
6E8
100
AcDbEntity
  8
LAY-9
  6
CONTINUOUS
 62
     1
100
AcDbVertex
100
AcDb2dVertex
 10
440.403375
 20
383.491363
 30
0.0
  0
SEQEND
  5
6E9
100
AcDbEntity
  8
LAY-9
  6
CONTINUOUS
 62
     1
  0
LINE
  5
6EA
100
AcDbEntity
  8
LAY-9
  6
CONTINUOUS
 62
     1
100
AcDbLine
 10
282.40339
 20
253.561316
 30
0.0
 11
295.80339
 21
253.561316
 31
0.0
  0
LINE
  5
6EB
100
AcDbEntity
  8
LAY-9
  6
CONTINUOUS
 62
     1
100
AcDbLine
 10
297.40339
 20
255.161316
 30
0.0
 11
297.40339
 21
268.561316
 31
0.0
  0
LINE
  5
6EC
100
AcDbEntity
  8
LAY-9
  6
CONTINUOUS
 62
     1
100
AcDbLine
 10
280.80339
 20
210.161316
 30
0.0
 11
280.80339
 21
253.561316
 31
0.0
  0
LINE
  5
6ED
100
AcDbEntity
  8
LAY-9
  6
CONTINUOUS
 62
     1
100
AcDbLine
 10
282.40339
 20
255.161316
 30
0.0
 11
295.80339
 21
255.161316
 31
0.0
  0
LINE
  5
6EE
100
AcDbEntity
  8
LAY-9
  6
CONTINUOUS
 62
     1
100
AcDbLine
 10
295.80339
 20
255.161316
 30
0.0
 11
295.80339
 21
268.561316
 31
0.0
  0
ARC
  5
6EF
100
AcDbEntity
  8
LAY-9
  6
CONTINUOUS
 62
     1
100
AcDbCircle
 10
295.80339
 20
255.161316
 30
0.0
 40
1.6
100
AcDbArc
 50
270.0
 51
0.0
  0
ARC
  5
6F0
100
AcDbEntity
  8
LAY-9
  6
CONTINUOUS
 62
     1
100
AcDbCircle
 10
282.40339
 20
253.561316
 30
0.0
 40
1.6
100
AcDbArc
 50
90.0
 51
180.0
  0
ARC
  5
6F1
100
AcDbEntity
  8
LAY-9
  6
CONTINUOUS
 62
     1
100
AcDbCircle
 10
280.80339
 20
210.161316
 30
0.0
 40
1.6
100
AcDbArc
 50
270.0
 51
0.0
  0
LINE
  5
6F2
100
AcDbEntity
  8
LAY-9
  6
CONTINUOUS
 62
     1
100
AcDbLine
 10
278.403381
 20
210.161316
 30
0.0
 11
280.80339
 21
210.161316
 31
0.0
  0
LINE
  5
6F3
100
AcDbEntity
  8
LAY-9
  6
CONTINUOUS
 62
     1
100
AcDbLine
 10
278.403381
 20
244.56131
 30
0.0
 11
278.403381
 21
253.561316
 31
0.0
  0
LINE
  5
6F4
100
AcDbEntity
  8
LAY-9
  6
CONTINUOUS
 62
     1
100
AcDbLine
 10
278.403381
 20
253.561316
 30
0.0
 11
280.80339
 21
253.561316
 31
0.0
  0
LINE
  5
6F5
100
AcDbEntity
  8
LAY-9
  6
CONTINUOUS
 62
     1
100
AcDbLine
 10
303.403381
 20
211.56131
 30
0.0
 11
365.8
 21
211.56131
 31
0.0
  0
POLYLINE
  5
6F6
100
AcDbEntity
  8
LAY-9
  6
CONTINUOUS
 62
     1
100
AcDb2dPolyline
 66
     1
 10
0.0
 20
0.0
 30
0.0
 70
   128
  0
VERTEX
  5
6F7
100
AcDbEntity
  8
LAY-9
  6
CONTINUOUS
 62
     1
100
AcDbVertex
100
AcDb2dVertex
 10
365.8
 20
256.56131
 30
0.0
  0
VERTEX
  5
6F8
100
AcDbEntity
  8
LAY-9
  6
CONTINUOUS
 62
     1
100
AcDbVertex
100
AcDb2dVertex
 10
365.860459
 20
256.372422
 30
0.0
  0
VERTEX
  5
6F9
100
AcDbEntity
  8
LAY-9
  6
CONTINUOUS
 62
     1
100
AcDbVertex
100
AcDb2dVertex
 10
366.026908
 20
255.836309
 30
0.0
  0
VERTEX
  5
6FA
100
AcDbEntity
  8
LAY-9
  6
CONTINUOUS
 62
     1
100
AcDbVertex
100
AcDb2dVertex
 10
366.276956
 20
254.998797
 30
0.0
  0
VERTEX
  5
6FB
100
AcDbEntity
  8
LAY-9
  6
CONTINUOUS
 62
     1
100
AcDbVertex
100
AcDb2dVertex
 10
366.588213
 20
253.905714
 30
0.0
  0
VERTEX
  5
6FC
100
AcDbEntity
  8
LAY-9
  6
CONTINUOUS
 62
     1
100
AcDbVertex
100
AcDb2dVertex
 10
366.938287
 20
252.602887
 30
0.0
  0
VERTEX
  5
6FD
100
AcDbEntity
  8
LAY-9
  6
CONTINUOUS
 62
     1
100
AcDbVertex
100
AcDb2dVertex
 10
367.304788
 20
251.136142
 30
0.0
  0
VERTEX
  5
6FE
100
AcDbEntity
  8
LAY-9
  6
CONTINUOUS
 62
     1
100
AcDbVertex
100
AcDb2dVertex
 10
367.665323
 20
249.551306
 30
0.0
  0
VERTEX
  5
6FF
100
AcDbEntity
  8
LAY-9
  6
CONTINUOUS
 62
     1
100
AcDbVertex
100
AcDb2dVertex
 10
367.997504
 20
247.894207
 30
0.0
  0
VERTEX
  5
700
100
AcDbEntity
  8
LAY-9
  6
CONTINUOUS
 62
     1
100
AcDbVertex
100
AcDb2dVertex
 10
368.278937
 20
246.21067
 30
0.0
  0
VERTEX
  5
701
100
AcDbEntity
  8
LAY-9
  6
CONTINUOUS
 62
     1
100
AcDbVertex
100
AcDb2dVertex
 10
368.487233
 20
244.546524
 30
0.0
  0
VERTEX
  5
702
100
AcDbEntity
  8
LAY-9
  6
CONTINUOUS
 62
     1
100
AcDbVertex
100
AcDb2dVertex
 10
368.6
 20
242.947594
 30
0.0
  0
VERTEX
  5
703
100
AcDbEntity
  8
LAY-9
  6
CONTINUOUS
 62
     1
100
AcDbVertex
100
AcDb2dVertex
 10
368.609364
 20
241.747428
 30
0.0
  0
VERTEX
  5
704
100
AcDbEntity
  8
LAY-9
  6
CONTINUOUS
 62
     1
100
AcDbVertex
100
AcDb2dVertex
 10
368.549526
 20
240.611375
 30
0.0
  0
VERTEX
  5
705
100
AcDbEntity
  8
LAY-9
  6
CONTINUOUS
 62
     1
100
AcDbVertex
100
AcDb2dVertex
 10
368.42596
 20
239.533225
 30
0.0
  0
VERTEX
  5
706
100
AcDbEntity
  8
LAY-9
  6
CONTINUOUS
 62
     1
100
AcDbVertex
100
AcDb2dVertex
 10
368.244139
 20
238.506771
 30
0.0
  0
VERTEX
  5
707
100
AcDbEntity
  8
LAY-9
  6
CONTINUOUS
 62
     1
100
AcDbVertex
100
AcDb2dVertex
 10
368.009536
 20
237.525805
 30
0.0
  0
VERTEX
  5
708
100
AcDbEntity
  8
LAY-9
  6
CONTINUOUS
 62
     1
100
AcDbVertex
100
AcDb2dVertex
 10
367.727625
 20
236.584118
 30
0.0
  0
VERTEX
  5
709
100
AcDbEntity
  8
LAY-9
  6
CONTINUOUS
 62
     1
100
AcDbVertex
100
AcDb2dVertex
 10
367.403878
 20
235.675503
 30
0.0
  0
VERTEX
  5
70A
100
AcDbEntity
  8
LAY-9
  6
CONTINUOUS
 62
     1
100
AcDbVertex
100
AcDb2dVertex
 10
367.043769
 20
234.793751
 30
0.0
  0
VERTEX
  5
70B
100
AcDbEntity
  8
LAY-9
  6
CONTINUOUS
 62
     1
100
AcDbVertex
100
AcDb2dVertex
 10
366.652771
 20
233.932654
 30
0.0
  0
VERTEX
  5
70C
100
AcDbEntity
  8
LAY-9
  6
CONTINUOUS
 62
     1
100
AcDbVertex
100
AcDb2dVertex
 10
366.236357
 20
233.086005
 30
0.0
  0
VERTEX
  5
70D
100
AcDbEntity
  8
LAY-9
  6
CONTINUOUS
 62
     1
100
AcDbVertex
100
AcDb2dVertex
 10
365.8
 20
232.247594
 30
0.0
  0
VERTEX
  5
70E
100
AcDbEntity
  8
LAY-9
  6
CONTINUOUS
 62
     1
100
AcDbVertex
100
AcDb2dVertex
 10
365.303396
 20
231.324902
 30
0.0
  0
VERTEX
  5
70F
100
AcDbEntity
  8
LAY-9
  6
CONTINUOUS
 62
     1
100
AcDbVertex
100
AcDb2dVertex
 10
364.804326
 20
230.396561
 30
0.0
  0
VERTEX
  5
710
100
AcDbEntity
  8
LAY-9
  6
CONTINUOUS
 62
     1
100
AcDbVertex
100
AcDb2dVertex
 10
364.317932
 20
229.454452
 30
0.0
  0
VERTEX
  5
711
100
AcDbEntity
  8
LAY-9
  6
CONTINUOUS
 62
     1
100
AcDbVertex
100
AcDb2dVertex
 10
363.859353
 20
228.490456
 30
0.0
  0
VERTEX
  5
712
100
AcDbEntity
  8
LAY-9
  6
CONTINUOUS
 62
     1
100
AcDbVertex
100
AcDb2dVertex
 10
363.443732
 20
227.496453
 30
0.0
  0
VERTEX
  5
713
100
AcDbEntity
  8
LAY-9
  6
CONTINUOUS
 62
     1
100
AcDbVertex
100
AcDb2dVertex
 10
363.08621
 20
226.464323
 30
0.0
  0
VERTEX
  5
714
100
AcDbEntity
  8
LAY-9
  6
CONTINUOUS
 62
     1
100
AcDbVertex
100
AcDb2dVertex
 10
362.801926
 20
225.385948
 30
0.0
  0
VERTEX
  5
715
100
AcDbEntity
  8
LAY-9
  6
CONTINUOUS
 62
     1
100
AcDbVertex
100
AcDb2dVertex
 10
362.606022
 20
224.253206
 30
0.0
  0
VERTEX
  5
716
100
AcDbEntity
  8
LAY-9
  6
CONTINUOUS
 62
     1
100
AcDbVertex
100
AcDb2dVertex
 10
362.513639
 20
223.05798
 30
0.0
  0
VERTEX
  5
717
100
AcDbEntity
  8
LAY-9
  6
CONTINUOUS
 62
     1
100
AcDbVertex
100
AcDb2dVertex
 10
362.539918
 20
221.792149
 30
0.0
  0
VERTEX
  5
718
100
AcDbEntity
  8
LAY-9
  6
CONTINUOUS
 62
     1
100
AcDbVertex
100
AcDb2dVertex
 10
362.7
 20
220.447594
 30
0.0
  0
VERTEX
  5
719
100
AcDbEntity
  8
LAY-9
  6
CONTINUOUS
 62
     1
100
AcDbVertex
100
AcDb2dVertex
 10
362.920127
 20
219.356616
 30
0.0
  0
VERTEX
  5
71A
100
AcDbEntity
  8
LAY-9
  6
CONTINUOUS
 62
     1
100
AcDbVertex
100
AcDb2dVertex
 10
363.209812
 20
218.241037
 30
0.0
  0
VERTEX
  5
71B
100
AcDbEntity
  8
LAY-9
  6
CONTINUOUS
 62
     1
100
AcDbVertex
100
AcDb2dVertex
 10
363.549982
 20
217.127931
 30
0.0
  0
VERTEX
  5
71C
100
AcDbEntity
  8
LAY-9
  6
CONTINUOUS
 62
     1
100
AcDbVertex
100
AcDb2dVertex
 10
363.921564
 20
216.044377
 30
0.0
  0
VERTEX
  5
71D
100
AcDbEntity
  8
LAY-9
  6
CONTINUOUS
 62
     1
100
AcDbVertex
100
AcDb2dVertex
 10
364.305484
 20
215.017449
 30
0.0
  0
VERTEX
  5
71E
100
AcDbEntity
  8
LAY-9
  6
CONTINUOUS
 62
     1
100
AcDbVertex
100
AcDb2dVertex
 10
364.68267
 20
214.074224
 30
0.0
  0
VERTEX
  5
71F
100
AcDbEntity
  8
LAY-9
  6
CONTINUOUS
 62
     1
100
AcDbVertex
100
AcDb2dVertex
 10
365.034046
 20
213.241778
 30
0.0
  0
VERTEX
  5
720
100
AcDbEntity
  8
LAY-9
  6
CONTINUOUS
 62
     1
100
AcDbVertex
100
AcDb2dVertex
 10
365.340541
 20
212.547188
 30
0.0
  0
VERTEX
  5
721
100
AcDbEntity
  8
LAY-9
  6
CONTINUOUS
 62
     1
100
AcDbVertex
100
AcDb2dVertex
 10
365.58308
 20
212.017529
 30
0.0
  0
VERTEX
  5
722
100
AcDbEntity
  8
LAY-9
  6
CONTINUOUS
 62
     1
100
AcDbVertex
100
AcDb2dVertex
 10
365.742591
 20
211.679877
 30
0.0
  0
VERTEX
  5
723
100
AcDbEntity
  8
LAY-9
  6
CONTINUOUS
 62
     1
100
AcDbVertex
100
AcDb2dVertex
 10
365.8
 20
211.56131
 30
0.0
  0
SEQEND
  5
724
100
AcDbEntity
  8
LAY-9
  6
CONTINUOUS
 62
     1
  0
LINE
  5
725
100
AcDbEntity
  8
LAY-9
  6
CONTINUOUS
 62
     1
100
AcDbLine
 10
257.40339
 20
210.161316
 30
0.0
 11
257.40339
 21
223.561316
 31
0.0
  0
LINE
  5
726
100
AcDbEntity
  8
LAY-9
  6
CONTINUOUS
 62
     1
100
AcDbLine
 10
257.40339
 20
223.561316
 30
0.0
 11
259.00339
 21
223.561316
 31
0.0
  0
LINE
  5
727
100
AcDbEntity
  8
LAY-9
  6
CONTINUOUS
 62
     1
100
AcDbLine
 10
259.00339
 20
223.561316
 30
0.0
 11
259.00339
 21
210.161316
 31
0.0
  0
ARC
  5
728
100
AcDbEntity
  8
LAY-9
  6
CONTINUOUS
 62
     1
100
AcDbCircle
 10
259.00339
 20
210.161316
 30
0.0
 40
1.6
100
AcDbArc
 50
180.0
 51
270.0
  0
LINE
  5
729
100
AcDbEntity
  8
LAY-9
  6
CONTINUOUS
 62
     1
100
AcDbLine
 10
259.00339
 20
210.161316
 30
0.0
 11
269.403381
 21
210.161316
 31
0.0
  0
LINE
  5
72A
100
AcDbEntity
  8
LAY-9
  6
CONTINUOUS
 62
     1
100
AcDbLine
 10
343.403427
 20
383.491363
 30
0.0
 11
440.403375
 21
383.491363
 31
0.0
  0
LINE
  5
72B
100
AcDbEntity
  8
LAY-9
  6
CONTINUOUS
 62
     1
100
AcDbLine
 10
287.003375
 20
383.491363
 30
0.0
 11
289.403397
 21
383.491363
 31
0.0
  0
LINE
  5
72C
100
AcDbEntity
  8
LAY-9
  6
CONTINUOUS
 62
     1
100
AcDbLine
 10
282.40339
 20
211.56134
 30
0.0
 11
282.40339
 21
253.561316
 31
0.0
  0
LINE
  5
72D
100
AcDbEntity
  8
LAY-9
  6
CONTINUOUS
 62
     1
100
AcDbLine
 10
267.40339
 20
208.561316
 30
0.0
 11
259.00339
 21
208.561316
 31
0.0
  0
LINE
  5
72E
100
AcDbEntity
  8
LAY-9
  6
CONTINUOUS
 62
     3
100
AcDbLine
 10
508.200427
 20
190.965485
 30
0.0
 11
508.200427
 21
195.965485
 31
0.0
  0
LINE
  5
72F
100
AcDbEntity
  8
LAY-9
  6
CONTINUOUS
 62
     1
100
AcDbLine
 10
550.2
 20
213.965485
 30
0.0
 11
550.2
 21
196.765485
 31
0.0
  0
LINE
  5
730
100
AcDbEntity
  8
LAY-9
  6
CONTINUOUS
 62
     1
100
AcDbLine
 10
468.467901
 20
196.965455
 30
0.0
 11
420.273791
 21
196.965455
 31
0.0
  0
POLYLINE
  5
731
100
AcDbEntity
  8
LAY-9
  6
CONTINUOUS
 62
     1
100
AcDb2dPolyline
 66
     1
 10
0.0
 20
0.0
 30
0.0
 70
   128
  0
VERTEX
  5
732
100
AcDbEntity
  8
LAY-9
  6
CONTINUOUS
 62
     1
100
AcDbVertex
100
AcDb2dVertex
 10
420.273791
 20
196.965455
 30
0.0
  0
VERTEX
  5
733
100
AcDbEntity
  8
LAY-9
  6
CONTINUOUS
 62
     1
100
AcDbVertex
100
AcDb2dVertex
 10
420.2467
 20
196.897278
 30
0.0
  0
VERTEX
  5
734
100
AcDbEntity
  8
LAY-9
  6
CONTINUOUS
 62
     1
100
AcDbVertex
100
AcDb2dVertex
 10
420.171967
 20
196.703602
 30
0.0
  0
VERTEX
  5
735
100
AcDbEntity
  8
LAY-9
  6
CONTINUOUS
 62
     1
100
AcDbVertex
100
AcDb2dVertex
 10
420.0594
 20
196.400711
 30
0.0
  0
VERTEX
  5
736
100
AcDbEntity
  8
LAY-9
  6
CONTINUOUS
 62
     1
100
AcDbVertex
100
AcDb2dVertex
 10
419.918806
 20
196.00489
 30
0.0
  0
VERTEX
  5
737
100
AcDbEntity
  8
LAY-9
  6
CONTINUOUS
 62
     1
100
AcDbVertex
100
AcDb2dVertex
 10
419.759995
 20
195.532421
 30
0.0
  0
VERTEX
  5
738
100
AcDbEntity
  8
LAY-9
  6
CONTINUOUS
 62
     1
100
AcDbVertex
100
AcDb2dVertex
 10
419.592772
 20
194.999589
 30
0.0
  0
VERTEX
  5
739
100
AcDbEntity
  8
LAY-9
  6
CONTINUOUS
 62
     1
100
AcDbVertex
100
AcDb2dVertex
 10
419.426948
 20
194.422677
 30
0.0
  0
VERTEX
  5
73A
100
AcDbEntity
  8
LAY-9
  6
CONTINUOUS
 62
     1
100
AcDbVertex
100
AcDb2dVertex
 10
419.27233
 20
193.817969
 30
0.0
  0
VERTEX
  5
73B
100
AcDbEntity
  8
LAY-9
  6
CONTINUOUS
 62
     1
100
AcDbVertex
100
AcDb2dVertex
 10
419.138725
 20
193.201749
 30
0.0
  0
VERTEX
  5
73C
100
AcDbEntity
  8
LAY-9
  6
CONTINUOUS
 62
     1
100
AcDbVertex
100
AcDb2dVertex
 10
419.035943
 20
192.590301
 30
0.0
  0
VERTEX
  5
73D
100
AcDbEntity
  8
LAY-9
  6
CONTINUOUS
 62
     1
100
AcDbVertex
100
AcDb2dVertex
 10
418.973791
 20
191.999909
 30
0.0
  0
VERTEX
  5
73E
100
AcDbEntity
  8
LAY-9
  6
CONTINUOUS
 62
     1
100
AcDbVertex
100
AcDb2dVertex
 10
418.95872
 20
191.506478
 30
0.0
  0
VERTEX
  5
73F
100
AcDbEntity
  8
LAY-9
  6
CONTINUOUS
 62
     1
100
AcDbVertex
100
AcDb2dVertex
 10
418.978938
 20
191.039584
 30
0.0
  0
VERTEX
  5
740
100
AcDbEntity
  8
LAY-9
  6
CONTINUOUS
 62
     1
100
AcDbVertex
100
AcDb2dVertex
 10
419.030352
 20
190.596608
 30
0.0
  0
VERTEX
  5
741
100
AcDbEntity
  8
LAY-9
  6
CONTINUOUS
 62
     1
100
AcDbVertex
100
AcDb2dVertex
 10
419.108871
 20
190.174935
 30
0.0
  0
VERTEX
  5
742
100
AcDbEntity
  8
LAY-9
  6
CONTINUOUS
 62
     1
100
AcDbVertex
100
AcDb2dVertex
 10
419.210405
 20
189.771949
 30
0.0
  0
VERTEX
  5
743
100
AcDbEntity
  8
LAY-9
  6
CONTINUOUS
 62
     1
100
AcDbVertex
100
AcDb2dVertex
 10
419.330862
 20
189.385032
 30
0.0
  0
VERTEX
  5
744
100
AcDbEntity
  8
LAY-9
  6
CONTINUOUS
 62
     1
100
AcDbVertex
100
AcDb2dVertex
 10
419.46615
 20
189.011568
 30
0.0
  0
VERTEX
  5
745
100
AcDbEntity
  8
LAY-9
  6
CONTINUOUS
 62
     1
100
AcDbVertex
100
AcDb2dVertex
 10
419.612178
 20
188.64894
 30
0.0
  0
VERTEX
  5
746
100
AcDbEntity
  8
LAY-9
  6
CONTINUOUS
 62
     1
100
AcDbVertex
100
AcDb2dVertex
 10
419.764855
 20
188.294532
 30
0.0
  0
VERTEX
  5
747
100
AcDbEntity
  8
LAY-9
  6
CONTINUOUS
 62
     1
100
AcDbVertex
100
AcDb2dVertex
 10
419.92009
 20
187.945727
 30
0.0
  0
VERTEX
  5
748
100
AcDbEntity
  8
LAY-9
  6
CONTINUOUS
 62
     1
100
AcDbVertex
100
AcDb2dVertex
 10
420.073791
 20
187.599909
 30
0.0
  0
VERTEX
  5
749
100
AcDbEntity
  8
LAY-9
  6
CONTINUOUS
 62
     1
100
AcDbVertex
100
AcDb2dVertex
 10
420.275276
 20
187.127771
 30
0.0
  0
VERTEX
  5
74A
100
AcDbEntity
  8
LAY-9
  6
CONTINUOUS
 62
     1
100
AcDbVertex
100
AcDb2dVertex
 10
420.463807
 20
186.652031
 30
0.0
  0
VERTEX
  5
74B
100
AcDbEntity
  8
LAY-9
  6
CONTINUOUS
 62
     1
100
AcDbVertex
100
AcDb2dVertex
 10
420.636937
 20
186.168395
 30
0.0
  0
VERTEX
  5
74C
100
AcDbEntity
  8
LAY-9
  6
CONTINUOUS
 62
     1
100
AcDbVertex
100
AcDb2dVertex
 10
420.792217
 20
185.672572
 30
0.0
  0
VERTEX
  5
74D
100
AcDbEntity
  8
LAY-9
  6
CONTINUOUS
 62
     1
100
AcDbVertex
100
AcDb2dVertex
 10
420.9272
 20
185.160267
 30
0.0
  0
VERTEX
  5
74E
100
AcDbEntity
  8
LAY-9
  6
CONTINUOUS
 62
     1
100
AcDbVertex
100
AcDb2dVertex
 10
421.039439
 20
184.627187
 30
0.0
  0
VERTEX
  5
74F
100
AcDbEntity
  8
LAY-9
  6
CONTINUOUS
 62
     1
100
AcDbVertex
100
AcDb2dVertex
 10
421.126485
 20
184.069039
 30
0.0
  0
VERTEX
  5
750
100
AcDbEntity
  8
LAY-9
  6
CONTINUOUS
 62
     1
100
AcDbVertex
100
AcDb2dVertex
 10
421.185891
 20
183.481531
 30
0.0
  0
VERTEX
  5
751
100
AcDbEntity
  8
LAY-9
  6
CONTINUOUS
 62
     1
100
AcDbVertex
100
AcDb2dVertex
 10
421.215209
 20
182.860369
 30
0.0
  0
VERTEX
  5
752
100
AcDbEntity
  8
LAY-9
  6
CONTINUOUS
 62
     1
100
AcDbVertex
100
AcDb2dVertex
 10
421.211992
 20
182.201259
 30
0.0
  0
VERTEX
  5
753
100
AcDbEntity
  8
LAY-9
  6
CONTINUOUS
 62
     1
100
AcDbVertex
100
AcDb2dVertex
 10
421.173791
 20
181.499909
 30
0.0
  0
VERTEX
  5
754
100
AcDbEntity
  8
LAY-9
  6
CONTINUOUS
 62
     1
100
AcDbVertex
100
AcDb2dVertex
 10
421.113068
 20
180.869434
 30
0.0
  0
VERTEX
  5
755
100
AcDbEntity
  8
LAY-9
  6
CONTINUOUS
 62
     1
100
AcDbVertex
100
AcDb2dVertex
 10
421.03094
 20
180.221547
 30
0.0
  0
VERTEX
  5
756
100
AcDbEntity
  8
LAY-9
  6
CONTINUOUS
 62
     1
100
AcDbVertex
100
AcDb2dVertex
 10
420.933137
 20
179.57257
 30
0.0
  0
VERTEX
  5
757
100
AcDbEntity
  8
LAY-9
  6
CONTINUOUS
 62
     1
100
AcDbVertex
100
AcDb2dVertex
 10
420.825385
 20
178.938822
 30
0.0
  0
VERTEX
  5
758
100
AcDbEntity
  8
LAY-9
  6
CONTINUOUS
 62
     1
100
AcDbVertex
100
AcDb2dVertex
 10
420.713415
 20
178.336623
 30
0.0
  0
VERTEX
  5
759
100
AcDbEntity
  8
LAY-9
  6
CONTINUOUS
 62
     1
100
AcDbVertex
100
AcDb2dVertex
 10
420.602954
 20
177.782295
 30
0.0
  0
VERTEX
  5
75A
100
AcDbEntity
  8
LAY-9
  6
CONTINUOUS
 62
     1
100
AcDbVertex
100
AcDb2dVertex
 10
420.499732
 20
177.292157
 30
0.0
  0
VERTEX
  5
75B
100
AcDbEntity
  8
LAY-9
  6
CONTINUOUS
 62
     1
100
AcDbVertex
100
AcDb2dVertex
 10
420.409475
 20
176.882529
 30
0.0
  0
VERTEX
  5
75C
100
AcDbEntity
  8
LAY-9
  6
CONTINUOUS
 62
     1
100
AcDbVertex
100
AcDb2dVertex
 10
420.337914
 20
176.569731
 30
0.0
  0
VERTEX
  5
75D
100
AcDbEntity
  8
LAY-9
  6
CONTINUOUS
 62
     1
100
AcDbVertex
100
AcDb2dVertex
 10
420.290777
 20
176.370085
 30
0.0
  0
VERTEX
  5
75E
100
AcDbEntity
  8
LAY-9
  6
CONTINUOUS
 62
     1
100
AcDbVertex
100
AcDb2dVertex
 10
420.273791
 20
176.299909
 30
0.0
  0
SEQEND
  5
75F
100
AcDbEntity
  8
LAY-9
  6
CONTINUOUS
 62
     1
  0
LINE
  5
760
100
AcDbEntity
  8
LAY-9
  6
CONTINUOUS
 62
     1
100
AcDbLine
 10
542.2
 20
196.965455
 30
0.0
 11
586.0
 21
196.965455
 31
0.0
  0
POLYLINE
  5
761
100
AcDbEntity
  8
LAY-9
  6
CONTINUOUS
 62
     1
100
AcDb2dPolyline
 66
     1
 10
0.0
 20
0.0
 30
0.0
 70
   128
  0
VERTEX
  5
762
100
AcDbEntity
  8
LAY-9
  6
CONTINUOUS
 62
     1
100
AcDbVertex
100
AcDb2dVertex
 10
586.0
 20
196.965455
 30
0.0
  0
VERTEX
  5
763
100
AcDbEntity
  8
LAY-9
  6
CONTINUOUS
 62
     1
100
AcDbVertex
100
AcDb2dVertex
 10
585.972909
 20
196.897278
 30
0.0
  0
VERTEX
  5
764
100
AcDbEntity
  8
LAY-9
  6
CONTINUOUS
 62
     1
100
AcDbVertex
100
AcDb2dVertex
 10
585.898176
 20
196.703602
 30
0.0
  0
VERTEX
  5
765
100
AcDbEntity
  8
LAY-9
  6
CONTINUOUS
 62
     1
100
AcDbVertex
100
AcDb2dVertex
 10
585.785609
 20
196.400711
 30
0.0
  0
VERTEX
  5
766
100
AcDbEntity
  8
LAY-9
  6
CONTINUOUS
 62
     1
100
AcDbVertex
100
AcDb2dVertex
 10
585.645015
 20
196.00489
 30
0.0
  0
VERTEX
  5
767
100
AcDbEntity
  8
LAY-9
  6
CONTINUOUS
 62
     1
100
AcDbVertex
100
AcDb2dVertex
 10
585.486204
 20
195.532421
 30
0.0
  0
VERTEX
  5
768
100
AcDbEntity
  8
LAY-9
  6
CONTINUOUS
 62
     1
100
AcDbVertex
100
AcDb2dVertex
 10
585.318981
 20
194.999589
 30
0.0
  0
VERTEX
  5
769
100
AcDbEntity
  8
LAY-9
  6
CONTINUOUS
 62
     1
100
AcDbVertex
100
AcDb2dVertex
 10
585.153157
 20
194.422677
 30
0.0
  0
VERTEX
  5
76A
100
AcDbEntity
  8
LAY-9
  6
CONTINUOUS
 62
     1
100
AcDbVertex
100
AcDb2dVertex
 10
584.998539
 20
193.817969
 30
0.0
  0
VERTEX
  5
76B
100
AcDbEntity
  8
LAY-9
  6
CONTINUOUS
 62
     1
100
AcDbVertex
100
AcDb2dVertex
 10
584.864934
 20
193.201749
 30
0.0
  0
VERTEX
  5
76C
100
AcDbEntity
  8
LAY-9
  6
CONTINUOUS
 62
     1
100
AcDbVertex
100
AcDb2dVertex
 10
584.762152
 20
192.590301
 30
0.0
  0
VERTEX
  5
76D
100
AcDbEntity
  8
LAY-9
  6
CONTINUOUS
 62
     1
100
AcDbVertex
100
AcDb2dVertex
 10
584.7
 20
191.999909
 30
0.0
  0
VERTEX
  5
76E
100
AcDbEntity
  8
LAY-9
  6
CONTINUOUS
 62
     1
100
AcDbVertex
100
AcDb2dVertex
 10
584.684929
 20
191.506478
 30
0.0
  0
VERTEX
  5
76F
100
AcDbEntity
  8
LAY-9
  6
CONTINUOUS
 62
     1
100
AcDbVertex
100
AcDb2dVertex
 10
584.705147
 20
191.039584
 30
0.0
  0
VERTEX
  5
770
100
AcDbEntity
  8
LAY-9
  6
CONTINUOUS
 62
     1
100
AcDbVertex
100
AcDb2dVertex
 10
584.756561
 20
190.596608
 30
0.0
  0
VERTEX
  5
771
100
AcDbEntity
  8
LAY-9
  6
CONTINUOUS
 62
     1
100
AcDbVertex
100
AcDb2dVertex
 10
584.83508
 20
190.174935
 30
0.0
  0
VERTEX
  5
772
100
AcDbEntity
  8
LAY-9
  6
CONTINUOUS
 62
     1
100
AcDbVertex
100
AcDb2dVertex
 10
584.936614
 20
189.771949
 30
0.0
  0
VERTEX
  5
773
100
AcDbEntity
  8
LAY-9
  6
CONTINUOUS
 62
     1
100
AcDbVertex
100
AcDb2dVertex
 10
585.057071
 20
189.385032
 30
0.0
  0
VERTEX
  5
774
100
AcDbEntity
  8
LAY-9
  6
CONTINUOUS
 62
     1
100
AcDbVertex
100
AcDb2dVertex
 10
585.192359
 20
189.011568
 30
0.0
  0
VERTEX
  5
775
100
AcDbEntity
  8
LAY-9
  6
CONTINUOUS
 62
     1
100
AcDbVertex
100
AcDb2dVertex
 10
585.338387
 20
188.64894
 30
0.0
  0
VERTEX
  5
776
100
AcDbEntity
  8
LAY-9
  6
CONTINUOUS
 62
     1
100
AcDbVertex
100
AcDb2dVertex
 10
585.491064
 20
188.294532
 30
0.0
  0
VERTEX
  5
777
100
AcDbEntity
  8
LAY-9
  6
CONTINUOUS
 62
     1
100
AcDbVertex
100
AcDb2dVertex
 10
585.646299
 20
187.945727
 30
0.0
  0
VERTEX
  5
778
100
AcDbEntity
  8
LAY-9
  6
CONTINUOUS
 62
     1
100
AcDbVertex
100
AcDb2dVertex
 10
585.8
 20
187.599909
 30
0.0
  0
VERTEX
  5
779
100
AcDbEntity
  8
LAY-9
  6
CONTINUOUS
 62
     1
100
AcDbVertex
100
AcDb2dVertex
 10
586.001485
 20
187.127771
 30
0.0
  0
VERTEX
  5
77A
100
AcDbEntity
  8
LAY-9
  6
CONTINUOUS
 62
     1
100
AcDbVertex
100
AcDb2dVertex
 10
586.190016
 20
186.652031
 30
0.0
  0
VERTEX
  5
77B
100
AcDbEntity
  8
LAY-9
  6
CONTINUOUS
 62
     1
100
AcDbVertex
100
AcDb2dVertex
 10
586.363146
 20
186.168395
 30
0.0
  0
VERTEX
  5
77C
100
AcDbEntity
  8
LAY-9
  6
CONTINUOUS
 62
     1
100
AcDbVertex
100
AcDb2dVertex
 10
586.518426
 20
185.672572
 30
0.0
  0
VERTEX
  5
77D
100
AcDbEntity
  8
LAY-9
  6
CONTINUOUS
 62
     1
100
AcDbVertex
100
AcDb2dVertex
 10
586.653409
 20
185.160267
 30
0.0
  0
VERTEX
  5
77E
100
AcDbEntity
  8
LAY-9
  6
CONTINUOUS
 62
     1
100
AcDbVertex
100
AcDb2dVertex
 10
586.765648
 20
184.627187
 30
0.0
  0
VERTEX
  5
77F
100
AcDbEntity
  8
LAY-9
  6
CONTINUOUS
 62
     1
100
AcDbVertex
100
AcDb2dVertex
 10
586.852694
 20
184.069039
 30
0.0
  0
VERTEX
  5
780
100
AcDbEntity
  8
LAY-9
  6
CONTINUOUS
 62
     1
100
AcDbVertex
100
AcDb2dVertex
 10
586.9121
 20
183.481531
 30
0.0
  0
VERTEX
  5
781
100
AcDbEntity
  8
LAY-9
  6
CONTINUOUS
 62
     1
100
AcDbVertex
100
AcDb2dVertex
 10
586.941418
 20
182.860369
 30
0.0
  0
VERTEX
  5
782
100
AcDbEntity
  8
LAY-9
  6
CONTINUOUS
 62
     1
100
AcDbVertex
100
AcDb2dVertex
 10
586.938201
 20
182.201259
 30
0.0
  0
VERTEX
  5
783
100
AcDbEntity
  8
LAY-9
  6
CONTINUOUS
 62
     1
100
AcDbVertex
100
AcDb2dVertex
 10
586.9
 20
181.499909
 30
0.0
  0
VERTEX
  5
784
100
AcDbEntity
  8
LAY-9
  6
CONTINUOUS
 62
     1
100
AcDbVertex
100
AcDb2dVertex
 10
586.839277
 20
180.869434
 30
0.0
  0
VERTEX
  5
785
100
AcDbEntity
  8
LAY-9
  6
CONTINUOUS
 62
     1
100
AcDbVertex
100
AcDb2dVertex
 10
586.757149
 20
180.221547
 30
0.0
  0
VERTEX
  5
786
100
AcDbEntity
  8
LAY-9
  6
CONTINUOUS
 62
     1
100
AcDbVertex
100
AcDb2dVertex
 10
586.659346
 20
179.57257
 30
0.0
  0
VERTEX
  5
787
100
AcDbEntity
  8
LAY-9
  6
CONTINUOUS
 62
     1
100
AcDbVertex
100
AcDb2dVertex
 10
586.551594
 20
178.938822
 30
0.0
  0
VERTEX
  5
788
100
AcDbEntity
  8
LAY-9
  6
CONTINUOUS
 62
     1
100
AcDbVertex
100
AcDb2dVertex
 10
586.439624
 20
178.336623
 30
0.0
  0
VERTEX
  5
789
100
AcDbEntity
  8
LAY-9
  6
CONTINUOUS
 62
     1
100
AcDbVertex
100
AcDb2dVertex
 10
586.329163
 20
177.782295
 30
0.0
  0
VERTEX
  5
78A
100
AcDbEntity
  8
LAY-9
  6
CONTINUOUS
 62
     1
100
AcDbVertex
100
AcDb2dVertex
 10
586.225941
 20
177.292157
 30
0.0
  0
VERTEX
  5
78B
100
AcDbEntity
  8
LAY-9
  6
CONTINUOUS
 62
     1
100
AcDbVertex
100
AcDb2dVertex
 10
586.135684
 20
176.882529
 30
0.0
  0
VERTEX
  5
78C
100
AcDbEntity
  8
LAY-9
  6
CONTINUOUS
 62
     1
100
AcDbVertex
100
AcDb2dVertex
 10
586.064123
 20
176.569731
 30
0.0
  0
VERTEX
  5
78D
100
AcDbEntity
  8
LAY-9
  6
CONTINUOUS
 62
     1
100
AcDbVertex
100
AcDb2dVertex
 10
586.016986
 20
176.370085
 30
0.0
  0
VERTEX
  5
78E
100
AcDbEntity
  8
LAY-9
  6
CONTINUOUS
 62
     1
100
AcDbVertex
100
AcDb2dVertex
 10
586.0
 20
176.299909
 30
0.0
  0
SEQEND
  5
78F
100
AcDbEntity
  8
LAY-9
  6
CONTINUOUS
 62
     1
  0
LINE
  5
790
100
AcDbEntity
  8
LAY-9
  6
DIVIDE
 62
     1
100
AcDbLine
 10
502.6
 20
282.865485
 30
0.0
 11
553.4
 21
282.865485
 31
0.0
  0
LINE
  5
791
100
AcDbEntity
  8
LAY-9
  6
CONTINUOUS
 62
     1
100
AcDbLine
 10
505.2
 20
282.865485
 30
0.0
 11
505.2
 21
197.965485
 31
0.0
  0
LINE
  5
792
100
AcDbEntity
  8
LAY-9
  6
CONTINUOUS
 62
     1
100
AcDbLine
 10
550.2
 20
282.865485
 30
0.0
 11
550.2
 21
212.365485
 31
0.0
  0
LINE
  5
793
100
AcDbEntity
  8
LAY-10
  6
CONTINUOUS
 62
     5
100
AcDbLine
 10
15.0
 20
15.0
 30
0.0
 11
826.0
 21
15.0
 31
0.0
  0
LINE
  5
794
100
AcDbEntity
  8
LAY-10
  6
CONTINUOUS
 62
     5
100
AcDbLine
 10
826.0
 20
15.0
 30
0.0
 11
826.0
 21
579.0
 31
0.0
  0
LINE
  5
795
100
AcDbEntity
  8
LAY-10
  6
CONTINUOUS
 62
     5
100
AcDbLine
 10
15.0
 20
15.0
 30
0.0
 11
15.0
 21
579.0
 31
0.0
  0
LINE
  5
796
100
AcDbEntity
  8
LAY-10
  6
CONTINUOUS
 62
     5
100
AcDbLine
 10
15.0
 20
579.0
 30
0.0
 11
826.0
 21
579.0
 31
0.0
  0
LINE
  5
797
100
AcDbEntity
  8
LAY-10
  6
CONTINUOUS
 62
     5
100
AcDbLine
 10
15.0
 20
40.0
 30
0.0
 11
826.0
 21
40.0
 31
0.0
  0
LINE
  5
798
100
AcDbEntity
  8
LAY-10
  6
CONTINUOUS
 62
     1
100
AcDbLine
 10
224.0
 20
40.0
 30
0.0
 11
224.0
 21
15.0
 31
0.0
  0
LINE
  5
799
100
AcDbEntity
  8
LAY-10
  6
CONTINUOUS
 62
     1
100
AcDbLine
 10
249.5
 20
40.0
 30
0.0
 11
249.5
 21
15.0
 31
0.0
  0
LINE
  5
79A
100
AcDbEntity
  8
LAY-10
  6
CONTINUOUS
 62
     1
100
AcDbLine
 10
275.0
 20
40.0
 30
0.0
 11
275.0
 21
15.0
 31
0.0
  0
LINE
  5
79B
100
AcDbEntity
  8
LAY-10
  6
CONTINUOUS
 62
     1
100
AcDbLine
 10
300.5
 20
40.0
 30
0.0
 11
300.5
 21
15.0
 31
0.0
  0
LINE
  5
79C
100
AcDbEntity
  8
LAY-10
  6
CONTINUOUS
 62
     1
100
AcDbLine
 10
326.0
 20
40.0
 30
0.0
 11
326.0
 21
15.0
 31
0.0
  0
LINE
  5
79D
100
AcDbEntity
  8
LAY-10
  6
CONTINUOUS
 62
     1
100
AcDbLine
 10
377.0
 20
40.0
 30
0.0
 11
377.0
 21
15.0
 31
0.0
  0
LINE
  5
79E
100
AcDbEntity
  8
LAY-10
  6
CONTINUOUS
 62
     1
100
AcDbLine
 10
738.0
 20
40.0
 30
0.0
 11
738.0
 21
15.0
 31
0.0
  0
LINE
  5
79F
100
AcDbEntity
  8
LAY-10
  6
CONTINUOUS
 62
     1
100
AcDbLine
 10
224.0
 20
32.0
 30
0.0
 11
377.0
 21
32.0
 31
0.0
  0
TEXT
  5
7A0
100
AcDbEntity
  8
LAY-10
  6
CONTINUOUS
 62
     4
100
AcDbText
 10
227.5
 20
33.0
 30
0.0
 40
6.0
  1
検　  図
 41
0.57856
  7
EXCADSTD
 72
     5
 11
246.700001
 21
33.0
 31
0.0
100
AcDbText
  0
TEXT
  5
7A1
100
AcDbEntity
  8
LAY-10
  6
CONTINUOUS
 62
     4
100
AcDbText
 10
253.2
 20
33.0
 30
0.0
 40
6.0
  1
担　　当
 41
0.672
  7
EXCADSTD
 72
     5
 11
272.400001
 21
33.0
 31
0.0
100
AcDbText
  0
TEXT
  5
7A2
100
AcDbEntity
  8
LAY-10
  6
CONTINUOUS
 62
     4
100
AcDbText
 10
278.4
 20
33.0
 30
0.0
 40
6.0
  1
製　　図
 41
0.672
  7
EXCADSTD
 72
     5
 11
297.600001
 21
33.0
 31
0.0
100
AcDbText
  0
TEXT
  5
7A3
100
AcDbEntity
  8
LAY-10
  6
CONTINUOUS
 62
     4
100
AcDbText
 10
303.9
 20
33.0
 30
0.0
 40
6.0
  1
尺　　度
 41
0.672
  7
EXCADSTD
 72
     5
 11
323.100001
 21
33.0
 31
0.0
100
AcDbText
  0
TEXT
  5
7A4
100
AcDbEntity
  8
LAY-10
  6
CONTINUOUS
 62
     4
100
AcDbText
 10
339.5
 20
33.0
 30
0.0
 40
6.0
  1
作成年月日
 41
0.672
  7
EXCADSTD
 72
     5
 11
363.500001
 21
33.0
 31
0.0
100
AcDbText
  0
TEXT
  5
7A5
100
AcDbEntity
  8
LAY-10
  6
CONTINUOUS
 62
   134
100
AcDbText
 10
42.98
 20
20.91
 30
0.0
 40
13.0
  1
日本ドアーチエック製造株式会社
 41
0.653908
  7
EXCADSTD
 72
     5
 11
194.779994
 21
20.91
 31
0.0
100
AcDbText
  0
LINE
  5
7A6
100
AcDbEntity
  8
LAY-10
  6
CONTINUOUS
 62
     1
100
AcDbLine
 10
841.0
 20
0.0
 30
0.0
 11
841.0
 21
2.0
 31
0.0
  0
LINE
  5
7A7
100
AcDbEntity
  8
LAY-10
  6
CONTINUOUS
 62
     1
100
AcDbLine
 10
841.0
 20
592.0
 30
0.0
 11
841.0
 21
594.0
 31
0.0
  0
LINE
  5
7A8
100
AcDbEntity
  8
LAY-10
  6
CONTINUOUS
 62
     1
100
AcDbLine
 10
841.0
 20
594.0
 30
0.0
 11
839.0
 21
594.0
 31
0.0
  0
LINE
  5
7A9
100
AcDbEntity
  8
LAY-10
  6
CONTINUOUS
 62
     1
100
AcDbLine
 10
2.0
 20
594.0
 30
0.0
 11
0.0
 21
594.0
 31
0.0
  0
LINE
  5
7AA
100
AcDbEntity
  8
LAY-10
  6
CONTINUOUS
 62
     1
100
AcDbLine
 10
0.0
 20
594.0
 30
0.0
 11
0.0
 21
592.0
 31
0.0
  0
LINE
  5
7AB
100
AcDbEntity
  8
LAY-10
  6
CONTINUOUS
 62
     1
100
AcDbLine
 10
0.0
 20
2.0
 30
0.0
 11
0.0
 21
0.0
 31
0.0
  0
LINE
  5
7AC
100
AcDbEntity
  8
LAY-10
  6
CONTINUOUS
 62
     1
100
AcDbLine
 10
0.0
 20
0.0
 30
0.0
 11
2.0
 21
0.0
 31
0.0
  0
LINE
  5
7AD
100
AcDbEntity
  8
LAY-10
  6
CONTINUOUS
 62
     1
100
AcDbLine
 10
839.0
 20
0.0
 30
0.0
 11
841.0
 21
0.0
 31
0.0
  0
TEXT
  5
7AE
100
AcDbEntity
  8
LAY-10
  6
CONTINUOUS
 62
     4
100
AcDbText
 10
383.0
 20
33.0
 30
0.0
 40
6.0
  1
図 面 名
 41
0.57856
  7
EXCADSTD
 72
     5
 11
402.200001
 21
33.0
 31
0.0
100
AcDbText
  0
TEXT
  5
7AF
100
AcDbEntity
  8
LAY-10
  6
CONTINUOUS
 62
     4
100
AcDbText
 10
744.0
 20
33.0
 30
0.0
 40
6.0
  1
図面番号
 41
0.672
  7
EXCADSTD
 72
     5
 11
763.200001
 21
33.0
 31
0.0
100
AcDbText
  0
TEXT
  5
7B0
100
AcDbEntity
  8
LAY-10
  6
CONTINUOUS
 62
     2
100
AcDbText
 10
306.5
 20
20.2
 30
0.0
 40
6.0
  1
１／１
 41
0.672
  7
EXCADSTD
 72
     5
 11
320.900001
 21
20.2
 31
0.0
100
AcDbText
  0
TEXT
  5
7B1
100
AcDbEntity
  8
LAY-10
  6
CONTINUOUS
 62
     2
100
AcDbText
 10
332.6
 20
20.2
 30
0.0
 40
6.0
  1
Ｈ１３.　７.　２
 41
0.622617
  7
EXCADSTD
 72
     5
 11
371.000002
 21
20.2
 31
0.0
100
AcDbText
  0
TEXT
  5
7B2
100
AcDbEntity
  8
LAY-10
  6
CONTINUOUS
 62
     2
100
AcDbText
 10
406.828367
 20
19.274519
 30
0.0
 40
10.0
  1
ピボットヒンジ　１１Ｃ(竪枠取付型 )　納まり図
 41
0.653429
  7
EXCADSTD
 72
     5
 11
582.828367
 21
19.274519
 31
0.0
100
AcDbText
  0
ENDSEC
  0
SECTION
  2
OBJECTS
  0
DICTIONARY
  5
19
100
AcDbDictionary
  3
ACAD_GROUP
350
1A
  3
ACAD_MLINESTYLE
350
1B
  0
DICTIONARY
  5
1A
102
{ACAD_REACTORS
330
19
102
}
100
AcDbDictionary
  0
DICTIONARY
  5
1B
102
{ACAD_REACTORS
330
19
102
}
100
AcDbDictionary
  3
STANDARD
350
1C
  0
MLINESTYLE
  5
1C
102
{ACAD_REACTORS
330
1B
102
}
100
AcDbMlineStyle
  2
Standard
 70
     0
  3

 62
     0
 51
90.0
 52
90.0
 71
     2
 49
0.5
 62
   256
  6
ByLayer
 49
-0.5
 62
   256
  6
ByLayer
  0
ENDSEC
  0
EOF
