  0
SECTION
  2
HEADER
  9
$ACADVER
  1
AC1014
  9
$ACADMAINTVER
 70
     0
  9
$DWGCODEPAGE
  3
ANSI_932
  9
$INSBASE
 10
0.0
 20
0.0
 30
0.0
  9
$EXTMIN
 10
0.0
 20
0.0
 30
0.0
  9
$EXTMAX
 10
841.0
 20
594.0
 30
0.0
  9
$LIMMIN
 10
0.0
 20
0.0
  9
$LIMMAX
 10
841.0
 20
594.0
  9
$ORTHOMODE
 70
     0
  9
$REGENMODE
 70
     1
  9
$FILLMODE
 70
     1
  9
$QTEXTMODE
 70
     0
  9
$MIRRTEXT
 70
     1
  9
$DRAGMODE
 70
     2
  9
$LTSCALE
 40
1.0
  9
$OSMODE
 70
     0
  9
$ATTMODE
 70
     1
  9
$TEXTSIZE
 40
0.2
  9
$TRACEWID
 40
0.05
  9
$TEXTSTYLE
  7
STANDARD
  9
$CLAYER
  8
LAY-1
  9
$CELTYPE
  6
CONTINUOUS
  9
$CECOLOR
 62
   256
  9
$CELTSCALE
 40
1.0
  9
$DELOBJ
 70
     1
  9
$DISPSILH
 70
     0
  9
$DIMSCALE
 40
1.0
  9
$DIMASZ
 40
0.18
  9
$DIMEXO
 40
0.0625
  9
$DIMDLI
 40
0.38
  9
$DIMRND
 40
0.0
  9
$DIMDLE
 40
0.0
  9
$DIMEXE
 40
0.18
  9
$DIMTP
 40
0.0
  9
$DIMTM
 40
0.0
  9
$DIMTXT
 40
0.18
  9
$DIMCEN
 40
0.09
  9
$DIMTSZ
 40
0.0
  9
$DIMTOL
 70
     0
  9
$DIMLIM
 70
     0
  9
$DIMTIH
 70
     1
  9
$DIMTOH
 70
     1
  9
$DIMSE1
 70
     0
  9
$DIMSE2
 70
     0
  9
$DIMTAD
 70
     0
  9
$DIMZIN
 70
     0
  9
$DIMBLK
  1

  9
$DIMASO
 70
     1
  9
$DIMSHO
 70
     1
  9
$DIMPOST
  1

  9
$DIMAPOST
  1

  9
$DIMALT
 70
     0
  9
$DIMALTD
 70
     2
  9
$DIMALTF
 40
25.4
  9
$DIMLFAC
 40
1.0
  9
$DIMTOFL
 70
     0
  9
$DIMTVP
 40
0.0
  9
$DIMTIX
 70
     0
  9
$DIMSOXD
 70
     0
  9
$DIMSAH
 70
     0
  9
$DIMBLK1
  1

  9
$DIMBLK2
  1

  9
$DIMSTYLE
  2
STANDARD
  9
$DIMCLRD
 70
     0
  9
$DIMCLRE
 70
     0
  9
$DIMCLRT
 70
     0
  9
$DIMTFAC
 40
1.0
  9
$DIMGAP
 40
0.09
  9
$DIMJUST
 70
     0
  9
$DIMSD1
 70
     0
  9
$DIMSD2
 70
     0
  9
$DIMTOLJ
 70
     1
  9
$DIMTZIN
 70
     0
  9
$DIMALTZ
 70
     0
  9
$DIMALTTZ
 70
     0
  9
$DIMFIT
 70
     3
  9
$DIMUPT
 70
     0
  9
$DIMUNIT
 70
     2
  9
$DIMDEC
 70
     4
  9
$DIMTDEC
 70
     4
  9
$DIMALTU
 70
     2
  9
$DIMALTTD
 70
     2
  9
$DIMTXSTY
  7
STANDARD
  9
$DIMAUNIT
 70
     0
  9
$LUNITS
 70
     2
  9
$LUPREC
 70
     4
  9
$SKETCHINC
 40
0.1
  9
$FILLETRAD
 40
0.0
  9
$AUNITS
 70
     0
  9
$AUPREC
 70
     0
  9
$MENU
  1
acad
  9
$ELEVATION
 40
0.0
  9
$PELEVATION
 40
0.0
  9
$THICKNESS
 40
0.0
  9
$LIMCHECK
 70
     0
  9
$BLIPMODE
 70
     1
  9
$CHAMFERA
 40
0.0
  9
$CHAMFERB
 40
0.0
  9
$CHAMFERC
 40
0.0
  9
$CHAMFERD
 40
0.0
  9
$SKPOLY
 70
     0
  9
$TDCREATE
 40
2455606.803856945
  9
$TDUPDATE
 40
2455606.803856945
  9
$TDINDWG
 40
0.0000000000
  9
$TDUSRTIMER
 40
0.0000000000
  9
$USRTIMER
 70
     1
  9
$ANGBASE
 50
0.0
  9
$ANGDIR
 70
     0
  9
$PDMODE
 70
     0
  9
$PDSIZE
 40
0.0
  9
$PLINEWID
 40
0.0
  9
$COORDS
 70
     1
  9
$SPLFRAME
 70
     0
  9
$SPLINETYPE
 70
     6
  9
$SPLINESEGS
 70
     8
  9
$ATTDIA
 70
     0
  9
$ATTREQ
 70
     1
  9
$HANDLING
 70
     1
  9
$HANDSEED
  5
6BB
  9
$SURFTAB1
 70
     6
  9
$SURFTAB2
 70
     6
  9
$SURFTYPE
 70
     6
  9
$SURFU
 70
     6
  9
$SURFV
 70
     6
  9
$UCSNAME
  2

  9
$UCSORG
 10
0.0
 20
0.0
 30
0.0
  9
$UCSXDIR
 10
1.0
 20
0.0
 30
0.0
  9
$UCSYDIR
 10
0.0
 20
1.0
 30
0.0
  9
$PUCSNAME
  2

  9
$PUCSORG
 10
0.0
 20
0.0
 30
0.0
  9
$PUCSXDIR
 10
1.0
 20
0.0
 30
0.0
  9
$PUCSYDIR
 10
0.0
 20
1.0
 30
0.0
  9
$USERI1
 70
     0
  9
$USERI2
 70
     0
  9
$USERI3
 70
     0
  9
$USERI4
 70
     0
  9
$USERI5
 70
     0
  9
$USERR1
 40
0.0
  9
$USERR2
 40
0.0
  9
$USERR3
 40
0.0
  9
$USERR4
 40
0.0
  9
$USERR5
 40
0.0
  9
$WORLDVIEW
 70
     1
  9
$SHADEDGE
 70
     3
  9
$SHADEDIF
 70
    70
  9
$TILEMODE
 70
     1
  9
$MAXACTVP
 70
    16
  9
$PINSBASE
 10
0.0
 20
0.0
 30
0.0
  9
$PLIMCHECK
 70
     0
  9
$PEXTMIN
 10
1.000000E+20
 20
1.000000E+20
 30
1.000000E+20
  9
$PEXTMAX
 10
-1.000000E+20
 20
-1.000000E+20
 30
-1.000000E+20
  9
$PLIMMIN
 10
0.0
 20
0.0
  9
$PLIMMAX
 10
12.0
 20
9.0
  9
$UNITMODE
 70
     0
  9
$VISRETAIN
 70
     0
  9
$PLINEGEN
 70
     1
  9
$PSLTSCALE
 70
     0
  9
$TREEDEPTH
 70
  3020
  9
$PICKSTYLE
 70
     1
  9
$CMLSTYLE
  2
Standard
  9
$CMLJUST
 70
     0
  9
$CMLSCALE
 40
1.0
  9
$PROXYGRAPHICS
 70
     0
  9
$MEASUREMENT
 70
     0
  0
ENDSEC
  0
SECTION
  2
CLASSES
  0
CLASS
  1
LWPOLYLINE
  2
AcDbPolyline
  3
"AutoCAD"
 90
        0
280
     0
281
     1
  0
CLASS
  1
IMAGE
  2
AcDbRasterImage
  3
ISM
 90
      127
280
     0
281
     1
  0
CLASS
  1
OLE2FRAME
  2
AcDbOle2Frame
  3
""
 90
        0
280
     0
281
     1
  0
CLASS
  1
HATCH
  2
AcDbHatch
  3
"ACAD_SEDONA"
 90
        0
280
     0
281
     1
  0
CLASS
  1
DICTIONARYVAR
  2
AcDbDictionaryVar
  3
"AutoCAD"
 90
        0
280
     0
281
     0
  0
CLASS
  1
RASTERVARIABLES
  2
AcDbRasterVariables
  3
ISM
 90
        0
280
     0
281
     0
  0
CLASS
  1
IMAGEDEF
  2
AcDbRasterImageDef
  3
ISM
 90
        0
280
     0
281
     0
  0
CLASS
  1
IMAGEDEF_REACTOR
  2
AcDbRasterImageDefReactor
  3
ISM
 90
        1
280
     0
281
     0
  0
CLASS
  1
IDBUFFER
  2
AcDbIdBuffer
  3
"Acad"
 90
        0
280
     0
281
     0
  0
CLASS
  1
SPATIAL_FILTER
  2
AcDbSpatialFilter
  3
"Acad"
 90
        0
280
     0
281
     0
  0
CLASS
  1
XRECORD
  2
AcDbXrecord
  3
"<Built In>"
 90
        0
280
     0
281
     0
  0
CLASS
  1
SORTENTSTABLE
  2
AcDbSortentsTable
  3
"AutoCAD"
 90
        0
280
     0
281
     0
  0
CLASS
  1
LAYER_INDEX
  2
AcDbLayerIndex
  3
"Acad"
 90
        0
280
     0
281
     0
  0
CLASS
  1
SPATIAL_INDEX
  2
AcDbSpatialIndex
  3
"Acad"
 90
        0
280
     0
281
     0
  0
CLASS
  1
OBJECT_PTR
  2
CAseDLPNTableRecord
  3
"ASE-LPNTableRecord"
 90
        1
280
     0
281
     0
  0
CLASS
  1
LAYOUT
  2
AcDbLayout
  3
"AutoCAD 2000"
 90
        0
280
     0
281
     0
  0
CLASS
  1
PLOTSETTINGS
  2
AcDbPlotSettings
  3
"AutoCAD 2000"
 90
        0
280
     0
281
     0
  0
CLASS
  1
ACDBDICTIONARYWDFLT
  2
AcDbDictionaryWithDefault
  3
"AutoCAD 2000"
 90
        0
280
     0
281
     0
  0
CLASS
  1
ACDBPLACEHOLDER
  2
AcDbPlaceHolder
  3
"AutoCAD 2000"
 90
        0
280
     0
281
     0
  0
CLASS
  1
VBA_PROJECT
  2
AcDbVbaProject
  3
"acadvba"
 90
        0
280
     0
281
     0
  0
CLASS
  1
WIPEOUT
  2
AcDbWipeout
  3
WipeOut|AutoCAD Express Tool|expresstools@autodesk.com
 90
      127
280
     0
281
     1
  0
CLASS
  1
WIPEOUTVARIABLES
  2
AcDbWipeoutVariables
  3
WipeOut|AutoCAD Express Tool|expresstools@autodesk.com
 90
        0
280
     0
281
     0
  0
CLASS
  1
RTEXT
  2
RText
  3
RText|AutoCAD Express Tool|expresstools@autodesk.com
 90
        0
280
     0
281
     1
  0
CLASS
  1
ARCALIGNEDTEXT
  2
AcDbArcAlignedText
  3
ATEXT|AutoCAD Express Tool|expresstools@autodesk.com
 90
        0
280
     0
281
     1
  0
ENDSEC
  0
SECTION
  2
TABLES
  0
TABLE
  2
VPORT
  5
7
100
AcDbSymbolTable
 70
     1
  0
VPORT
  5
15
100
AcDbSymbolTableRecord
100
AcDbViewportTableRecord
  2
*ACTIVE
 70
     0
 10
0.0
 20
0.0
 11
1.0
 21
1.0
 12
420.5
 22
297.0
 13
0.0
 23
0.0
 14
1.0
 24
1.0
 15
0.0
 25
0.0
 16
0.0
 26
0.0
 36
1.0
 17
0.0
 27
0.0
 37
0.0
 40
594.0
 41
1.722533
 42
50.0
 43
0.0
 44
0.0
 50
0.0
 51
0.0
 71
     0
 72
   100
 73
     1
 74
     1
 75
     0
 76
     0
 77
     0
 78
     0
  0
ENDTAB
  0
TABLE
  2
LTYPE
  5
4
100
AcDbSymbolTable
 70
     9
  0
LTYPE
  5
11
100
AcDbSymbolTableRecord
100
AcDbLinetypeTableRecord
  2
BYBLOCK
 70
    64
  3

 72
    65
 73
     0
 40
0.0
  0
LTYPE
  5
12
100
AcDbSymbolTableRecord
100
AcDbLinetypeTableRecord
  2
BYLAYER
 70
    64
  3

 72
    65
 73
     0
 40
0.0
  0
LTYPE
  5
13
100
AcDbSymbolTableRecord
100
AcDbLinetypeTableRecord
  2
CONTINUOUS
 70
    64
  3
実線
 72
    65
 73
     0
 40
0.0
  0
LTYPE
  5
1D
100
AcDbSymbolTableRecord
100
AcDbLinetypeTableRecord
  2
DASHED
 70
    64
  3
Dashed __ __ __ __ __ __ __ __ __ __ __ __ __ _
 72
    65
 73
     2
 40
19.05
 49
12.7
 74
     0
 49
-6.35
 74
     0
  0
LTYPE
  5
1E
100
AcDbSymbolTableRecord
100
AcDbLinetypeTableRecord
  2
DASHED2
 70
    64
  3
Dashed (.5x) _ _ _ _ _ _ _ _ _ _ _ _ _ _ _ _ _ 
 72
    65
 73
     2
 40
9.525
 49
6.35
 74
     0
 49
-3.175
 74
     0
  0
LTYPE
  5
1F
100
AcDbSymbolTableRecord
100
AcDbLinetypeTableRecord
  2
DASHDOT
 70
    64
  3
Dash dot __ . __ . __ . __ . __ . __ . __ . __
 72
    65
 73
     4
 40
25.4
 49
12.7
 74
     0
 49
-6.35
 74
     0
 49
0.0
 74
     0
 49
-6.35
 74
     0
  0
LTYPE
  5
20
100
AcDbSymbolTableRecord
100
AcDbLinetypeTableRecord
  2
DIVIDE
 70
    64
  3
Divide ____ . . ____ . . ____ . . ____ . . ____
 72
    65
 73
     6
 40
31.75
 49
12.7
 74
     0
 49
-6.35
 74
     0
 49
0.0
 74
     0
 49
-6.35
 74
     0
 49
0.0
 74
     0
 49
-6.35
 74
     0
  0
LTYPE
  5
21
100
AcDbSymbolTableRecord
100
AcDbLinetypeTableRecord
  2
ACAD_ISO06W100
 70
    64
  3
ISO long-dash triple-dot ____ ... ____ ... ____
 72
    65
 73
     8
 40
36.0
 49
24.0
 74
     0
 49
-3.0
 74
     0
 49
0.0
 74
     0
 49
-3.0
 74
     0
 49
0.0
 74
     0
 49
-3.0
 74
     0
 49
0.0
 74
     0
 49
-3.0
 74
     0
  0
LTYPE
  5
22
100
AcDbSymbolTableRecord
100
AcDbLinetypeTableRecord
  2
ACAD_ISO15W100
 70
    64
  3
ISO double-dash triple-dot __ __ . . . __ __ . .
 72
    65
 73
    10
 40
39.0
 49
12.0
 74
     0
 49
-3.0
 74
     0
 49
12.0
 74
     0
 49
-3.0
 74
     0
 49
0.0
 74
     0
 49
-3.0
 74
     0
 49
0.0
 74
     0
 49
-3.0
 74
     0
 49
0.0
 74
     0
 49
-3.0
 74
     0
  0
ENDTAB
  0
TABLE
  2
LAYER
  5
2
100
AcDbSymbolTable
 70
     9
  0
LAYER
  5
14
100
AcDbSymbolTableRecord
100
AcDbLayerTableRecord
  2
0
 70
     0
 62
     7
  6
CONTINUOUS
  0
LAYER
  5
25
100
AcDbSymbolTableRecord
100
AcDbLayerTableRecord
  2
LAY-1
 70
    64
 62
     3
  6
CONTINUOUS
  0
LAYER
  5
26
100
AcDbSymbolTableRecord
100
AcDbLayerTableRecord
  2
LAY-2
 70
    64
 62
     3
  6
CONTINUOUS
  0
LAYER
  5
27
100
AcDbSymbolTableRecord
100
AcDbLayerTableRecord
  2
LAY-3
 70
    64
 62
     3
  6
CONTINUOUS
  0
LAYER
  5
28
100
AcDbSymbolTableRecord
100
AcDbLayerTableRecord
  2
LAY-4
 70
    64
 62
     3
  6
CONTINUOUS
  0
LAYER
  5
29
100
AcDbSymbolTableRecord
100
AcDbLayerTableRecord
  2
LAY-5
 70
    64
 62
     1
  6
DASHDOT
  0
LAYER
  5
2A
100
AcDbSymbolTableRecord
100
AcDbLayerTableRecord
  2
LAY-6
 70
    64
 62
     2
  6
CONTINUOUS
  0
LAYER
  5
2B
100
AcDbSymbolTableRecord
100
AcDbLayerTableRecord
  2
LAY-9
 70
    64
 62
     1
  6
CONTINUOUS
  0
LAYER
  5
2C
100
AcDbSymbolTableRecord
100
AcDbLayerTableRecord
  2
LAY-10
 70
    64
 62
     5
  6
CONTINUOUS
  0
ENDTAB
  0
TABLE
  2
STYLE
  5
3
100
AcDbSymbolTable
 70
     3
  0
STYLE
  5
17
100
AcDbSymbolTableRecord
100
AcDbTextStyleTableRecord
  2
STANDARD
 70
     0
 40
0.0
 41
1.0
 50
0.0
 71
     0
 42
0.0
  3
monotxt
  4
extfont
  0
STYLE
  5
23
100
AcDbSymbolTableRecord
100
AcDbTextStyleTableRecord
  2
EXCADSTD
 70
    64
 40
0.0
 41
1.0
 50
0.0
 71
     0
 42
0.2
  3
monotxt
  4
extfont
  0
STYLE
  5
24
100
AcDbSymbolTableRecord
100
AcDbTextStyleTableRecord
  2
EXCADVERT
 70
    68
 40
0.0
 41
1.0
 50
0.0
 71
     0
 42
0.286885
  3
monotxt
  4
extfont
  0
ENDTAB
  0
TABLE
  2
VIEW
  5
5
100
AcDbSymbolTable
 70
     0
  0
ENDTAB
  0
TABLE
  2
UCS
  5
6
100
AcDbSymbolTable
 70
     0
  0
ENDTAB
  0
TABLE
  2
APPID
  5
8
100
AcDbSymbolTable
 70
     1
  0
APPID
  5
16
100
AcDbSymbolTableRecord
100
AcDbRegAppTableRecord
  2
ACAD
 70
     0
  0
ENDTAB
  0
TABLE
  2
DIMSTYLE
  5
9
100
AcDbSymbolTable
 70
     1
  0
DIMSTYLE
105
18
100
AcDbSymbolTableRecord
100
AcDbDimStyleTableRecord
  2
STANDARD
 70
     0
  3

  4

  5

  6

  7

 40
1.0
 41
0.18
 42
0.0625
 43
0.38
 44
0.18
 45
0.0
 46
0.0
 47
0.0
 48
0.0
 71
     0
 72
     0
 73
     1
 74
     1
 75
     0
 76
     0
 77
     0
 78
     0
140
0.18
141
0.09
142
0.0
143
25.4
144
1.0
145
0.0
146
1.0
147
0.09
170
     0
171
     2
172
     1
173
     0
174
     0
175
     0
176
     0
177
     0
178
     0
270
     2
271
     4
272
     4
273
     2
274
     2
275
     0
280
     0
281
     0
282
     0
283
     1
284
     0
285
     0
286
     0
287
     3
288
     0
340
17
  0
ENDTAB
  0
TABLE
  2
BLOCK_RECORD
  5
1
100
AcDbSymbolTable
 70
    18
  0
BLOCK_RECORD
  5
A
100
AcDbSymbolTableRecord
100
AcDbBlockTableRecord
  2
*MODEL_SPACE
  0
BLOCK_RECORD
  5
B
100
AcDbSymbolTableRecord
100
AcDbBlockTableRecord
  2
*PAPER_SPACE
  0
BLOCK_RECORD
  5
2D
100
AcDbSymbolTableRecord
100
AcDbBlockTableRecord
  2
_EX_NORM
  0
BLOCK_RECORD
  5
2E
100
AcDbSymbolTableRecord
100
AcDbBlockTableRecord
  2
_EX_BNORM
  0
BLOCK_RECORD
  5
2F
100
AcDbSymbolTableRecord
100
AcDbBlockTableRecord
  2
_EX_BCIR
  0
BLOCK_RECORD
  5
30
100
AcDbSymbolTableRecord
100
AcDbBlockTableRecord
  2
_EX_RCIVIL
  0
BLOCK_RECORD
  5
31
100
AcDbSymbolTableRecord
100
AcDbBlockTableRecord
  2
_EX_SLANT
  0
BLOCK_RECORD
  5
32
100
AcDbSymbolTableRecord
100
AcDbBlockTableRecord
  2
_EX_NONE
  0
BLOCK_RECORD
  5
33
100
AcDbSymbolTableRecord
100
AcDbBlockTableRecord
  2
_EX_CIVIL
  0
BLOCK_RECORD
  5
34
100
AcDbSymbolTableRecord
100
AcDbBlockTableRecord
  2
_EX_WCIR
  0
BLOCK_RECORD
  5
35
100
AcDbSymbolTableRecord
100
AcDbBlockTableRecord
  2
_EX_WCIR2
  0
BLOCK_RECORD
  5
36
100
AcDbSymbolTableRecord
100
AcDbBlockTableRecord
  2
_EX_WNORM
  0
BLOCK_RECORD
  5
37
100
AcDbSymbolTableRecord
100
AcDbBlockTableRecord
  2
_EX_NNORM
  0
BLOCK_RECORD
  5
38
100
AcDbSymbolTableRecord
100
AcDbBlockTableRecord
  2
_EX_BBOX
  0
BLOCK_RECORD
  5
39
100
AcDbSymbolTableRecord
100
AcDbBlockTableRecord
  2
_EX_WBOX
  0
BLOCK_RECORD
  5
3A
100
AcDbSymbolTableRecord
100
AcDbBlockTableRecord
  2
_EX_INTEGRAL
  0
BLOCK_RECORD
  5
3B
100
AcDbSymbolTableRecord
100
AcDbBlockTableRecord
  2
SYM-1
  0
BLOCK_RECORD
  5
3C
100
AcDbSymbolTableRecord
100
AcDbBlockTableRecord
  2
SYM-2
  0
BLOCK_RECORD
  5
3D
100
AcDbSymbolTableRecord
100
AcDbBlockTableRecord
  2
SYM-3
  0
BLOCK_RECORD
  5
3E
100
AcDbSymbolTableRecord
100
AcDbBlockTableRecord
  2
SYM-4
  0
ENDTAB
  0
ENDSEC
  0
SECTION
  2
BLOCKS
  0
BLOCK
  5
D
100
AcDbEntity
  8
0
100
AcDbBlockBegin
  2
*MODEL_SPACE
 70
     0
 10
0.0
 20
0.0
 30
0.0
  3
*MODEL_SPACE
  1

  0
ENDBLK
  5
E
100
AcDbEntity
  8
0
100
AcDbBlockEnd
  0
BLOCK
  5
F
100
AcDbEntity
 67
     1
  8
0
100
AcDbBlockBegin
  2
*PAPER_SPACE
 70
     0
 10
0.0
 20
0.0
 30
0.0
  3
*PAPER_SPACE
  1

  0
ENDBLK
  5
10
100
AcDbEntity
 67
     1
  8
0
100
AcDbBlockEnd
  0
BLOCK
  5
3F
100
AcDbEntity
  8
0
100
AcDbBlockBegin
  2
_EX_NORM
 70
     0
 10
0.0
 20
0.0
 30
0.0
  3
_EX_NORM
  1

  0
LINE
  5
40
100
AcDbEntity
  8
0
  6
CONTINUOUS
 62
     0
100
AcDbLine
 10
0.0
 20
0.0
 30
0.0
 11
-1.0
 21
0.0
 31
0.0
  0
LINE
  5
41
100
AcDbEntity
  8
0
  6
CONTINUOUS
 62
     0
100
AcDbLine
 10
0.0
 20
0.0
 30
0.0
 11
-1.0
 21
0.166667
 31
0.0
  0
LINE
  5
42
100
AcDbEntity
  8
0
  6
CONTINUOUS
 62
     0
100
AcDbLine
 10
0.0
 20
0.0
 30
0.0
 11
-1.0
 21
-0.166667
 31
0.0
  0
ENDBLK
  5
43
100
AcDbEntity
  8
0
100
AcDbBlockEnd
  0
BLOCK
  5
44
100
AcDbEntity
  8
0
100
AcDbBlockBegin
  2
_EX_BNORM
 70
     0
 10
0.0
 20
0.0
 30
0.0
  3
_EX_BNORM
  1

  0
LINE
  5
45
100
AcDbEntity
  8
0
  6
CONTINUOUS
 62
     0
100
AcDbLine
 10
0.0
 20
0.0
 30
0.0
 11
-1.0
 21
0.0
 31
0.0
  0
LINE
  5
46
100
AcDbEntity
  8
0
  6
CONTINUOUS
 62
     0
100
AcDbLine
 10
0.0
 20
0.0
 30
0.0
 11
-1.0
 21
0.166667
 31
0.0
  0
LINE
  5
47
100
AcDbEntity
  8
0
  6
CONTINUOUS
 62
     0
100
AcDbLine
 10
0.0
 20
0.0
 30
0.0
 11
-1.0
 21
-0.166667
 31
0.0
  0
LINE
  5
48
100
AcDbEntity
  8
0
  6
CONTINUOUS
 62
     0
100
AcDbLine
 10
0.0
 20
0.0
 30
0.0
 11
-1.0
 21
0.083333
 31
0.0
  0
LINE
  5
49
100
AcDbEntity
  8
0
  6
CONTINUOUS
 62
     0
100
AcDbLine
 10
0.0
 20
0.0
 30
0.0
 11
-1.0
 21
-0.083333
 31
0.0
  0
LINE
  5
4A
100
AcDbEntity
  8
0
  6
CONTINUOUS
 62
     0
100
AcDbLine
 10
-1.0
 20
0.166667
 30
0.0
 11
-1.0
 21
-0.166667
 31
0.0
  0
ENDBLK
  5
4B
100
AcDbEntity
  8
0
100
AcDbBlockEnd
  0
BLOCK
  5
4C
100
AcDbEntity
  8
0
100
AcDbBlockBegin
  2
_EX_BCIR
 70
     0
 10
0.0
 20
0.0
 30
0.0
  3
_EX_BCIR
  1

  0
LINE
  5
4D
100
AcDbEntity
  8
0
  6
CONTINUOUS
 62
     0
100
AcDbLine
 10
0.0
 20
0.0
 30
0.0
 11
-1.0
 21
0.0
 31
0.0
  0
CIRCLE
  5
4E
100
AcDbEntity
  8
0
  6
CONTINUOUS
 62
     0
100
AcDbCircle
 10
0.0
 20
0.0
 30
0.0
 40
0.5
  0
CIRCLE
  5
4F
100
AcDbEntity
  8
0
  6
CONTINUOUS
 62
     0
100
AcDbCircle
 10
0.0
 20
0.0
 30
0.0
 40
0.25
  0
ENDBLK
  5
50
100
AcDbEntity
  8
0
100
AcDbBlockEnd
  0
BLOCK
  5
51
100
AcDbEntity
  8
0
100
AcDbBlockBegin
  2
_EX_RCIVIL
 70
     0
 10
0.0
 20
0.0
 30
0.0
  3
_EX_RCIVIL
  1

  0
LINE
  5
52
100
AcDbEntity
  8
0
  6
CONTINUOUS
 62
     0
100
AcDbLine
 10
0.0
 20
0.0
 30
0.0
 11
-1.0
 21
0.0
 31
0.0
  0
LINE
  5
53
100
AcDbEntity
  8
0
  6
CONTINUOUS
 62
     0
100
AcDbLine
 10
-1.0
 20
-0.25
 30
0.0
 11
0.0
 21
-0.25
 31
0.0
  0
LINE
  5
54
100
AcDbEntity
  8
0
  6
CONTINUOUS
 62
     0
100
AcDbLine
 10
-1.0
 20
-0.125
 30
0.0
 11
0.0
 21
-0.125
 31
0.0
  0
ENDBLK
  5
55
100
AcDbEntity
  8
0
100
AcDbBlockEnd
  0
BLOCK
  5
56
100
AcDbEntity
  8
0
100
AcDbBlockBegin
  2
_EX_SLANT
 70
     0
 10
0.0
 20
0.0
 30
0.0
  3
_EX_SLANT
  1

  0
LINE
  5
57
100
AcDbEntity
  8
0
  6
CONTINUOUS
 62
     0
100
AcDbLine
 10
0.0
 20
0.0
 30
0.0
 11
-1.0
 21
0.0
 31
0.0
  0
LINE
  5
58
100
AcDbEntity
  8
0
  6
CONTINUOUS
 62
     0
100
AcDbLine
 10
0.707107
 20
0.707107
 30
0.0
 11
-0.707107
 21
-0.707107
 31
0.0
  0
ENDBLK
  5
59
100
AcDbEntity
  8
0
100
AcDbBlockEnd
  0
BLOCK
  5
5A
100
AcDbEntity
  8
0
100
AcDbBlockBegin
  2
_EX_NONE
 70
     0
 10
0.0
 20
0.0
 30
0.0
  3
_EX_NONE
  1

  0
LINE
  5
5B
100
AcDbEntity
  8
0
  6
CONTINUOUS
 62
     0
100
AcDbLine
 10
0.0
 20
0.0
 30
0.0
 11
-1.0
 21
0.0
 31
0.0
  0
ENDBLK
  5
5C
100
AcDbEntity
  8
0
100
AcDbBlockEnd
  0
BLOCK
  5
5D
100
AcDbEntity
  8
0
100
AcDbBlockBegin
  2
_EX_CIVIL
 70
     0
 10
0.0
 20
0.0
 30
0.0
  3
_EX_CIVIL
  1

  0
LINE
  5
5E
100
AcDbEntity
  8
0
  6
CONTINUOUS
 62
     0
100
AcDbLine
 10
0.0
 20
0.0
 30
0.0
 11
-1.0
 21
0.0
 31
0.0
  0
LINE
  5
5F
100
AcDbEntity
  8
0
  6
CONTINUOUS
 62
     0
100
AcDbLine
 10
-1.0
 20
0.25
 30
0.0
 11
0.0
 21
0.25
 31
0.0
  0
LINE
  5
60
100
AcDbEntity
  8
0
  6
CONTINUOUS
 62
     0
100
AcDbLine
 10
-1.0
 20
0.125
 30
0.0
 11
0.0
 21
0.125
 31
0.0
  0
ENDBLK
  5
61
100
AcDbEntity
  8
0
100
AcDbBlockEnd
  0
BLOCK
  5
62
100
AcDbEntity
  8
0
100
AcDbBlockBegin
  2
_EX_WCIR
 70
     0
 10
0.0
 20
0.0
 30
0.0
  3
_EX_WCIR
  1

  0
LINE
  5
63
100
AcDbEntity
  8
0
  6
CONTINUOUS
 62
     0
100
AcDbLine
 10
0.0
 20
0.0
 30
0.0
 11
-1.0
 21
0.0
 31
0.0
  0
CIRCLE
  5
64
100
AcDbEntity
  8
0
  6
CONTINUOUS
 62
     0
100
AcDbCircle
 10
0.0
 20
0.0
 30
0.0
 40
0.5
  0
ENDBLK
  5
65
100
AcDbEntity
  8
0
100
AcDbBlockEnd
  0
BLOCK
  5
66
100
AcDbEntity
  8
0
100
AcDbBlockBegin
  2
_EX_WCIR2
 70
     0
 10
0.0
 20
0.0
 30
0.0
  3
_EX_WCIR2
  1

  0
LINE
  5
67
100
AcDbEntity
  8
0
  6
CONTINUOUS
 62
     0
100
AcDbLine
 10
-0.5
 20
0.0
 30
0.0
 11
-1.0
 21
0.0
 31
0.0
  0
CIRCLE
  5
68
100
AcDbEntity
  8
0
  6
CONTINUOUS
 62
     0
100
AcDbCircle
 10
0.0
 20
0.0
 30
0.0
 40
0.5
  0
ENDBLK
  5
69
100
AcDbEntity
  8
0
100
AcDbBlockEnd
  0
BLOCK
  5
6A
100
AcDbEntity
  8
0
100
AcDbBlockBegin
  2
_EX_WNORM
 70
     0
 10
0.0
 20
0.0
 30
0.0
  3
_EX_WNORM
  1

  0
LINE
  5
6B
100
AcDbEntity
  8
0
  6
CONTINUOUS
 62
     0
100
AcDbLine
 10
-1.0
 20
0.0
 30
0.0
 11
-1.0
 21
0.0
 31
0.0
  0
LINE
  5
6C
100
AcDbEntity
  8
0
  6
CONTINUOUS
 62
     0
100
AcDbLine
 10
0.0
 20
0.0
 30
0.0
 11
-1.0
 21
0.166667
 31
0.0
  0
LINE
  5
6D
100
AcDbEntity
  8
0
  6
CONTINUOUS
 62
     0
100
AcDbLine
 10
0.0
 20
0.0
 30
0.0
 11
-1.0
 21
-0.166667
 31
0.0
  0
LINE
  5
6E
100
AcDbEntity
  8
0
  6
CONTINUOUS
 62
     0
100
AcDbLine
 10
-1.0
 20
0.166667
 30
0.0
 11
-1.0
 21
-0.166667
 31
0.0
  0
ENDBLK
  5
6F
100
AcDbEntity
  8
0
100
AcDbBlockEnd
  0
BLOCK
  5
70
100
AcDbEntity
  8
0
100
AcDbBlockBegin
  2
_EX_NNORM
 70
     0
 10
0.0
 20
0.0
 30
0.0
  3
_EX_NNORM
  1

  0
LINE
  5
71
100
AcDbEntity
  8
0
  6
CONTINUOUS
 62
     0
100
AcDbLine
 10
0.0
 20
0.0
 30
0.0
 11
-1.0
 21
0.0
 31
0.0
  0
LINE
  5
72
100
AcDbEntity
  8
0
  6
CONTINUOUS
 62
     0
100
AcDbLine
 10
0.0
 20
0.0
 30
0.0
 11
-1.0
 21
0.166667
 31
0.0
  0
LINE
  5
73
100
AcDbEntity
  8
0
  6
CONTINUOUS
 62
     0
100
AcDbLine
 10
0.0
 20
0.0
 30
0.0
 11
-1.0
 21
-0.166667
 31
0.0
  0
LINE
  5
74
100
AcDbEntity
  8
0
  6
CONTINUOUS
 62
     0
100
AcDbLine
 10
-1.0
 20
0.166667
 30
0.0
 11
-1.0
 21
-0.166667
 31
0.0
  0
ENDBLK
  5
75
100
AcDbEntity
  8
0
100
AcDbBlockEnd
  0
BLOCK
  5
76
100
AcDbEntity
  8
0
100
AcDbBlockBegin
  2
_EX_BBOX
 70
     0
 10
0.0
 20
0.0
 30
0.0
  3
_EX_BBOX
  1

  0
LINE
  5
77
100
AcDbEntity
  8
0
  6
CONTINUOUS
 62
     0
100
AcDbLine
 10
0.0
 20
0.0
 30
0.0
 11
-1.0
 21
0.0
 31
0.0
  0
LINE
  5
78
100
AcDbEntity
  8
0
  6
CONTINUOUS
 62
     0
100
AcDbLine
 10
-0.5
 20
0.5
 30
0.0
 11
0.5
 21
0.5
 31
0.0
  0
LINE
  5
79
100
AcDbEntity
  8
0
  6
CONTINUOUS
 62
     0
100
AcDbLine
 10
0.5
 20
0.5
 30
0.0
 11
0.5
 21
-0.5
 31
0.0
  0
LINE
  5
7A
100
AcDbEntity
  8
0
  6
CONTINUOUS
 62
     0
100
AcDbLine
 10
0.5
 20
-0.5
 30
0.0
 11
-0.5
 21
-0.5
 31
0.0
  0
LINE
  5
7B
100
AcDbEntity
  8
0
  6
CONTINUOUS
 62
     0
100
AcDbLine
 10
-0.5
 20
-0.5
 30
0.0
 11
-0.5
 21
0.5
 31
0.0
  0
LINE
  5
7C
100
AcDbEntity
  8
0
  6
CONTINUOUS
 62
     0
100
AcDbLine
 10
-0.25
 20
0.25
 30
0.0
 11
0.25
 21
0.25
 31
0.0
  0
LINE
  5
7D
100
AcDbEntity
  8
0
  6
CONTINUOUS
 62
     0
100
AcDbLine
 10
0.25
 20
0.25
 30
0.0
 11
0.25
 21
-0.25
 31
0.0
  0
LINE
  5
7E
100
AcDbEntity
  8
0
  6
CONTINUOUS
 62
     0
100
AcDbLine
 10
0.25
 20
-0.25
 30
0.0
 11
-0.25
 21
-0.25
 31
0.0
  0
LINE
  5
7F
100
AcDbEntity
  8
0
  6
CONTINUOUS
 62
     0
100
AcDbLine
 10
-0.25
 20
-0.25
 30
0.0
 11
-0.25
 21
0.25
 31
0.0
  0
ENDBLK
  5
80
100
AcDbEntity
  8
0
100
AcDbBlockEnd
  0
BLOCK
  5
81
100
AcDbEntity
  8
0
100
AcDbBlockBegin
  2
_EX_WBOX
 70
     0
 10
0.0
 20
0.0
 30
0.0
  3
_EX_WBOX
  1

  0
LINE
  5
82
100
AcDbEntity
  8
0
  6
CONTINUOUS
 62
     0
100
AcDbLine
 10
-0.5
 20
0.0
 30
0.0
 11
-1.0
 21
0.0
 31
0.0
  0
LINE
  5
83
100
AcDbEntity
  8
0
  6
CONTINUOUS
 62
     0
100
AcDbLine
 10
-0.5
 20
0.5
 30
0.0
 11
0.5
 21
0.5
 31
0.0
  0
LINE
  5
84
100
AcDbEntity
  8
0
  6
CONTINUOUS
 62
     0
100
AcDbLine
 10
0.5
 20
0.5
 30
0.0
 11
0.5
 21
-0.5
 31
0.0
  0
LINE
  5
85
100
AcDbEntity
  8
0
  6
CONTINUOUS
 62
     0
100
AcDbLine
 10
0.5
 20
-0.5
 30
0.0
 11
-0.5
 21
-0.5
 31
0.0
  0
LINE
  5
86
100
AcDbEntity
  8
0
  6
CONTINUOUS
 62
     0
100
AcDbLine
 10
-0.5
 20
-0.5
 30
0.0
 11
-0.5
 21
0.5
 31
0.0
  0
ENDBLK
  5
87
100
AcDbEntity
  8
0
100
AcDbBlockEnd
  0
BLOCK
  5
88
100
AcDbEntity
  8
0
100
AcDbBlockBegin
  2
_EX_INTEGRAL
 70
     0
 10
0.0
 20
0.0
 30
0.0
  3
_EX_INTEGRAL
  1

  0
LINE
  5
89
100
AcDbEntity
  8
0
  6
CONTINUOUS
 62
     0
100
AcDbLine
 10
0.0
 20
0.0
 30
0.0
 11
-1.0
 21
0.0
 31
0.0
  0
ARC
  5
8A
100
AcDbEntity
  8
0
  6
CONTINUOUS
 62
     0
100
AcDbCircle
 10
0.542115
 20
0.164992
 30
0.0
 40
0.56667
100
AcDbArc
 50
73.07249
 51
196.927513
  0
ARC
  5
8B
100
AcDbEntity
  8
0
  6
CONTINUOUS
 62
     0
100
AcDbCircle
 10
-0.542115
 20
-0.164992
 30
0.0
 40
0.56667
100
AcDbArc
 50
253.072487
 51
16.927513
  0
ENDBLK
  5
8C
100
AcDbEntity
  8
0
100
AcDbBlockEnd
  0
BLOCK
  5
8D
100
AcDbEntity
  8
0
100
AcDbBlockBegin
  2
SYM-1
 70
     0
 10
0.0
 20
0.0
 30
0.0
  3
SYM-1
  1

  0
TEXT
  5
8E
100
AcDbEntity
  8
0
  6
CONTINUOUS
 62
     2
100
AcDbText
 10
-2.828427
 20
-2.828427
 30
0.0
 40
5.656854
  1
２
 41
0.84
  7
EXCADSTD
 72
     5
 11
1.697056
 21
-2.828427
 31
0.0
100
AcDbText
  0
CIRCLE
  5
8F
100
AcDbEntity
  8
0
  6
CONTINUOUS
 62
     1
100
AcDbCircle
 10
0.0
 20
0.0
 30
0.0
 40
4.0
  0
TEXT
  5
90
100
AcDbEntity
  8
0
  6
CONTINUOUS
 62
     2
100
AcDbText
 10
6.6
 20
-3.2
 30
0.0
 40
7.0
  1
トップピボット（ドア側）
 41
0.672
  7
EXCADSTD
 72
     5
 11
73.799999
 21
-3.2
 31
0.0
100
AcDbText
  0
LINE
  5
91
100
AcDbEntity
  8
0
  6
CONTINUOUS
 62
     1
100
AcDbLine
 10
4.0
 20
-3.7
 30
0.0
 11
71.0
 21
-3.7
 31
0.0
  0
ENDBLK
  5
92
100
AcDbEntity
  8
0
100
AcDbBlockEnd
  0
BLOCK
  5
93
100
AcDbEntity
  8
0
100
AcDbBlockBegin
  2
SYM-2
 70
     0
 10
0.0
 20
0.0
 30
0.0
  3
SYM-2
  1

  0
TEXT
  5
94
100
AcDbEntity
  8
0
  6
CONTINUOUS
 62
     2
100
AcDbText
 10
-2.828427
 20
-2.828427
 30
0.0
 40
5.656854
  1
１
 41
0.84
  7
EXCADSTD
 72
     5
 11
1.697056
 21
-2.828427
 31
0.0
100
AcDbText
  0
CIRCLE
  5
95
100
AcDbEntity
  8
0
  6
CONTINUOUS
 62
     1
100
AcDbCircle
 10
0.0
 20
0.0
 30
0.0
 40
4.0
  0
TEXT
  5
96
100
AcDbEntity
  8
0
  6
CONTINUOUS
 62
     2
100
AcDbText
 10
6.6
 20
-3.2
 30
0.0
 40
7.0
  1
トップピボット（上枠側）
 41
0.672
  7
EXCADSTD
 72
     5
 11
73.799999
 21
-3.2
 31
0.0
100
AcDbText
  0
LINE
  5
97
100
AcDbEntity
  8
0
  6
CONTINUOUS
 62
     1
100
AcDbLine
 10
4.0
 20
-3.7
 30
0.0
 11
70.1
 21
-3.7
 31
0.0
  0
ENDBLK
  5
98
100
AcDbEntity
  8
0
100
AcDbBlockEnd
  0
BLOCK
  5
99
100
AcDbEntity
  8
0
100
AcDbBlockBegin
  2
SYM-3
 70
     0
 10
0.0
 20
0.0
 30
0.0
  3
SYM-3
  1

  0
TEXT
  5
9A
100
AcDbEntity
  8
0
  6
CONTINUOUS
 62
     2
100
AcDbText
 10
-2.828427
 20
-2.828427
 30
0.0
 40
5.656854
  1
３
 41
0.84
  7
EXCADSTD
 72
     5
 11
1.697056
 21
-2.828427
 31
0.0
100
AcDbText
  0
CIRCLE
  5
9B
100
AcDbEntity
  8
0
  6
CONTINUOUS
 62
     1
100
AcDbCircle
 10
0.0
 20
0.0
 30
0.0
 40
4.0
  0
TEXT
  5
9C
100
AcDbEntity
  8
0
  6
CONTINUOUS
 62
     2
100
AcDbText
 10
6.6
 20
-3.2
 30
0.0
 40
7.0
  1
ア　ー　ム
 41
0.672
  7
EXCADSTD
 72
     5
 11
34.6
 21
-3.2
 31
0.0
100
AcDbText
  0
LINE
  5
9D
100
AcDbEntity
  8
0
  6
CONTINUOUS
 62
     1
100
AcDbLine
 10
4.0
 20
-3.7
 30
0.0
 11
34.9
 21
-3.7
 31
0.0
  0
ENDBLK
  5
9E
100
AcDbEntity
  8
0
100
AcDbBlockEnd
  0
BLOCK
  5
9F
100
AcDbEntity
  8
0
100
AcDbBlockBegin
  2
SYM-4
 70
     0
 10
0.0
 20
0.0
 30
0.0
  3
SYM-4
  1

  0
TEXT
  5
A0
100
AcDbEntity
  8
0
  6
CONTINUOUS
 62
     2
100
AcDbText
 10
-2.828427
 20
-2.828427
 30
0.0
 40
5.656854
  1
４
 41
0.84
  7
EXCADSTD
 72
     5
 11
1.697056
 21
-2.828427
 31
0.0
100
AcDbText
  0
CIRCLE
  5
A1
100
AcDbEntity
  8
0
  6
CONTINUOUS
 62
     1
100
AcDbCircle
 10
0.0
 20
0.0
 30
0.0
 40
4.0
  0
TEXT
  5
A2
100
AcDbEntity
  8
0
  6
CONTINUOUS
 62
     2
100
AcDbText
 10
6.6
 20
-3.2
 30
0.0
 40
7.0
  1
床面軸座
 41
0.672
  7
EXCADSTD
 72
     5
 11
29.0
 21
-3.2
 31
0.0
100
AcDbText
  0
LINE
  5
A3
100
AcDbEntity
  8
0
  6
CONTINUOUS
 62
     1
100
AcDbLine
 10
4.0
 20
-3.7
 30
0.0
 11
29.3
 21
-3.7
 31
0.0
  0
ENDBLK
  5
A4
100
AcDbEntity
  8
0
100
AcDbBlockEnd
  0
ENDSEC
  0
SECTION
  2
ENTITIES
  0
LINE
  5
A5
100
AcDbEntity
  8
LAY-1
  6
DASHED2
 62
     3
100
AcDbLine
 10
675.477295
 20
422.515201
 30
0.0
 11
670.477295
 21
422.515201
 31
0.0
  0
LINE
  5
A6
100
AcDbEntity
  8
LAY-1
  6
DASHED2
 62
     3
100
AcDbLine
 10
670.477295
 20
422.515201
 30
0.0
 11
668.327295
 21
420.365201
 31
0.0
  0
LINE
  5
A7
100
AcDbEntity
  8
LAY-1
  6
DASHED2
 62
     3
100
AcDbLine
 10
675.477295
 20
422.515201
 30
0.0
 11
677.627295
 21
420.365201
 31
0.0
  0
LINE
  5
A8
100
AcDbEntity
  8
LAY-1
  6
DASHED2
 62
     3
100
AcDbLine
 10
668.327295
 20
420.365201
 30
0.0
 11
677.627295
 21
420.365201
 31
0.0
  0
LINE
  5
A9
100
AcDbEntity
  8
LAY-1
  6
DASHED2
 62
     3
100
AcDbLine
 10
668.327295
 20
420.365201
 30
0.0
 11
668.327295
 21
419.815201
 31
0.0
  0
LINE
  5
AA
100
AcDbEntity
  8
LAY-1
  6
DASHED2
 62
     3
100
AcDbLine
 10
677.627295
 20
420.365201
 30
0.0
 11
677.627295
 21
419.815201
 31
0.0
  0
LINE
  5
AB
100
AcDbEntity
  8
LAY-1
  6
DASHED2
 62
     3
100
AcDbLine
 10
670.477295
 20
434.815201
 30
0.0
 11
670.477295
 21
422.515201
 31
0.0
  0
LINE
  5
AC
100
AcDbEntity
  8
LAY-1
  6
DASHED2
 62
     1
100
AcDbLine
 10
670.977295
 20
434.815201
 30
0.0
 11
670.977295
 21
422.515201
 31
0.0
  0
LINE
  5
AD
100
AcDbEntity
  8
LAY-1
  6
DASHED2
 62
     1
100
AcDbLine
 10
674.977295
 20
434.815201
 30
0.0
 11
674.977295
 21
422.515201
 31
0.0
  0
LINE
  5
AE
100
AcDbEntity
  8
LAY-1
  6
DASHED2
 62
     3
100
AcDbLine
 10
675.477295
 20
434.815201
 30
0.0
 11
675.477295
 21
422.515201
 31
0.0
  0
LINE
  5
AF
100
AcDbEntity
  8
LAY-1
  6
CONTINUOUS
 62
     3
100
AcDbLine
 10
675.477295
 20
440.365201
 30
0.0
 11
670.477295
 21
440.365201
 31
0.0
  0
LINE
  5
B0
100
AcDbEntity
  8
LAY-1
  6
CONTINUOUS
 62
     3
100
AcDbLine
 10
670.477295
 20
440.365201
 30
0.0
 11
670.477295
 21
434.815201
 31
0.0
  0
LINE
  5
B1
100
AcDbEntity
  8
LAY-1
  6
CONTINUOUS
 62
     1
100
AcDbLine
 10
670.977295
 20
440.365201
 30
0.0
 11
670.977295
 21
434.815201
 31
0.0
  0
LINE
  5
B2
100
AcDbEntity
  8
LAY-1
  6
CONTINUOUS
 62
     1
100
AcDbLine
 10
674.977295
 20
440.365201
 30
0.0
 11
674.977295
 21
434.815201
 31
0.0
  0
LINE
  5
B3
100
AcDbEntity
  8
LAY-1
  6
CONTINUOUS
 62
     3
100
AcDbLine
 10
675.477295
 20
440.365201
 30
0.0
 11
675.477295
 21
434.815201
 31
0.0
  0
LINE
  5
B4
100
AcDbEntity
  8
LAY-1
  6
DASHED2
 62
     3
100
AcDbLine
 10
691.477295
 20
422.515201
 30
0.0
 11
686.477295
 21
422.515201
 31
0.0
  0
LINE
  5
B5
100
AcDbEntity
  8
LAY-1
  6
DASHED2
 62
     3
100
AcDbLine
 10
686.477295
 20
422.515201
 30
0.0
 11
684.327295
 21
420.365201
 31
0.0
  0
LINE
  5
B6
100
AcDbEntity
  8
LAY-1
  6
DASHED2
 62
     3
100
AcDbLine
 10
691.477295
 20
422.515201
 30
0.0
 11
693.627295
 21
420.365201
 31
0.0
  0
LINE
  5
B7
100
AcDbEntity
  8
LAY-1
  6
DASHED2
 62
     3
100
AcDbLine
 10
684.327295
 20
420.365201
 30
0.0
 11
693.627295
 21
420.365201
 31
0.0
  0
LINE
  5
B8
100
AcDbEntity
  8
LAY-1
  6
DASHED2
 62
     3
100
AcDbLine
 10
684.327295
 20
420.365201
 30
0.0
 11
684.327295
 21
419.815201
 31
0.0
  0
LINE
  5
B9
100
AcDbEntity
  8
LAY-1
  6
DASHED2
 62
     3
100
AcDbLine
 10
693.627295
 20
420.365201
 30
0.0
 11
693.627295
 21
419.815201
 31
0.0
  0
LINE
  5
BA
100
AcDbEntity
  8
LAY-1
  6
DASHED2
 62
     3
100
AcDbLine
 10
686.477295
 20
434.815201
 30
0.0
 11
686.477295
 21
422.515201
 31
0.0
  0
LINE
  5
BB
100
AcDbEntity
  8
LAY-1
  6
DASHED2
 62
     1
100
AcDbLine
 10
686.977295
 20
434.815201
 30
0.0
 11
686.977295
 21
422.515201
 31
0.0
  0
LINE
  5
BC
100
AcDbEntity
  8
LAY-1
  6
DASHED2
 62
     1
100
AcDbLine
 10
690.977295
 20
434.815201
 30
0.0
 11
690.977295
 21
422.515201
 31
0.0
  0
LINE
  5
BD
100
AcDbEntity
  8
LAY-1
  6
DASHED2
 62
     3
100
AcDbLine
 10
691.477295
 20
434.815201
 30
0.0
 11
691.477295
 21
422.515201
 31
0.0
  0
LINE
  5
BE
100
AcDbEntity
  8
LAY-1
  6
CONTINUOUS
 62
     3
100
AcDbLine
 10
691.477295
 20
440.365201
 30
0.0
 11
686.477295
 21
440.365201
 31
0.0
  0
LINE
  5
BF
100
AcDbEntity
  8
LAY-1
  6
CONTINUOUS
 62
     3
100
AcDbLine
 10
686.477295
 20
440.365201
 30
0.0
 11
686.477295
 21
434.815201
 31
0.0
  0
LINE
  5
C0
100
AcDbEntity
  8
LAY-1
  6
CONTINUOUS
 62
     1
100
AcDbLine
 10
686.977295
 20
440.365201
 30
0.0
 11
686.977295
 21
434.815201
 31
0.0
  0
LINE
  5
C1
100
AcDbEntity
  8
LAY-1
  6
CONTINUOUS
 62
     1
100
AcDbLine
 10
690.977295
 20
440.365201
 30
0.0
 11
690.977295
 21
434.815201
 31
0.0
  0
LINE
  5
C2
100
AcDbEntity
  8
LAY-1
  6
CONTINUOUS
 62
     3
100
AcDbLine
 10
691.477295
 20
440.365201
 30
0.0
 11
691.477295
 21
434.815201
 31
0.0
  0
LINE
  5
C3
100
AcDbEntity
  8
LAY-1
  6
CONTINUOUS
 62
     3
100
AcDbLine
 10
111.503381
 20
388.491089
 30
0.0
 11
111.503381
 21
425.991054
 31
0.0
  0
LINE
  5
C4
100
AcDbEntity
  8
LAY-1
  6
CONTINUOUS
 62
     3
100
AcDbLine
 10
158.503381
 20
428.991058
 30
0.0
 11
114.503381
 21
428.991054
 31
0.0
  0
LINE
  5
C5
100
AcDbEntity
  8
LAY-1
  6
DASHED2
 62
     3
100
AcDbLine
 10
161.503412
 20
388.991028
 30
0.0
 11
111.503389
 21
388.991028
 31
0.0
  0
ARC
  5
C6
100
AcDbEntity
  8
LAY-1
  6
CONTINUOUS
 62
     3
100
AcDbCircle
 10
114.503381
 20
425.991054
 30
0.0
 40
3.0
100
AcDbArc
 50
90.00002
 51
180.0
  0
ARC
  5
C7
100
AcDbEntity
  8
LAY-1
  6
CONTINUOUS
 62
     3
100
AcDbCircle
 10
158.503381
 20
425.991058
 30
0.0
 40
3.0
100
AcDbArc
 50
359.999981
 51
90.00002
  0
CIRCLE
  5
C8
100
AcDbEntity
  8
LAY-1
  6
DASHED2
 62
     3
100
AcDbCircle
 10
107.503366
 20
369.991089
 30
0.0
 40
11.9
  0
LINE
  5
C9
100
AcDbEntity
  8
LAY-1
  6
CONTINUOUS
 62
     3
100
AcDbLine
 10
161.503381
 20
388.991028
 30
0.0
 11
161.503381
 21
425.991058
 31
0.0
  0
CIRCLE
  5
CA
100
AcDbEntity
  8
LAY-1
  6
DASHED2
 62
     3
100
AcDbCircle
 10
107.503377
 20
369.991084
 30
0.0
 40
6.25
  0
CIRCLE
  5
CB
100
AcDbEntity
  8
LAY-1
  6
CONTINUOUS
 62
     1
100
AcDbCircle
 10
121.503381
 20
417.991128
 30
0.0
 40
2.5
  0
CIRCLE
  5
CC
100
AcDbEntity
  8
LAY-1
  6
CONTINUOUS
 62
     3
100
AcDbCircle
 10
121.503381
 20
417.991128
 30
0.0
 40
2.0
  0
CIRCLE
  5
CD
100
AcDbEntity
  8
LAY-1
  6
CONTINUOUS
 62
     1
100
AcDbCircle
 10
121.503381
 20
401.991128
 30
0.0
 40
2.5
  0
CIRCLE
  5
CE
100
AcDbEntity
  8
LAY-1
  6
CONTINUOUS
 62
     3
100
AcDbCircle
 10
121.503381
 20
401.991128
 30
0.0
 40
2.0
  0
CIRCLE
  5
CF
100
AcDbEntity
  8
LAY-1
  6
CONTINUOUS
 62
     1
100
AcDbCircle
 10
151.503381
 20
417.991128
 30
0.0
 40
2.5
  0
CIRCLE
  5
D0
100
AcDbEntity
  8
LAY-1
  6
CONTINUOUS
 62
     3
100
AcDbCircle
 10
151.503381
 20
417.991128
 30
0.0
 40
2.0
  0
CIRCLE
  5
D1
100
AcDbEntity
  8
LAY-1
  6
CONTINUOUS
 62
     1
100
AcDbCircle
 10
151.503381
 20
401.991128
 30
0.0
 40
2.5
  0
CIRCLE
  5
D2
100
AcDbEntity
  8
LAY-1
  6
CONTINUOUS
 62
     3
100
AcDbCircle
 10
151.503381
 20
401.991128
 30
0.0
 40
2.0
  0
CIRCLE
  5
D3
100
AcDbEntity
  8
LAY-1
  6
CONTINUOUS
 62
     3
100
AcDbCircle
 10
107.503377
 20
369.991084
 30
0.0
 40
9.4
  0
LINE
  5
D4
100
AcDbEntity
  8
LAY-1
  6
CONTINUOUS
 62
     3
100
AcDbLine
 10
659.977295
 20
433.815201
 30
0.0
 11
622.977295
 21
433.815201
 31
0.0
  0
LINE
  5
D5
100
AcDbEntity
  8
LAY-1
  6
CONTINUOUS
 62
     3
100
AcDbLine
 10
659.977295
 20
419.815201
 30
0.0
 11
623.977295
 21
419.815201
 31
0.0
  0
LINE
  5
D6
100
AcDbEntity
  8
LAY-1
  6
CONTINUOUS
 62
     3
100
AcDbLine
 10
622.977295
 20
420.815201
 30
0.0
 11
622.977295
 21
433.815201
 31
0.0
  0
ARC
  5
D7
100
AcDbEntity
  8
LAY-1
  6
CONTINUOUS
 62
     3
100
AcDbCircle
 10
623.977295
 20
420.815201
 30
0.0
 40
1.0
100
AcDbArc
 50
180.0
 51
269.999982
  0
LINE
  5
D8
100
AcDbEntity
  8
LAY-1
  6
DASHED2
 62
     3
100
AcDbLine
 10
659.977295
 20
420.415207
 30
0.0
 11
623.977295
 21
420.415207
 31
0.0
  0
ARC
  5
D9
100
AcDbEntity
  8
LAY-1
  6
DASHED2
 62
     3
100
AcDbCircle
 10
623.977295
 20
420.815201
 30
0.0
 40
0.4
100
AcDbArc
 50
180.0
 51
269.999982
  0
LINE
  5
DA
100
AcDbEntity
  8
LAY-1
  6
DASHED2
 62
     3
100
AcDbLine
 10
623.577301
 20
420.815201
 30
0.0
 11
623.577301
 21
433.815201
 31
0.0
  0
LINE
  5
DB
100
AcDbEntity
  8
LAY-1
  6
CONTINUOUS
 62
     3
100
AcDbLine
 10
659.977295
 20
433.815201
 30
0.0
 11
659.977295
 21
419.815201
 31
0.0
  0
LINE
  5
DC
100
AcDbEntity
  8
LAY-1
  6
CONTINUOUS
 62
     3
100
AcDbLine
 10
659.977295
 20
424.815201
 30
0.0
 11
698.477325
 21
424.815201
 31
0.0
  0
LINE
  5
DD
100
AcDbEntity
  8
LAY-1
  6
CONTINUOUS
 62
     3
100
AcDbLine
 10
699.977325
 20
426.315201
 30
0.0
 11
699.977325
 21
432.315201
 31
0.0
  0
ARC
  5
DE
100
AcDbEntity
  8
LAY-1
  6
CONTINUOUS
 62
     3
100
AcDbCircle
 10
698.477325
 20
432.315201
 30
0.0
 40
1.5
100
AcDbArc
 50
359.999981
 51
90.00002
  0
ARC
  5
DF
100
AcDbEntity
  8
LAY-1
  6
CONTINUOUS
 62
     3
100
AcDbCircle
 10
698.477325
 20
426.315201
 30
0.0
 40
1.5
100
AcDbArc
 50
269.999982
 51
0.000021
  0
LINE
  5
E0
100
AcDbEntity
  8
LAY-1
  6
CONTINUOUS
 62
     3
100
AcDbLine
 10
659.977295
 20
433.815201
 30
0.0
 11
698.477325
 21
433.815201
 31
0.0
  0
LINE
  5
E1
100
AcDbEntity
  8
LAY-1
  6
CONTINUOUS
 62
     3
100
AcDbLine
 10
640.977325
 20
437.815201
 30
0.0
 11
646.377325
 21
437.815201
 31
0.0
  0
ARC
  5
E2
100
AcDbEntity
  8
LAY-1
  6
CONTINUOUS
 62
     3
100
AcDbCircle
 10
646.377325
 20
433.815201
 30
0.0
 40
4.0
100
AcDbArc
 50
0.0
 51
90.0
  0
LINE
  5
E3
100
AcDbEntity
  8
LAY-1
  6
CONTINUOUS
 62
     3
100
AcDbLine
 10
640.977325
 20
437.815201
 30
0.0
 11
635.577325
 21
437.815201
 31
0.0
  0
ARC
  5
E4
100
AcDbEntity
  8
LAY-1
  6
CONTINUOUS
 62
     3
100
AcDbCircle
 10
635.577325
 20
433.815201
 30
0.0
 40
4.0
100
AcDbArc
 50
90.0
 51
180.0
  0
LINE
  5
E5
100
AcDbEntity
  8
LAY-1
  6
DASHED2
 62
     3
100
AcDbLine
 10
634.477325
 20
436.615201
 30
0.0
 11
640.977325
 21
436.615201
 31
0.0
  0
LINE
  5
E6
100
AcDbEntity
  8
LAY-1
  6
DASHED2
 62
     3
100
AcDbLine
 10
634.177325
 20
436.315201
 30
0.0
 11
634.177325
 21
433.815201
 31
0.0
  0
ARC
  5
E7
100
AcDbEntity
  8
LAY-1
  6
DASHED2
 62
     3
100
AcDbCircle
 10
634.477325
 20
436.315201
 30
0.0
 40
0.3
100
AcDbArc
 50
90.0
 51
180.0
  0
LINE
  5
E8
100
AcDbEntity
  8
LAY-1
  6
DASHED2
 62
     3
100
AcDbLine
 10
647.477325
 20
436.615201
 30
0.0
 11
640.977325
 21
436.615201
 31
0.0
  0
LINE
  5
E9
100
AcDbEntity
  8
LAY-1
  6
DASHED2
 62
     3
100
AcDbLine
 10
647.777325
 20
436.315201
 30
0.0
 11
647.777325
 21
433.815201
 31
0.0
  0
ARC
  5
EA
100
AcDbEntity
  8
LAY-1
  6
DASHED2
 62
     3
100
AcDbCircle
 10
647.477325
 20
436.315201
 30
0.0
 40
0.3
100
AcDbArc
 50
0.0
 51
90.0
  0
ARC
  5
EB
100
AcDbEntity
  8
LAY-1
  6
CONTINUOUS
 62
     3
100
AcDbCircle
 10
158.503381
 20
383.923095
 30
0.0
 40
3.0
100
AcDbArc
 50
300.000013
 51
359.999981
  0
LINE
  5
EC
100
AcDbEntity
  8
LAY-1
  6
CONTINUOUS
 62
     3
100
AcDbLine
 10
165.503427
 20
383.847473
 30
0.0
 11
165.503427
 21
388.991058
 31
0.0
  0
ARC
  5
ED
100
AcDbEntity
  8
LAY-1
  6
CONTINUOUS
 62
     3
100
AcDbCircle
 10
163.503427
 20
383.847473
 30
0.0
 40
2.0
100
AcDbArc
 50
300.000013
 51
359.999981
  0
LINE
  5
EE
100
AcDbEntity
  8
LAY-1
  6
CONTINUOUS
 62
     3
100
AcDbLine
 10
161.503397
 20
388.991058
 30
0.0
 11
165.503397
 21
388.991058
 31
0.0
  0
ARC
  5
EF
100
AcDbEntity
  8
LAY-1
  6
CONTINUOUS
 62
     3
100
AcDbCircle
 10
163.503427
 20
383.847473
 30
0.0
 40
1.4
100
AcDbArc
 50
300.000013
 51
359.999981
  0
LINE
  5
F0
100
AcDbEntity
  8
LAY-1
  6
CONTINUOUS
 62
     3
100
AcDbLine
 10
164.903436
 20
388.991058
 30
0.0
 11
164.903421
 21
383.847473
 31
0.0
  0
LINE
  5
F1
100
AcDbEntity
  8
LAY-1
  6
CONTINUOUS
 62
     3
100
AcDbLine
 10
161.503381
 20
383.923095
 30
0.0
 11
161.503381
 21
388.991028
 31
0.0
  0
LINE
  5
F2
100
AcDbEntity
  8
LAY-1
  6
CONTINUOUS
 62
     3
100
AcDbLine
 10
115.380281
 20
353.754181
 30
0.0
 11
164.503427
 21
382.115448
 31
0.0
  0
LINE
  5
F3
100
AcDbEntity
  8
LAY-1
  6
CONTINUOUS
 62
     3
100
AcDbLine
 10
116.203386
 20
354.922241
 30
0.0
 11
164.203409
 21
382.635071
 31
0.0
  0
LINE
  5
F4
100
AcDbEntity
  8
LAY-1
  6
CONTINUOUS
 62
     3
100
AcDbLine
 10
116.745309
 20
356.349975
 30
0.0
 11
160.003381
 21
381.325012
 31
0.0
  0
ARC
  5
F5
100
AcDbEntity
  8
LAY-1
  6
CONTINUOUS
 62
     3
100
AcDbCircle
 10
107.503389
 20
369.991058
 30
0.0
 40
18.0
100
AcDbArc
 50
90.00002
 51
295.868397
  0
ARC
  5
F6
100
AcDbEntity
  8
LAY-1
  6
CONTINUOUS
 62
     3
100
AcDbCircle
 10
107.503389
 20
369.991058
 30
0.0
 40
17.4
100
AcDbArc
 50
90.00002
 51
300.000053
  0
ARC
  5
F7
100
AcDbEntity
  8
LAY-1
  6
CONTINUOUS
 62
     3
100
AcDbCircle
 10
107.503381
 20
369.991089
 30
0.0
 40
16.5
100
AcDbArc
 50
90.00002
 51
304.112171
  0
LINE
  5
F8
100
AcDbEntity
  8
LAY-1
  6
CONTINUOUS
 62
     3
100
AcDbLine
 10
107.503381
 20
386.491089
 30
0.0
 11
109.503389
 21
386.491089
 31
0.0
  0
ARC
  5
F9
100
AcDbEntity
  8
LAY-1
  6
CONTINUOUS
 62
     3
100
AcDbCircle
 10
109.503389
 20
388.491089
 30
0.0
 40
2.0
100
AcDbArc
 50
269.999982
 51
0.000021
  0
LINE
  5
FA
100
AcDbEntity
  8
LAY-1
  6
CONTINUOUS
 62
     3
100
AcDbLine
 10
111.439874
 20
387.991058
 30
0.0
 11
107.503389
 21
387.991058
 31
0.0
  0
LINE
  5
FB
100
AcDbEntity
  8
LAY-1
  6
CONTINUOUS
 62
     3
100
AcDbLine
 10
111.173692
 20
387.391052
 30
0.0
 11
107.503389
 21
387.391052
 31
0.0
  0
LINE
  5
FC
100
AcDbEntity
  8
LAY-2
  6
DASHED2
 62
     1
100
AcDbLine
 10
101.513708
 20
218.435767
 30
0.0
 11
106.132928
 21
210.435034
 31
0.0
  0
LINE
  5
FD
100
AcDbEntity
  8
LAY-2
  6
DASHED2
 62
     3
100
AcDbLine
 10
101.988971
 20
218.612569
 30
0.0
 11
106.66455
 21
210.514251
 31
0.0
  0
LINE
  5
FE
100
AcDbEntity
  8
LAY-2
  6
DASHED2
 62
     1
100
AcDbLine
 10
97.183562
 20
215.935764
 30
0.0
 11
101.802794
 21
207.935024
 31
0.0
  0
LINE
  5
FF
100
AcDbEntity
  8
LAY-2
  6
DASHED2
 62
     3
100
AcDbLine
 10
96.792818
 20
215.612553
 30
0.0
 11
101.468385
 21
207.51424
 31
0.0
  0
LINE
  5
100
100
AcDbEntity
  8
LAY-2
  6
CONTINUOUS
 62
     3
100
AcDbLine
 10
158.503412
 20
258.06131
 30
0.0
 11
114.503404
 21
258.061341
 31
0.0
  0
ARC
  5
101
100
AcDbEntity
  8
LAY-2
  6
CONTINUOUS
 62
     3
100
AcDbCircle
 10
114.503404
 20
255.061341
 30
0.0
 40
3.0
100
AcDbArc
 50
90.00002
 51
180.0
  0
ARC
  5
102
100
AcDbEntity
  8
LAY-2
  6
CONTINUOUS
 62
     3
100
AcDbCircle
 10
158.503412
 20
255.06131
 30
0.0
 40
3.0
100
AcDbArc
 50
359.999981
 51
90.00002
  0
LINE
  5
103
100
AcDbEntity
  8
LAY-2
  6
CONTINUOUS
 62
     3
100
AcDbLine
 10
111.503404
 20
221.561341
 30
0.0
 11
111.503404
 21
255.061341
 31
0.0
  0
LINE
  5
104
100
AcDbEntity
  8
LAY-2
  6
DASHED2
 62
     3
100
AcDbLine
 10
161.503427
 20
225.06131
 30
0.0
 11
111.503412
 21
225.06131
 31
0.0
  0
CIRCLE
  5
105
100
AcDbEntity
  8
LAY-2
  6
CONTINUOUS
 62
     3
100
AcDbCircle
 10
121.503404
 20
235.061341
 30
0.0
 40
6.0
  0
CIRCLE
  5
106
100
AcDbEntity
  8
LAY-2
  6
CONTINUOUS
 62
     3
100
AcDbCircle
 10
121.503404
 20
235.061341
 30
0.0
 40
3.25
  0
CIRCLE
  5
107
100
AcDbEntity
  8
LAY-2
  6
CONTINUOUS
 62
     3
100
AcDbCircle
 10
121.503404
 20
251.061341
 30
0.0
 40
6.0
  0
CIRCLE
  5
108
100
AcDbEntity
  8
LAY-2
  6
CONTINUOUS
 62
     3
100
AcDbCircle
 10
121.503404
 20
251.061341
 30
0.0
 40
3.25
  0
CIRCLE
  5
109
100
AcDbEntity
  8
LAY-2
  6
CONTINUOUS
 62
     3
100
AcDbCircle
 10
151.503412
 20
235.061341
 30
0.0
 40
6.0
  0
CIRCLE
  5
10A
100
AcDbEntity
  8
LAY-2
  6
CONTINUOUS
 62
     3
100
AcDbCircle
 10
151.503412
 20
235.061341
 30
0.0
 40
3.25
  0
CIRCLE
  5
10B
100
AcDbEntity
  8
LAY-2
  6
CONTINUOUS
 62
     3
100
AcDbCircle
 10
151.503412
 20
251.061341
 30
0.0
 40
6.0
  0
CIRCLE
  5
10C
100
AcDbEntity
  8
LAY-2
  6
CONTINUOUS
 62
     3
100
AcDbCircle
 10
151.503412
 20
251.061341
 30
0.0
 40
3.25
  0
LINE
  5
10D
100
AcDbEntity
  8
LAY-2
  6
CONTINUOUS
 62
     3
100
AcDbLine
 10
161.5034
 20
225.06131
 30
0.0
 11
161.503412
 21
255.06131
 31
0.0
  0
CIRCLE
  5
10E
100
AcDbEntity
  8
LAY-2
  6
CONTINUOUS
 62
     3
100
AcDbCircle
 10
107.5034
 20
203.06131
 30
0.0
 40
6.25
  0
CIRCLE
  5
10F
100
AcDbEntity
  8
LAY-2
  6
CONTINUOUS
 62
     3
100
AcDbCircle
 10
107.5034
 20
203.06131
 30
0.0
 40
7.5
  0
LINE
  5
110
100
AcDbEntity
  8
LAY-2
  6
CONTINUOUS
 62
     3
100
AcDbLine
 10
662.977295
 20
416.815231
 30
0.0
 11
622.977325
 21
416.815231
 31
0.0
  0
LINE
  5
111
100
AcDbEntity
  8
LAY-2
  6
CONTINUOUS
 62
     3
100
AcDbLine
 10
662.977295
 20
402.815231
 30
0.0
 11
623.977325
 21
402.815231
 31
0.0
  0
LINE
  5
112
100
AcDbEntity
  8
LAY-2
  6
CONTINUOUS
 62
     3
100
AcDbLine
 10
622.977325
 20
403.815231
 30
0.0
 11
622.977325
 21
416.815231
 31
0.0
  0
ARC
  5
113
100
AcDbEntity
  8
LAY-2
  6
CONTINUOUS
 62
     3
100
AcDbCircle
 10
623.977325
 20
403.815231
 30
0.0
 40
1.0
100
AcDbArc
 50
180.0
 51
269.999982
  0
LINE
  5
114
100
AcDbEntity
  8
LAY-2
  6
DASHED2
 62
     3
100
AcDbLine
 10
662.977295
 20
403.415237
 30
0.0
 11
623.977325
 21
403.415237
 31
0.0
  0
ARC
  5
115
100
AcDbEntity
  8
LAY-2
  6
DASHED2
 62
     3
100
AcDbCircle
 10
623.977325
 20
403.815231
 30
0.0
 40
0.4
100
AcDbArc
 50
180.0
 51
269.999982
  0
LINE
  5
116
100
AcDbEntity
  8
LAY-2
  6
DASHED2
 62
     3
100
AcDbLine
 10
623.577301
 20
403.815231
 30
0.0
 11
623.577301
 21
416.815231
 31
0.0
  0
LINE
  5
117
100
AcDbEntity
  8
LAY-2
  6
CONTINUOUS
 62
     3
100
AcDbLine
 10
662.977295
 20
416.815231
 30
0.0
 11
662.977295
 21
402.815231
 31
0.0
  0
LINE
  5
118
100
AcDbEntity
  8
LAY-2
  6
CONTINUOUS
 62
     3
100
AcDbLine
 10
695.977325
 20
409.315231
 30
0.0
 11
695.977325
 21
415.315231
 31
0.0
  0
ARC
  5
119
100
AcDbEntity
  8
LAY-2
  6
CONTINUOUS
 62
     3
100
AcDbCircle
 10
694.477325
 20
415.315231
 30
0.0
 40
1.5
100
AcDbArc
 50
359.999981
 51
90.00002
  0
ARC
  5
11A
100
AcDbEntity
  8
LAY-2
  6
CONTINUOUS
 62
     3
100
AcDbCircle
 10
694.477325
 20
409.315231
 30
0.0
 40
1.5
100
AcDbArc
 50
269.999982
 51
0.000021
  0
LINE
  5
11B
100
AcDbEntity
  8
LAY-2
  6
CONTINUOUS
 62
     3
100
AcDbLine
 10
662.977295
 20
407.815231
 30
0.0
 11
694.477325
 21
407.815231
 31
0.0
  0
LINE
  5
11C
100
AcDbEntity
  8
LAY-2
  6
CONTINUOUS
 62
     3
100
AcDbLine
 10
662.977295
 20
416.815231
 30
0.0
 11
694.477325
 21
416.815231
 31
0.0
  0
LINE
  5
11D
100
AcDbEntity
  8
LAY-2
  6
DASHED2
 62
     3
100
AcDbLine
 10
666.977295
 20
416.815262
 30
0.0
 11
666.977295
 21
416.315268
 31
0.0
  0
LINE
  5
11E
100
AcDbEntity
  8
LAY-2
  6
DASHED2
 62
     3
100
AcDbLine
 10
678.977295
 20
416.815262
 30
0.0
 11
678.977295
 21
416.315268
 31
0.0
  0
LINE
  5
11F
100
AcDbEntity
  8
LAY-2
  6
DASHED2
 62
     3
100
AcDbLine
 10
666.977295
 20
416.315268
 30
0.0
 11
678.977295
 21
416.315268
 31
0.0
  0
LINE
  5
120
100
AcDbEntity
  8
LAY-2
  6
DASHED2
 62
     3
100
AcDbLine
 10
676.227295
 20
413.565268
 30
0.0
 11
678.977295
 21
416.315329
 31
0.0
  0
LINE
  5
121
100
AcDbEntity
  8
LAY-2
  6
DASHED2
 62
     3
100
AcDbLine
 10
682.977295
 20
416.815262
 30
0.0
 11
682.977295
 21
416.315268
 31
0.0
  0
LINE
  5
122
100
AcDbEntity
  8
LAY-2
  6
DASHED2
 62
     3
100
AcDbLine
 10
694.977295
 20
416.815262
 30
0.0
 11
694.977295
 21
416.315268
 31
0.0
  0
LINE
  5
123
100
AcDbEntity
  8
LAY-2
  6
DASHED2
 62
     3
100
AcDbLine
 10
682.977295
 20
416.315268
 30
0.0
 11
694.977295
 21
416.315268
 31
0.0
  0
LINE
  5
124
100
AcDbEntity
  8
LAY-2
  6
CONTINUOUS
 62
     3
100
AcDbLine
 10
669.727295
 20
396.715262
 30
0.0
 11
676.227295
 21
396.715262
 31
0.0
  0
LINE
  5
125
100
AcDbEntity
  8
LAY-2
  6
DASHED2
 62
     3
100
AcDbLine
 10
669.727325
 20
413.565237
 30
0.0
 11
666.977295
 21
416.315268
 31
0.0
  0
LINE
  5
126
100
AcDbEntity
  8
LAY-2
  6
DASHED2
 62
     3
100
AcDbLine
 10
669.727295
 20
413.565237
 30
0.0
 11
676.227295
 21
413.565237
 31
0.0
  0
LINE
  5
127
100
AcDbEntity
  8
LAY-2
  6
CONTINUOUS
 62
     3
100
AcDbLine
 10
685.727295
 20
396.715262
 30
0.0
 11
692.227295
 21
396.715262
 31
0.0
  0
LINE
  5
128
100
AcDbEntity
  8
LAY-2
  6
DASHED2
 62
     3
100
AcDbLine
 10
692.227295
 20
413.565268
 30
0.0
 11
694.977295
 21
416.315329
 31
0.0
  0
LINE
  5
129
100
AcDbEntity
  8
LAY-2
  6
DASHED2
 62
     3
100
AcDbLine
 10
685.727325
 20
413.565237
 30
0.0
 11
682.977295
 21
416.315268
 31
0.0
  0
LINE
  5
12A
100
AcDbEntity
  8
LAY-2
  6
DASHED2
 62
     3
100
AcDbLine
 10
685.727295
 20
413.565237
 30
0.0
 11
692.227295
 21
413.565237
 31
0.0
  0
LINE
  5
12B
100
AcDbEntity
  8
LAY-2
  6
DASHED2
 62
     3
100
AcDbLine
 10
676.227295
 20
413.565268
 30
0.0
 11
676.227295
 21
403.315201
 31
0.0
  0
LINE
  5
12C
100
AcDbEntity
  8
LAY-2
  6
DASHED2
 62
     1
100
AcDbLine
 10
675.727264
 20
413.565237
 30
0.0
 11
675.727264
 21
403.315201
 31
0.0
  0
LINE
  5
12D
100
AcDbEntity
  8
LAY-2
  6
DASHED2
 62
     3
100
AcDbLine
 10
669.727325
 20
413.565237
 30
0.0
 11
669.727325
 21
403.315201
 31
0.0
  0
LINE
  5
12E
100
AcDbEntity
  8
LAY-2
  6
DASHED2
 62
     1
100
AcDbLine
 10
670.227295
 20
413.565237
 30
0.0
 11
670.227295
 21
403.315201
 31
0.0
  0
LINE
  5
12F
100
AcDbEntity
  8
LAY-2
  6
DASHED2
 62
     3
100
AcDbLine
 10
692.227295
 20
413.565268
 30
0.0
 11
692.227295
 21
403.315201
 31
0.0
  0
LINE
  5
130
100
AcDbEntity
  8
LAY-2
  6
DASHED2
 62
     3
100
AcDbLine
 10
685.727325
 20
413.565237
 30
0.0
 11
685.727325
 21
403.315201
 31
0.0
  0
LINE
  5
131
100
AcDbEntity
  8
LAY-2
  6
DASHED2
 62
     1
100
AcDbLine
 10
686.227295
 20
413.565237
 30
0.0
 11
686.227295
 21
403.315201
 31
0.0
  0
LINE
  5
132
100
AcDbEntity
  8
LAY-2
  6
DASHED2
 62
     1
100
AcDbLine
 10
691.727264
 20
413.565237
 30
0.0
 11
691.727264
 21
403.315201
 31
0.0
  0
LINE
  5
133
100
AcDbEntity
  8
LAY-2
  6
CONTINUOUS
 62
     3
100
AcDbLine
 10
676.22732
 20
403.315192
 30
0.0
 11
676.227295
 21
396.715262
 31
0.0
  0
LINE
  5
134
100
AcDbEntity
  8
LAY-2
  6
CONTINUOUS
 62
     1
100
AcDbLine
 10
675.72732
 20
403.315193
 30
0.0
 11
675.727295
 21
396.715262
 31
0.0
  0
LINE
  5
135
100
AcDbEntity
  8
LAY-2
  6
CONTINUOUS
 62
     3
100
AcDbLine
 10
669.72732
 20
403.31521
 30
0.0
 11
669.727295
 21
396.715262
 31
0.0
  0
LINE
  5
136
100
AcDbEntity
  8
LAY-2
  6
CONTINUOUS
 62
     1
100
AcDbLine
 10
670.22732
 20
403.315208
 30
0.0
 11
670.227295
 21
396.715262
 31
0.0
  0
LINE
  5
137
100
AcDbEntity
  8
LAY-2
  6
CONTINUOUS
 62
     3
100
AcDbLine
 10
692.22732
 20
403.315192
 30
0.0
 11
692.227295
 21
396.715262
 31
0.0
  0
LINE
  5
138
100
AcDbEntity
  8
LAY-2
  6
CONTINUOUS
 62
     3
100
AcDbLine
 10
685.72732
 20
403.31521
 30
0.0
 11
685.727295
 21
396.715262
 31
0.0
  0
LINE
  5
139
100
AcDbEntity
  8
LAY-2
  6
CONTINUOUS
 62
     1
100
AcDbLine
 10
686.22732
 20
403.315208
 30
0.0
 11
686.227295
 21
396.715262
 31
0.0
  0
LINE
  5
13A
100
AcDbEntity
  8
LAY-2
  6
CONTINUOUS
 62
     1
100
AcDbLine
 10
691.72732
 20
403.315193
 30
0.0
 11
691.727295
 21
396.715262
 31
0.0
  0
LINE
  5
13B
100
AcDbEntity
  8
LAY-2
  6
CONTINUOUS
 62
     3
100
AcDbLine
 10
647.227325
 20
419.815201
 30
0.0
 11
647.227325
 21
416.815231
 31
0.0
  0
LINE
  5
13C
100
AcDbEntity
  8
LAY-2
  6
CONTINUOUS
 62
     3
100
AcDbLine
 10
634.727325
 20
419.815201
 30
0.0
 11
634.727325
 21
416.815231
 31
0.0
  0
LINE
  5
13D
100
AcDbEntity
  8
LAY-2
  6
CONTINUOUS
 62
     3
100
AcDbLine
 10
165.503427
 20
216.917694
 30
0.0
 11
165.503427
 21
225.06131
 31
0.0
  0
LINE
  5
13E
100
AcDbEntity
  8
LAY-2
  6
CONTINUOUS
 62
     3
100
AcDbLine
 10
161.503381
 20
225.06131
 30
0.0
 11
165.503397
 21
225.06131
 31
0.0
  0
LINE
  5
13F
100
AcDbEntity
  8
LAY-2
  6
CONTINUOUS
 62
     3
100
AcDbLine
 10
164.903406
 20
225.06131
 30
0.0
 11
164.903421
 21
216.917694
 31
0.0
  0
LINE
  5
140
100
AcDbEntity
  8
LAY-2
  6
CONTINUOUS
 62
     3
100
AcDbLine
 10
161.503397
 20
216.917725
 30
0.0
 11
161.5034
 21
225.06131
 31
0.0
  0
LINE
  5
141
100
AcDbEntity
  8
LAY-2
  6
CONTINUOUS
 62
     3
100
AcDbLine
 10
114.595674
 20
188.103485
 30
0.0
 11
160.003397
 21
214.319641
 31
0.0
  0
LINE
  5
142
100
AcDbEntity
  8
LAY-2
  6
CONTINUOUS
 62
     3
100
AcDbLine
 10
116.203386
 20
187.992462
 30
0.0
 11
164.203409
 21
215.705292
 31
0.0
  0
ARC
  5
143
100
AcDbEntity
  8
LAY-2
  6
CONTINUOUS
 62
     3
100
AcDbCircle
 10
158.503397
 20
216.917725
 30
0.0
 40
3.0
100
AcDbArc
 50
300.000013
 51
359.999981
  0
ARC
  5
144
100
AcDbEntity
  8
LAY-2
  6
CONTINUOUS
 62
     3
100
AcDbCircle
 10
163.503427
 20
216.917694
 30
0.0
 40
2.0
100
AcDbArc
 50
300.000013
 51
359.999981
  0
ARC
  5
145
100
AcDbEntity
  8
LAY-2
  6
CONTINUOUS
 62
     3
100
AcDbCircle
 10
163.503427
 20
216.917694
 30
0.0
 40
1.4
100
AcDbArc
 50
300.000013
 51
359.999981
  0
LINE
  5
146
100
AcDbEntity
  8
LAY-2
  6
CONTINUOUS
 62
     3
100
AcDbLine
 10
115.380289
 20
186.824433
 30
0.0
 11
164.503427
 21
215.185669
 31
0.0
  0
ARC
  5
147
100
AcDbEntity
  8
LAY-2
  6
CONTINUOUS
 62
     3
100
AcDbCircle
 10
107.503404
 20
203.061341
 30
0.0
 40
16.5
100
AcDbArc
 50
90.00002
 51
295.352792
  0
ARC
  5
148
100
AcDbEntity
  8
LAY-2
  6
CONTINUOUS
 62
     3
100
AcDbCircle
 10
107.503397
 20
203.06131
 30
0.0
 40
18.0
100
AcDbArc
 50
90.00002
 51
295.868397
  0
ARC
  5
149
100
AcDbEntity
  8
LAY-2
  6
CONTINUOUS
 62
     3
100
AcDbCircle
 10
107.503397
 20
203.06131
 30
0.0
 40
17.4
100
AcDbArc
 50
90.00002
 51
299.999995
  0
LINE
  5
14A
100
AcDbEntity
  8
LAY-2
  6
CONTINUOUS
 62
     3
100
AcDbLine
 10
111.42019
 20
221.06131
 30
0.0
 11
107.503397
 21
221.06131
 31
0.0
  0
LINE
  5
14B
100
AcDbEntity
  8
LAY-2
  6
CONTINUOUS
 62
     3
100
AcDbLine
 10
111.15584
 20
220.461304
 30
0.0
 11
107.503397
 21
220.461304
 31
0.0
  0
LINE
  5
14C
100
AcDbEntity
  8
LAY-2
  6
CONTINUOUS
 62
     3
100
AcDbLine
 10
107.503404
 20
219.561341
 30
0.0
 11
109.503412
 21
219.561341
 31
0.0
  0
ARC
  5
14D
100
AcDbEntity
  8
LAY-2
  6
CONTINUOUS
 62
     3
100
AcDbCircle
 10
109.503412
 20
221.561341
 30
0.0
 40
2.0
100
AcDbArc
 50
269.999982
 51
0.000021
  0
LINE
  5
14E
100
AcDbEntity
  8
LAY-3
  6
CONTINUOUS
 62
     3
100
AcDbLine
 10
622.977325
 20
232.965485
 30
0.0
 11
622.977325
 21
219.965485
 31
0.0
  0
ARC
  5
14F
100
AcDbEntity
  8
LAY-3
  6
CONTINUOUS
 62
     3
100
AcDbCircle
 10
623.977325
 20
232.965485
 30
0.0
 40
1.0
100
AcDbArc
 50
90.00002
 51
180.0
  0
ARC
  5
150
100
AcDbEntity
  8
LAY-3
  6
DASHED2
 62
     3
100
AcDbCircle
 10
623.977325
 20
232.965485
 30
0.0
 40
0.4
100
AcDbArc
 50
90.00002
 51
180.0
  0
LINE
  5
151
100
AcDbEntity
  8
LAY-3
  6
DASHED2
 62
     3
100
AcDbLine
 10
623.577332
 20
232.965485
 30
0.0
 11
623.577332
 21
219.965485
 31
0.0
  0
LINE
  5
152
100
AcDbEntity
  8
LAY-3
  6
CONTINUOUS
 62
     3
100
AcDbLine
 10
622.977325
 20
219.965485
 30
0.0
 11
662.977325
 21
219.965485
 31
0.0
  0
LINE
  5
153
100
AcDbEntity
  8
LAY-3
  6
CONTINUOUS
 62
     3
100
AcDbLine
 10
662.977325
 20
233.965485
 30
0.0
 11
623.977325
 21
233.965485
 31
0.0
  0
LINE
  5
154
100
AcDbEntity
  8
LAY-3
  6
DASHED2
 62
     3
100
AcDbLine
 10
662.977325
 20
233.365479
 30
0.0
 11
623.977325
 21
233.365479
 31
0.0
  0
LINE
  5
155
100
AcDbEntity
  8
LAY-3
  6
CONTINUOUS
 62
     3
100
AcDbLine
 10
662.977325
 20
233.965485
 30
0.0
 11
662.977325
 21
219.965485
 31
0.0
  0
LINE
  5
156
100
AcDbEntity
  8
LAY-3
  6
CONTINUOUS
 62
     3
100
AcDbLine
 10
696.977356
 20
227.465485
 30
0.0
 11
696.977356
 21
221.465485
 31
0.0
  0
ARC
  5
157
100
AcDbEntity
  8
LAY-3
  6
CONTINUOUS
 62
     3
100
AcDbCircle
 10
695.477356
 20
221.465485
 30
0.0
 40
1.5
100
AcDbArc
 50
269.999982
 51
0.000021
  0
ARC
  5
158
100
AcDbEntity
  8
LAY-3
  6
CONTINUOUS
 62
     3
100
AcDbCircle
 10
695.477356
 20
227.465485
 30
0.0
 40
1.5
100
AcDbArc
 50
359.999981
 51
90.00002
  0
LINE
  5
159
100
AcDbEntity
  8
LAY-3
  6
CONTINUOUS
 62
     3
100
AcDbLine
 10
662.977325
 20
228.965485
 30
0.0
 11
695.477356
 21
228.965485
 31
0.0
  0
LINE
  5
15A
100
AcDbEntity
  8
LAY-3
  6
CONTINUOUS
 62
     3
100
AcDbLine
 10
662.977325
 20
219.965485
 30
0.0
 11
695.477356
 21
219.965485
 31
0.0
  0
LINE
  5
15B
100
AcDbEntity
  8
LAY-3
  6
CONTINUOUS
 62
     3
100
AcDbLine
 10
668.977325
 20
227.465485
 30
0.0
 11
668.977325
 21
221.465485
 31
0.0
  0
ARC
  5
15C
100
AcDbEntity
  8
LAY-3
  6
CONTINUOUS
 62
     3
100
AcDbCircle
 10
670.477325
 20
227.465485
 30
0.0
 40
1.5
100
AcDbArc
 50
90.00002
 51
180.0
  0
ARC
  5
15D
100
AcDbEntity
  8
LAY-3
  6
CONTINUOUS
 62
     3
100
AcDbCircle
 10
670.477325
 20
221.465485
 30
0.0
 40
1.5
100
AcDbArc
 50
180.0
 51
269.999982
  0
LINE
  5
15E
100
AcDbEntity
  8
LAY-3
  6
DASHED2
 62
     3
100
AcDbLine
 10
681.977356
 20
219.965485
 30
0.0
 11
681.977356
 21
220.465479
 31
0.0
  0
LINE
  5
15F
100
AcDbEntity
  8
LAY-3
  6
DASHED2
 62
     3
100
AcDbLine
 10
669.977356
 20
219.965485
 30
0.0
 11
669.977356
 21
220.465479
 31
0.0
  0
LINE
  5
160
100
AcDbEntity
  8
LAY-3
  6
DASHED2
 62
     3
100
AcDbLine
 10
681.977356
 20
220.465479
 30
0.0
 11
669.977356
 21
220.465479
 31
0.0
  0
LINE
  5
161
100
AcDbEntity
  8
LAY-3
  6
CONTINUOUS
 62
     3
100
AcDbLine
 10
679.227356
 20
240.065485
 30
0.0
 11
672.727356
 21
240.065454
 31
0.0
  0
LINE
  5
162
100
AcDbEntity
  8
LAY-3
  6
DASHED2
 62
     3
100
AcDbLine
 10
672.727356
 20
223.215448
 30
0.0
 11
669.977356
 21
220.465417
 31
0.0
  0
LINE
  5
163
100
AcDbEntity
  8
LAY-3
  6
DASHED2
 62
     3
100
AcDbLine
 10
679.227325
 20
223.215509
 30
0.0
 11
681.977356
 21
220.465479
 31
0.0
  0
LINE
  5
164
100
AcDbEntity
  8
LAY-3
  6
DASHED2
 62
     3
100
AcDbLine
 10
679.227356
 20
223.215509
 30
0.0
 11
672.727356
 21
223.215479
 31
0.0
  0
LINE
  5
165
100
AcDbEntity
  8
LAY-3
  6
DASHED2
 62
     3
100
AcDbLine
 10
693.977356
 20
219.965485
 30
0.0
 11
693.977356
 21
220.465479
 31
0.0
  0
LINE
  5
166
100
AcDbEntity
  8
LAY-3
  6
DASHED2
 62
     3
100
AcDbLine
 10
681.977356
 20
219.965485
 30
0.0
 11
681.977356
 21
220.365479
 31
0.0
  0
LINE
  5
167
100
AcDbEntity
  8
LAY-3
  6
DASHED2
 62
     3
100
AcDbLine
 10
693.977356
 20
220.465479
 30
0.0
 11
681.977356
 21
220.465479
 31
0.0
  0
LINE
  5
168
100
AcDbEntity
  8
LAY-3
  6
CONTINUOUS
 62
     3
100
AcDbLine
 10
691.227356
 20
240.065485
 30
0.0
 11
684.727356
 21
240.065454
 31
0.0
  0
LINE
  5
169
100
AcDbEntity
  8
LAY-3
  6
DASHED2
 62
     3
100
AcDbLine
 10
684.727356
 20
223.215448
 30
0.0
 11
681.977356
 21
220.465417
 31
0.0
  0
LINE
  5
16A
100
AcDbEntity
  8
LAY-3
  6
DASHED2
 62
     3
100
AcDbLine
 10
691.227325
 20
223.215509
 30
0.0
 11
693.977356
 21
220.465479
 31
0.0
  0
LINE
  5
16B
100
AcDbEntity
  8
LAY-3
  6
DASHED2
 62
     3
100
AcDbLine
 10
691.227356
 20
223.215509
 30
0.0
 11
684.727356
 21
223.215479
 31
0.0
  0
LINE
  5
16C
100
AcDbEntity
  8
LAY-3
  6
DASHED2
 62
     3
100
AcDbLine
 10
672.727356
 20
223.215448
 30
0.0
 11
672.727356
 21
235.765485
 31
0.0
  0
LINE
  5
16D
100
AcDbEntity
  8
LAY-3
  6
DASHED2
 62
     3
100
AcDbLine
 10
679.227325
 20
223.215509
 30
0.0
 11
679.227325
 21
235.765485
 31
0.0
  0
LINE
  5
16E
100
AcDbEntity
  8
LAY-3
  6
DASHED2
 62
     1
100
AcDbLine
 10
678.727356
 20
223.215509
 30
0.0
 11
678.727356
 21
235.765485
 31
0.0
  0
LINE
  5
16F
100
AcDbEntity
  8
LAY-3
  6
DASHED2
 62
     1
100
AcDbLine
 10
673.227386
 20
223.215479
 30
0.0
 11
673.227386
 21
235.765485
 31
0.0
  0
LINE
  5
170
100
AcDbEntity
  8
LAY-3
  6
DASHED2
 62
     3
100
AcDbLine
 10
684.727356
 20
223.215448
 30
0.0
 11
684.727356
 21
235.765485
 31
0.0
  0
LINE
  5
171
100
AcDbEntity
  8
LAY-3
  6
DASHED2
 62
     3
100
AcDbLine
 10
691.227325
 20
223.215509
 30
0.0
 11
691.227325
 21
235.765485
 31
0.0
  0
LINE
  5
172
100
AcDbEntity
  8
LAY-3
  6
DASHED2
 62
     1
100
AcDbLine
 10
690.727356
 20
223.215509
 30
0.0
 11
690.727356
 21
235.765485
 31
0.0
  0
LINE
  5
173
100
AcDbEntity
  8
LAY-3
  6
DASHED2
 62
     1
100
AcDbLine
 10
685.227386
 20
223.215479
 30
0.0
 11
685.227386
 21
235.765485
 31
0.0
  0
LINE
  5
174
100
AcDbEntity
  8
LAY-3
  6
CONTINUOUS
 62
     3
100
AcDbLine
 10
672.727356
 20
235.765485
 30
0.0
 11
672.727356
 21
240.065454
 31
0.0
  0
LINE
  5
175
100
AcDbEntity
  8
LAY-3
  6
CONTINUOUS
 62
     3
100
AcDbLine
 10
679.227337
 20
235.765476
 30
0.0
 11
679.227356
 21
240.065485
 31
0.0
  0
LINE
  5
176
100
AcDbEntity
  8
LAY-3
  6
CONTINUOUS
 62
     1
100
AcDbLine
 10
678.727356
 20
235.765485
 30
0.0
 11
678.727356
 21
240.065485
 31
0.0
  0
LINE
  5
177
100
AcDbEntity
  8
LAY-3
  6
CONTINUOUS
 62
     1
100
AcDbLine
 10
673.227375
 20
235.765478
 30
0.0
 11
673.227356
 21
240.065454
 31
0.0
  0
LINE
  5
178
100
AcDbEntity
  8
LAY-3
  6
CONTINUOUS
 62
     3
100
AcDbLine
 10
684.727356
 20
235.765485
 30
0.0
 11
684.727356
 21
240.065454
 31
0.0
  0
LINE
  5
179
100
AcDbEntity
  8
LAY-3
  6
CONTINUOUS
 62
     3
100
AcDbLine
 10
691.227337
 20
235.765476
 30
0.0
 11
691.227356
 21
240.065485
 31
0.0
  0
LINE
  5
17A
100
AcDbEntity
  8
LAY-3
  6
CONTINUOUS
 62
     1
100
AcDbLine
 10
690.727356
 20
235.765485
 30
0.0
 11
690.727356
 21
240.065485
 31
0.0
  0
LINE
  5
17B
100
AcDbEntity
  8
LAY-3
  6
CONTINUOUS
 62
     1
100
AcDbLine
 10
685.227375
 20
235.765478
 30
0.0
 11
685.227356
 21
240.065454
 31
0.0
  0
LINE
  5
17C
100
AcDbEntity
  8
LAY-3
  6
CONTINUOUS
 62
     3
100
AcDbLine
 10
321.503397
 20
387.991089
 30
0.0
 11
321.503397
 21
415.991089
 31
0.0
  0
LINE
  5
17D
100
AcDbEntity
  8
LAY-3
  6
CONTINUOUS
 62
     3
100
AcDbLine
 10
371.503381
 20
391.991089
 30
0.0
 11
371.503397
 21
395.991089
 31
0.0
  0
LINE
  5
17E
100
AcDbEntity
  8
LAY-3
  6
CONTINUOUS
 62
     3
100
AcDbLine
 10
331.503397
 20
425.991089
 30
0.0
 11
408.503397
 21
425.991089
 31
0.0
  0
LINE
  5
17F
100
AcDbEntity
  8
LAY-3
  6
CONTINUOUS
 62
     3
100
AcDbLine
 10
411.503397
 20
422.991089
 30
0.0
 11
411.503397
 21
400.991089
 31
0.0
  0
LINE
  5
180
100
AcDbEntity
  8
LAY-3
  6
CONTINUOUS
 62
     3
100
AcDbLine
 10
408.503397
 20
397.991089
 30
0.0
 11
373.503397
 21
397.991089
 31
0.0
  0
ARC
  5
181
100
AcDbEntity
  8
LAY-3
  6
CONTINUOUS
 62
     3
100
AcDbCircle
 10
373.503397
 20
395.991089
 30
0.0
 40
2.0
100
AcDbArc
 50
90.00002
 51
179.999944
  0
ARC
  5
182
100
AcDbEntity
  8
LAY-3
  6
CONTINUOUS
 62
     3
100
AcDbCircle
 10
408.503397
 20
400.991089
 30
0.0
 40
3.0
100
AcDbArc
 50
269.999982
 51
0.000021
  0
ARC
  5
183
100
AcDbEntity
  8
LAY-3
  6
CONTINUOUS
 62
     3
100
AcDbCircle
 10
408.503397
 20
422.991089
 30
0.0
 40
3.0
100
AcDbArc
 50
359.999981
 51
90.00002
  0
ARC
  5
184
100
AcDbEntity
  8
LAY-3
  6
CONTINUOUS
 62
     3
100
AcDbCircle
 10
331.503397
 20
415.991089
 30
0.0
 40
10.0
100
AcDbArc
 50
90.00002
 51
180.000001
  0
CIRCLE
  5
185
100
AcDbEntity
  8
LAY-3
  6
DASHED2
 62
     3
100
AcDbCircle
 10
331.503397
 20
404.991089
 30
0.0
 40
6.0
  0
CIRCLE
  5
186
100
AcDbEntity
  8
LAY-3
  6
CONTINUOUS
 62
     3
100
AcDbCircle
 10
331.503397
 20
404.991089
 30
0.0
 40
3.25
  0
CIRCLE
  5
187
100
AcDbEntity
  8
LAY-3
  6
DASHED2
 62
     3
100
AcDbCircle
 10
378.503381
 20
404.991089
 30
0.0
 40
6.0
  0
CIRCLE
  5
188
100
AcDbEntity
  8
LAY-3
  6
CONTINUOUS
 62
     3
100
AcDbCircle
 10
378.503381
 20
404.991089
 30
0.0
 40
3.25
  0
CIRCLE
  5
189
100
AcDbEntity
  8
LAY-3
  6
DASHED2
 62
     3
100
AcDbCircle
 10
354.503397
 20
416.991089
 30
0.0
 40
6.0
  0
CIRCLE
  5
18A
100
AcDbEntity
  8
LAY-3
  6
CONTINUOUS
 62
     3
100
AcDbCircle
 10
354.503397
 20
416.991089
 30
0.0
 40
3.25
  0
CIRCLE
  5
18B
100
AcDbEntity
  8
LAY-3
  6
DASHED2
 62
     3
100
AcDbCircle
 10
401.503381
 20
416.991089
 30
0.0
 40
6.0
  0
CIRCLE
  5
18C
100
AcDbEntity
  8
LAY-3
  6
CONTINUOUS
 62
     3
100
AcDbCircle
 10
401.503381
 20
416.991089
 30
0.0
 40
3.25
  0
LINE
  5
18D
100
AcDbEntity
  8
LAY-3
  6
CONTINUOUS
 62
     3
100
AcDbLine
 10
321.503397
 20
391.991089
 30
0.0
 11
375.503397
 21
391.991089
 31
0.0
  0
CIRCLE
  5
18E
100
AcDbEntity
  8
LAY-3
  6
DASHED2
 62
     3
100
AcDbCircle
 10
317.503377
 20
369.991089
 30
0.0
 40
6.0
  0
ARC
  5
18F
100
AcDbEntity
  8
LAY-3
  6
DASHED2
 62
     3
100
AcDbCircle
 10
368.503381
 20
383.847473
 30
0.0
 40
3.0
100
AcDbArc
 50
300.000013
 51
359.999981
  0
ARC
  5
190
100
AcDbEntity
  8
LAY-3
  6
CONTINUOUS
 62
     3
100
AcDbCircle
 10
373.503427
 20
383.847504
 30
0.0
 40
2.0
100
AcDbArc
 50
300.000013
 51
359.999981
  0
LINE
  5
191
100
AcDbEntity
  8
LAY-3
  6
CONTINUOUS
 62
     3
100
AcDbLine
 10
375.503427
 20
383.847504
 30
0.0
 11
375.503427
 21
391.991089
 31
0.0
  0
ARC
  5
192
100
AcDbEntity
  8
LAY-3
  6
DASHED2
 62
     3
100
AcDbCircle
 10
373.503427
 20
383.847504
 30
0.0
 40
1.4
100
AcDbArc
 50
300.000242
 51
359.999981
  0
LINE
  5
193
100
AcDbEntity
  8
LAY-3
  6
DASHED2
 62
     3
100
AcDbLine
 10
374.903421
 20
391.991089
 30
0.0
 11
374.903421
 21
383.847504
 31
0.0
  0
LINE
  5
194
100
AcDbEntity
  8
LAY-3
  6
DASHED2
 62
     3
100
AcDbLine
 10
371.503412
 20
391.991058
 30
0.0
 11
371.503412
 21
383.847473
 31
0.0
  0
LINE
  5
195
100
AcDbEntity
  8
LAY-3
  6
CONTINUOUS
 62
     3
100
AcDbLine
 10
325.380289
 20
353.754211
 30
0.0
 11
374.503427
 21
382.115448
 31
0.0
  0
LINE
  5
196
100
AcDbEntity
  8
LAY-3
  6
DASHED2
 62
     3
100
AcDbLine
 10
326.203378
 20
354.922272
 30
0.0
 11
374.203424
 21
382.635071
 31
0.0
  0
LINE
  5
197
100
AcDbEntity
  8
LAY-3
  6
DASHED2
 62
     3
100
AcDbLine
 10
324.595667
 20
355.033234
 30
0.0
 11
370.003381
 21
381.24939
 31
0.0
  0
ARC
  5
198
100
AcDbEntity
  8
LAY-3
  6
CONTINUOUS
 62
     3
100
AcDbCircle
 10
317.503397
 20
369.991089
 30
0.0
 40
18.0
100
AcDbArc
 50
90.00002
 51
295.868397
  0
ARC
  5
199
100
AcDbEntity
  8
LAY-3
  6
DASHED2
 62
     3
100
AcDbCircle
 10
317.503397
 20
369.991089
 30
0.0
 40
16.5
100
AcDbArc
 50
90.00002
 51
295.352792
  0
ARC
  5
19A
100
AcDbEntity
  8
LAY-3
  6
DASHED2
 62
     3
100
AcDbCircle
 10
317.503397
 20
369.991089
 30
0.0
 40
17.4
100
AcDbArc
 50
90.00002
 51
299.999995
  0
CIRCLE
  5
19B
100
AcDbEntity
  8
LAY-3
  6
DASHED2
 62
     3
100
AcDbCircle
 10
317.503397
 20
369.991089
 30
0.0
 40
14.0
  0
LINE
  5
19C
100
AcDbEntity
  8
LAY-3
  6
DASHED2
 62
     3
100
AcDbLine
 10
317.503397
 20
386.491089
 30
0.0
 11
319.503404
 21
386.491089
 31
0.0
  0
ARC
  5
19D
100
AcDbEntity
  8
LAY-3
  6
DASHED2
 62
     3
100
AcDbCircle
 10
319.503404
 20
388.491089
 30
0.0
 40
2.0
100
AcDbArc
 50
269.999982
 51
0.000021
  0
LINE
  5
19E
100
AcDbEntity
  8
LAY-3
  6
CONTINUOUS
 62
     3
100
AcDbLine
 10
321.503397
 20
387.991089
 30
0.0
 11
317.503397
 21
387.991089
 31
0.0
  0
LINE
  5
19F
100
AcDbEntity
  8
LAY-3
  6
DASHED2
 62
     3
100
AcDbLine
 10
321.503404
 20
387.391083
 30
0.0
 11
317.503397
 21
387.391083
 31
0.0
  0
LINE
  5
1A0
100
AcDbEntity
  8
LAY-3
  6
DASHED2
 62
     3
100
AcDbLine
 10
321.503404
 20
387.991058
 30
0.0
 11
321.503404
 21
387.391083
 31
0.0
  0
LINE
  5
1A1
100
AcDbEntity
  8
LAY-4
  6
DASHED2
 62
     3
100
AcDbLine
 10
686.378472
 20
211.265455
 30
0.0
 11
691.378472
 21
211.265455
 31
0.0
  0
LINE
  5
1A2
100
AcDbEntity
  8
LAY-4
  6
DASHED2
 62
     3
100
AcDbLine
 10
691.378472
 20
211.265455
 30
0.0
 11
693.528472
 21
213.415455
 31
0.0
  0
LINE
  5
1A3
100
AcDbEntity
  8
LAY-4
  6
DASHED2
 62
     3
100
AcDbLine
 10
686.378472
 20
211.265455
 30
0.0
 11
684.228472
 21
213.415455
 31
0.0
  0
LINE
  5
1A4
100
AcDbEntity
  8
LAY-4
  6
DASHED2
 62
     3
100
AcDbLine
 10
693.528472
 20
213.415455
 30
0.0
 11
684.228472
 21
213.415455
 31
0.0
  0
LINE
  5
1A5
100
AcDbEntity
  8
LAY-4
  6
DASHED2
 62
     3
100
AcDbLine
 10
693.528472
 20
213.415455
 30
0.0
 11
693.528472
 21
213.965455
 31
0.0
  0
LINE
  5
1A6
100
AcDbEntity
  8
LAY-4
  6
DASHED2
 62
     3
100
AcDbLine
 10
684.228472
 20
213.415455
 30
0.0
 11
684.228472
 21
213.965455
 31
0.0
  0
LINE
  5
1A7
100
AcDbEntity
  8
LAY-4
  6
DASHED2
 62
     3
100
AcDbLine
 10
691.378472
 20
198.965455
 30
0.0
 11
691.378472
 21
211.265455
 31
0.0
  0
LINE
  5
1A8
100
AcDbEntity
  8
LAY-4
  6
DASHED2
 62
     1
100
AcDbLine
 10
690.878472
 20
198.965455
 30
0.0
 11
690.878472
 21
211.265455
 31
0.0
  0
LINE
  5
1A9
100
AcDbEntity
  8
LAY-4
  6
DASHED2
 62
     1
100
AcDbLine
 10
686.878472
 20
198.965455
 30
0.0
 11
686.878472
 21
211.265455
 31
0.0
  0
LINE
  5
1AA
100
AcDbEntity
  8
LAY-4
  6
DASHED2
 62
     3
100
AcDbLine
 10
686.378472
 20
198.965455
 30
0.0
 11
686.378472
 21
211.265455
 31
0.0
  0
LINE
  5
1AB
100
AcDbEntity
  8
LAY-4
  6
CONTINUOUS
 62
     3
100
AcDbLine
 10
686.378472
 20
193.415455
 30
0.0
 11
691.378472
 21
193.415455
 31
0.0
  0
LINE
  5
1AC
100
AcDbEntity
  8
LAY-4
  6
CONTINUOUS
 62
     3
100
AcDbLine
 10
691.378472
 20
193.415455
 30
0.0
 11
691.378472
 21
198.965455
 31
0.0
  0
LINE
  5
1AD
100
AcDbEntity
  8
LAY-4
  6
CONTINUOUS
 62
     1
100
AcDbLine
 10
690.878472
 20
193.415455
 30
0.0
 11
690.878472
 21
198.965455
 31
0.0
  0
LINE
  5
1AE
100
AcDbEntity
  8
LAY-4
  6
CONTINUOUS
 62
     1
100
AcDbLine
 10
686.878472
 20
193.415455
 30
0.0
 11
686.878472
 21
198.965455
 31
0.0
  0
LINE
  5
1AF
100
AcDbEntity
  8
LAY-4
  6
CONTINUOUS
 62
     3
100
AcDbLine
 10
686.378472
 20
193.415455
 30
0.0
 11
686.378472
 21
198.965455
 31
0.0
  0
LINE
  5
1B0
100
AcDbEntity
  8
LAY-4
  6
DASHED2
 62
     3
100
AcDbLine
 10
670.378472
 20
211.265455
 30
0.0
 11
675.378472
 21
211.265455
 31
0.0
  0
LINE
  5
1B1
100
AcDbEntity
  8
LAY-4
  6
DASHED2
 62
     3
100
AcDbLine
 10
675.378472
 20
211.265455
 30
0.0
 11
677.528472
 21
213.415455
 31
0.0
  0
LINE
  5
1B2
100
AcDbEntity
  8
LAY-4
  6
DASHED2
 62
     3
100
AcDbLine
 10
670.378472
 20
211.265455
 30
0.0
 11
668.228472
 21
213.415455
 31
0.0
  0
LINE
  5
1B3
100
AcDbEntity
  8
LAY-4
  6
DASHED2
 62
     3
100
AcDbLine
 10
677.528472
 20
213.415455
 30
0.0
 11
668.228472
 21
213.415455
 31
0.0
  0
LINE
  5
1B4
100
AcDbEntity
  8
LAY-4
  6
DASHED2
 62
     3
100
AcDbLine
 10
677.528472
 20
213.415455
 30
0.0
 11
677.528472
 21
213.965455
 31
0.0
  0
LINE
  5
1B5
100
AcDbEntity
  8
LAY-4
  6
DASHED2
 62
     3
100
AcDbLine
 10
668.228472
 20
213.415455
 30
0.0
 11
668.228472
 21
213.965455
 31
0.0
  0
LINE
  5
1B6
100
AcDbEntity
  8
LAY-4
  6
DASHED2
 62
     3
100
AcDbLine
 10
675.378472
 20
198.965455
 30
0.0
 11
675.378472
 21
211.265455
 31
0.0
  0
LINE
  5
1B7
100
AcDbEntity
  8
LAY-4
  6
DASHED2
 62
     1
100
AcDbLine
 10
674.878472
 20
198.965455
 30
0.0
 11
674.878472
 21
211.265455
 31
0.0
  0
LINE
  5
1B8
100
AcDbEntity
  8
LAY-4
  6
DASHED2
 62
     1
100
AcDbLine
 10
670.878472
 20
198.965455
 30
0.0
 11
670.878472
 21
211.265455
 31
0.0
  0
LINE
  5
1B9
100
AcDbEntity
  8
LAY-4
  6
DASHED2
 62
     3
100
AcDbLine
 10
670.378472
 20
198.965455
 30
0.0
 11
670.378472
 21
211.265455
 31
0.0
  0
LINE
  5
1BA
100
AcDbEntity
  8
LAY-4
  6
CONTINUOUS
 62
     3
100
AcDbLine
 10
670.378472
 20
193.415455
 30
0.0
 11
675.378472
 21
193.415455
 31
0.0
  0
LINE
  5
1BB
100
AcDbEntity
  8
LAY-4
  6
CONTINUOUS
 62
     3
100
AcDbLine
 10
675.378472
 20
193.415455
 30
0.0
 11
675.378472
 21
198.965455
 31
0.0
  0
LINE
  5
1BC
100
AcDbEntity
  8
LAY-4
  6
CONTINUOUS
 62
     1
100
AcDbLine
 10
674.878472
 20
193.415455
 30
0.0
 11
674.878472
 21
198.965455
 31
0.0
  0
LINE
  5
1BD
100
AcDbEntity
  8
LAY-4
  6
CONTINUOUS
 62
     1
100
AcDbLine
 10
670.878472
 20
193.415455
 30
0.0
 11
670.878472
 21
198.965455
 31
0.0
  0
LINE
  5
1BE
100
AcDbEntity
  8
LAY-4
  6
CONTINUOUS
 62
     3
100
AcDbLine
 10
670.378472
 20
193.415455
 30
0.0
 11
670.378472
 21
198.965455
 31
0.0
  0
LINE
  5
1BF
100
AcDbEntity
  8
LAY-4
  6
CONTINUOUS
 62
     3
100
AcDbLine
 10
622.977325
 20
210.965546
 30
0.0
 11
622.977325
 21
197.965546
 31
0.0
  0
ARC
  5
1C0
100
AcDbEntity
  8
LAY-4
  6
CONTINUOUS
 62
     3
100
AcDbCircle
 10
623.977325
 20
210.965546
 30
0.0
 40
1.0
100
AcDbArc
 50
90.00002
 51
180.0
  0
ARC
  5
1C1
100
AcDbEntity
  8
LAY-4
  6
DASHED2
 62
     3
100
AcDbCircle
 10
623.977325
 20
210.965546
 30
0.0
 40
0.4
100
AcDbArc
 50
90.00002
 51
180.0
  0
LINE
  5
1C2
100
AcDbEntity
  8
LAY-4
  6
DASHED2
 62
     3
100
AcDbLine
 10
623.577332
 20
210.965546
 30
0.0
 11
623.577332
 21
197.965546
 31
0.0
  0
LINE
  5
1C3
100
AcDbEntity
  8
LAY-4
  6
CONTINUOUS
 62
     3
100
AcDbLine
 10
622.977325
 20
197.965546
 30
0.0
 11
659.977325
 21
197.965546
 31
0.0
  0
LINE
  5
1C4
100
AcDbEntity
  8
LAY-4
  6
CONTINUOUS
 62
     3
100
AcDbLine
 10
659.977325
 20
211.965546
 30
0.0
 11
623.977325
 21
211.965546
 31
0.0
  0
LINE
  5
1C5
100
AcDbEntity
  8
LAY-4
  6
DASHED2
 62
     3
100
AcDbLine
 10
659.977325
 20
211.36554
 30
0.0
 11
623.977325
 21
211.36554
 31
0.0
  0
LINE
  5
1C6
100
AcDbEntity
  8
LAY-4
  6
CONTINUOUS
 62
     3
100
AcDbLine
 10
659.977325
 20
211.965546
 30
0.0
 11
659.977325
 21
197.965546
 31
0.0
  0
LINE
  5
1C7
100
AcDbEntity
  8
LAY-4
  6
CONTINUOUS
 62
     3
100
AcDbLine
 10
659.977325
 20
197.965515
 30
0.0
 11
698.477356
 21
197.965546
 31
0.0
  0
LINE
  5
1C8
100
AcDbEntity
  8
LAY-4
  6
CONTINUOUS
 62
     3
100
AcDbLine
 10
699.977356
 20
199.465546
 30
0.0
 11
699.977356
 21
205.465546
 31
0.0
  0
ARC
  5
1C9
100
AcDbEntity
  8
LAY-4
  6
CONTINUOUS
 62
     3
100
AcDbCircle
 10
698.477356
 20
205.465546
 30
0.0
 40
1.5
100
AcDbArc
 50
359.999981
 51
90.00002
  0
ARC
  5
1CA
100
AcDbEntity
  8
LAY-4
  6
CONTINUOUS
 62
     3
100
AcDbCircle
 10
698.477356
 20
199.465546
 30
0.0
 40
1.5
100
AcDbArc
 50
269.999982
 51
0.000021
  0
LINE
  5
1CB
100
AcDbEntity
  8
LAY-4
  6
CONTINUOUS
 62
     3
100
AcDbLine
 10
659.977325
 20
206.965515
 30
0.0
 11
698.477356
 21
206.965546
 31
0.0
  0
LINE
  5
1CC
100
AcDbEntity
  8
LAY-4
  6
CONTINUOUS
 62
     3
100
AcDbLine
 10
628.477356
 20
219.965485
 30
0.0
 11
628.477356
 21
211.965546
 31
0.0
  0
LINE
  5
1CD
100
AcDbEntity
  8
LAY-4
  6
CONTINUOUS
 62
     3
100
AcDbLine
 10
653.477356
 20
219.965485
 30
0.0
 11
653.477356
 21
211.965546
 31
0.0
  0
LINE
  5
1CE
100
AcDbEntity
  8
LAY-4
  6
CONTINUOUS
 62
     3
100
AcDbLine
 10
368.503412
 20
262.06131
 30
0.0
 11
324.503397
 21
262.06134
 31
0.0
  0
ARC
  5
1CF
100
AcDbEntity
  8
LAY-4
  6
CONTINUOUS
 62
     3
100
AcDbCircle
 10
324.503397
 20
259.06134
 30
0.0
 40
3.0
100
AcDbArc
 50
90.00002
 51
180.0
  0
ARC
  5
1D0
100
AcDbEntity
  8
LAY-4
  6
CONTINUOUS
 62
     3
100
AcDbCircle
 10
368.503412
 20
259.06131
 30
0.0
 40
3.0
100
AcDbArc
 50
359.999981
 51
90.00002
  0
LINE
  5
1D1
100
AcDbEntity
  8
LAY-4
  6
CONTINUOUS
 62
     3
100
AcDbLine
 10
371.503412
 20
222.06134
 30
0.0
 11
371.503412
 21
259.06131
 31
0.0
  0
LINE
  5
1D2
100
AcDbEntity
  8
LAY-4
  6
CONTINUOUS
 62
     3
100
AcDbLine
 10
321.503397
 20
222.06134
 30
0.0
 11
375.503412
 21
222.06134
 31
0.0
  0
LINE
  5
1D3
100
AcDbEntity
  8
LAY-4
  6
CONTINUOUS
 62
     3
100
AcDbLine
 10
321.503397
 20
222.06134
 30
0.0
 11
321.503397
 21
259.06134
 31
0.0
  0
CIRCLE
  5
1D4
100
AcDbEntity
  8
LAY-4
  6
CONTINUOUS
 62
     1
100
AcDbCircle
 10
331.503393
 20
235.061354
 30
0.0
 40
2.5
  0
CIRCLE
  5
1D5
100
AcDbEntity
  8
LAY-4
  6
CONTINUOUS
 62
     3
100
AcDbCircle
 10
331.503393
 20
235.061354
 30
0.0
 40
2.0
  0
CIRCLE
  5
1D6
100
AcDbEntity
  8
LAY-4
  6
CONTINUOUS
 62
     1
100
AcDbCircle
 10
331.503393
 20
251.061354
 30
0.0
 40
2.5
  0
CIRCLE
  5
1D7
100
AcDbEntity
  8
LAY-4
  6
CONTINUOUS
 62
     3
100
AcDbCircle
 10
331.503393
 20
251.061354
 30
0.0
 40
2.0
  0
CIRCLE
  5
1D8
100
AcDbEntity
  8
LAY-4
  6
CONTINUOUS
 62
     1
100
AcDbCircle
 10
361.503393
 20
235.061354
 30
0.0
 40
2.5
  0
CIRCLE
  5
1D9
100
AcDbEntity
  8
LAY-4
  6
CONTINUOUS
 62
     3
100
AcDbCircle
 10
361.503393
 20
235.061354
 30
0.0
 40
2.0
  0
CIRCLE
  5
1DA
100
AcDbEntity
  8
LAY-4
  6
CONTINUOUS
 62
     1
100
AcDbCircle
 10
361.503393
 20
251.061354
 30
0.0
 40
2.5
  0
CIRCLE
  5
1DB
100
AcDbEntity
  8
LAY-4
  6
CONTINUOUS
 62
     3
100
AcDbCircle
 10
361.503393
 20
251.061354
 30
0.0
 40
2.0
  0
LINE
  5
1DC
100
AcDbEntity
  8
LAY-4
  6
DASHED2
 62
     3
100
AcDbLine
 10
326.203409
 20
187.992493
 30
0.0
 11
374.203439
 21
215.705322
 31
0.0
  0
LINE
  5
1DD
100
AcDbEntity
  8
LAY-4
  6
CONTINUOUS
 62
     3
100
AcDbLine
 10
325.380296
 20
186.824463
 30
0.0
 11
374.503442
 21
215.185699
 31
0.0
  0
LINE
  5
1DE
100
AcDbEntity
  8
LAY-4
  6
DASHED2
 62
     3
100
AcDbLine
 10
371.503412
 20
222.06134
 30
0.0
 11
371.503412
 21
216.993378
 31
0.0
  0
LINE
  5
1DF
100
AcDbEntity
  8
LAY-4
  6
DASHED2
 62
     3
100
AcDbLine
 10
374.903436
 20
222.06134
 30
0.0
 11
374.903436
 21
216.917755
 31
0.0
  0
LINE
  5
1E0
100
AcDbEntity
  8
LAY-4
  6
CONTINUOUS
 62
     3
100
AcDbLine
 10
375.503442
 20
216.917755
 30
0.0
 11
375.503442
 21
222.06134
 31
0.0
  0
ARC
  5
1E1
100
AcDbEntity
  8
LAY-4
  6
DASHED2
 62
     3
100
AcDbCircle
 10
373.503442
 20
216.917755
 30
0.0
 40
1.4
100
AcDbArc
 50
299.999956
 51
359.999981
  0
ARC
  5
1E2
100
AcDbEntity
  8
LAY-4
  6
CONTINUOUS
 62
     3
100
AcDbCircle
 10
373.503442
 20
216.917755
 30
0.0
 40
2.0
100
AcDbArc
 50
300.000013
 51
359.999981
  0
ARC
  5
1E3
100
AcDbEntity
  8
LAY-4
  6
DASHED2
 62
     3
100
AcDbCircle
 10
368.503412
 20
216.993378
 30
0.0
 40
3.0
100
AcDbArc
 50
300.000013
 51
359.999981
  0
LINE
  5
1E4
100
AcDbEntity
  8
LAY-4
  6
DASHED2
 62
     3
100
AcDbLine
 10
326.745348
 20
189.420227
 30
0.0
 11
370.003412
 21
214.395294
 31
0.0
  0
ARC
  5
1E5
100
AcDbEntity
  8
LAY-4
  6
DASHED2
 62
     3
100
AcDbCircle
 10
317.503404
 20
203.06134
 30
0.0
 40
16.5
100
AcDbArc
 50
90.00002
 51
304.112171
  0
CIRCLE
  5
1E6
100
AcDbEntity
  8
LAY-4
  6
CONTINUOUS
 62
     3
100
AcDbCircle
 10
317.503397
 20
203.06134
 30
0.0
 40
5.0
  0
CIRCLE
  5
1E7
100
AcDbEntity
  8
LAY-4
  6
CONTINUOUS
 62
     3
100
AcDbCircle
 10
317.503397
 20
203.06134
 30
0.0
 40
12.5
  0
ARC
  5
1E8
100
AcDbEntity
  8
LAY-4
  6
DASHED2
 62
     3
100
AcDbCircle
 10
317.503404
 20
203.06134
 30
0.0
 40
17.4
100
AcDbArc
 50
90.00002
 51
300.000053
  0
CIRCLE
  5
1E9
100
AcDbEntity
  8
LAY-4
  6
CONTINUOUS
 62
     3
100
AcDbCircle
 10
317.503389
 20
203.06131
 30
0.0
 40
6.0
  0
ARC
  5
1EA
100
AcDbEntity
  8
LAY-4
  6
CONTINUOUS
 62
     3
100
AcDbCircle
 10
317.503404
 20
203.06134
 30
0.0
 40
18.0
100
AcDbArc
 50
90.00002
 51
295.868397
  0
ARC
  5
1EB
100
AcDbEntity
  8
LAY-4
  6
DASHED2
 62
     3
100
AcDbCircle
 10
319.503397
 20
221.56134
 30
0.0
 40
2.0
100
AcDbArc
 50
269.999982
 51
0.000021
  0
LINE
  5
1EC
100
AcDbEntity
  8
LAY-4
  6
CONTINUOUS
 62
     3
100
AcDbLine
 10
321.43989
 20
221.06134
 30
0.0
 11
317.503397
 21
221.06134
 31
0.0
  0
LINE
  5
1ED
100
AcDbEntity
  8
LAY-4
  6
CONTINUOUS
 62
     3
100
AcDbLine
 10
321.503397
 20
221.56134
 30
0.0
 11
321.503397
 21
222.06134
 31
0.0
  0
LINE
  5
1EE
100
AcDbEntity
  8
LAY-4
  6
DASHED2
 62
     3
100
AcDbLine
 10
317.503404
 20
219.56134
 30
0.0
 11
319.503404
 21
219.56134
 31
0.0
  0
LINE
  5
1EF
100
AcDbEntity
  8
LAY-4
  6
DASHED2
 62
     3
100
AcDbLine
 10
321.17373
 20
220.461334
 30
0.0
 11
317.503404
 21
220.461334
 31
0.0
  0
LINE
  5
1F0
100
AcDbEntity
  8
LAY-5
  6
DASHDOT
 62
     1
100
AcDbLine
 10
107.503397
 20
223.419495
 30
0.0
 11
107.503404
 21
181.061341
 31
0.0
  0
LINE
  5
1F1
100
AcDbEntity
  8
LAY-5
  6
DASHDOT
 62
     1
100
AcDbLine
 10
121.503404
 20
259.383972
 30
0.0
 11
121.503404
 21
227.061341
 31
0.0
  0
LINE
  5
1F2
100
AcDbEntity
  8
LAY-5
  6
DASHDOT
 62
     1
100
AcDbLine
 10
151.503412
 20
259.383972
 30
0.0
 11
151.503412
 21
227.061341
 31
0.0
  0
LINE
  5
1F3
100
AcDbEntity
  8
LAY-5
  6
DASHDOT
 62
     1
100
AcDbLine
 10
159.6
 20
235.061341
 30
0.0
 11
142.894922
 21
235.061341
 31
0.0
  0
LINE
  5
1F4
100
AcDbEntity
  8
LAY-5
  6
DASHDOT
 62
     1
100
AcDbLine
 10
130.482156
 20
235.061341
 30
0.0
 11
113.581705
 21
235.061341
 31
0.0
  0
LINE
  5
1F5
100
AcDbEntity
  8
LAY-5
  6
DASHDOT
 62
     1
100
AcDbLine
 10
159.6
 20
251.061341
 30
0.0
 11
142.894922
 21
251.061341
 31
0.0
  0
LINE
  5
1F6
100
AcDbEntity
  8
LAY-5
  6
DASHDOT
 62
     1
100
AcDbLine
 10
130.482156
 20
251.061341
 30
0.0
 11
113.581705
 21
251.061341
 31
0.0
  0
LINE
  5
1F7
100
AcDbEntity
  8
LAY-5
  6
DASHDOT
 62
     1
100
AcDbLine
 10
104.821868
 20
207.705845
 30
0.0
 11
97.026132
 21
221.208467
 31
0.0
  0
LINE
  5
1F8
100
AcDbEntity
  8
LAY-5
  6
DASHDOT
 62
     1
100
AcDbLine
 10
121.503381
 20
422.991028
 30
0.0
 11
121.503381
 21
412.991028
 31
0.0
  0
LINE
  5
1F9
100
AcDbEntity
  8
LAY-5
  6
DASHDOT
 62
     1
100
AcDbLine
 10
116.503381
 20
417.991028
 30
0.0
 11
126.503381
 21
417.991028
 31
0.0
  0
LINE
  5
1FA
100
AcDbEntity
  8
LAY-5
  6
DASHDOT
 62
     1
100
AcDbLine
 10
121.503381
 20
406.991028
 30
0.0
 11
121.503381
 21
396.991028
 31
0.0
  0
LINE
  5
1FB
100
AcDbEntity
  8
LAY-5
  6
DASHDOT
 62
     1
100
AcDbLine
 10
116.503381
 20
401.991028
 30
0.0
 11
126.503381
 21
401.991028
 31
0.0
  0
LINE
  5
1FC
100
AcDbEntity
  8
LAY-5
  6
DASHDOT
 62
     1
100
AcDbLine
 10
146.503381
 20
401.991028
 30
0.0
 11
156.503381
 21
401.991028
 31
0.0
  0
LINE
  5
1FD
100
AcDbEntity
  8
LAY-5
  6
DASHDOT
 62
     1
100
AcDbLine
 10
151.503381
 20
406.991028
 30
0.0
 11
151.503381
 21
396.991028
 31
0.0
  0
LINE
  5
1FE
100
AcDbEntity
  8
LAY-5
  6
DASHDOT
 62
     1
100
AcDbLine
 10
146.503381
 20
417.991028
 30
0.0
 11
156.503381
 21
417.991028
 31
0.0
  0
LINE
  5
1FF
100
AcDbEntity
  8
LAY-5
  6
DASHDOT
 62
     1
100
AcDbLine
 10
151.503381
 20
422.991028
 30
0.0
 11
151.503381
 21
412.991028
 31
0.0
  0
LINE
  5
200
100
AcDbEntity
  8
LAY-5
  6
DASHDOT
 62
     1
100
AcDbLine
 10
640.977325
 20
399.866226
 30
0.0
 11
640.977325
 21
436.750595
 31
0.0
  0
LINE
  5
201
100
AcDbEntity
  8
LAY-5
  6
DASHDOT
 62
     1
100
AcDbLine
 10
672.977295
 20
418.378952
 30
0.0
 11
672.977295
 21
394.3
 31
0.0
  0
LINE
  5
202
100
AcDbEntity
  8
LAY-5
  6
DASHDOT
 62
     1
100
AcDbLine
 10
688.977295
 20
418.378952
 30
0.0
 11
688.977295
 21
394.3
 31
0.0
  0
LINE
  5
203
100
AcDbEntity
  8
LAY-5
  6
DASHDOT
 62
     1
100
AcDbLine
 10
675.977356
 20
243.0
 30
0.0
 11
675.977356
 21
216.132721
 31
0.0
  0
LINE
  5
204
100
AcDbEntity
  8
LAY-5
  6
DASHDOT
 62
     1
100
AcDbLine
 10
687.977356
 20
243.0
 30
0.0
 11
687.977356
 21
216.132721
 31
0.0
  0
LINE
  5
205
100
AcDbEntity
  8
LAY-5
  6
DASHDOT
 62
     1
100
AcDbLine
 10
640.977356
 20
194.453857
 30
0.0
 11
640.977356
 21
237.056885
 31
0.0
  0
LINE
  5
206
100
AcDbEntity
  8
LAY-5
  6
DASHDOT
 62
     1
100
AcDbLine
 10
672.977295
 20
442.3
 30
0.0
 11
672.977295
 21
419.2
 31
0.0
  0
LINE
  5
207
100
AcDbEntity
  8
LAY-5
  6
DASHDOT
 62
     1
100
AcDbLine
 10
688.977295
 20
442.3
 30
0.0
 11
688.977295
 21
419.2
 31
0.0
  0
LINE
  5
208
100
AcDbEntity
  8
LAY-5
  6
DASHDOT
 62
     1
100
AcDbLine
 10
672.878472
 20
189.965455
 30
0.0
 11
672.878472
 21
215.465455
 31
0.0
  0
LINE
  5
209
100
AcDbEntity
  8
LAY-5
  6
DASHDOT
 62
     1
100
AcDbLine
 10
688.878472
 20
189.965455
 30
0.0
 11
688.878472
 21
215.465455
 31
0.0
  0
LINE
  5
20A
100
AcDbEntity
  8
LAY-5
  6
DASHDOT
 62
     1
100
AcDbLine
 10
317.503374
 20
390.048096
 30
0.0
 11
317.503381
 21
347.991119
 31
0.0
  0
LINE
  5
20B
100
AcDbEntity
  8
LAY-5
  6
DASHDOT
 62
     1
100
AcDbLine
 10
331.503397
 20
412.4
 30
0.0
 11
331.503397
 21
396.991089
 31
0.0
  0
LINE
  5
20C
100
AcDbEntity
  8
LAY-5
  6
DASHDOT
 62
     1
100
AcDbLine
 10
323.503397
 20
404.991089
 30
0.0
 11
339.718301
 21
404.991089
 31
0.0
  0
LINE
  5
20D
100
AcDbEntity
  8
LAY-5
  6
DASHDOT
 62
     1
100
AcDbLine
 10
378.503397
 20
412.4
 30
0.0
 11
378.503397
 21
396.991089
 31
0.0
  0
LINE
  5
20E
100
AcDbEntity
  8
LAY-5
  6
DASHDOT
 62
     1
100
AcDbLine
 10
385.3
 20
404.991089
 30
0.0
 11
370.503397
 21
404.991089
 31
0.0
  0
LINE
  5
20F
100
AcDbEntity
  8
LAY-5
  6
DASHDOT
 62
     1
100
AcDbLine
 10
354.503412
 20
424.4
 30
0.0
 11
354.503412
 21
408.991089
 31
0.0
  0
LINE
  5
210
100
AcDbEntity
  8
LAY-5
  6
DASHDOT
 62
     1
100
AcDbLine
 10
346.50342
 20
416.991089
 30
0.0
 11
362.718317
 21
416.991089
 31
0.0
  0
LINE
  5
211
100
AcDbEntity
  8
LAY-5
  6
DASHDOT
 62
     1
100
AcDbLine
 10
401.503397
 20
424.4
 30
0.0
 11
401.503397
 21
408.991089
 31
0.0
  0
LINE
  5
212
100
AcDbEntity
  8
LAY-5
  6
DASHDOT
 62
     1
100
AcDbLine
 10
409.1
 20
416.991089
 30
0.0
 11
393.503397
 21
416.991089
 31
0.0
  0
LINE
  5
213
100
AcDbEntity
  8
LAY-5
  6
DASHDOT
 62
     1
100
AcDbLine
 10
331.503393
 20
256.061354
 30
0.0
 11
331.503393
 21
246.061354
 31
0.0
  0
LINE
  5
214
100
AcDbEntity
  8
LAY-5
  6
DASHDOT
 62
     1
100
AcDbLine
 10
326.503393
 20
251.061354
 30
0.0
 11
336.503393
 21
251.061354
 31
0.0
  0
LINE
  5
215
100
AcDbEntity
  8
LAY-5
  6
DASHDOT
 62
     1
100
AcDbLine
 10
361.503393
 20
256.061354
 30
0.0
 11
361.503393
 21
246.061354
 31
0.0
  0
LINE
  5
216
100
AcDbEntity
  8
LAY-5
  6
DASHDOT
 62
     1
100
AcDbLine
 10
356.503393
 20
251.061354
 30
0.0
 11
366.503393
 21
251.061354
 31
0.0
  0
LINE
  5
217
100
AcDbEntity
  8
LAY-5
  6
DASHDOT
 62
     1
100
AcDbLine
 10
361.503393
 20
240.061354
 30
0.0
 11
361.503393
 21
230.061354
 31
0.0
  0
LINE
  5
218
100
AcDbEntity
  8
LAY-5
  6
DASHDOT
 62
     1
100
AcDbLine
 10
356.503393
 20
235.061354
 30
0.0
 11
366.503393
 21
235.061354
 31
0.0
  0
LINE
  5
219
100
AcDbEntity
  8
LAY-5
  6
DASHDOT
 62
     1
100
AcDbLine
 10
331.503393
 20
240.061354
 30
0.0
 11
331.503393
 21
230.061354
 31
0.0
  0
LINE
  5
21A
100
AcDbEntity
  8
LAY-5
  6
DASHDOT
 62
     1
100
AcDbLine
 10
326.503393
 20
235.061354
 30
0.0
 11
336.503393
 21
235.061354
 31
0.0
  0
LINE
  5
21B
100
AcDbEntity
  8
LAY-5
  6
DASHDOT
 62
     1
100
AcDbLine
 10
161.415437
 20
369.99109
 30
0.0
 11
85.749635
 21
369.991081
 31
0.0
  0
LINE
  5
21C
100
AcDbEntity
  8
LAY-5
  6
DASHDOT
 62
     1
100
AcDbLine
 10
107.503373
 20
397.9
 30
0.0
 11
107.503381
 21
347.991119
 31
0.0
  0
LINE
  5
21D
100
AcDbEntity
  8
LAY-5
  6
DASHDOT
 62
     1
100
AcDbLine
 10
371.415419
 20
369.991089
 30
0.0
 11
295.749628
 21
369.991089
 31
0.0
  0
LINE
  5
21E
100
AcDbEntity
  8
LAY-5
  6
DASHDOT
 62
     1
100
AcDbLine
 10
161.415419
 20
203.06131
 30
0.0
 11
85.749658
 21
203.06131
 31
0.0
  0
LINE
  5
21F
100
AcDbEntity
  8
LAY-5
  6
DASHDOT
 62
     1
100
AcDbLine
 10
371.415378
 20
203.06131
 30
0.0
 11
295.749651
 21
203.06131
 31
0.0
  0
LINE
  5
220
100
AcDbEntity
  8
LAY-5
  6
DASHDOT
 62
     1
100
AcDbLine
 10
317.503397
 20
182.616028
 30
0.0
 11
317.503375
 21
239.499999
 31
0.0
  0
TEXT
  5
221
100
AcDbEntity
  8
LAY-6
  6
CONTINUOUS
 62
     2
100
AcDbText
 10
80.763008
 20
354.824071
 30
0.0
 40
5.0
  1
Ｒ
 50
30.0
 41
0.672
  7
EXCADSTD
 72
     5
 11
83.534289
 21
356.424071
 31
0.0
100
AcDbText
  0
TEXT
  5
222
100
AcDbEntity
  8
LAY-6
  6
CONTINUOUS
 62
     2
100
AcDbText
 10
84.22711
 20
356.824071
 30
0.0
 40
5.0
  1
１８
 50
30.0
 41
0.672
  7
EXCADSTD
 72
     5
 11
90.577501
 21
360.490471
 31
0.0
100
AcDbText
  0
LINE
  5
223
100
AcDbEntity
  8
LAY-6
  6
CONTINUOUS
 62
     1
100
AcDbLine
 10
91.914932
 20
360.991058
 30
0.0
 11
107.503389
 21
369.991058
 31
0.0
  0
LINE
  5
224
100
AcDbEntity
  8
LAY-6
  6
CONTINUOUS
 62
     1
100
AcDbLine
 10
94.263008
 20
362.924071
 30
0.0
 11
91.914932
 21
360.991058
 31
0.0
  0
LINE
  5
225
100
AcDbEntity
  8
LAY-6
  6
CONTINUOUS
 62
     1
100
AcDbLine
 10
91.914932
 20
360.991058
 30
0.0
 11
94.763008
 21
362.058045
 31
0.0
  0
TEXT
  5
226
100
AcDbEntity
  8
LAY-6
  6
CONTINUOUS
 62
     2
100
AcDbText
 10
80.763031
 20
187.894297
 30
0.0
 40
5.0
  1
Ｒ
 50
30.0
 41
0.672
  7
EXCADSTD
 72
     5
 11
83.534312
 21
189.494297
 31
0.0
100
AcDbText
  0
TEXT
  5
227
100
AcDbEntity
  8
LAY-6
  6
CONTINUOUS
 62
     2
100
AcDbText
 10
84.227133
 20
189.894297
 30
0.0
 40
5.0
  1
１８
 50
30.0
 41
0.672
  7
EXCADSTD
 72
     5
 11
90.577524
 21
193.560697
 31
0.0
100
AcDbText
  0
LINE
  5
228
100
AcDbEntity
  8
LAY-6
  6
CONTINUOUS
 62
     1
100
AcDbLine
 10
91.914955
 20
194.061284
 30
0.0
 11
107.503412
 21
203.061284
 31
0.0
  0
LINE
  5
229
100
AcDbEntity
  8
LAY-6
  6
CONTINUOUS
 62
     1
100
AcDbLine
 10
94.263031
 20
195.994297
 30
0.0
 11
91.914955
 21
194.061284
 31
0.0
  0
LINE
  5
22A
100
AcDbEntity
  8
LAY-6
  6
CONTINUOUS
 62
     1
100
AcDbLine
 10
91.914955
 20
194.061284
 30
0.0
 11
94.763031
 21
195.128272
 31
0.0
  0
TEXT
  5
22B
100
AcDbEntity
  8
LAY-6
  6
CONTINUOUS
 62
     2
100
AcDbText
 10
290.76302
 20
187.894297
 30
0.0
 40
5.0
  1
Ｒ
 50
30.0
 41
0.672
  7
EXCADSTD
 72
     5
 11
293.534301
 21
189.494297
 31
0.0
100
AcDbText
  0
TEXT
  5
22C
100
AcDbEntity
  8
LAY-6
  6
CONTINUOUS
 62
     2
100
AcDbText
 10
294.227121
 20
189.894297
 30
0.0
 40
5.0
  1
１８
 50
30.0
 41
0.672
  7
EXCADSTD
 72
     5
 11
300.577512
 21
193.560697
 31
0.0
100
AcDbText
  0
LINE
  5
22D
100
AcDbEntity
  8
LAY-6
  6
CONTINUOUS
 62
     1
100
AcDbLine
 10
301.914944
 20
194.061284
 30
0.0
 11
317.503401
 21
203.061284
 31
0.0
  0
LINE
  5
22E
100
AcDbEntity
  8
LAY-6
  6
CONTINUOUS
 62
     1
100
AcDbLine
 10
304.26302
 20
195.994297
 30
0.0
 11
301.914944
 21
194.061284
 31
0.0
  0
LINE
  5
22F
100
AcDbEntity
  8
LAY-6
  6
CONTINUOUS
 62
     1
100
AcDbLine
 10
301.914944
 20
194.061284
 30
0.0
 11
304.76302
 21
195.128272
 31
0.0
  0
TEXT
  5
230
100
AcDbEntity
  8
LAY-6
  6
CONTINUOUS
 62
     2
100
AcDbText
 10
290.763008
 20
354.824076
 30
0.0
 40
5.0
  1
Ｒ
 50
30.0
 41
0.672
  7
EXCADSTD
 72
     5
 11
293.534289
 21
356.424076
 31
0.0
100
AcDbText
  0
TEXT
  5
231
100
AcDbEntity
  8
LAY-6
  6
CONTINUOUS
 62
     2
100
AcDbText
 10
294.22711
 20
356.824076
 30
0.0
 40
5.0
  1
１８
 50
30.0
 41
0.672
  7
EXCADSTD
 72
     5
 11
300.577501
 21
360.490476
 31
0.0
100
AcDbText
  0
LINE
  5
232
100
AcDbEntity
  8
LAY-6
  6
CONTINUOUS
 62
     1
100
AcDbLine
 10
301.914932
 20
360.991063
 30
0.0
 11
317.503389
 21
369.991063
 31
0.0
  0
LINE
  5
233
100
AcDbEntity
  8
LAY-6
  6
CONTINUOUS
 62
     1
100
AcDbLine
 10
304.263008
 20
362.924076
 30
0.0
 11
301.914932
 21
360.991063
 31
0.0
  0
LINE
  5
234
100
AcDbEntity
  8
LAY-6
  6
CONTINUOUS
 62
     1
100
AcDbLine
 10
301.914932
 20
360.991063
 30
0.0
 11
304.763008
 21
362.058051
 31
0.0
  0
TEXT
  5
235
100
AcDbEntity
  8
LAY-6
  6
CONTINUOUS
 62
     2
100
AcDbText
 10
158.545078
 20
379.19787
 30
0.0
 40
5.0
  1
３０
 50
285.000006
 41
0.672
  7
EXCADSTD
 72
     5
 11
160.442947
 21
372.114929
 31
0.0
100
AcDbText
  0
TEXT
  5
236
100
AcDbEntity
  8
LAY-6
  6
CONTINUOUS
 62
     2
100
AcDbText
 10
160.615631
 20
371.470463
 30
0.0
 40
5.0
  1
ﾟ
 50
285.000006
 41
0.4
  7
EXCADSTD
 72
     5
 11
160.952096
 21
370.21476
 31
0.0
100
AcDbText
  0
ARC
  5
237
100
AcDbEntity
  8
LAY-6
  6
CONTINUOUS
 62
     1
100
AcDbCircle
 10
143.503648
 20
369.991148
 30
0.0
 40
16.411789
100
AcDbArc
 50
359.999798
 51
30.000214
  0
LINE
  5
238
100
AcDbEntity
  8
LAY-6
  6
CONTINUOUS
 62
     1
100
AcDbLine
 10
159.415436
 20
372.99109
 30
0.0
 11
159.915437
 21
369.99109
 31
0.0
  0
LINE
  5
239
100
AcDbEntity
  8
LAY-6
  6
CONTINUOUS
 62
     1
100
AcDbLine
 10
159.915437
 20
369.99109
 30
0.0
 11
160.415436
 21
372.99109
 31
0.0
  0
LINE
  5
23A
100
AcDbEntity
  8
LAY-6
  6
CONTINUOUS
 62
     1
100
AcDbLine
 10
159.649656
 20
375.84902
 30
0.0
 11
157.716643
 21
378.197096
 31
0.0
  0
LINE
  5
23B
100
AcDbEntity
  8
LAY-6
  6
CONTINUOUS
 62
     1
100
AcDbLine
 10
157.716643
 20
378.197096
 30
0.0
 11
158.783631
 21
375.34902
 31
0.0
  0
TEXT
  5
23C
100
AcDbEntity
  8
LAY-6
  6
CONTINUOUS
 62
     2
100
AcDbText
 10
158.54506
 20
212.268092
 30
0.0
 40
5.0
  1
３０
 50
285.000006
 41
0.672
  7
EXCADSTD
 72
     5
 11
160.442929
 21
205.185151
 31
0.0
100
AcDbText
  0
TEXT
  5
23D
100
AcDbEntity
  8
LAY-6
  6
CONTINUOUS
 62
     2
100
AcDbText
 10
160.615613
 20
204.540685
 30
0.0
 40
5.0
  1
ﾟ
 50
285.000006
 41
0.4
  7
EXCADSTD
 72
     5
 11
160.952078
 21
203.284982
 31
0.0
100
AcDbText
  0
ARC
  5
23E
100
AcDbEntity
  8
LAY-6
  6
CONTINUOUS
 62
     1
100
AcDbCircle
 10
143.50363
 20
203.06137
 30
0.0
 40
16.411789
100
AcDbArc
 50
359.999798
 51
30.000214
  0
LINE
  5
23F
100
AcDbEntity
  8
LAY-6
  6
CONTINUOUS
 62
     1
100
AcDbLine
 10
159.415418
 20
206.061312
 30
0.0
 11
159.915419
 21
203.061312
 31
0.0
  0
LINE
  5
240
100
AcDbEntity
  8
LAY-6
  6
CONTINUOUS
 62
     1
100
AcDbLine
 10
159.915419
 20
203.061312
 30
0.0
 11
160.415418
 21
206.061312
 31
0.0
  0
LINE
  5
241
100
AcDbEntity
  8
LAY-6
  6
CONTINUOUS
 62
     1
100
AcDbLine
 10
159.649638
 20
208.919242
 30
0.0
 11
157.716625
 21
211.267318
 31
0.0
  0
LINE
  5
242
100
AcDbEntity
  8
LAY-6
  6
CONTINUOUS
 62
     1
100
AcDbLine
 10
157.716625
 20
211.267318
 30
0.0
 11
158.783613
 21
208.419242
 31
0.0
  0
TEXT
  5
243
100
AcDbEntity
  8
LAY-6
  6
CONTINUOUS
 62
     2
100
AcDbText
 10
368.545019
 20
212.268092
 30
0.0
 40
5.0
  1
３０
 50
285.000006
 41
0.672
  7
EXCADSTD
 72
     5
 11
370.442888
 21
205.185151
 31
0.0
100
AcDbText
  0
TEXT
  5
244
100
AcDbEntity
  8
LAY-6
  6
CONTINUOUS
 62
     2
100
AcDbText
 10
370.615572
 20
204.540685
 30
0.0
 40
5.0
  1
ﾟ
 50
285.000006
 41
0.4
  7
EXCADSTD
 72
     5
 11
370.952037
 21
203.284982
 31
0.0
100
AcDbText
  0
ARC
  5
245
100
AcDbEntity
  8
LAY-6
  6
CONTINUOUS
 62
     1
100
AcDbCircle
 10
353.503589
 20
203.06137
 30
0.0
 40
16.411789
100
AcDbArc
 50
359.999798
 51
30.000214
  0
LINE
  5
246
100
AcDbEntity
  8
LAY-6
  6
CONTINUOUS
 62
     1
100
AcDbLine
 10
369.415378
 20
206.061312
 30
0.0
 11
369.915378
 21
203.061312
 31
0.0
  0
LINE
  5
247
100
AcDbEntity
  8
LAY-6
  6
CONTINUOUS
 62
     1
100
AcDbLine
 10
369.915378
 20
203.061312
 30
0.0
 11
370.415378
 21
206.061312
 31
0.0
  0
LINE
  5
248
100
AcDbEntity
  8
LAY-6
  6
CONTINUOUS
 62
     1
100
AcDbLine
 10
369.649598
 20
208.919242
 30
0.0
 11
367.716585
 21
211.267318
 31
0.0
  0
LINE
  5
249
100
AcDbEntity
  8
LAY-6
  6
CONTINUOUS
 62
     1
100
AcDbLine
 10
367.716585
 20
211.267318
 30
0.0
 11
368.783572
 21
208.419242
 31
0.0
  0
TEXT
  5
24A
100
AcDbEntity
  8
LAY-6
  6
CONTINUOUS
 62
     2
100
AcDbText
 10
368.54506
 20
379.197871
 30
0.0
 40
5.0
  1
３０
 50
285.000006
 41
0.672
  7
EXCADSTD
 72
     5
 11
370.442929
 21
372.11493
 31
0.0
100
AcDbText
  0
TEXT
  5
24B
100
AcDbEntity
  8
LAY-6
  6
CONTINUOUS
 62
     2
100
AcDbText
 10
370.615614
 20
371.470464
 30
0.0
 40
5.0
  1
ﾟ
 50
285.000006
 41
0.4
  7
EXCADSTD
 72
     5
 11
370.952078
 21
370.214761
 31
0.0
100
AcDbText
  0
ARC
  5
24C
100
AcDbEntity
  8
LAY-6
  6
CONTINUOUS
 62
     1
100
AcDbCircle
 10
353.50363
 20
369.991149
 30
0.0
 40
16.411789
100
AcDbArc
 50
359.999798
 51
30.000214
  0
LINE
  5
24D
100
AcDbEntity
  8
LAY-6
  6
CONTINUOUS
 62
     1
100
AcDbLine
 10
369.415419
 20
372.991091
 30
0.0
 11
369.915419
 21
369.991091
 31
0.0
  0
LINE
  5
24E
100
AcDbEntity
  8
LAY-6
  6
CONTINUOUS
 62
     1
100
AcDbLine
 10
369.915419
 20
369.991091
 30
0.0
 11
370.415419
 21
372.991091
 31
0.0
  0
LINE
  5
24F
100
AcDbEntity
  8
LAY-6
  6
CONTINUOUS
 62
     1
100
AcDbLine
 10
369.649639
 20
375.849021
 30
0.0
 11
367.716626
 21
378.197097
 31
0.0
  0
LINE
  5
250
100
AcDbEntity
  8
LAY-6
  6
CONTINUOUS
 62
     1
100
AcDbLine
 10
367.716626
 20
378.197097
 30
0.0
 11
368.783613
 21
375.349021
 31
0.0
  0
TEXT
  5
251
100
AcDbEntity
  8
LAY-6
  6
CONTINUOUS
 62
     2
100
AcDbText
 10
132.503404
 20
347.5
 30
0.0
 40
5.0
  1
５８
 41
0.672
  7
EXCADSTD
 72
     5
 11
139.836204
 21
347.5
 31
0.0
100
AcDbText
  0
LINE
  5
252
100
AcDbEntity
  8
LAY-6
  6
CONTINUOUS
 62
     1
100
AcDbLine
 10
107.503381
 20
347.991119
 30
0.0
 11
107.503381
 21
345.5
 31
0.0
  0
LINE
  5
253
100
AcDbEntity
  8
LAY-6
  6
CONTINUOUS
 62
     1
100
AcDbLine
 10
165.503427
 20
383.847473
 30
0.0
 11
165.503427
 21
345.5
 31
0.0
  0
LINE
  5
254
100
AcDbEntity
  8
LAY-6
  6
CONTINUOUS
 62
     1
100
AcDbLine
 10
107.503381
 20
347.0
 30
0.0
 11
165.503427
 21
347.0
 31
0.0
  0
LINE
  5
255
100
AcDbEntity
  8
LAY-6
  6
CONTINUOUS
 62
     1
100
AcDbLine
 10
110.503381
 20
347.5
 30
0.0
 11
107.503381
 21
347.0
 31
0.0
  0
LINE
  5
256
100
AcDbEntity
  8
LAY-6
  6
CONTINUOUS
 62
     1
100
AcDbLine
 10
107.503381
 20
347.0
 30
0.0
 11
110.503381
 21
346.5
 31
0.0
  0
LINE
  5
257
100
AcDbEntity
  8
LAY-6
  6
CONTINUOUS
 62
     1
100
AcDbLine
 10
162.503427
 20
346.5
 30
0.0
 11
165.503427
 21
347.0
 31
0.0
  0
LINE
  5
258
100
AcDbEntity
  8
LAY-6
  6
CONTINUOUS
 62
     1
100
AcDbLine
 10
165.503427
 20
347.0
 30
0.0
 11
162.503427
 21
347.5
 31
0.0
  0
TEXT
  5
259
100
AcDbEntity
  8
LAY-6
  6
CONTINUOUS
 62
     2
100
AcDbText
 10
178.9
 20
375.49109
 30
0.0
 40
5.0
  1
１９
 50
90.0
 41
0.672
  7
EXCADSTD
 72
     5
 11
178.9
 21
382.82389
 31
0.0
100
AcDbText
  0
LINE
  5
25A
100
AcDbEntity
  8
LAY-6
  6
CONTINUOUS
 62
     1
100
AcDbLine
 10
161.415437
 20
369.99109
 30
0.0
 11
180.9
 21
369.99109
 31
0.0
  0
LINE
  5
25B
100
AcDbEntity
  8
LAY-6
  6
CONTINUOUS
 62
     1
100
AcDbLine
 10
161.503381
 20
388.99109
 30
0.0
 11
180.9
 21
388.99109
 31
0.0
  0
LINE
  5
25C
100
AcDbEntity
  8
LAY-6
  6
CONTINUOUS
 62
     1
100
AcDbLine
 10
179.4
 20
369.99109
 30
0.0
 11
179.4
 21
388.99109
 31
0.0
  0
LINE
  5
25D
100
AcDbEntity
  8
LAY-6
  6
CONTINUOUS
 62
     1
100
AcDbLine
 10
178.9
 20
372.99109
 30
0.0
 11
179.4
 21
369.99109
 31
0.0
  0
LINE
  5
25E
100
AcDbEntity
  8
LAY-6
  6
CONTINUOUS
 62
     1
100
AcDbLine
 10
179.4
 20
369.99109
 30
0.0
 11
179.9
 21
372.99109
 31
0.0
  0
LINE
  5
25F
100
AcDbEntity
  8
LAY-6
  6
CONTINUOUS
 62
     1
100
AcDbLine
 10
179.9
 20
385.99109
 30
0.0
 11
179.4
 21
388.99109
 31
0.0
  0
LINE
  5
260
100
AcDbEntity
  8
LAY-6
  6
CONTINUOUS
 62
     1
100
AcDbLine
 10
179.4
 20
388.99109
 30
0.0
 11
178.9
 21
385.99109
 31
0.0
  0
TEXT
  5
261
100
AcDbEntity
  8
LAY-6
  6
CONTINUOUS
 62
     2
100
AcDbText
 10
178.9
 20
404.991074
 30
0.0
 40
5.0
  1
４０
 50
90.0
 41
0.672
  7
EXCADSTD
 72
     5
 11
178.9
 21
412.323874
 31
0.0
100
AcDbText
  0
LINE
  5
262
100
AcDbEntity
  8
LAY-6
  6
CONTINUOUS
 62
     1
100
AcDbLine
 10
158.503381
 20
428.991058
 30
0.0
 11
180.9
 21
428.991058
 31
0.0
  0
LINE
  5
263
100
AcDbEntity
  8
LAY-6
  6
CONTINUOUS
 62
     1
100
AcDbLine
 10
179.4
 20
388.99109
 30
0.0
 11
179.4
 21
428.991058
 31
0.0
  0
LINE
  5
264
100
AcDbEntity
  8
LAY-6
  6
CONTINUOUS
 62
     1
100
AcDbLine
 10
178.9
 20
391.99109
 30
0.0
 11
179.4
 21
388.99109
 31
0.0
  0
LINE
  5
265
100
AcDbEntity
  8
LAY-6
  6
CONTINUOUS
 62
     1
100
AcDbLine
 10
179.4
 20
388.99109
 30
0.0
 11
179.9
 21
391.99109
 31
0.0
  0
LINE
  5
266
100
AcDbEntity
  8
LAY-6
  6
CONTINUOUS
 62
     1
100
AcDbLine
 10
179.9
 20
425.991058
 30
0.0
 11
179.4
 21
428.991058
 31
0.0
  0
LINE
  5
267
100
AcDbEntity
  8
LAY-6
  6
CONTINUOUS
 62
     1
100
AcDbLine
 10
179.4
 20
428.991058
 30
0.0
 11
178.9
 21
425.991058
 31
0.0
  0
LINE
  5
268
100
AcDbEntity
  8
LAY-6
  6
CONTINUOUS
 62
     1
100
AcDbLine
 10
107.503404
 20
181.061341
 30
0.0
 11
107.503404
 21
177.3
 31
0.0
  0
LINE
  5
269
100
AcDbEntity
  8
LAY-6
  6
CONTINUOUS
 62
     1
100
AcDbLine
 10
165.503427
 20
216.917694
 30
0.0
 11
165.503427
 21
177.3
 31
0.0
  0
TEXT
  5
26A
100
AcDbEntity
  8
LAY-6
  6
CONTINUOUS
 62
     2
100
AcDbText
 10
132.503416
 20
179.3
 30
0.0
 40
5.0
  1
５８
 41
0.672
  7
EXCADSTD
 72
     5
 11
139.836216
 21
179.3
 31
0.0
100
AcDbText
  0
LINE
  5
26B
100
AcDbEntity
  8
LAY-6
  6
CONTINUOUS
 62
     1
100
AcDbLine
 10
107.503404
 20
178.8
 30
0.0
 11
165.503427
 21
178.8
 31
0.0
  0
LINE
  5
26C
100
AcDbEntity
  8
LAY-6
  6
CONTINUOUS
 62
     1
100
AcDbLine
 10
110.503404
 20
179.3
 30
0.0
 11
107.503404
 21
178.8
 31
0.0
  0
LINE
  5
26D
100
AcDbEntity
  8
LAY-6
  6
CONTINUOUS
 62
     1
100
AcDbLine
 10
107.503404
 20
178.8
 30
0.0
 11
110.503404
 21
178.3
 31
0.0
  0
LINE
  5
26E
100
AcDbEntity
  8
LAY-6
  6
CONTINUOUS
 62
     1
100
AcDbLine
 10
162.503427
 20
178.3
 30
0.0
 11
165.503427
 21
178.8
 31
0.0
  0
LINE
  5
26F
100
AcDbEntity
  8
LAY-6
  6
CONTINUOUS
 62
     1
100
AcDbLine
 10
165.503427
 20
178.8
 30
0.0
 11
162.503427
 21
179.3
 31
0.0
  0
LINE
  5
270
100
AcDbEntity
  8
LAY-6
  6
CONTINUOUS
 62
     1
100
AcDbLine
 10
111.503404
 20
255.061341
 30
0.0
 11
111.503404
 21
273.1
 31
0.0
  0
LINE
  5
271
100
AcDbEntity
  8
LAY-6
  6
CONTINUOUS
 62
     1
100
AcDbLine
 10
121.503404
 20
259.383972
 30
0.0
 11
121.503404
 21
273.1
 31
0.0
  0
TEXT
  5
272
100
AcDbEntity
  8
LAY-6
  6
CONTINUOUS
 62
     2
100
AcDbText
 10
112.503404
 20
272.1
 30
0.0
 40
5.0
  1
１０
 41
0.672
  7
EXCADSTD
 72
     5
 11
119.836204
 21
272.1
 31
0.0
100
AcDbText
  0
LINE
  5
273
100
AcDbEntity
  8
LAY-6
  6
CONTINUOUS
 62
     1
100
AcDbLine
 10
111.503404
 20
271.6
 30
0.0
 11
121.503404
 21
271.6
 31
0.0
  0
LINE
  5
274
100
AcDbEntity
  8
LAY-6
  6
CONTINUOUS
 62
     1
100
AcDbLine
 10
114.503404
 20
272.1
 30
0.0
 11
111.503404
 21
271.6
 31
0.0
  0
LINE
  5
275
100
AcDbEntity
  8
LAY-6
  6
CONTINUOUS
 62
     1
100
AcDbLine
 10
111.503404
 20
271.6
 30
0.0
 11
114.503404
 21
271.1
 31
0.0
  0
LINE
  5
276
100
AcDbEntity
  8
LAY-6
  6
CONTINUOUS
 62
     1
100
AcDbLine
 10
118.503404
 20
271.1
 30
0.0
 11
121.503404
 21
271.6
 31
0.0
  0
LINE
  5
277
100
AcDbEntity
  8
LAY-6
  6
CONTINUOUS
 62
     1
100
AcDbLine
 10
121.503404
 20
271.6
 30
0.0
 11
118.503404
 21
272.1
 31
0.0
  0
LINE
  5
278
100
AcDbEntity
  8
LAY-6
  6
CONTINUOUS
 62
     1
100
AcDbLine
 10
151.503412
 20
259.383972
 30
0.0
 11
151.503412
 21
273.1
 31
0.0
  0
TEXT
  5
279
100
AcDbEntity
  8
LAY-6
  6
CONTINUOUS
 62
     2
100
AcDbText
 10
132.503408
 20
272.1
 30
0.0
 40
5.0
  1
３０
 41
0.672
  7
EXCADSTD
 72
     5
 11
139.836208
 21
272.1
 31
0.0
100
AcDbText
  0
LINE
  5
27A
100
AcDbEntity
  8
LAY-6
  6
CONTINUOUS
 62
     1
100
AcDbLine
 10
121.503404
 20
271.6
 30
0.0
 11
151.503412
 21
271.6
 31
0.0
  0
LINE
  5
27B
100
AcDbEntity
  8
LAY-6
  6
CONTINUOUS
 62
     1
100
AcDbLine
 10
124.503404
 20
272.1
 30
0.0
 11
121.503404
 21
271.6
 31
0.0
  0
LINE
  5
27C
100
AcDbEntity
  8
LAY-6
  6
CONTINUOUS
 62
     1
100
AcDbLine
 10
121.503404
 20
271.6
 30
0.0
 11
124.503404
 21
271.1
 31
0.0
  0
LINE
  5
27D
100
AcDbEntity
  8
LAY-6
  6
CONTINUOUS
 62
     1
100
AcDbLine
 10
148.503412
 20
271.1
 30
0.0
 11
151.503412
 21
271.6
 31
0.0
  0
LINE
  5
27E
100
AcDbEntity
  8
LAY-6
  6
CONTINUOUS
 62
     1
100
AcDbLine
 10
151.503412
 20
271.6
 30
0.0
 11
148.503412
 21
272.1
 31
0.0
  0
LINE
  5
27F
100
AcDbEntity
  8
LAY-6
  6
CONTINUOUS
 62
     1
100
AcDbLine
 10
161.503412
 20
255.06131
 30
0.0
 11
161.503412
 21
273.1
 31
0.0
  0
TEXT
  5
280
100
AcDbEntity
  8
LAY-6
  6
CONTINUOUS
 62
     2
100
AcDbText
 10
152.503412
 20
272.1
 30
0.0
 40
5.0
  1
１０
 41
0.672
  7
EXCADSTD
 72
     5
 11
159.836212
 21
272.1
 31
0.0
100
AcDbText
  0
LINE
  5
281
100
AcDbEntity
  8
LAY-6
  6
CONTINUOUS
 62
     1
100
AcDbLine
 10
151.503412
 20
271.6
 30
0.0
 11
161.503412
 21
271.6
 31
0.0
  0
LINE
  5
282
100
AcDbEntity
  8
LAY-6
  6
CONTINUOUS
 62
     1
100
AcDbLine
 10
154.503412
 20
272.1
 30
0.0
 11
151.503412
 21
271.6
 31
0.0
  0
LINE
  5
283
100
AcDbEntity
  8
LAY-6
  6
CONTINUOUS
 62
     1
100
AcDbLine
 10
151.503412
 20
271.6
 30
0.0
 11
154.503412
 21
271.1
 31
0.0
  0
LINE
  5
284
100
AcDbEntity
  8
LAY-6
  6
CONTINUOUS
 62
     1
100
AcDbLine
 10
158.503412
 20
271.1
 30
0.0
 11
161.503412
 21
271.6
 31
0.0
  0
LINE
  5
285
100
AcDbEntity
  8
LAY-6
  6
CONTINUOUS
 62
     1
100
AcDbLine
 10
161.503412
 20
271.6
 30
0.0
 11
158.503412
 21
272.1
 31
0.0
  0
LINE
  5
286
100
AcDbEntity
  8
LAY-6
  6
CONTINUOUS
 62
     1
100
AcDbLine
 10
107.503394
 20
263.461584
 30
0.0
 11
107.503394
 21
284.4
 31
0.0
  0
LINE
  5
287
100
AcDbEntity
  8
LAY-6
  6
CONTINUOUS
 62
     1
100
AcDbLine
 10
111.503404
 20
273.1
 30
0.0
 11
111.503404
 21
284.4
 31
0.0
  0
TEXT
  5
288
100
AcDbEntity
  8
LAY-6
  6
CONTINUOUS
 62
     2
100
AcDbText
 10
107.503399
 20
283.4
 30
0.0
 40
5.0
  1
４
 41
0.672
  7
EXCADSTD
 72
     5
 11
110.703399
 21
283.4
 31
0.0
100
AcDbText
  0
LINE
  5
289
100
AcDbEntity
  8
LAY-6
  6
CONTINUOUS
 62
     1
100
AcDbLine
 10
102.503394
 20
282.9
 30
0.0
 11
107.503394
 21
282.9
 31
0.0
  0
LINE
  5
28A
100
AcDbEntity
  8
LAY-6
  6
CONTINUOUS
 62
     1
100
AcDbLine
 10
111.503404
 20
282.9
 30
0.0
 11
116.503404
 21
282.9
 31
0.0
  0
LINE
  5
28B
100
AcDbEntity
  8
LAY-6
  6
CONTINUOUS
 62
     1
100
AcDbLine
 10
104.503394
 20
282.4
 30
0.0
 11
107.503394
 21
282.9
 31
0.0
  0
LINE
  5
28C
100
AcDbEntity
  8
LAY-6
  6
CONTINUOUS
 62
     1
100
AcDbLine
 10
107.503394
 20
282.9
 30
0.0
 11
104.503394
 21
283.4
 31
0.0
  0
LINE
  5
28D
100
AcDbEntity
  8
LAY-6
  6
CONTINUOUS
 62
     1
100
AcDbLine
 10
114.503404
 20
283.4
 30
0.0
 11
111.503404
 21
282.9
 31
0.0
  0
LINE
  5
28E
100
AcDbEntity
  8
LAY-6
  6
CONTINUOUS
 62
     1
100
AcDbLine
 10
111.503404
 20
282.9
 30
0.0
 11
114.503404
 21
282.4
 31
0.0
  0
LINE
  5
28F
100
AcDbEntity
  8
LAY-6
  6
CONTINUOUS
 62
     1
100
AcDbLine
 10
161.503412
 20
273.1
 30
0.0
 11
161.503412
 21
284.4
 31
0.0
  0
TEXT
  5
290
100
AcDbEntity
  8
LAY-6
  6
CONTINUOUS
 62
     2
100
AcDbText
 10
132.503408
 20
283.4
 30
0.0
 40
5.0
  1
５０
 41
0.672
  7
EXCADSTD
 72
     5
 11
139.836208
 21
283.4
 31
0.0
100
AcDbText
  0
LINE
  5
291
100
AcDbEntity
  8
LAY-6
  6
CONTINUOUS
 62
     1
100
AcDbLine
 10
111.503404
 20
282.9
 30
0.0
 11
161.503412
 21
282.9
 31
0.0
  0
LINE
  5
292
100
AcDbEntity
  8
LAY-6
  6
CONTINUOUS
 62
     1
100
AcDbLine
 10
114.503404
 20
283.4
 30
0.0
 11
111.503404
 21
282.9
 31
0.0
  0
LINE
  5
293
100
AcDbEntity
  8
LAY-6
  6
CONTINUOUS
 62
     1
100
AcDbLine
 10
111.503404
 20
282.9
 30
0.0
 11
114.503404
 21
282.4
 31
0.0
  0
LINE
  5
294
100
AcDbEntity
  8
LAY-6
  6
CONTINUOUS
 62
     1
100
AcDbLine
 10
158.503412
 20
282.4
 30
0.0
 11
161.503412
 21
282.9
 31
0.0
  0
LINE
  5
295
100
AcDbEntity
  8
LAY-6
  6
CONTINUOUS
 62
     1
100
AcDbLine
 10
161.503412
 20
282.9
 30
0.0
 11
158.503412
 21
283.4
 31
0.0
  0
TEXT
  5
296
100
AcDbEntity
  8
LAY-6
  6
CONTINUOUS
 62
     2
100
AcDbText
 10
180.4
 20
226.061462
 30
0.0
 40
5.0
  1
１０
 50
90.0
 41
0.672
  7
EXCADSTD
 72
     5
 11
180.4
 21
233.394262
 31
0.0
100
AcDbText
  0
LINE
  5
297
100
AcDbEntity
  8
LAY-6
  6
CONTINUOUS
 62
     1
100
AcDbLine
 10
159.6
 20
235.061341
 30
0.0
 11
182.4
 21
235.061341
 31
0.0
  0
LINE
  5
298
100
AcDbEntity
  8
LAY-6
  6
CONTINUOUS
 62
     1
100
AcDbLine
 10
180.9
 20
225.061584
 30
0.0
 11
180.9
 21
235.061341
 31
0.0
  0
LINE
  5
299
100
AcDbEntity
  8
LAY-6
  6
CONTINUOUS
 62
     1
100
AcDbLine
 10
180.4
 20
228.061584
 30
0.0
 11
180.9
 21
225.061584
 31
0.0
  0
LINE
  5
29A
100
AcDbEntity
  8
LAY-6
  6
CONTINUOUS
 62
     1
100
AcDbLine
 10
180.9
 20
225.061584
 30
0.0
 11
181.4
 21
228.061584
 31
0.0
  0
LINE
  5
29B
100
AcDbEntity
  8
LAY-6
  6
CONTINUOUS
 62
     1
100
AcDbLine
 10
181.4
 20
232.061341
 30
0.0
 11
180.9
 21
235.061341
 31
0.0
  0
LINE
  5
29C
100
AcDbEntity
  8
LAY-6
  6
CONTINUOUS
 62
     1
100
AcDbLine
 10
180.9
 20
235.061341
 30
0.0
 11
180.4
 21
232.061341
 31
0.0
  0
LINE
  5
29D
100
AcDbEntity
  8
LAY-6
  6
CONTINUOUS
 62
     1
100
AcDbLine
 10
159.6
 20
251.061341
 30
0.0
 11
182.4
 21
251.061341
 31
0.0
  0
TEXT
  5
29E
100
AcDbEntity
  8
LAY-6
  6
CONTINUOUS
 62
     2
100
AcDbText
 10
180.4
 20
239.061341
 30
0.0
 40
5.0
  1
１６
 50
90.0
 41
0.672
  7
EXCADSTD
 72
     5
 11
180.4
 21
246.394141
 31
0.0
100
AcDbText
  0
LINE
  5
29F
100
AcDbEntity
  8
LAY-6
  6
CONTINUOUS
 62
     1
100
AcDbLine
 10
180.9
 20
235.061341
 30
0.0
 11
180.9
 21
251.061341
 31
0.0
  0
LINE
  5
2A0
100
AcDbEntity
  8
LAY-6
  6
CONTINUOUS
 62
     1
100
AcDbLine
 10
180.4
 20
238.061341
 30
0.0
 11
180.9
 21
235.061341
 31
0.0
  0
LINE
  5
2A1
100
AcDbEntity
  8
LAY-6
  6
CONTINUOUS
 62
     1
100
AcDbLine
 10
180.9
 20
235.061341
 30
0.0
 11
181.4
 21
238.061341
 31
0.0
  0
LINE
  5
2A2
100
AcDbEntity
  8
LAY-6
  6
CONTINUOUS
 62
     1
100
AcDbLine
 10
181.4
 20
248.061341
 30
0.0
 11
180.9
 21
251.061341
 31
0.0
  0
LINE
  5
2A3
100
AcDbEntity
  8
LAY-6
  6
CONTINUOUS
 62
     1
100
AcDbLine
 10
180.9
 20
251.061341
 30
0.0
 11
180.4
 21
248.061341
 31
0.0
  0
TEXT
  5
2A4
100
AcDbEntity
  8
LAY-6
  6
CONTINUOUS
 62
     2
100
AcDbText
 10
191.9
 20
210.061448
 30
0.0
 40
5.0
  1
２２
 50
90.0
 41
0.672
  7
EXCADSTD
 72
     5
 11
191.9
 21
217.394248
 31
0.0
100
AcDbText
  0
LINE
  5
2A5
100
AcDbEntity
  8
LAY-6
  6
CONTINUOUS
 62
     1
100
AcDbLine
 10
161.415419
 20
203.061312
 30
0.0
 11
193.9
 21
203.061312
 31
0.0
  0
LINE
  5
2A6
100
AcDbEntity
  8
LAY-6
  6
CONTINUOUS
 62
     1
100
AcDbLine
 10
192.4
 20
203.061312
 30
0.0
 11
192.4
 21
225.061584
 31
0.0
  0
LINE
  5
2A7
100
AcDbEntity
  8
LAY-6
  6
CONTINUOUS
 62
     1
100
AcDbLine
 10
191.9
 20
206.061312
 30
0.0
 11
192.4
 21
203.061312
 31
0.0
  0
LINE
  5
2A8
100
AcDbEntity
  8
LAY-6
  6
CONTINUOUS
 62
     1
100
AcDbLine
 10
192.4
 20
203.061312
 30
0.0
 11
192.9
 21
206.061312
 31
0.0
  0
LINE
  5
2A9
100
AcDbEntity
  8
LAY-6
  6
CONTINUOUS
 62
     1
100
AcDbLine
 10
192.9
 20
222.061584
 30
0.0
 11
192.4
 21
225.061584
 31
0.0
  0
LINE
  5
2AA
100
AcDbEntity
  8
LAY-6
  6
CONTINUOUS
 62
     1
100
AcDbLine
 10
192.4
 20
225.061584
 30
0.0
 11
191.9
 21
222.061584
 31
0.0
  0
LINE
  5
2AB
100
AcDbEntity
  8
LAY-6
  6
CONTINUOUS
 62
     1
100
AcDbLine
 10
158.503412
 20
258.06131
 30
0.0
 11
193.9
 21
258.06131
 31
0.0
  0
TEXT
  5
2AC
100
AcDbEntity
  8
LAY-6
  6
CONTINUOUS
 62
     2
100
AcDbText
 10
191.9
 20
237.561447
 30
0.0
 40
5.0
  1
３３
 50
90.0
 41
0.672
  7
EXCADSTD
 72
     5
 11
191.9
 21
244.894247
 31
0.0
100
AcDbText
  0
LINE
  5
2AD
100
AcDbEntity
  8
LAY-6
  6
CONTINUOUS
 62
     1
100
AcDbLine
 10
192.4
 20
225.061584
 30
0.0
 11
192.4
 21
258.06131
 31
0.0
  0
LINE
  5
2AE
100
AcDbEntity
  8
LAY-6
  6
CONTINUOUS
 62
     1
100
AcDbLine
 10
191.9
 20
228.061584
 30
0.0
 11
192.4
 21
225.061584
 31
0.0
  0
LINE
  5
2AF
100
AcDbEntity
  8
LAY-6
  6
CONTINUOUS
 62
     1
100
AcDbLine
 10
192.4
 20
225.061584
 30
0.0
 11
192.9
 21
228.061584
 31
0.0
  0
LINE
  5
2B0
100
AcDbEntity
  8
LAY-6
  6
CONTINUOUS
 62
     1
100
AcDbLine
 10
192.9
 20
255.06131
 30
0.0
 11
192.4
 21
258.06131
 31
0.0
  0
LINE
  5
2B1
100
AcDbEntity
  8
LAY-6
  6
CONTINUOUS
 62
     1
100
AcDbLine
 10
192.4
 20
258.06131
 30
0.0
 11
191.9
 21
255.06131
 31
0.0
  0
POLYLINE
  5
2B2
100
AcDbEntity
  8
LAY-6
  6
CONTINUOUS
 62
     1
100
AcDb2dPolyline
 66
     1
 10
0.0
 20
0.0
 30
0.0
 70
   128
  0
VERTEX
  5
2B3
100
AcDbEntity
  8
LAY-6
  6
CONTINUOUS
 62
     1
100
AcDbVertex
100
AcDb2dVertex
 10
99.253385
 20
217.350749
 30
0.0
  0
VERTEX
  5
2B4
100
AcDbEntity
  8
LAY-6
  6
CONTINUOUS
 62
     1
100
AcDbVertex
100
AcDb2dVertex
 10
90.939416
 20
226.239436
 30
0.0
  0
VERTEX
  5
2B5
100
AcDbEntity
  8
LAY-6
  6
CONTINUOUS
 62
     1
100
AcDbVertex
100
AcDb2dVertex
 10
69.039416
 20
226.239436
 30
0.0
  0
SEQEND
  5
2B6
100
AcDbEntity
  8
LAY-6
  6
CONTINUOUS
 62
     1
  0
LINE
  5
2B7
100
AcDbEntity
  8
LAY-6
  6
CONTINUOUS
 62
     1
100
AcDbLine
 10
96.838917
 20
219.200166
 30
0.0
 11
99.253385
 21
217.350749
 31
0.0
  0
LINE
  5
2B8
100
AcDbEntity
  8
LAY-6
  6
CONTINUOUS
 62
     1
100
AcDbLine
 10
99.253385
 20
217.350749
 30
0.0
 11
97.56924
 21
219.883269
 31
0.0
  0
TEXT
  5
2B9
100
AcDbEntity
  8
LAY-6
  6
CONTINUOUS
 62
     2
100
AcDbText
 10
69.039416
 20
226.239436
 30
0.0
 40
5.0
  1
セットネジ
 41
0.672
  7
EXCADSTD
 72
     5
 11
89.039416
 21
226.239436
 31
0.0
100
AcDbText
  0
TEXT
  5
2BA
100
AcDbEntity
  8
LAY-6
  6
CONTINUOUS
 62
     2
100
AcDbText
 10
342.503397
 20
394.5
 30
0.0
 40
5.0
  1
５０
 41
0.672
  7
EXCADSTD
 72
     5
 11
349.836197
 21
394.5
 31
0.0
100
AcDbText
  0
LINE
  5
2BB
100
AcDbEntity
  8
LAY-6
  6
CONTINUOUS
 62
     1
100
AcDbLine
 10
321.503397
 20
394.0
 30
0.0
 11
371.503397
 21
394.0
 31
0.0
  0
LINE
  5
2BC
100
AcDbEntity
  8
LAY-6
  6
CONTINUOUS
 62
     1
100
AcDbLine
 10
324.503397
 20
394.5
 30
0.0
 11
321.503397
 21
394.0
 31
0.0
  0
LINE
  5
2BD
100
AcDbEntity
  8
LAY-6
  6
CONTINUOUS
 62
     1
100
AcDbLine
 10
321.503397
 20
394.0
 30
0.0
 11
324.503397
 21
393.5
 31
0.0
  0
LINE
  5
2BE
100
AcDbEntity
  8
LAY-6
  6
CONTINUOUS
 62
     1
100
AcDbLine
 10
368.503397
 20
393.5
 30
0.0
 11
371.503397
 21
394.0
 31
0.0
  0
LINE
  5
2BF
100
AcDbEntity
  8
LAY-6
  6
CONTINUOUS
 62
     1
100
AcDbLine
 10
371.503397
 20
394.0
 30
0.0
 11
368.503397
 21
394.5
 31
0.0
  0
LINE
  5
2C0
100
AcDbEntity
  8
LAY-6
  6
CONTINUOUS
 62
     1
100
AcDbLine
 10
408.503397
 20
397.991089
 30
0.0
 11
423.8
 21
397.991089
 31
0.0
  0
TEXT
  5
2C1
100
AcDbEntity
  8
LAY-6
  6
CONTINUOUS
 62
     2
100
AcDbText
 10
422.7
 20
376.991227
 30
0.0
 40
5.0
  1
２２
 50
90.0
 41
0.672
  7
EXCADSTD
 72
     5
 11
422.7
 21
384.324027
 31
0.0
100
AcDbText
  0
LINE
  5
2C2
100
AcDbEntity
  8
LAY-6
  6
CONTINUOUS
 62
     1
100
AcDbLine
 10
371.415419
 20
369.991091
 30
0.0
 11
424.7
 21
369.991091
 31
0.0
  0
LINE
  5
2C3
100
AcDbEntity
  8
LAY-6
  6
CONTINUOUS
 62
     1
100
AcDbLine
 10
423.2
 20
369.991091
 30
0.0
 11
423.2
 21
391.991363
 31
0.0
  0
LINE
  5
2C4
100
AcDbEntity
  8
LAY-6
  6
CONTINUOUS
 62
     1
100
AcDbLine
 10
422.7
 20
372.991091
 30
0.0
 11
423.2
 21
369.991091
 31
0.0
  0
LINE
  5
2C5
100
AcDbEntity
  8
LAY-6
  6
CONTINUOUS
 62
     1
100
AcDbLine
 10
423.2
 20
369.991091
 30
0.0
 11
423.7
 21
372.991091
 31
0.0
  0
LINE
  5
2C6
100
AcDbEntity
  8
LAY-6
  6
CONTINUOUS
 62
     1
100
AcDbLine
 10
423.7
 20
388.991363
 30
0.0
 11
423.2
 21
391.991363
 31
0.0
  0
LINE
  5
2C7
100
AcDbEntity
  8
LAY-6
  6
CONTINUOUS
 62
     1
100
AcDbLine
 10
423.2
 20
391.991363
 30
0.0
 11
422.7
 21
388.991363
 31
0.0
  0
LINE
  5
2C8
100
AcDbEntity
  8
LAY-6
  6
CONTINUOUS
 62
     1
100
AcDbLine
 10
408.503397
 20
397.991089
 30
0.0
 11
424.7
 21
397.991089
 31
0.0
  0
TEXT
  5
2C9
100
AcDbEntity
  8
LAY-6
  6
CONTINUOUS
 62
     2
100
AcDbText
 10
422.7
 20
392.991226
 30
0.0
 40
5.0
  1
６
 50
90.0
 41
0.672
  7
EXCADSTD
 72
     5
 11
422.7
 21
396.191226
 31
0.0
100
AcDbText
  0
LINE
  5
2CA
100
AcDbEntity
  8
LAY-6
  6
CONTINUOUS
 62
     1
100
AcDbLine
 10
408.503397
 20
425.991089
 30
0.0
 11
424.7
 21
425.991089
 31
0.0
  0
TEXT
  5
2CB
100
AcDbEntity
  8
LAY-6
  6
CONTINUOUS
 62
     2
100
AcDbText
 10
422.7
 20
407.991089
 30
0.0
 40
5.0
  1
２８
 50
90.0
 41
0.672
  7
EXCADSTD
 72
     5
 11
422.7
 21
415.323889
 31
0.0
100
AcDbText
  0
LINE
  5
2CC
100
AcDbEntity
  8
LAY-6
  6
CONTINUOUS
 62
     1
100
AcDbLine
 10
423.2
 20
397.991089
 30
0.0
 11
423.2
 21
425.991089
 31
0.0
  0
LINE
  5
2CD
100
AcDbEntity
  8
LAY-6
  6
CONTINUOUS
 62
     1
100
AcDbLine
 10
422.7
 20
400.991089
 30
0.0
 11
423.2
 21
397.991089
 31
0.0
  0
LINE
  5
2CE
100
AcDbEntity
  8
LAY-6
  6
CONTINUOUS
 62
     1
100
AcDbLine
 10
423.2
 20
397.991089
 30
0.0
 11
423.7
 21
400.991089
 31
0.0
  0
LINE
  5
2CF
100
AcDbEntity
  8
LAY-6
  6
CONTINUOUS
 62
     1
100
AcDbLine
 10
423.7
 20
422.991089
 30
0.0
 11
423.2
 21
425.991089
 31
0.0
  0
LINE
  5
2D0
100
AcDbEntity
  8
LAY-6
  6
CONTINUOUS
 62
     1
100
AcDbLine
 10
423.2
 20
425.991089
 30
0.0
 11
422.7
 21
422.991089
 31
0.0
  0
LINE
  5
2D1
100
AcDbEntity
  8
LAY-6
  6
CONTINUOUS
 62
     1
100
AcDbLine
 10
321.503397
 20
415.991089
 30
0.0
 11
321.503397
 21
440.6
 31
0.0
  0
LINE
  5
2D2
100
AcDbEntity
  8
LAY-6
  6
CONTINUOUS
 62
     1
100
AcDbLine
 10
331.503397
 20
412.4
 30
0.0
 11
331.503397
 21
440.6
 31
0.0
  0
TEXT
  5
2D3
100
AcDbEntity
  8
LAY-6
  6
CONTINUOUS
 62
     2
100
AcDbText
 10
322.503397
 20
439.6
 30
0.0
 40
5.0
  1
１０
 41
0.672
  7
EXCADSTD
 72
     5
 11
329.836197
 21
439.6
 31
0.0
100
AcDbText
  0
LINE
  5
2D4
100
AcDbEntity
  8
LAY-6
  6
CONTINUOUS
 62
     1
100
AcDbLine
 10
321.503397
 20
439.1
 30
0.0
 11
331.503397
 21
439.1
 31
0.0
  0
LINE
  5
2D5
100
AcDbEntity
  8
LAY-6
  6
CONTINUOUS
 62
     1
100
AcDbLine
 10
324.503397
 20
439.6
 30
0.0
 11
321.503397
 21
439.1
 31
0.0
  0
LINE
  5
2D6
100
AcDbEntity
  8
LAY-6
  6
CONTINUOUS
 62
     1
100
AcDbLine
 10
321.503397
 20
439.1
 30
0.0
 11
324.503397
 21
438.6
 31
0.0
  0
LINE
  5
2D7
100
AcDbEntity
  8
LAY-6
  6
CONTINUOUS
 62
     1
100
AcDbLine
 10
328.503397
 20
438.6
 30
0.0
 11
331.503397
 21
439.1
 31
0.0
  0
LINE
  5
2D8
100
AcDbEntity
  8
LAY-6
  6
CONTINUOUS
 62
     1
100
AcDbLine
 10
331.503397
 20
439.1
 30
0.0
 11
328.503397
 21
439.6
 31
0.0
  0
LINE
  5
2D9
100
AcDbEntity
  8
LAY-6
  6
CONTINUOUS
 62
     1
100
AcDbLine
 10
354.503412
 20
424.4
 30
0.0
 11
354.503412
 21
440.6
 31
0.0
  0
TEXT
  5
2DA
100
AcDbEntity
  8
LAY-6
  6
CONTINUOUS
 62
     2
100
AcDbText
 10
339.003404
 20
439.6
 30
0.0
 40
5.0
  1
２３
 41
0.672
  7
EXCADSTD
 72
     5
 11
346.336205
 21
439.6
 31
0.0
100
AcDbText
  0
LINE
  5
2DB
100
AcDbEntity
  8
LAY-6
  6
CONTINUOUS
 62
     1
100
AcDbLine
 10
331.503397
 20
439.1
 30
0.0
 11
354.503412
 21
439.1
 31
0.0
  0
LINE
  5
2DC
100
AcDbEntity
  8
LAY-6
  6
CONTINUOUS
 62
     1
100
AcDbLine
 10
334.503397
 20
439.6
 30
0.0
 11
331.503397
 21
439.1
 31
0.0
  0
LINE
  5
2DD
100
AcDbEntity
  8
LAY-6
  6
CONTINUOUS
 62
     1
100
AcDbLine
 10
331.503397
 20
439.1
 30
0.0
 11
334.503397
 21
438.6
 31
0.0
  0
LINE
  5
2DE
100
AcDbEntity
  8
LAY-6
  6
CONTINUOUS
 62
     1
100
AcDbLine
 10
351.503412
 20
438.6
 30
0.0
 11
354.503412
 21
439.1
 31
0.0
  0
LINE
  5
2DF
100
AcDbEntity
  8
LAY-6
  6
CONTINUOUS
 62
     1
100
AcDbLine
 10
354.503412
 20
439.1
 30
0.0
 11
351.503412
 21
439.6
 31
0.0
  0
LINE
  5
2E0
100
AcDbEntity
  8
LAY-6
  6
CONTINUOUS
 62
     1
100
AcDbLine
 10
378.503397
 20
412.4
 30
0.0
 11
378.503397
 21
440.6
 31
0.0
  0
TEXT
  5
2E1
100
AcDbEntity
  8
LAY-6
  6
CONTINUOUS
 62
     2
100
AcDbText
 10
362.503404
 20
439.6
 30
0.0
 40
5.0
  1
２４
 41
0.672
  7
EXCADSTD
 72
     5
 11
369.836205
 21
439.6
 31
0.0
100
AcDbText
  0
LINE
  5
2E2
100
AcDbEntity
  8
LAY-6
  6
CONTINUOUS
 62
     1
100
AcDbLine
 10
354.503412
 20
439.1
 30
0.0
 11
378.503397
 21
439.1
 31
0.0
  0
LINE
  5
2E3
100
AcDbEntity
  8
LAY-6
  6
CONTINUOUS
 62
     1
100
AcDbLine
 10
357.503412
 20
439.6
 30
0.0
 11
354.503412
 21
439.1
 31
0.0
  0
LINE
  5
2E4
100
AcDbEntity
  8
LAY-6
  6
CONTINUOUS
 62
     1
100
AcDbLine
 10
354.503412
 20
439.1
 30
0.0
 11
357.503412
 21
438.6
 31
0.0
  0
LINE
  5
2E5
100
AcDbEntity
  8
LAY-6
  6
CONTINUOUS
 62
     1
100
AcDbLine
 10
375.503397
 20
438.6
 30
0.0
 11
378.503397
 21
439.1
 31
0.0
  0
LINE
  5
2E6
100
AcDbEntity
  8
LAY-6
  6
CONTINUOUS
 62
     1
100
AcDbLine
 10
378.503397
 20
439.1
 30
0.0
 11
375.503397
 21
439.6
 31
0.0
  0
LINE
  5
2E7
100
AcDbEntity
  8
LAY-6
  6
CONTINUOUS
 62
     1
100
AcDbLine
 10
401.503381
 20
416.991089
 30
0.0
 11
401.503381
 21
440.6
 31
0.0
  0
TEXT
  5
2E8
100
AcDbEntity
  8
LAY-6
  6
CONTINUOUS
 62
     2
100
AcDbText
 10
386.003389
 20
439.6
 30
0.0
 40
5.0
  1
２３
 41
0.672
  7
EXCADSTD
 72
     5
 11
393.336189
 21
439.6
 31
0.0
100
AcDbText
  0
LINE
  5
2E9
100
AcDbEntity
  8
LAY-6
  6
CONTINUOUS
 62
     1
100
AcDbLine
 10
378.503397
 20
439.1
 30
0.0
 11
401.503381
 21
439.1
 31
0.0
  0
LINE
  5
2EA
100
AcDbEntity
  8
LAY-6
  6
CONTINUOUS
 62
     1
100
AcDbLine
 10
381.503397
 20
439.6
 30
0.0
 11
378.503397
 21
439.1
 31
0.0
  0
LINE
  5
2EB
100
AcDbEntity
  8
LAY-6
  6
CONTINUOUS
 62
     1
100
AcDbLine
 10
378.503397
 20
439.1
 30
0.0
 11
381.503397
 21
438.6
 31
0.0
  0
LINE
  5
2EC
100
AcDbEntity
  8
LAY-6
  6
CONTINUOUS
 62
     1
100
AcDbLine
 10
398.503381
 20
438.6
 30
0.0
 11
401.503381
 21
439.1
 31
0.0
  0
LINE
  5
2ED
100
AcDbEntity
  8
LAY-6
  6
CONTINUOUS
 62
     1
100
AcDbLine
 10
401.503381
 20
439.1
 30
0.0
 11
398.503381
 21
439.6
 31
0.0
  0
LINE
  5
2EE
100
AcDbEntity
  8
LAY-6
  6
CONTINUOUS
 62
     1
100
AcDbLine
 10
411.503397
 20
422.991089
 30
0.0
 11
411.503397
 21
440.6
 31
0.0
  0
TEXT
  5
2EF
100
AcDbEntity
  8
LAY-6
  6
CONTINUOUS
 62
     2
100
AcDbText
 10
402.503389
 20
439.6
 30
0.0
 40
5.0
  1
１０
 41
0.672
  7
EXCADSTD
 72
     5
 11
409.836189
 21
439.6
 31
0.0
100
AcDbText
  0
LINE
  5
2F0
100
AcDbEntity
  8
LAY-6
  6
CONTINUOUS
 62
     1
100
AcDbLine
 10
401.503381
 20
439.1
 30
0.0
 11
411.503397
 21
439.1
 31
0.0
  0
LINE
  5
2F1
100
AcDbEntity
  8
LAY-6
  6
CONTINUOUS
 62
     1
100
AcDbLine
 10
404.503381
 20
439.6
 30
0.0
 11
401.503381
 21
439.1
 31
0.0
  0
LINE
  5
2F2
100
AcDbEntity
  8
LAY-6
  6
CONTINUOUS
 62
     1
100
AcDbLine
 10
401.503381
 20
439.1
 30
0.0
 11
404.503381
 21
438.6
 31
0.0
  0
LINE
  5
2F3
100
AcDbEntity
  8
LAY-6
  6
CONTINUOUS
 62
     1
100
AcDbLine
 10
408.503397
 20
438.6
 30
0.0
 11
411.503397
 21
439.1
 31
0.0
  0
LINE
  5
2F4
100
AcDbEntity
  8
LAY-6
  6
CONTINUOUS
 62
     1
100
AcDbLine
 10
411.503397
 20
439.1
 30
0.0
 11
408.503397
 21
439.6
 31
0.0
  0
LINE
  5
2F5
100
AcDbEntity
  8
LAY-6
  6
CONTINUOUS
 62
     1
100
AcDbLine
 10
317.503371
 20
430.391363
 30
0.0
 11
317.503371
 21
451.2
 31
0.0
  0
LINE
  5
2F6
100
AcDbEntity
  8
LAY-6
  6
CONTINUOUS
 62
     1
100
AcDbLine
 10
321.503397
 20
440.6
 30
0.0
 11
321.503397
 21
451.2
 31
0.0
  0
TEXT
  5
2F7
100
AcDbEntity
  8
LAY-6
  6
CONTINUOUS
 62
     2
100
AcDbText
 10
317.503384
 20
450.2
 30
0.0
 40
5.0
  1
４
 41
0.672
  7
EXCADSTD
 72
     5
 11
320.703384
 21
450.2
 31
0.0
100
AcDbText
  0
LINE
  5
2F8
100
AcDbEntity
  8
LAY-6
  6
CONTINUOUS
 62
     1
100
AcDbLine
 10
312.503371
 20
449.7
 30
0.0
 11
317.503371
 21
449.7
 31
0.0
  0
LINE
  5
2F9
100
AcDbEntity
  8
LAY-6
  6
CONTINUOUS
 62
     1
100
AcDbLine
 10
321.503397
 20
449.7
 30
0.0
 11
326.503397
 21
449.7
 31
0.0
  0
LINE
  5
2FA
100
AcDbEntity
  8
LAY-6
  6
CONTINUOUS
 62
     1
100
AcDbLine
 10
314.503371
 20
449.2
 30
0.0
 11
317.503371
 21
449.7
 31
0.0
  0
LINE
  5
2FB
100
AcDbEntity
  8
LAY-6
  6
CONTINUOUS
 62
     1
100
AcDbLine
 10
317.503371
 20
449.7
 30
0.0
 11
314.503371
 21
450.2
 31
0.0
  0
LINE
  5
2FC
100
AcDbEntity
  8
LAY-6
  6
CONTINUOUS
 62
     1
100
AcDbLine
 10
324.503397
 20
450.2
 30
0.0
 11
321.503397
 21
449.7
 31
0.0
  0
LINE
  5
2FD
100
AcDbEntity
  8
LAY-6
  6
CONTINUOUS
 62
     1
100
AcDbLine
 10
321.503397
 20
449.7
 30
0.0
 11
324.503397
 21
449.2
 31
0.0
  0
LINE
  5
2FE
100
AcDbEntity
  8
LAY-6
  6
CONTINUOUS
 62
     1
100
AcDbLine
 10
411.503397
 20
440.6
 30
0.0
 11
411.503397
 21
451.2
 31
0.0
  0
TEXT
  5
2FF
100
AcDbEntity
  8
LAY-6
  6
CONTINUOUS
 62
     2
100
AcDbText
 10
362.503397
 20
450.2
 30
0.0
 40
5.0
  1
９０
 41
0.672
  7
EXCADSTD
 72
     5
 11
369.836197
 21
450.2
 31
0.0
100
AcDbText
  0
LINE
  5
300
100
AcDbEntity
  8
LAY-6
  6
CONTINUOUS
 62
     1
100
AcDbLine
 10
321.503397
 20
449.7
 30
0.0
 11
411.503397
 21
449.7
 31
0.0
  0
LINE
  5
301
100
AcDbEntity
  8
LAY-6
  6
CONTINUOUS
 62
     1
100
AcDbLine
 10
324.503397
 20
450.2
 30
0.0
 11
321.503397
 21
449.7
 31
0.0
  0
LINE
  5
302
100
AcDbEntity
  8
LAY-6
  6
CONTINUOUS
 62
     1
100
AcDbLine
 10
321.503397
 20
449.7
 30
0.0
 11
324.503397
 21
449.2
 31
0.0
  0
LINE
  5
303
100
AcDbEntity
  8
LAY-6
  6
CONTINUOUS
 62
     1
100
AcDbLine
 10
408.503397
 20
449.2
 30
0.0
 11
411.503397
 21
449.7
 31
0.0
  0
LINE
  5
304
100
AcDbEntity
  8
LAY-6
  6
CONTINUOUS
 62
     1
100
AcDbLine
 10
411.503397
 20
449.7
 30
0.0
 11
408.503397
 21
450.2
 31
0.0
  0
TEXT
  5
305
100
AcDbEntity
  8
LAY-6
  6
CONTINUOUS
 62
     2
100
AcDbText
 10
392.2
 20
399.491089
 30
0.0
 40
5.0
  1
７
 50
90.0
 41
0.672
  7
EXCADSTD
 72
     5
 11
392.2
 21
402.691089
 31
0.0
100
AcDbText
  0
LINE
  5
306
100
AcDbEntity
  8
LAY-6
  6
CONTINUOUS
 62
     1
100
AcDbLine
 10
385.3
 20
404.991089
 30
0.0
 11
394.2
 21
404.991089
 31
0.0
  0
LINE
  5
307
100
AcDbEntity
  8
LAY-6
  6
CONTINUOUS
 62
     1
100
AcDbLine
 10
392.7
 20
397.991089
 30
0.0
 11
392.7
 21
404.991089
 31
0.0
  0
LINE
  5
308
100
AcDbEntity
  8
LAY-6
  6
CONTINUOUS
 62
     1
100
AcDbLine
 10
392.2
 20
400.991089
 30
0.0
 11
392.7
 21
397.991089
 31
0.0
  0
LINE
  5
309
100
AcDbEntity
  8
LAY-6
  6
CONTINUOUS
 62
     1
100
AcDbLine
 10
392.7
 20
397.991089
 30
0.0
 11
393.2
 21
400.991089
 31
0.0
  0
LINE
  5
30A
100
AcDbEntity
  8
LAY-6
  6
CONTINUOUS
 62
     1
100
AcDbLine
 10
393.2
 20
401.991089
 30
0.0
 11
392.7
 21
404.991089
 31
0.0
  0
LINE
  5
30B
100
AcDbEntity
  8
LAY-6
  6
CONTINUOUS
 62
     1
100
AcDbLine
 10
392.7
 20
404.991089
 30
0.0
 11
392.2
 21
401.991089
 31
0.0
  0
LINE
  5
30C
100
AcDbEntity
  8
LAY-6
  6
CONTINUOUS
 62
     1
100
AcDbLine
 10
393.503397
 20
416.991089
 30
0.0
 11
391.2
 21
416.991089
 31
0.0
  0
TEXT
  5
30D
100
AcDbEntity
  8
LAY-6
  6
CONTINUOUS
 62
     2
100
AcDbText
 10
392.2
 20
406.991089
 30
0.0
 40
5.0
  1
１２
 50
90.0
 41
0.672
  7
EXCADSTD
 72
     5
 11
392.2
 21
414.323889
 31
0.0
100
AcDbText
  0
LINE
  5
30E
100
AcDbEntity
  8
LAY-6
  6
CONTINUOUS
 62
     1
100
AcDbLine
 10
392.7
 20
404.991089
 30
0.0
 11
392.7
 21
416.991089
 31
0.0
  0
LINE
  5
30F
100
AcDbEntity
  8
LAY-6
  6
CONTINUOUS
 62
     1
100
AcDbLine
 10
392.2
 20
407.991089
 30
0.0
 11
392.7
 21
404.991089
 31
0.0
  0
LINE
  5
310
100
AcDbEntity
  8
LAY-6
  6
CONTINUOUS
 62
     1
100
AcDbLine
 10
392.7
 20
404.991089
 30
0.0
 11
393.2
 21
407.991089
 31
0.0
  0
LINE
  5
311
100
AcDbEntity
  8
LAY-6
  6
CONTINUOUS
 62
     1
100
AcDbLine
 10
393.2
 20
413.991089
 30
0.0
 11
392.7
 21
416.991089
 31
0.0
  0
LINE
  5
312
100
AcDbEntity
  8
LAY-6
  6
CONTINUOUS
 62
     1
100
AcDbLine
 10
392.7
 20
416.991089
 30
0.0
 11
392.2
 21
413.991089
 31
0.0
  0
LINE
  5
313
100
AcDbEntity
  8
LAY-6
  6
CONTINUOUS
 62
     1
100
AcDbLine
 10
317.503381
 20
347.991119
 30
0.0
 11
317.503381
 21
345.4
 31
0.0
  0
LINE
  5
314
100
AcDbEntity
  8
LAY-6
  6
CONTINUOUS
 62
     1
100
AcDbLine
 10
375.503427
 20
383.847504
 30
0.0
 11
375.503427
 21
345.4
 31
0.0
  0
TEXT
  5
315
100
AcDbEntity
  8
LAY-6
  6
CONTINUOUS
 62
     2
100
AcDbText
 10
342.503404
 20
347.4
 30
0.0
 40
5.0
  1
５８
 41
0.672
  7
EXCADSTD
 72
     5
 11
349.836204
 21
347.4
 31
0.0
100
AcDbText
  0
LINE
  5
316
100
AcDbEntity
  8
LAY-6
  6
CONTINUOUS
 62
     1
100
AcDbLine
 10
317.503381
 20
346.9
 30
0.0
 11
375.503427
 21
346.9
 31
0.0
  0
LINE
  5
317
100
AcDbEntity
  8
LAY-6
  6
CONTINUOUS
 62
     1
100
AcDbLine
 10
320.503381
 20
347.4
 30
0.0
 11
317.503381
 21
346.9
 31
0.0
  0
LINE
  5
318
100
AcDbEntity
  8
LAY-6
  6
CONTINUOUS
 62
     1
100
AcDbLine
 10
317.503381
 20
346.9
 30
0.0
 11
320.503381
 21
346.4
 31
0.0
  0
LINE
  5
319
100
AcDbEntity
  8
LAY-6
  6
CONTINUOUS
 62
     1
100
AcDbLine
 10
372.503427
 20
346.4
 30
0.0
 11
375.503427
 21
346.9
 31
0.0
  0
LINE
  5
31A
100
AcDbEntity
  8
LAY-6
  6
CONTINUOUS
 62
     1
100
AcDbLine
 10
375.503427
 20
346.9
 30
0.0
 11
372.503427
 21
347.4
 31
0.0
  0
TEXT
  5
31B
100
AcDbEntity
  8
LAY-6
  6
CONTINUOUS
 62
     2
100
AcDbText
 10
342.503419
 20
178.8
 30
0.0
 40
5.0
  1
５８
 41
0.672
  7
EXCADSTD
 72
     5
 11
349.836219
 21
178.8
 31
0.0
100
AcDbText
  0
LINE
  5
31C
100
AcDbEntity
  8
LAY-6
  6
CONTINUOUS
 62
     1
100
AcDbLine
 10
317.503397
 20
182.616028
 30
0.0
 11
317.503397
 21
176.8
 31
0.0
  0
LINE
  5
31D
100
AcDbEntity
  8
LAY-6
  6
CONTINUOUS
 62
     1
100
AcDbLine
 10
375.503442
 20
216.917755
 30
0.0
 11
375.503442
 21
176.8
 31
0.0
  0
LINE
  5
31E
100
AcDbEntity
  8
LAY-6
  6
CONTINUOUS
 62
     1
100
AcDbLine
 10
317.503397
 20
178.3
 30
0.0
 11
375.503442
 21
178.3
 31
0.0
  0
LINE
  5
31F
100
AcDbEntity
  8
LAY-6
  6
CONTINUOUS
 62
     1
100
AcDbLine
 10
320.503397
 20
178.8
 30
0.0
 11
317.503397
 21
178.3
 31
0.0
  0
LINE
  5
320
100
AcDbEntity
  8
LAY-6
  6
CONTINUOUS
 62
     1
100
AcDbLine
 10
317.503397
 20
178.3
 30
0.0
 11
320.503397
 21
177.8
 31
0.0
  0
LINE
  5
321
100
AcDbEntity
  8
LAY-6
  6
CONTINUOUS
 62
     1
100
AcDbLine
 10
372.503442
 20
177.8
 30
0.0
 11
375.503442
 21
178.3
 31
0.0
  0
LINE
  5
322
100
AcDbEntity
  8
LAY-6
  6
CONTINUOUS
 62
     1
100
AcDbLine
 10
375.503442
 20
178.3
 30
0.0
 11
372.503442
 21
178.8
 31
0.0
  0
TEXT
  5
323
100
AcDbEntity
  8
LAY-6
  6
CONTINUOUS
 62
     2
100
AcDbText
 10
388.1
 20
208.561314
 30
0.0
 40
5.0
  1
１９
 50
90.0
 41
0.672
  7
EXCADSTD
 72
     5
 11
388.1
 21
215.894114
 31
0.0
100
AcDbText
  0
LINE
  5
324
100
AcDbEntity
  8
LAY-6
  6
CONTINUOUS
 62
     1
100
AcDbLine
 10
371.415378
 20
203.061312
 30
0.0
 11
390.1
 21
203.061312
 31
0.0
  0
LINE
  5
325
100
AcDbEntity
  8
LAY-6
  6
CONTINUOUS
 62
     1
100
AcDbLine
 10
388.6
 20
203.061312
 30
0.0
 11
388.6
 21
222.061316
 31
0.0
  0
LINE
  5
326
100
AcDbEntity
  8
LAY-6
  6
CONTINUOUS
 62
     1
100
AcDbLine
 10
388.1
 20
206.061312
 30
0.0
 11
388.6
 21
203.061312
 31
0.0
  0
LINE
  5
327
100
AcDbEntity
  8
LAY-6
  6
CONTINUOUS
 62
     1
100
AcDbLine
 10
388.6
 20
203.061312
 30
0.0
 11
389.1
 21
206.061312
 31
0.0
  0
LINE
  5
328
100
AcDbEntity
  8
LAY-6
  6
CONTINUOUS
 62
     1
100
AcDbLine
 10
389.1
 20
219.061316
 30
0.0
 11
388.6
 21
222.061316
 31
0.0
  0
LINE
  5
329
100
AcDbEntity
  8
LAY-6
  6
CONTINUOUS
 62
     1
100
AcDbLine
 10
388.6
 20
222.061316
 30
0.0
 11
388.1
 21
219.061316
 31
0.0
  0
TEXT
  5
32A
100
AcDbEntity
  8
LAY-6
  6
CONTINUOUS
 62
     2
100
AcDbText
 10
388.1
 20
238.061313
 30
0.0
 40
5.0
  1
４０
 50
90.0
 41
0.672
  7
EXCADSTD
 72
     5
 11
388.1
 21
245.394113
 31
0.0
100
AcDbText
  0
LINE
  5
32B
100
AcDbEntity
  8
LAY-6
  6
CONTINUOUS
 62
     1
100
AcDbLine
 10
368.503412
 20
262.06131
 30
0.0
 11
390.1
 21
262.06131
 31
0.0
  0
LINE
  5
32C
100
AcDbEntity
  8
LAY-6
  6
CONTINUOUS
 62
     1
100
AcDbLine
 10
388.6
 20
222.061316
 30
0.0
 11
388.6
 21
262.06131
 31
0.0
  0
LINE
  5
32D
100
AcDbEntity
  8
LAY-6
  6
CONTINUOUS
 62
     1
100
AcDbLine
 10
388.1
 20
225.061316
 30
0.0
 11
388.6
 21
222.061316
 31
0.0
  0
LINE
  5
32E
100
AcDbEntity
  8
LAY-6
  6
CONTINUOUS
 62
     1
100
AcDbLine
 10
388.6
 20
222.061316
 30
0.0
 11
389.1
 21
225.061316
 31
0.0
  0
LINE
  5
32F
100
AcDbEntity
  8
LAY-6
  6
CONTINUOUS
 62
     1
100
AcDbLine
 10
389.1
 20
259.06131
 30
0.0
 11
388.6
 21
262.06131
 31
0.0
  0
LINE
  5
330
100
AcDbEntity
  8
LAY-6
  6
CONTINUOUS
 62
     1
100
AcDbLine
 10
388.6
 20
262.06131
 30
0.0
 11
388.1
 21
259.06131
 31
0.0
  0
LINE
  5
331
100
AcDbEntity
  8
LAY-6
  6
CONTINUOUS
 62
     1
100
AcDbLine
 10
640.977325
 20
436.750595
 30
0.0
 11
640.977325
 21
451.4
 31
0.0
  0
LINE
  5
332
100
AcDbEntity
  8
LAY-6
  6
CONTINUOUS
 62
     1
100
AcDbLine
 10
659.977295
 20
438.215201
 30
0.0
 11
659.977295
 21
451.4
 31
0.0
  0
TEXT
  5
333
100
AcDbEntity
  8
LAY-6
  6
CONTINUOUS
 62
     2
100
AcDbText
 10
646.47731
 20
450.4
 30
0.0
 40
5.0
  1
１９
 41
0.672
  7
EXCADSTD
 72
     5
 11
653.81011
 21
450.4
 31
0.0
100
AcDbText
  0
LINE
  5
334
100
AcDbEntity
  8
LAY-6
  6
CONTINUOUS
 62
     1
100
AcDbLine
 10
640.977325
 20
449.9
 30
0.0
 11
659.977295
 21
449.9
 31
0.0
  0
LINE
  5
335
100
AcDbEntity
  8
LAY-6
  6
CONTINUOUS
 62
     1
100
AcDbLine
 10
643.977325
 20
450.4
 30
0.0
 11
640.977325
 21
449.9
 31
0.0
  0
LINE
  5
336
100
AcDbEntity
  8
LAY-6
  6
CONTINUOUS
 62
     1
100
AcDbLine
 10
640.977325
 20
449.9
 30
0.0
 11
643.977325
 21
449.4
 31
0.0
  0
LINE
  5
337
100
AcDbEntity
  8
LAY-6
  6
CONTINUOUS
 62
     1
100
AcDbLine
 10
656.977295
 20
449.4
 30
0.0
 11
659.977295
 21
449.9
 31
0.0
  0
LINE
  5
338
100
AcDbEntity
  8
LAY-6
  6
CONTINUOUS
 62
     1
100
AcDbLine
 10
659.977295
 20
449.9
 30
0.0
 11
656.977295
 21
450.4
 31
0.0
  0
LINE
  5
339
100
AcDbEntity
  8
LAY-6
  6
CONTINUOUS
 62
     1
100
AcDbLine
 10
699.977325
 20
432.315201
 30
0.0
 11
699.977325
 21
451.4
 31
0.0
  0
TEXT
  5
33A
100
AcDbEntity
  8
LAY-6
  6
CONTINUOUS
 62
     2
100
AcDbText
 10
675.97731
 20
450.4
 30
0.0
 40
5.0
  1
４０
 41
0.672
  7
EXCADSTD
 72
     5
 11
683.31011
 21
450.4
 31
0.0
100
AcDbText
  0
LINE
  5
33B
100
AcDbEntity
  8
LAY-6
  6
CONTINUOUS
 62
     1
100
AcDbLine
 10
659.977295
 20
449.9
 30
0.0
 11
699.977325
 21
449.9
 31
0.0
  0
LINE
  5
33C
100
AcDbEntity
  8
LAY-6
  6
CONTINUOUS
 62
     1
100
AcDbLine
 10
662.977295
 20
450.4
 30
0.0
 11
659.977295
 21
449.9
 31
0.0
  0
LINE
  5
33D
100
AcDbEntity
  8
LAY-6
  6
CONTINUOUS
 62
     1
100
AcDbLine
 10
659.977295
 20
449.9
 30
0.0
 11
662.977295
 21
449.4
 31
0.0
  0
LINE
  5
33E
100
AcDbEntity
  8
LAY-6
  6
CONTINUOUS
 62
     1
100
AcDbLine
 10
696.977325
 20
449.4
 30
0.0
 11
699.977325
 21
449.9
 31
0.0
  0
LINE
  5
33F
100
AcDbEntity
  8
LAY-6
  6
CONTINUOUS
 62
     1
100
AcDbLine
 10
699.977325
 20
449.9
 30
0.0
 11
696.977325
 21
450.4
 31
0.0
  0
LINE
  5
340
100
AcDbEntity
  8
LAY-6
  6
CONTINUOUS
 62
     1
100
AcDbLine
 10
640.977325
 20
399.866226
 30
0.0
 11
640.977325
 21
383.5
 31
0.0
  0
LINE
  5
341
100
AcDbEntity
  8
LAY-6
  6
CONTINUOUS
 62
     1
100
AcDbLine
 10
662.977722
 20
415.215171
 30
0.0
 11
662.977722
 21
383.5
 31
0.0
  0
TEXT
  5
342
100
AcDbEntity
  8
LAY-6
  6
CONTINUOUS
 62
     2
100
AcDbText
 10
647.977524
 20
385.5
 30
0.0
 40
5.0
  1
２２
 41
0.672
  7
EXCADSTD
 72
     5
 11
655.310324
 21
385.5
 31
0.0
100
AcDbText
  0
LINE
  5
343
100
AcDbEntity
  8
LAY-6
  6
CONTINUOUS
 62
     1
100
AcDbLine
 10
640.977325
 20
385.0
 30
0.0
 11
662.977722
 21
385.0
 31
0.0
  0
LINE
  5
344
100
AcDbEntity
  8
LAY-6
  6
CONTINUOUS
 62
     1
100
AcDbLine
 10
643.977325
 20
385.5
 30
0.0
 11
640.977325
 21
385.0
 31
0.0
  0
LINE
  5
345
100
AcDbEntity
  8
LAY-6
  6
CONTINUOUS
 62
     1
100
AcDbLine
 10
640.977325
 20
385.0
 30
0.0
 11
643.977325
 21
384.5
 31
0.0
  0
LINE
  5
346
100
AcDbEntity
  8
LAY-6
  6
CONTINUOUS
 62
     1
100
AcDbLine
 10
659.977722
 20
384.5
 30
0.0
 11
662.977722
 21
385.0
 31
0.0
  0
LINE
  5
347
100
AcDbEntity
  8
LAY-6
  6
CONTINUOUS
 62
     1
100
AcDbLine
 10
662.977722
 20
385.0
 30
0.0
 11
659.977722
 21
385.5
 31
0.0
  0
LINE
  5
348
100
AcDbEntity
  8
LAY-6
  6
CONTINUOUS
 62
     1
100
AcDbLine
 10
695.977325
 20
409.315231
 30
0.0
 11
695.977325
 21
383.5
 31
0.0
  0
TEXT
  5
349
100
AcDbEntity
  8
LAY-6
  6
CONTINUOUS
 62
     2
100
AcDbText
 10
675.477523
 20
385.5
 30
0.0
 40
5.0
  1
３３
 41
0.672
  7
EXCADSTD
 72
     5
 11
682.810323
 21
385.5
 31
0.0
100
AcDbText
  0
LINE
  5
34A
100
AcDbEntity
  8
LAY-6
  6
CONTINUOUS
 62
     1
100
AcDbLine
 10
662.977722
 20
385.0
 30
0.0
 11
695.977325
 21
385.0
 31
0.0
  0
LINE
  5
34B
100
AcDbEntity
  8
LAY-6
  6
CONTINUOUS
 62
     1
100
AcDbLine
 10
665.977722
 20
385.5
 30
0.0
 11
662.977722
 21
385.0
 31
0.0
  0
LINE
  5
34C
100
AcDbEntity
  8
LAY-6
  6
CONTINUOUS
 62
     1
100
AcDbLine
 10
662.977722
 20
385.0
 30
0.0
 11
665.977722
 21
384.5
 31
0.0
  0
LINE
  5
34D
100
AcDbEntity
  8
LAY-6
  6
CONTINUOUS
 62
     1
100
AcDbLine
 10
692.977325
 20
384.5
 30
0.0
 11
695.977325
 21
385.0
 31
0.0
  0
LINE
  5
34E
100
AcDbEntity
  8
LAY-6
  6
CONTINUOUS
 62
     1
100
AcDbLine
 10
695.977325
 20
385.0
 30
0.0
 11
692.977325
 21
385.5
 31
0.0
  0
LINE
  5
34F
100
AcDbEntity
  8
LAY-6
  6
CONTINUOUS
 62
     1
100
AcDbLine
 10
662.977295
 20
416.815231
 30
0.0
 11
653.0
 21
416.815231
 31
0.0
  0
LINE
  5
350
100
AcDbEntity
  8
LAY-6
  6
CONTINUOUS
 62
     1
100
AcDbLine
 10
662.977295
 20
407.815231
 30
0.0
 11
653.0
 21
407.815231
 31
0.0
  0
TEXT
  5
351
100
AcDbEntity
  8
LAY-6
  6
CONTINUOUS
 62
     2
100
AcDbText
 10
654.0
 20
410.315231
 30
0.0
 40
5.0
  1
９
 50
90.0
 41
0.672
  7
EXCADSTD
 72
     5
 11
654.0
 21
413.515231
 31
0.0
100
AcDbText
  0
LINE
  5
352
100
AcDbEntity
  8
LAY-6
  6
CONTINUOUS
 62
     1
100
AcDbLine
 10
654.5
 20
416.815231
 30
0.0
 11
654.5
 21
407.815231
 31
0.0
  0
LINE
  5
353
100
AcDbEntity
  8
LAY-6
  6
CONTINUOUS
 62
     1
100
AcDbLine
 10
655.0
 20
413.815231
 30
0.0
 11
654.5
 21
416.815231
 31
0.0
  0
LINE
  5
354
100
AcDbEntity
  8
LAY-6
  6
CONTINUOUS
 62
     1
100
AcDbLine
 10
654.5
 20
416.815231
 30
0.0
 11
654.0
 21
413.815231
 31
0.0
  0
LINE
  5
355
100
AcDbEntity
  8
LAY-6
  6
CONTINUOUS
 62
     1
100
AcDbLine
 10
654.0
 20
410.815231
 30
0.0
 11
654.5
 21
407.815231
 31
0.0
  0
LINE
  5
356
100
AcDbEntity
  8
LAY-6
  6
CONTINUOUS
 62
     1
100
AcDbLine
 10
654.5
 20
407.815231
 30
0.0
 11
655.0
 21
410.815231
 31
0.0
  0
LINE
  5
357
100
AcDbEntity
  8
LAY-6
  6
CONTINUOUS
 62
     1
100
AcDbLine
 10
623.977325
 20
402.815231
 30
0.0
 11
613.7
 21
402.815231
 31
0.0
  0
LINE
  5
358
100
AcDbEntity
  8
LAY-6
  6
CONTINUOUS
 62
     1
100
AcDbLine
 10
622.977325
 20
416.815231
 30
0.0
 11
613.7
 21
416.815231
 31
0.0
  0
TEXT
  5
359
100
AcDbEntity
  8
LAY-6
  6
CONTINUOUS
 62
     2
100
AcDbText
 10
614.7
 20
405.815231
 30
0.0
 40
5.0
  1
１４
 50
90.0
 41
0.672
  7
EXCADSTD
 72
     5
 11
614.7
 21
413.148031
 31
0.0
100
AcDbText
  0
LINE
  5
35A
100
AcDbEntity
  8
LAY-6
  6
CONTINUOUS
 62
     1
100
AcDbLine
 10
615.2
 20
402.815231
 30
0.0
 11
615.2
 21
416.815231
 31
0.0
  0
LINE
  5
35B
100
AcDbEntity
  8
LAY-6
  6
CONTINUOUS
 62
     1
100
AcDbLine
 10
614.7
 20
405.815231
 30
0.0
 11
615.2
 21
402.815231
 31
0.0
  0
LINE
  5
35C
100
AcDbEntity
  8
LAY-6
  6
CONTINUOUS
 62
     1
100
AcDbLine
 10
615.2
 20
402.815231
 30
0.0
 11
615.7
 21
405.815231
 31
0.0
  0
LINE
  5
35D
100
AcDbEntity
  8
LAY-6
  6
CONTINUOUS
 62
     1
100
AcDbLine
 10
615.7
 20
413.815231
 30
0.0
 11
615.2
 21
416.815231
 31
0.0
  0
LINE
  5
35E
100
AcDbEntity
  8
LAY-6
  6
CONTINUOUS
 62
     1
100
AcDbLine
 10
615.2
 20
416.815231
 30
0.0
 11
614.7
 21
413.815231
 31
0.0
  0
LINE
  5
35F
100
AcDbEntity
  8
LAY-6
  6
CONTINUOUS
 62
     1
100
AcDbLine
 10
623.977295
 20
419.815201
 30
0.0
 11
613.7
 21
419.815201
 31
0.0
  0
TEXT
  5
360
100
AcDbEntity
  8
LAY-6
  6
CONTINUOUS
 62
     2
100
AcDbText
 10
607.9
 20
404.215216
 30
0.0
 40
5.0
  1
２．５～４．５
 50
90.0
 41
0.672
  7
EXCADSTD
 72
     5
 11
607.9
 21
432.215216
 31
0.0
100
AcDbText
  0
LINE
  5
361
100
AcDbEntity
  8
LAY-6
  6
CONTINUOUS
 62
     1
100
AcDbLine
 10
622.977295
 20
433.815201
 30
0.0
 11
613.7
 21
433.815201
 31
0.0
  0
TEXT
  5
362
100
AcDbEntity
  8
LAY-6
  6
CONTINUOUS
 62
     2
100
AcDbText
 10
614.7
 20
422.815201
 30
0.0
 40
5.0
  1
１４
 50
90.0
 41
0.672
  7
EXCADSTD
 72
     5
 11
614.7
 21
430.148001
 31
0.0
100
AcDbText
  0
LINE
  5
363
100
AcDbEntity
  8
LAY-6
  6
CONTINUOUS
 62
     1
100
AcDbLine
 10
615.2
 20
419.815201
 30
0.0
 11
615.2
 21
433.815201
 31
0.0
  0
LINE
  5
364
100
AcDbEntity
  8
LAY-6
  6
CONTINUOUS
 62
     1
100
AcDbLine
 10
614.7
 20
422.815201
 30
0.0
 11
615.2
 21
419.815201
 31
0.0
  0
LINE
  5
365
100
AcDbEntity
  8
LAY-6
  6
CONTINUOUS
 62
     1
100
AcDbLine
 10
615.2
 20
419.815201
 30
0.0
 11
615.7
 21
422.815201
 31
0.0
  0
LINE
  5
366
100
AcDbEntity
  8
LAY-6
  6
CONTINUOUS
 62
     1
100
AcDbLine
 10
615.7
 20
430.815201
 30
0.0
 11
615.2
 21
433.815201
 31
0.0
  0
LINE
  5
367
100
AcDbEntity
  8
LAY-6
  6
CONTINUOUS
 62
     1
100
AcDbLine
 10
615.2
 20
433.815201
 30
0.0
 11
614.7
 21
430.815201
 31
0.0
  0
LINE
  5
368
100
AcDbEntity
  8
LAY-6
  6
CONTINUOUS
 62
     1
100
AcDbLine
 10
704.977295
 20
419.815201
 30
0.0
 11
717.7
 21
419.815201
 31
0.0
  0
LINE
  5
369
100
AcDbEntity
  8
LAY-6
  6
CONTINUOUS
 62
     1
100
AcDbLine
 10
698.477325
 20
424.815201
 30
0.0
 11
717.7
 21
424.815201
 31
0.0
  0
TEXT
  5
36A
100
AcDbEntity
  8
LAY-6
  6
CONTINUOUS
 62
     2
100
AcDbText
 10
715.8
 20
389.215201
 30
0.0
 40
5.0
  1
４．５～６．５
 50
90.0
 41
0.672
  7
EXCADSTD
 72
     5
 11
715.8
 21
417.215201
 31
0.0
100
AcDbText
  0
LINE
  5
36B
100
AcDbEntity
  8
LAY-6
  6
CONTINUOUS
 62
     1
100
AcDbLine
 10
716.2
 20
414.815201
 30
0.0
 11
716.2
 21
419.815201
 31
0.0
  0
LINE
  5
36C
100
AcDbEntity
  8
LAY-6
  6
CONTINUOUS
 62
     1
100
AcDbLine
 10
716.2
 20
424.815201
 30
0.0
 11
716.2
 21
429.815201
 31
0.0
  0
LINE
  5
36D
100
AcDbEntity
  8
LAY-6
  6
CONTINUOUS
 62
     1
100
AcDbLine
 10
716.7
 20
416.815201
 30
0.0
 11
716.2
 21
419.815201
 31
0.0
  0
LINE
  5
36E
100
AcDbEntity
  8
LAY-6
  6
CONTINUOUS
 62
     1
100
AcDbLine
 10
716.2
 20
419.815201
 30
0.0
 11
715.7
 21
416.815201
 31
0.0
  0
LINE
  5
36F
100
AcDbEntity
  8
LAY-6
  6
CONTINUOUS
 62
     1
100
AcDbLine
 10
715.7
 20
427.815201
 30
0.0
 11
716.2
 21
424.815201
 31
0.0
  0
LINE
  5
370
100
AcDbEntity
  8
LAY-6
  6
CONTINUOUS
 62
     1
100
AcDbLine
 10
716.2
 20
424.815201
 30
0.0
 11
716.7
 21
427.815201
 31
0.0
  0
LINE
  5
371
100
AcDbEntity
  8
LAY-6
  6
CONTINUOUS
 62
     1
100
AcDbLine
 10
698.477325
 20
433.815201
 30
0.0
 11
717.7
 21
433.815201
 31
0.0
  0
TEXT
  5
372
100
AcDbEntity
  8
LAY-6
  6
CONTINUOUS
 62
     2
100
AcDbText
 10
715.7
 20
427.315201
 30
0.0
 40
5.0
  1
９
 50
90.0
 41
0.672
  7
EXCADSTD
 72
     5
 11
715.7
 21
430.515201
 31
0.0
100
AcDbText
  0
LINE
  5
373
100
AcDbEntity
  8
LAY-6
  6
CONTINUOUS
 62
     1
100
AcDbLine
 10
716.2
 20
424.815201
 30
0.0
 11
716.2
 21
433.815201
 31
0.0
  0
LINE
  5
374
100
AcDbEntity
  8
LAY-6
  6
CONTINUOUS
 62
     1
100
AcDbLine
 10
715.7
 20
427.815201
 30
0.0
 11
716.2
 21
424.815201
 31
0.0
  0
LINE
  5
375
100
AcDbEntity
  8
LAY-6
  6
CONTINUOUS
 62
     1
100
AcDbLine
 10
716.2
 20
424.815201
 30
0.0
 11
716.7
 21
427.815201
 31
0.0
  0
LINE
  5
376
100
AcDbEntity
  8
LAY-6
  6
CONTINUOUS
 62
     1
100
AcDbLine
 10
716.7
 20
430.815201
 30
0.0
 11
716.2
 21
433.815201
 31
0.0
  0
LINE
  5
377
100
AcDbEntity
  8
LAY-6
  6
CONTINUOUS
 62
     1
100
AcDbLine
 10
716.2
 20
433.815201
 30
0.0
 11
715.7
 21
430.815201
 31
0.0
  0
LINE
  5
378
100
AcDbEntity
  8
LAY-6
  6
CONTINUOUS
 62
     1
100
AcDbLine
 10
662.977294
 20
322.999909
 30
0.0
 11
662.977294
 21
284.3
 31
0.0
  0
LINE
  5
379
100
AcDbEntity
  8
LAY-6
  6
CONTINUOUS
 62
     1
100
AcDbLine
 10
702.977294
 20
322.999909
 30
0.0
 11
702.977294
 21
284.3
 31
0.0
  0
TEXT
  5
37A
100
AcDbEntity
  8
LAY-6
  6
CONTINUOUS
 62
     2
100
AcDbText
 10
674.977294
 20
286.3
 30
0.0
 40
5.0
  1
４０以上
 41
0.672
  7
EXCADSTD
 72
     5
 11
690.977294
 21
286.3
 31
0.0
100
AcDbText
  0
LINE
  5
37B
100
AcDbEntity
  8
LAY-6
  6
CONTINUOUS
 62
     1
100
AcDbLine
 10
662.977294
 20
285.8
 30
0.0
 11
702.977294
 21
285.8
 31
0.0
  0
LINE
  5
37C
100
AcDbEntity
  8
LAY-6
  6
CONTINUOUS
 62
     1
100
AcDbLine
 10
665.977294
 20
286.3
 30
0.0
 11
662.977294
 21
285.8
 31
0.0
  0
LINE
  5
37D
100
AcDbEntity
  8
LAY-6
  6
CONTINUOUS
 62
     1
100
AcDbLine
 10
662.977294
 20
285.8
 30
0.0
 11
665.977294
 21
285.3
 31
0.0
  0
LINE
  5
37E
100
AcDbEntity
  8
LAY-6
  6
CONTINUOUS
 62
     1
100
AcDbLine
 10
699.977294
 20
285.3
 30
0.0
 11
702.977294
 21
285.8
 31
0.0
  0
LINE
  5
37F
100
AcDbEntity
  8
LAY-6
  6
CONTINUOUS
 62
     1
100
AcDbLine
 10
702.977294
 20
285.8
 30
0.0
 11
699.977294
 21
286.3
 31
0.0
  0
LINE
  5
380
100
AcDbEntity
  8
LAY-6
  6
CONTINUOUS
 62
     1
100
AcDbLine
 10
640.977356
 20
237.056885
 30
0.0
 11
640.977356
 21
259.1
 31
0.0
  0
LINE
  5
381
100
AcDbEntity
  8
LAY-6
  6
CONTINUOUS
 62
     1
100
AcDbLine
 10
662.977294
 20
219.965485
 30
0.0
 11
662.977294
 21
259.1
 31
0.0
  0
TEXT
  5
382
100
AcDbEntity
  8
LAY-6
  6
CONTINUOUS
 62
     2
100
AcDbText
 10
647.977325
 20
258.1
 30
0.0
 40
5.0
  1
２２
 41
0.672
  7
EXCADSTD
 72
     5
 11
655.310125
 21
258.1
 31
0.0
100
AcDbText
  0
LINE
  5
383
100
AcDbEntity
  8
LAY-6
  6
CONTINUOUS
 62
     1
100
AcDbLine
 10
640.977356
 20
257.6
 30
0.0
 11
662.977294
 21
257.6
 31
0.0
  0
LINE
  5
384
100
AcDbEntity
  8
LAY-6
  6
CONTINUOUS
 62
     1
100
AcDbLine
 10
643.977356
 20
258.1
 30
0.0
 11
640.977356
 21
257.6
 31
0.0
  0
LINE
  5
385
100
AcDbEntity
  8
LAY-6
  6
CONTINUOUS
 62
     1
100
AcDbLine
 10
640.977356
 20
257.6
 30
0.0
 11
643.977356
 21
257.1
 31
0.0
  0
LINE
  5
386
100
AcDbEntity
  8
LAY-6
  6
CONTINUOUS
 62
     1
100
AcDbLine
 10
659.977294
 20
257.1
 30
0.0
 11
662.977294
 21
257.6
 31
0.0
  0
LINE
  5
387
100
AcDbEntity
  8
LAY-6
  6
CONTINUOUS
 62
     1
100
AcDbLine
 10
662.977294
 20
257.6
 30
0.0
 11
659.977294
 21
258.1
 31
0.0
  0
LINE
  5
388
100
AcDbEntity
  8
LAY-6
  6
CONTINUOUS
 62
     1
100
AcDbLine
 10
696.977356
 20
227.465485
 30
0.0
 11
696.977356
 21
259.1
 31
0.0
  0
TEXT
  5
389
100
AcDbEntity
  8
LAY-6
  6
CONTINUOUS
 62
     2
100
AcDbText
 10
675.977325
 20
258.1
 30
0.0
 40
5.0
  1
３４
 41
0.672
  7
EXCADSTD
 72
     5
 11
683.310125
 21
258.1
 31
0.0
100
AcDbText
  0
LINE
  5
38A
100
AcDbEntity
  8
LAY-6
  6
CONTINUOUS
 62
     1
100
AcDbLine
 10
662.977294
 20
257.6
 30
0.0
 11
696.977356
 21
257.6
 31
0.0
  0
LINE
  5
38B
100
AcDbEntity
  8
LAY-6
  6
CONTINUOUS
 62
     1
100
AcDbLine
 10
665.977294
 20
258.1
 30
0.0
 11
662.977294
 21
257.6
 31
0.0
  0
LINE
  5
38C
100
AcDbEntity
  8
LAY-6
  6
CONTINUOUS
 62
     1
100
AcDbLine
 10
662.977294
 20
257.6
 30
0.0
 11
665.977294
 21
257.1
 31
0.0
  0
LINE
  5
38D
100
AcDbEntity
  8
LAY-6
  6
CONTINUOUS
 62
     1
100
AcDbLine
 10
693.977356
 20
257.1
 30
0.0
 11
696.977356
 21
257.6
 31
0.0
  0
LINE
  5
38E
100
AcDbEntity
  8
LAY-6
  6
CONTINUOUS
 62
     1
100
AcDbLine
 10
696.977356
 20
257.6
 30
0.0
 11
693.977356
 21
258.1
 31
0.0
  0
LINE
  5
38F
100
AcDbEntity
  8
LAY-6
  6
CONTINUOUS
 62
     1
100
AcDbLine
 10
640.977356
 20
194.453857
 30
0.0
 11
640.977356
 21
178.8
 31
0.0
  0
LINE
  5
390
100
AcDbEntity
  8
LAY-6
  6
CONTINUOUS
 62
     1
100
AcDbLine
 10
659.878472
 20
188.965455
 30
0.0
 11
659.878472
 21
178.8
 31
0.0
  0
TEXT
  5
391
100
AcDbEntity
  8
LAY-6
  6
CONTINUOUS
 62
     2
100
AcDbText
 10
646.427914
 20
180.8
 30
0.0
 40
5.0
  1
１９
 41
0.672
  7
EXCADSTD
 72
     5
 11
653.760714
 21
180.8
 31
0.0
100
AcDbText
  0
LINE
  5
392
100
AcDbEntity
  8
LAY-6
  6
CONTINUOUS
 62
     1
100
AcDbLine
 10
640.977356
 20
180.3
 30
0.0
 11
659.878472
 21
180.3
 31
0.0
  0
LINE
  5
393
100
AcDbEntity
  8
LAY-6
  6
CONTINUOUS
 62
     1
100
AcDbLine
 10
643.977356
 20
180.8
 30
0.0
 11
640.977356
 21
180.3
 31
0.0
  0
LINE
  5
394
100
AcDbEntity
  8
LAY-6
  6
CONTINUOUS
 62
     1
100
AcDbLine
 10
640.977356
 20
180.3
 30
0.0
 11
643.977356
 21
179.8
 31
0.0
  0
LINE
  5
395
100
AcDbEntity
  8
LAY-6
  6
CONTINUOUS
 62
     1
100
AcDbLine
 10
656.878472
 20
179.8
 30
0.0
 11
659.878472
 21
180.3
 31
0.0
  0
LINE
  5
396
100
AcDbEntity
  8
LAY-6
  6
CONTINUOUS
 62
     1
100
AcDbLine
 10
659.878472
 20
180.3
 30
0.0
 11
656.878472
 21
180.8
 31
0.0
  0
LINE
  5
397
100
AcDbEntity
  8
LAY-6
  6
CONTINUOUS
 62
     1
100
AcDbLine
 10
699.977356
 20
199.465546
 30
0.0
 11
699.977356
 21
178.8
 31
0.0
  0
TEXT
  5
398
100
AcDbEntity
  8
LAY-6
  6
CONTINUOUS
 62
     2
100
AcDbText
 10
675.927914
 20
180.8
 30
0.0
 40
5.0
  1
４０
 41
0.672
  7
EXCADSTD
 72
     5
 11
683.260714
 21
180.8
 31
0.0
100
AcDbText
  0
LINE
  5
399
100
AcDbEntity
  8
LAY-6
  6
CONTINUOUS
 62
     1
100
AcDbLine
 10
659.878472
 20
180.3
 30
0.0
 11
699.977356
 21
180.3
 31
0.0
  0
LINE
  5
39A
100
AcDbEntity
  8
LAY-6
  6
CONTINUOUS
 62
     1
100
AcDbLine
 10
662.878472
 20
180.8
 30
0.0
 11
659.878472
 21
180.3
 31
0.0
  0
LINE
  5
39B
100
AcDbEntity
  8
LAY-6
  6
CONTINUOUS
 62
     1
100
AcDbLine
 10
659.878472
 20
180.3
 30
0.0
 11
662.878472
 21
179.8
 31
0.0
  0
LINE
  5
39C
100
AcDbEntity
  8
LAY-6
  6
CONTINUOUS
 62
     1
100
AcDbLine
 10
696.977356
 20
179.8
 30
0.0
 11
699.977356
 21
180.3
 31
0.0
  0
LINE
  5
39D
100
AcDbEntity
  8
LAY-6
  6
CONTINUOUS
 62
     1
100
AcDbLine
 10
699.977356
 20
180.3
 30
0.0
 11
696.977356
 21
180.8
 31
0.0
  0
LINE
  5
39E
100
AcDbEntity
  8
LAY-6
  6
CONTINUOUS
 62
     1
100
AcDbLine
 10
622.977325
 20
197.965546
 30
0.0
 11
612.2
 21
197.965546
 31
0.0
  0
LINE
  5
39F
100
AcDbEntity
  8
LAY-6
  6
CONTINUOUS
 62
     1
100
AcDbLine
 10
623.977325
 20
211.965546
 30
0.0
 11
612.2
 21
211.965546
 31
0.0
  0
TEXT
  5
3A0
100
AcDbEntity
  8
LAY-6
  6
CONTINUOUS
 62
     2
100
AcDbText
 10
613.2
 20
200.965546
 30
0.0
 40
5.0
  1
１４
 50
90.0
 41
0.672
  7
EXCADSTD
 72
     5
 11
613.2
 21
208.298346
 31
0.0
100
AcDbText
  0
LINE
  5
3A1
100
AcDbEntity
  8
LAY-6
  6
CONTINUOUS
 62
     1
100
AcDbLine
 10
613.7
 20
197.965546
 30
0.0
 11
613.7
 21
211.965546
 31
0.0
  0
LINE
  5
3A2
100
AcDbEntity
  8
LAY-6
  6
CONTINUOUS
 62
     1
100
AcDbLine
 10
613.2
 20
200.965546
 30
0.0
 11
613.7
 21
197.965546
 31
0.0
  0
LINE
  5
3A3
100
AcDbEntity
  8
LAY-6
  6
CONTINUOUS
 62
     1
100
AcDbLine
 10
613.7
 20
197.965546
 30
0.0
 11
614.2
 21
200.965546
 31
0.0
  0
LINE
  5
3A4
100
AcDbEntity
  8
LAY-6
  6
CONTINUOUS
 62
     1
100
AcDbLine
 10
614.2
 20
208.965546
 30
0.0
 11
613.7
 21
211.965546
 31
0.0
  0
LINE
  5
3A5
100
AcDbEntity
  8
LAY-6
  6
CONTINUOUS
 62
     1
100
AcDbLine
 10
613.7
 20
211.965546
 30
0.0
 11
613.2
 21
208.965546
 31
0.0
  0
LINE
  5
3A6
100
AcDbEntity
  8
LAY-6
  6
CONTINUOUS
 62
     1
100
AcDbLine
 10
622.977325
 20
219.965485
 30
0.0
 11
612.2
 21
219.965485
 31
0.0
  0
TEXT
  5
3A7
100
AcDbEntity
  8
LAY-6
  6
CONTINUOUS
 62
     2
100
AcDbText
 10
613.2
 20
213.965516
 30
0.0
 40
5.0
  1
８
 50
90.0
 41
0.672
  7
EXCADSTD
 72
     5
 11
613.2
 21
217.165516
 31
0.0
100
AcDbText
  0
LINE
  5
3A8
100
AcDbEntity
  8
LAY-6
  6
CONTINUOUS
 62
     1
100
AcDbLine
 10
613.7
 20
211.965546
 30
0.0
 11
613.7
 21
219.965485
 31
0.0
  0
LINE
  5
3A9
100
AcDbEntity
  8
LAY-6
  6
CONTINUOUS
 62
     1
100
AcDbLine
 10
613.2
 20
214.965546
 30
0.0
 11
613.7
 21
211.965546
 31
0.0
  0
LINE
  5
3AA
100
AcDbEntity
  8
LAY-6
  6
CONTINUOUS
 62
     1
100
AcDbLine
 10
613.7
 20
211.965546
 30
0.0
 11
614.2
 21
214.965546
 31
0.0
  0
LINE
  5
3AB
100
AcDbEntity
  8
LAY-6
  6
CONTINUOUS
 62
     1
100
AcDbLine
 10
614.2
 20
216.965485
 30
0.0
 11
613.7
 21
219.965485
 31
0.0
  0
LINE
  5
3AC
100
AcDbEntity
  8
LAY-6
  6
CONTINUOUS
 62
     1
100
AcDbLine
 10
613.7
 20
219.965485
 30
0.0
 11
613.2
 21
216.965485
 31
0.0
  0
LINE
  5
3AD
100
AcDbEntity
  8
LAY-6
  6
CONTINUOUS
 62
     1
100
AcDbLine
 10
623.977325
 20
233.965485
 30
0.0
 11
612.2
 21
233.965485
 31
0.0
  0
TEXT
  5
3AE
100
AcDbEntity
  8
LAY-6
  6
CONTINUOUS
 62
     2
100
AcDbText
 10
613.2
 20
222.965485
 30
0.0
 40
5.0
  1
１４
 50
90.0
 41
0.672
  7
EXCADSTD
 72
     5
 11
613.2
 21
230.298285
 31
0.0
100
AcDbText
  0
LINE
  5
3AF
100
AcDbEntity
  8
LAY-6
  6
CONTINUOUS
 62
     1
100
AcDbLine
 10
613.7
 20
219.965485
 30
0.0
 11
613.7
 21
233.965485
 31
0.0
  0
LINE
  5
3B0
100
AcDbEntity
  8
LAY-6
  6
CONTINUOUS
 62
     1
100
AcDbLine
 10
613.2
 20
222.965485
 30
0.0
 11
613.7
 21
219.965485
 31
0.0
  0
LINE
  5
3B1
100
AcDbEntity
  8
LAY-6
  6
CONTINUOUS
 62
     1
100
AcDbLine
 10
613.7
 20
219.965485
 30
0.0
 11
614.2
 21
222.965485
 31
0.0
  0
LINE
  5
3B2
100
AcDbEntity
  8
LAY-6
  6
CONTINUOUS
 62
     1
100
AcDbLine
 10
614.2
 20
230.965485
 30
0.0
 11
613.7
 21
233.965485
 31
0.0
  0
LINE
  5
3B3
100
AcDbEntity
  8
LAY-6
  6
CONTINUOUS
 62
     1
100
AcDbLine
 10
613.7
 20
233.965485
 30
0.0
 11
613.2
 21
230.965485
 31
0.0
  0
LINE
  5
3B4
100
AcDbEntity
  8
LAY-6
  6
CONTINUOUS
 62
     1
100
AcDbLine
 10
659.977325
 20
206.965515
 30
0.0
 11
649.4
 21
206.965515
 31
0.0
  0
LINE
  5
3B5
100
AcDbEntity
  8
LAY-6
  6
CONTINUOUS
 62
     1
100
AcDbLine
 10
659.977325
 20
211.965546
 30
0.0
 11
649.4
 21
211.965546
 31
0.0
  0
LINE
  5
3B6
100
AcDbEntity
  8
LAY-6
  6
CONTINUOUS
 62
     1
100
AcDbLine
 10
659.977325
 20
206.965515
 30
0.0
 11
649.4
 21
206.965515
 31
0.0
  0
TEXT
  5
3B7
100
AcDbEntity
  8
LAY-6
  6
CONTINUOUS
 62
     2
100
AcDbText
 10
650.4
 20
207.465531
 30
0.0
 40
5.0
  1
５
 50
90.0
 41
0.672
  7
EXCADSTD
 72
     5
 11
650.4
 21
210.66553
 31
0.0
100
AcDbText
  0
LINE
  5
3B8
100
AcDbEntity
  8
LAY-6
  6
CONTINUOUS
 62
     1
100
AcDbLine
 10
650.9
 20
211.965546
 30
0.0
 11
650.9
 21
206.965515
 31
0.0
  0
CIRCLE
  5
3B9
100
AcDbEntity
  8
LAY-6
  6
CONTINUOUS
 62
     1
100
AcDbCircle
 10
650.9
 20
211.965546
 30
0.0
 40
0.5
  0
CIRCLE
  5
3BA
100
AcDbEntity
  8
LAY-6
  6
CONTINUOUS
 62
     1
100
AcDbCircle
 10
650.9
 20
211.965546
 30
0.0
 40
0.25
  0
LINE
  5
3BB
100
AcDbEntity
  8
LAY-6
  6
CONTINUOUS
 62
     1
100
AcDbLine
 10
650.4
 20
209.965515
 30
0.0
 11
650.9
 21
206.965515
 31
0.0
  0
LINE
  5
3BC
100
AcDbEntity
  8
LAY-6
  6
CONTINUOUS
 62
     1
100
AcDbLine
 10
650.9
 20
206.965515
 30
0.0
 11
651.4
 21
209.965515
 31
0.0
  0
LINE
  5
3BD
100
AcDbEntity
  8
LAY-6
  6
CONTINUOUS
 62
     1
100
AcDbLine
 10
659.977325
 20
211.965546
 30
0.0
 11
649.4
 21
211.965546
 31
0.0
  0
LINE
  5
3BE
100
AcDbEntity
  8
LAY-6
  6
CONTINUOUS
 62
     1
100
AcDbLine
 10
661.476867
 20
213.965455
 30
0.0
 11
649.4
 21
213.965455
 31
0.0
  0
TEXT
  5
3BF
100
AcDbEntity
  8
LAY-6
  6
CONTINUOUS
 62
     2
100
AcDbText
 10
650.4
 20
215.165501
 30
0.0
 40
5.0
  1
２
 50
90.0
 41
0.672
  7
EXCADSTD
 72
     5
 11
650.4
 21
218.365501
 31
0.0
100
AcDbText
  0
LINE
  5
3C0
100
AcDbEntity
  8
LAY-6
  6
CONTINUOUS
 62
     1
100
AcDbLine
 10
650.9
 20
206.965546
 30
0.0
 11
650.9
 21
211.965546
 31
0.0
  0
LINE
  5
3C1
100
AcDbEntity
  8
LAY-6
  6
CONTINUOUS
 62
     1
100
AcDbLine
 10
650.9
 20
213.965455
 30
0.0
 11
650.9
 21
218.965455
 31
0.0
  0
CIRCLE
  5
3C2
100
AcDbEntity
  8
LAY-6
  6
CONTINUOUS
 62
     1
100
AcDbCircle
 10
650.9
 20
211.965546
 30
0.0
 40
0.5
  0
CIRCLE
  5
3C3
100
AcDbEntity
  8
LAY-6
  6
CONTINUOUS
 62
     1
100
AcDbCircle
 10
650.9
 20
211.965546
 30
0.0
 40
0.25
  0
LINE
  5
3C4
100
AcDbEntity
  8
LAY-6
  6
CONTINUOUS
 62
     1
100
AcDbLine
 10
650.4
 20
216.965455
 30
0.0
 11
650.9
 21
213.965455
 31
0.0
  0
LINE
  5
3C5
100
AcDbEntity
  8
LAY-6
  6
CONTINUOUS
 62
     1
100
AcDbLine
 10
650.9
 20
213.965455
 30
0.0
 11
651.4
 21
216.965455
 31
0.0
  0
LINE
  5
3C6
100
AcDbEntity
  8
LAY-6
  6
CONTINUOUS
 62
     1
100
AcDbLine
 10
662.977325
 20
228.965485
 30
0.0
 11
655.2
 21
228.965485
 31
0.0
  0
LINE
  5
3C7
100
AcDbEntity
  8
LAY-6
  6
CONTINUOUS
 62
     1
100
AcDbLine
 10
662.977325
 20
219.965485
 30
0.0
 11
655.2
 21
219.965485
 31
0.0
  0
TEXT
  5
3C8
100
AcDbEntity
  8
LAY-6
  6
CONTINUOUS
 62
     2
100
AcDbText
 10
656.2
 20
222.465485
 30
0.0
 40
5.0
  1
９
 50
90.0
 41
0.672
  7
EXCADSTD
 72
     5
 11
656.2
 21
225.665485
 31
0.0
100
AcDbText
  0
LINE
  5
3C9
100
AcDbEntity
  8
LAY-6
  6
CONTINUOUS
 62
     1
100
AcDbLine
 10
656.7
 20
228.965485
 30
0.0
 11
656.7
 21
219.965485
 31
0.0
  0
LINE
  5
3CA
100
AcDbEntity
  8
LAY-6
  6
CONTINUOUS
 62
     1
100
AcDbLine
 10
657.2
 20
225.965485
 30
0.0
 11
656.7
 21
228.965485
 31
0.0
  0
LINE
  5
3CB
100
AcDbEntity
  8
LAY-6
  6
CONTINUOUS
 62
     1
100
AcDbLine
 10
656.7
 20
228.965485
 30
0.0
 11
656.2
 21
225.965485
 31
0.0
  0
LINE
  5
3CC
100
AcDbEntity
  8
LAY-6
  6
CONTINUOUS
 62
     1
100
AcDbLine
 10
656.2
 20
222.965485
 30
0.0
 11
656.7
 21
219.965485
 31
0.0
  0
LINE
  5
3CD
100
AcDbEntity
  8
LAY-6
  6
CONTINUOUS
 62
     1
100
AcDbLine
 10
656.7
 20
219.965485
 30
0.0
 11
657.2
 21
222.965485
 31
0.0
  0
LINE
  5
3CE
100
AcDbEntity
  8
LAY-6
  6
CONTINUOUS
 62
     1
100
AcDbLine
 10
698.477356
 20
206.965546
 30
0.0
 11
716.6
 21
206.965546
 31
0.0
  0
LINE
  5
3CF
100
AcDbEntity
  8
LAY-6
  6
CONTINUOUS
 62
     1
100
AcDbLine
 10
698.477356
 20
197.965546
 30
0.0
 11
716.6
 21
197.965546
 31
0.0
  0
TEXT
  5
3D0
100
AcDbEntity
  8
LAY-6
  6
CONTINUOUS
 62
     2
100
AcDbText
 10
714.6
 20
200.465546
 30
0.0
 40
5.0
  1
９
 50
90.0
 41
0.672
  7
EXCADSTD
 72
     5
 11
714.6
 21
203.665546
 31
0.0
100
AcDbText
  0
LINE
  5
3D1
100
AcDbEntity
  8
LAY-6
  6
CONTINUOUS
 62
     1
100
AcDbLine
 10
715.1
 20
206.965546
 30
0.0
 11
715.1
 21
197.965546
 31
0.0
  0
LINE
  5
3D2
100
AcDbEntity
  8
LAY-6
  6
CONTINUOUS
 62
     1
100
AcDbLine
 10
715.6
 20
203.965546
 30
0.0
 11
715.1
 21
206.965546
 31
0.0
  0
LINE
  5
3D3
100
AcDbEntity
  8
LAY-6
  6
CONTINUOUS
 62
     1
100
AcDbLine
 10
715.1
 20
206.965546
 30
0.0
 11
714.6
 21
203.965546
 31
0.0
  0
LINE
  5
3D4
100
AcDbEntity
  8
LAY-6
  6
CONTINUOUS
 62
     1
100
AcDbLine
 10
714.6
 20
200.965546
 30
0.0
 11
715.1
 21
197.965546
 31
0.0
  0
LINE
  5
3D5
100
AcDbEntity
  8
LAY-6
  6
CONTINUOUS
 62
     1
100
AcDbLine
 10
715.1
 20
197.965546
 30
0.0
 11
715.6
 21
200.965546
 31
0.0
  0
LINE
  5
3D6
100
AcDbEntity
  8
LAY-6
  6
CONTINUOUS
 62
     1
100
AcDbLine
 10
705.028472
 20
213.965455
 30
0.0
 11
728.0
 21
213.965455
 31
0.0
  0
LINE
  5
3D7
100
AcDbEntity
  8
LAY-6
  6
CONTINUOUS
 62
     1
100
AcDbLine
 10
702.977294
 20
219.965485
 30
0.0
 11
728.0
 21
219.965485
 31
0.0
  0
TEXT
  5
3D8
100
AcDbEntity
  8
LAY-6
  6
CONTINUOUS
 62
     2
100
AcDbText
 10
726.0
 20
214.96547
 30
0.0
 40
5.0
  1
６
 50
90.0
 41
0.672
  7
EXCADSTD
 72
     5
 11
726.0
 21
218.16547
 31
0.0
100
AcDbText
  0
LINE
  5
3D9
100
AcDbEntity
  8
LAY-6
  6
CONTINUOUS
 62
     1
100
AcDbLine
 10
726.5
 20
208.965455
 30
0.0
 11
726.5
 21
213.965455
 31
0.0
  0
LINE
  5
3DA
100
AcDbEntity
  8
LAY-6
  6
CONTINUOUS
 62
     1
100
AcDbLine
 10
726.5
 20
219.965485
 30
0.0
 11
726.5
 21
224.965485
 31
0.0
  0
LINE
  5
3DB
100
AcDbEntity
  8
LAY-6
  6
CONTINUOUS
 62
     1
100
AcDbLine
 10
727.0
 20
210.965455
 30
0.0
 11
726.5
 21
213.965455
 31
0.0
  0
LINE
  5
3DC
100
AcDbEntity
  8
LAY-6
  6
CONTINUOUS
 62
     1
100
AcDbLine
 10
726.5
 20
213.965455
 30
0.0
 11
726.0
 21
210.965455
 31
0.0
  0
LINE
  5
3DD
100
AcDbEntity
  8
LAY-6
  6
CONTINUOUS
 62
     1
100
AcDbLine
 10
726.0
 20
222.965485
 30
0.0
 11
726.5
 21
219.965485
 31
0.0
  0
LINE
  5
3DE
100
AcDbEntity
  8
LAY-6
  6
CONTINUOUS
 62
     1
100
AcDbLine
 10
726.5
 20
219.965485
 30
0.0
 11
727.0
 21
222.965485
 31
0.0
  0
LINE
  5
3DF
100
AcDbEntity
  8
LAY-6
  6
CONTINUOUS
 62
     1
100
AcDbLine
 10
701.377722
 20
416.815171
 30
0.0
 11
728.0
 21
416.815171
 31
0.0
  0
TEXT
  5
3E0
100
AcDbEntity
  8
LAY-6
  6
CONTINUOUS
 62
     2
100
AcDbText
 10
726.0
 20
314.390328
 30
0.0
 40
5.0
  1
ＤＨ
 50
90.0
 41
0.672
  7
EXCADSTD
 72
     5
 11
726.0
 21
321.723128
 31
0.0
100
AcDbText
  0
LINE
  5
3E1
100
AcDbEntity
  8
LAY-6
  6
CONTINUOUS
 62
     1
100
AcDbLine
 10
726.5
 20
219.965485
 30
0.0
 11
726.5
 21
416.815171
 31
0.0
  0
LINE
  5
3E2
100
AcDbEntity
  8
LAY-6
  6
CONTINUOUS
 62
     1
100
AcDbLine
 10
726.0
 20
222.965485
 30
0.0
 11
726.5
 21
219.965485
 31
0.0
  0
LINE
  5
3E3
100
AcDbEntity
  8
LAY-6
  6
CONTINUOUS
 62
     1
100
AcDbLine
 10
726.5
 20
219.965485
 30
0.0
 11
727.0
 21
222.965485
 31
0.0
  0
LINE
  5
3E4
100
AcDbEntity
  8
LAY-6
  6
CONTINUOUS
 62
     1
100
AcDbLine
 10
727.0
 20
413.815171
 30
0.0
 11
726.5
 21
416.815171
 31
0.0
  0
LINE
  5
3E5
100
AcDbEntity
  8
LAY-6
  6
CONTINUOUS
 62
     1
100
AcDbLine
 10
726.5
 20
416.815171
 30
0.0
 11
726.0
 21
413.815171
 31
0.0
  0
LINE
  5
3E6
100
AcDbEntity
  8
LAY-6
  6
CONTINUOUS
 62
     1
100
AcDbLine
 10
704.977295
 20
419.815201
 30
0.0
 11
728.0
 21
419.815201
 31
0.0
  0
TEXT
  5
3E7
100
AcDbEntity
  8
LAY-6
  6
CONTINUOUS
 62
     2
100
AcDbText
 10
726.0
 20
416.315186
 30
0.0
 40
5.0
  1
３
 50
90.0
 41
0.672
  7
EXCADSTD
 72
     5
 11
726.0
 21
419.515186
 31
0.0
100
AcDbText
  0
LINE
  5
3E8
100
AcDbEntity
  8
LAY-6
  6
CONTINUOUS
 62
     1
100
AcDbLine
 10
726.5
 20
411.815171
 30
0.0
 11
726.5
 21
416.815171
 31
0.0
  0
LINE
  5
3E9
100
AcDbEntity
  8
LAY-6
  6
CONTINUOUS
 62
     1
100
AcDbLine
 10
726.5
 20
419.815201
 30
0.0
 11
726.5
 21
424.815201
 31
0.0
  0
LINE
  5
3EA
100
AcDbEntity
  8
LAY-6
  6
CONTINUOUS
 62
     1
100
AcDbLine
 10
727.0
 20
413.815171
 30
0.0
 11
726.5
 21
416.815171
 31
0.0
  0
LINE
  5
3EB
100
AcDbEntity
  8
LAY-6
  6
CONTINUOUS
 62
     1
100
AcDbLine
 10
726.5
 20
416.815171
 30
0.0
 11
726.0
 21
413.815171
 31
0.0
  0
LINE
  5
3EC
100
AcDbEntity
  8
LAY-6
  6
CONTINUOUS
 62
     1
100
AcDbLine
 10
726.0
 20
422.815201
 30
0.0
 11
726.5
 21
419.815201
 31
0.0
  0
LINE
  5
3ED
100
AcDbEntity
  8
LAY-6
  6
CONTINUOUS
 62
     1
100
AcDbLine
 10
726.5
 20
419.815201
 30
0.0
 11
727.0
 21
422.815201
 31
0.0
  0
CIRCLE
  5
3EE
100
AcDbEntity
  8
LAY-6
  6
CONTINUOUS
 62
     1
100
AcDbCircle
 10
610.038349
 20
449.335619
 30
0.0
 40
4.0
  0
TEXT
  5
3EF
100
AcDbEntity
  8
LAY-6
  6
CONTINUOUS
 62
     2
100
AcDbText
 10
607.209922
 20
446.507192
 30
0.0
 40
5.656854
  1
１
 41
0.84
  7
EXCADSTD
 72
     5
 11
611.735405
 21
446.507192
 31
0.0
100
AcDbText
  0
POLYLINE
  5
3F0
100
AcDbEntity
  8
LAY-6
  6
CONTINUOUS
 62
     1
100
AcDb2dPolyline
 66
     1
 10
0.0
 20
0.0
 30
0.0
 70
   128
  0
VERTEX
  5
3F1
100
AcDbEntity
  8
LAY-6
  6
CONTINUOUS
 62
     1
100
AcDbVertex
100
AcDb2dVertex
 10
626.055891
 20
433.815201
 30
0.0
  0
VERTEX
  5
3F2
100
AcDbEntity
  8
LAY-6
  6
CONTINUOUS
 62
     1
100
AcDbVertex
100
AcDb2dVertex
 10
612.911003
 20
446.552122
 30
0.0
  0
SEQEND
  5
3F3
100
AcDbEntity
  8
LAY-6
  6
CONTINUOUS
 62
     1
  0
LINE
  5
3F4
100
AcDbEntity
  8
LAY-6
  6
CONTINUOUS
 62
     1
100
AcDbLine
 10
623.553463
 20
435.543743
 30
0.0
 11
626.055891
 21
433.815201
 31
0.0
  0
LINE
  5
3F5
100
AcDbEntity
  8
LAY-6
  6
CONTINUOUS
 62
     1
100
AcDbLine
 10
626.055891
 20
433.815201
 30
0.0
 11
624.249337
 21
436.261906
 31
0.0
  0
CIRCLE
  5
3F6
100
AcDbEntity
  8
LAY-6
  6
CONTINUOUS
 62
     1
100
AcDbCircle
 10
615.1
 20
384.9
 30
0.0
 40
4.0
  0
POLYLINE
  5
3F7
100
AcDbEntity
  8
LAY-6
  6
CONTINUOUS
 62
     1
100
AcDb2dPolyline
 66
     1
 10
0.0
 20
0.0
 30
0.0
 70
   128
  0
VERTEX
  5
3F8
100
AcDbEntity
  8
LAY-6
  6
CONTINUOUS
 62
     1
100
AcDbVertex
100
AcDb2dVertex
 10
631.5
 20
402.815231
 30
0.0
  0
VERTEX
  5
3F9
100
AcDbEntity
  8
LAY-6
  6
CONTINUOUS
 62
     1
100
AcDbVertex
100
AcDb2dVertex
 10
617.800903
 20
387.850445
 30
0.0
  0
SEQEND
  5
3FA
100
AcDbEntity
  8
LAY-6
  6
CONTINUOUS
 62
     1
  0
LINE
  5
3FB
100
AcDbEntity
  8
LAY-6
  6
CONTINUOUS
 62
     1
100
AcDbLine
 10
629.843129
 20
400.264785
 30
0.0
 11
631.5
 21
402.815231
 31
0.0
  0
LINE
  5
3FC
100
AcDbEntity
  8
LAY-6
  6
CONTINUOUS
 62
     1
100
AcDbLine
 10
631.5
 20
402.815231
 30
0.0
 11
629.105517
 21
400.94001
 31
0.0
  0
TEXT
  5
3FD
100
AcDbEntity
  8
LAY-6
  6
CONTINUOUS
 62
     2
100
AcDbText
 10
612.271573
 20
382.071573
 30
0.0
 40
5.656854
  1
２
 41
0.84
  7
EXCADSTD
 72
     5
 11
616.797056
 21
382.071573
 31
0.0
100
AcDbText
  0
CIRCLE
  5
3FE
100
AcDbEntity
  8
LAY-6
  6
CONTINUOUS
 62
     1
100
AcDbCircle
 10
613.7
 20
257.7
 30
0.0
 40
4.0
  0
POLYLINE
  5
3FF
100
AcDbEntity
  8
LAY-6
  6
CONTINUOUS
 62
     1
100
AcDb2dPolyline
 66
     1
 10
0.0
 20
0.0
 30
0.0
 70
   128
  0
VERTEX
  5
400
100
AcDbEntity
  8
LAY-6
  6
CONTINUOUS
 62
     1
100
AcDbVertex
100
AcDb2dVertex
 10
631.7
 20
233.965485
 30
0.0
  0
VERTEX
  5
401
100
AcDbEntity
  8
LAY-6
  6
CONTINUOUS
 62
     1
100
AcDbVertex
100
AcDb2dVertex
 10
616.117078
 20
254.51288
 30
0.0
  0
SEQEND
  5
402
100
AcDbEntity
  8
LAY-6
  6
CONTINUOUS
 62
     1
  0
LINE
  5
403
100
AcDbEntity
  8
LAY-6
  6
CONTINUOUS
 62
     1
100
AcDbLine
 10
629.488802
 20
236.053691
 30
0.0
 11
631.7
 21
233.965485
 31
0.0
  0
LINE
  5
404
100
AcDbEntity
  8
LAY-6
  6
CONTINUOUS
 62
     1
100
AcDbLine
 10
631.7
 20
233.965485
 30
0.0
 11
630.285582
 21
236.65796
 31
0.0
  0
TEXT
  5
405
100
AcDbEntity
  8
LAY-6
  6
CONTINUOUS
 62
     2
100
AcDbText
 10
610.871573
 20
254.871573
 30
0.0
 40
5.656854
  1
３
 41
0.84
  7
EXCADSTD
 72
     5
 11
615.397056
 21
254.871573
 31
0.0
100
AcDbText
  0
CIRCLE
  5
406
100
AcDbEntity
  8
LAY-6
  6
CONTINUOUS
 62
     1
100
AcDbCircle
 10
613.7
 20
180.3
 30
0.0
 40
4.0
  0
POLYLINE
  5
407
100
AcDbEntity
  8
LAY-6
  6
CONTINUOUS
 62
     1
100
AcDb2dPolyline
 66
     1
 10
0.0
 20
0.0
 30
0.0
 70
   128
  0
VERTEX
  5
408
100
AcDbEntity
  8
LAY-6
  6
CONTINUOUS
 62
     1
100
AcDbVertex
100
AcDb2dVertex
 10
632.1
 20
197.965546
 30
0.0
  0
VERTEX
  5
409
100
AcDbEntity
  8
LAY-6
  6
CONTINUOUS
 62
     1
100
AcDbVertex
100
AcDb2dVertex
 10
616.585428
 20
183.070253
 30
0.0
  0
SEQEND
  5
40A
100
AcDbEntity
  8
LAY-6
  6
CONTINUOUS
 62
     1
  0
LINE
  5
40B
100
AcDbEntity
  8
LAY-6
  6
CONTINUOUS
 62
     1
100
AcDbLine
 10
630.282211
 20
195.527177
 30
0.0
 11
632.1
 21
197.965546
 31
0.0
  0
LINE
  5
40C
100
AcDbEntity
  8
LAY-6
  6
CONTINUOUS
 62
     1
100
AcDbLine
 10
632.1
 20
197.965546
 30
0.0
 11
629.589647
 21
196.248534
 31
0.0
  0
TEXT
  5
40D
100
AcDbEntity
  8
LAY-6
  6
CONTINUOUS
 62
     2
100
AcDbText
 10
610.871573
 20
177.471573
 30
0.0
 40
5.656854
  1
４
 41
0.84
  7
EXCADSTD
 72
     5
 11
615.397056
 21
177.471573
 31
0.0
100
AcDbText
  0
POLYLINE
  5
40E
100
AcDbEntity
  8
LAY-6
  6
CONTINUOUS
 62
     1
100
AcDb2dPolyline
 66
     1
 10
0.0
 20
0.0
 30
0.0
 70
   128
  0
VERTEX
  5
40F
100
AcDbEntity
  8
LAY-6
  6
CONTINUOUS
 62
     1
100
AcDbVertex
100
AcDb2dVertex
 10
673.077295
 20
396.615262
 30
0.0
  0
VERTEX
  5
410
100
AcDbEntity
  8
LAY-6
  6
CONTINUOUS
 62
     1
100
AcDbVertex
100
AcDb2dVertex
 10
667.7
 20
363.5
 30
0.0
  0
VERTEX
  5
411
100
AcDbEntity
  8
LAY-6
  6
CONTINUOUS
 62
     1
100
AcDbVertex
100
AcDb2dVertex
 10
608.4
 20
363.5
 30
0.0
  0
SEQEND
  5
412
100
AcDbEntity
  8
LAY-6
  6
CONTINUOUS
 62
     1
  0
LINE
  5
413
100
AcDbEntity
  8
LAY-6
  6
CONTINUOUS
 62
     1
100
AcDbLine
 10
673.089985
 20
393.573907
 30
0.0
 11
673.077295
 21
396.615262
 31
0.0
  0
LINE
  5
414
100
AcDbEntity
  8
LAY-6
  6
CONTINUOUS
 62
     1
100
AcDbLine
 10
673.077295
 20
396.615262
 30
0.0
 11
672.102914
 21
393.734189
 31
0.0
  0
TEXT
  5
415
100
AcDbEntity
  8
LAY-6
  6
CONTINUOUS
 62
     2
100
AcDbText
 10
608.4
 20
363.5
 30
0.0
 40
5.0
  1
４－Ｍ６×２０皿小ネジ
 41
0.672
  7
EXCADSTD
 72
     5
 11
652.4
 21
363.5
 31
0.0
100
AcDbText
  0
POLYLINE
  5
416
100
AcDbEntity
  8
LAY-6
  6
CONTINUOUS
 62
     1
100
AcDb2dPolyline
 66
     1
 10
0.0
 20
0.0
 30
0.0
 70
   128
  0
VERTEX
  5
417
100
AcDbEntity
  8
LAY-6
  6
CONTINUOUS
 62
     1
100
AcDbVertex
100
AcDb2dVertex
 10
675.977356
 20
240.06547
 30
0.0
  0
VERTEX
  5
418
100
AcDbEntity
  8
LAY-6
  6
CONTINUOUS
 62
     1
100
AcDbVertex
100
AcDb2dVertex
 10
668.4
 20
271.1
 30
0.0
  0
VERTEX
  5
419
100
AcDbEntity
  8
LAY-6
  6
CONTINUOUS
 62
     1
100
AcDbVertex
100
AcDb2dVertex
 10
609.3
 20
271.1
 30
0.0
  0
SEQEND
  5
41A
100
AcDbEntity
  8
LAY-6
  6
CONTINUOUS
 62
     1
  0
LINE
  5
41B
100
AcDbEntity
  8
LAY-6
  6
CONTINUOUS
 62
     1
100
AcDbLine
 10
674.780051
 20
242.861263
 30
0.0
 11
675.977356
 21
240.06547
 31
0.0
  0
LINE
  5
41C
100
AcDbEntity
  8
LAY-6
  6
CONTINUOUS
 62
     1
100
AcDbLine
 10
675.977356
 20
240.06547
 30
0.0
 11
675.751514
 21
243.098454
 31
0.0
  0
TEXT
  5
41D
100
AcDbEntity
  8
LAY-6
  6
CONTINUOUS
 62
     2
100
AcDbText
 10
609.3
 20
271.1
 30
0.0
 40
5.0
  1
４－Ｍ６×２０皿小ネジ
 41
0.672
  7
EXCADSTD
 72
     5
 11
653.3
 21
271.1
 31
0.0
100
AcDbText
  0
TEXT
  5
41E
100
AcDbEntity
  8
LAY-6
  6
CONTINUOUS
 62
     2
100
AcDbText
 10
171.83719
 20
446.705664
 30
0.0
 40
5.0
  1
（タップ穴加工付はオプション）
 41
0.672
  7
EXCADSTD
 72
     5
 11
231.83719
 21
446.705665
 31
0.0
100
AcDbText
  0
TEXT
  5
41F
100
AcDbEntity
  8
LAY-6
  6
CONTINUOUS
 62
     2
100
AcDbText
 10
378.937202
 20
278.875889
 30
0.0
 40
5.0
  1
（タップ穴加工付はオプション）
 41
0.672
  7
EXCADSTD
 72
     5
 11
438.937202
 21
278.875889
 31
0.0
100
AcDbText
  0
TEXT
  5
420
100
AcDbEntity
  8
LAY-6
  6
CONTINUOUS
 62
     2
100
AcDbText
 10
718.05
 20
173.1
 30
0.0
 40
5.0
  1
裏板（別途）
 41
0.672
  7
EXCADSTD
 72
     5
 11
742.05
 21
173.1
 31
0.0
100
AcDbText
  0
POLYLINE
  5
421
100
AcDbEntity
  8
LAY-6
  6
CONTINUOUS
 62
     1
100
AcDb2dPolyline
 66
     1
 10
0.0
 20
0.0
 30
0.0
 70
   128
  0
VERTEX
  5
422
100
AcDbEntity
  8
LAY-6
  6
CONTINUOUS
 62
     1
100
AcDbVertex
100
AcDb2dVertex
 10
702.8
 20
206.965455
 30
0.0
  0
VERTEX
  5
423
100
AcDbEntity
  8
LAY-6
  6
CONTINUOUS
 62
     1
100
AcDbVertex
100
AcDb2dVertex
 10
715.2
 20
172.6
 30
0.0
  0
VERTEX
  5
424
100
AcDbEntity
  8
LAY-6
  6
CONTINUOUS
 62
     1
100
AcDbVertex
100
AcDb2dVertex
 10
744.9
 20
172.6
 30
0.0
  0
SEQEND
  5
425
100
AcDbEntity
  8
LAY-6
  6
CONTINUOUS
 62
     1
  0
LINE
  5
426
100
AcDbEntity
  8
LAY-6
  6
CONTINUOUS
 62
     1
100
AcDbLine
 10
703.792363
 20
205.197313
 30
0.0
 11
702.8
 21
206.965455
 31
0.0
  0
LINE
  5
427
100
AcDbEntity
  8
LAY-6
  6
CONTINUOUS
 62
     1
100
AcDbLine
 10
702.8
 20
206.965455
 30
0.0
 11
703.16527
 21
204.971041
 31
0.0
  0
TEXT
  5
428
100
AcDbEntity
  8
LAY-6
  6
CONTINUOUS
 62
     2
100
AcDbText
 10
688.264976
 20
463.120693
 30
0.0
 40
5.0
  1
裏板（別途）
 41
0.672
  7
EXCADSTD
 72
     5
 11
712.264976
 21
463.120693
 31
0.0
100
AcDbText
  0
POLYLINE
  5
429
100
AcDbEntity
  8
LAY-6
  6
CONTINUOUS
 62
     1
100
AcDb2dPolyline
 66
     1
 10
0.0
 20
0.0
 30
0.0
 70
   128
  0
VERTEX
  5
42A
100
AcDbEntity
  8
LAY-6
  6
CONTINUOUS
 62
     1
100
AcDbVertex
100
AcDb2dVertex
 10
702.5
 20
424.815201
 30
0.0
  0
VERTEX
  5
42B
100
AcDbEntity
  8
LAY-6
  6
CONTINUOUS
 62
     1
100
AcDbVertex
100
AcDb2dVertex
 10
712.629951
 20
462.620693
 30
0.0
  0
VERTEX
  5
42C
100
AcDbEntity
  8
LAY-6
  6
CONTINUOUS
 62
     1
100
AcDbVertex
100
AcDb2dVertex
 10
687.9
 20
462.620693
 30
0.0
  0
SEQEND
  5
42D
100
AcDbEntity
  8
LAY-6
  6
CONTINUOUS
 62
     1
  0
LINE
  5
42E
100
AcDbEntity
  8
LAY-6
  6
CONTINUOUS
 62
     1
100
AcDbLine
 10
702.695663
 20
426.833326
 30
0.0
 11
702.5
 21
424.815201
 31
0.0
  0
LINE
  5
42F
100
AcDbEntity
  8
LAY-6
  6
CONTINUOUS
 62
     1
100
AcDbLine
 10
702.5
 20
424.815201
 30
0.0
 11
703.339613
 21
426.66078
 31
0.0
  0
LINE
  5
430
100
AcDbEntity
  8
LAY-6
  6
CONTINUOUS
 62
     1
100
AcDbLine
 10
647.227295
 20
418.5
 30
0.0
 11
647.227295
 21
419.8
 31
0.0
  0
LINE
  5
431
100
AcDbEntity
  8
LAY-6
  6
CONTINUOUS
 62
     1
100
AcDbLine
 10
634.727295
 20
419.315201
 30
0.0
 11
634.727295
 21
416.8
 31
0.0
  0
LINE
  5
432
100
AcDbEntity
  8
LAY-6
  6
CONTINUOUS
 62
     1
100
AcDbLine
 10
629.727295
 20
418.3
 30
0.0
 11
654.3
 21
418.3
 31
0.0
  0
LINE
  5
433
100
AcDbEntity
  8
LAY-6
  6
CONTINUOUS
 62
     1
100
AcDbLine
 10
632.727295
 20
417.966667
 30
0.0
 11
634.727295
 21
418.3
 31
0.0
  0
LINE
  5
434
100
AcDbEntity
  8
LAY-6
  6
CONTINUOUS
 62
     1
100
AcDbLine
 10
634.727295
 20
418.3
 30
0.0
 11
632.727295
 21
418.633333
 31
0.0
  0
LINE
  5
435
100
AcDbEntity
  8
LAY-6
  6
CONTINUOUS
 62
     1
100
AcDbLine
 10
649.227295
 20
418.633333
 30
0.0
 11
647.227295
 21
418.3
 31
0.0
  0
LINE
  5
436
100
AcDbEntity
  8
LAY-6
  6
CONTINUOUS
 62
     1
100
AcDbLine
 10
647.227295
 20
418.3
 30
0.0
 11
649.227295
 21
417.966667
 31
0.0
  0
POLYLINE
  5
437
100
AcDbEntity
  8
LAY-6
  6
CONTINUOUS
 62
     1
100
AcDb2dPolyline
 66
     1
 10
0.0
 20
0.0
 30
0.0
 70
   128
  0
VERTEX
  5
438
100
AcDbEntity
  8
LAY-6
  6
CONTINUOUS
 62
     1
100
AcDbVertex
100
AcDb2dVertex
 10
640.977325
 20
418.1
 30
0.0
  0
VERTEX
  5
439
100
AcDbEntity
  8
LAY-6
  6
CONTINUOUS
 62
     1
100
AcDbVertex
100
AcDb2dVertex
 10
629.089708
 20
373.734809
 30
0.0
  0
VERTEX
  5
43A
100
AcDbEntity
  8
LAY-6
  6
CONTINUOUS
 62
     1
100
AcDbVertex
100
AcDb2dVertex
 10
650.5
 20
373.734809
 30
0.0
  0
SEQEND
  5
43B
100
AcDbEntity
  8
LAY-6
  6
CONTINUOUS
 62
     1
  0
CIRCLE
  5
43C
100
AcDbEntity
  8
LAY-6
  6
CONTINUOUS
 62
     1
100
AcDbCircle
 10
640.977325
 20
418.1
 30
0.0
 40
0.5
  0
CIRCLE
  5
43D
100
AcDbEntity
  8
LAY-6
  6
CONTINUOUS
 62
     1
100
AcDbCircle
 10
640.977325
 20
418.1
 30
0.0
 40
0.25
  0
TEXT
  5
43E
100
AcDbEntity
  8
LAY-6
  6
CONTINUOUS
 62
     2
100
AcDbText
 10
630.794854
 20
374.234809
 30
0.0
 40
5.0
  1
φ１２.５
 41
0.62784
  7
EXCADSTD
 72
     5
 11
648.794854
 21
374.234809
 31
0.0
100
AcDbText
  0
TEXT
  5
43F
100
AcDbEntity
  8
LAY-6
  6
CONTINUOUS
 62
     2
100
AcDbText
 10
722.880955
 20
258.938089
 30
0.0
 40
5.0
  1
裏板３.２ｔ以上（別途）
 41
0.654222
  7
EXCADSTD
 72
     5
 11
768.880955
 21
258.938089
 31
0.0
100
AcDbText
  0
POLYLINE
  5
440
100
AcDbEntity
  8
LAY-6
  6
CONTINUOUS
 62
     1
100
AcDb2dPolyline
 66
     1
 10
0.0
 20
0.0
 30
0.0
 70
   128
  0
VERTEX
  5
441
100
AcDbEntity
  8
LAY-6
  6
CONTINUOUS
 62
     1
100
AcDbVertex
100
AcDb2dVertex
 10
695.289306
 20
233.465485
 30
0.0
  0
VERTEX
  5
442
100
AcDbEntity
  8
LAY-6
  6
CONTINUOUS
 62
     1
100
AcDbVertex
100
AcDb2dVertex
 10
720.261911
 20
258.438089
 30
0.0
  0
VERTEX
  5
443
100
AcDbEntity
  8
LAY-6
  6
CONTINUOUS
 62
     1
100
AcDbVertex
100
AcDb2dVertex
 10
771.5
 20
258.438089
 30
0.0
  0
SEQEND
  5
444
100
AcDbEntity
  8
LAY-6
  6
CONTINUOUS
 62
     1
  0
LINE
  5
445
100
AcDbEntity
  8
LAY-6
  6
CONTINUOUS
 62
     1
100
AcDbLine
 10
696.467817
 20
235.115401
 30
0.0
 11
695.289306
 21
233.465485
 31
0.0
  0
LINE
  5
446
100
AcDbEntity
  8
LAY-6
  6
CONTINUOUS
 62
     1
100
AcDbLine
 10
695.289306
 20
233.465485
 30
0.0
 11
696.939222
 21
234.643996
 31
0.0
  0
TEXT
  5
447
100
AcDbEntity
  8
LAY-6
  6
CONTINUOUS
 62
     2
100
AcDbText
 10
712.814158
 20
373.189554
 30
0.0
 40
5.0
  1
裏板３.２ｔ以上（別途）
 41
0.654222
  7
EXCADSTD
 72
     5
 11
758.814158
 21
373.189554
 31
0.0
100
AcDbText
  0
POLYLINE
  5
448
100
AcDbEntity
  8
LAY-6
  6
CONTINUOUS
 62
     1
100
AcDb2dPolyline
 66
     1
 10
0.0
 20
0.0
 30
0.0
 70
   128
  0
VERTEX
  5
449
100
AcDbEntity
  8
LAY-6
  6
CONTINUOUS
 62
     1
100
AcDbVertex
100
AcDb2dVertex
 10
694.546591
 20
403.315201
 30
0.0
  0
VERTEX
  5
44A
100
AcDbEntity
  8
LAY-6
  6
CONTINUOUS
 62
     1
100
AcDbVertex
100
AcDb2dVertex
 10
712.228317
 20
372.689554
 30
0.0
  0
VERTEX
  5
44B
100
AcDbEntity
  8
LAY-6
  6
CONTINUOUS
 62
     1
100
AcDbVertex
100
AcDb2dVertex
 10
759.4
 20
372.689554
 30
0.0
  0
SEQEND
  5
44C
100
AcDbEntity
  8
LAY-6
  6
CONTINUOUS
 62
     1
  0
LINE
  5
44D
100
AcDbEntity
  8
LAY-6
  6
CONTINUOUS
 62
     1
100
AcDbLine
 10
695.835266
 20
401.749817
 30
0.0
 11
694.546591
 21
403.315201
 31
0.0
  0
LINE
  5
44E
100
AcDbEntity
  8
LAY-6
  6
CONTINUOUS
 62
     1
100
AcDbLine
 10
694.546591
 20
403.315201
 30
0.0
 11
695.257916
 21
401.416484
 31
0.0
  0
TEXT
  5
44F
100
AcDbEntity
  8
LAY-6
  6
CONTINUOUS
 62
     2
100
AcDbText
 10
603.260816
 20
455.186898
 30
0.0
 40
5.0
  1
キャップ
 41
0.672
  7
EXCADSTD
 72
     5
 11
619.260816
 21
455.186898
 31
0.0
100
AcDbText
  0
LINE
  5
450
100
AcDbEntity
  8
LAY-6
  6
CONTINUOUS
 62
     1
100
AcDbLine
 10
631.577325
 20
435.315201
 30
0.0
 11
631.577325
 21
445.1
 31
0.0
  0
LINE
  5
451
100
AcDbEntity
  8
LAY-6
  6
CONTINUOUS
 62
     1
100
AcDbLine
 10
650.377325
 20
435.315201
 30
0.0
 11
650.377325
 21
445.1
 31
0.0
  0
TEXT
  5
452
100
AcDbEntity
  8
LAY-6
  6
CONTINUOUS
 62
     2
100
AcDbText
 10
632.677325
 20
444.1
 30
0.0
 40
5.0
  1
φ
 41
0.672
  7
EXCADSTD
 72
     5
 11
635.877325
 21
444.1
 31
0.0
100
AcDbText
  0
TEXT
  5
453
100
AcDbEntity
  8
LAY-6
  6
CONTINUOUS
 62
     2
100
AcDbText
 10
636.677325
 20
444.1
 30
0.0
 40
5.0
  1
１８.８
 41
0.616
  7
EXCADSTD
 72
     5
 11
650.677325
 21
444.1
 31
0.0
100
AcDbText
  0
LINE
  5
454
100
AcDbEntity
  8
LAY-6
  6
CONTINUOUS
 62
     1
100
AcDbLine
 10
631.577325
 20
443.6
 30
0.0
 11
650.377325
 21
443.6
 31
0.0
  0
LINE
  5
455
100
AcDbEntity
  8
LAY-6
  6
CONTINUOUS
 62
     1
100
AcDbLine
 10
634.577325
 20
444.1
 30
0.0
 11
631.577325
 21
443.6
 31
0.0
  0
LINE
  5
456
100
AcDbEntity
  8
LAY-6
  6
CONTINUOUS
 62
     1
100
AcDbLine
 10
631.577325
 20
443.6
 30
0.0
 11
634.577325
 21
443.1
 31
0.0
  0
LINE
  5
457
100
AcDbEntity
  8
LAY-6
  6
CONTINUOUS
 62
     1
100
AcDbLine
 10
647.377325
 20
443.1
 30
0.0
 11
650.377325
 21
443.6
 31
0.0
  0
LINE
  5
458
100
AcDbEntity
  8
LAY-6
  6
CONTINUOUS
 62
     1
100
AcDbLine
 10
650.377325
 20
443.6
 30
0.0
 11
647.377325
 21
444.1
 31
0.0
  0
LINE
  5
459
100
AcDbEntity
  8
LAY-6
  6
CONTINUOUS
 62
     1
100
AcDbLine
 10
634.077325
 20
437.815201
 30
0.0
 11
613.69
 21
437.815201
 31
0.0
  0
LINE
  5
45A
100
AcDbEntity
  8
LAY-6
  6
CONTINUOUS
 62
     1
100
AcDbLine
 10
621.477295
 20
433.815201
 30
0.0
 11
613.69
 21
433.815201
 31
0.0
  0
TEXT
  5
45B
100
AcDbEntity
  8
LAY-6
  6
CONTINUOUS
 62
     2
100
AcDbText
 10
614.66
 20
433.795201
 30
0.0
 40
5.0
  1
４
 50
90.0
 41
0.672
  7
EXCADSTD
 72
     5
 11
614.66
 21
436.995201
 31
0.0
100
AcDbText
  0
LINE
  5
45C
100
AcDbEntity
  8
LAY-6
  6
CONTINUOUS
 62
     1
100
AcDbLine
 10
615.19
 20
442.57
 30
0.0
 11
615.19
 21
428.815201
 31
0.0
  0
LINE
  5
45D
100
AcDbEntity
  8
LAY-6
  6
CONTINUOUS
 62
     1
100
AcDbLine
 10
614.69
 20
440.815201
 30
0.0
 11
615.19
 21
437.815201
 31
0.0
  0
LINE
  5
45E
100
AcDbEntity
  8
LAY-6
  6
CONTINUOUS
 62
     1
100
AcDbLine
 10
615.19
 20
437.815201
 30
0.0
 11
615.69
 21
440.815201
 31
0.0
  0
LINE
  5
45F
100
AcDbEntity
  8
LAY-6
  6
CONTINUOUS
 62
     1
100
AcDbLine
 10
615.69
 20
430.815201
 30
0.0
 11
615.19
 21
433.815201
 31
0.0
  0
LINE
  5
460
100
AcDbEntity
  8
LAY-6
  6
CONTINUOUS
 62
     1
100
AcDbLine
 10
615.19
 20
433.815201
 30
0.0
 11
614.69
 21
430.815201
 31
0.0
  0
LINE
  5
461
100
AcDbEntity
  8
LAY-6
  6
CONTINUOUS
 62
     1
100
AcDbLine
 10
80.632734
 20
354.477278
 30
0.0
 11
91.914932
 21
360.991058
 31
0.0
  0
LINE
  5
462
100
AcDbEntity
  8
LAY-6
  6
CONTINUOUS
 62
     1
100
AcDbLine
 10
80.632757
 20
187.547504
 30
0.0
 11
91.914955
 21
194.061284
 31
0.0
  0
INSERT
  5
463
100
AcDbEntity
  8
LAY-6
  6
CONTINUOUS
 62
     0
100
AcDbBlockReference
  2
SYM-1
 10
72.0
 20
297.0
 30
0.0
  0
TEXT
  5
464
100
AcDbEntity
  8
LAY-6
  6
CONTINUOUS
 62
     2
100
AcDbText
 10
84.599996
 20
419.177374
 30
0.0
 40
6.0
  1
竪　枠
 41
0.672
  7
EXCADSTD
 72
     5
 11
98.999997
 21
419.177374
 31
0.0
100
AcDbText
  0
TEXT
  5
465
100
AcDbEntity
  8
LAY-6
  6
CONTINUOUS
 62
     2
100
AcDbText
 10
191.399996
 20
396.477374
 30
0.0
 40
6.0
  1
上　枠
 41
0.672
  7
EXCADSTD
 72
     5
 11
205.799997
 21
396.477374
 31
0.0
100
AcDbText
  0
TEXT
  5
466
100
AcDbEntity
  8
LAY-6
  6
CONTINUOUS
 62
     2
100
AcDbText
 10
207.000011
 20
238.884353
 30
0.0
 40
6.0
  1
ド　ア
 41
0.672
  7
EXCADSTD
 72
     5
 11
221.400012
 21
238.884353
 31
0.0
100
AcDbText
  0
LINE
  5
467
100
AcDbEntity
  8
LAY-6
  6
CONTINUOUS
 62
     1
100
AcDbLine
 10
111.503404
 20
282.9
 30
0.0
 11
107.503394
 21
282.9
 31
0.0
  0
INSERT
  5
468
100
AcDbEntity
  8
LAY-6
  6
CONTINUOUS
 62
     0
100
AcDbBlockReference
  2
SYM-2
 10
72.0
 20
463.0
 30
0.0
  0
TEXT
  5
469
100
AcDbEntity
  8
LAY-6
  6
CONTINUOUS
 62
     2
100
AcDbText
 10
585.151147
 20
200.999909
 30
0.0
 40
6.0
  1
床　面
 41
0.672
  7
EXCADSTD
 72
     5
 11
599.551148
 21
200.999909
 31
0.0
100
AcDbText
  0
LINE
  5
46A
100
AcDbEntity
  8
LAY-6
  6
CONTINUOUS
 62
     1
100
AcDbLine
 10
615.3
 20
418.4
 30
0.0
 11
607.7
 21
418.4
 31
0.0
  0
LINE
  5
46B
100
AcDbEntity
  8
LAY-6
  6
CONTINUOUS
 62
     1
100
AcDbLine
 10
716.2
 20
419.815201
 30
0.0
 11
716.2
 21
389.7
 31
0.0
  0
TEXT
  5
46C
100
AcDbEntity
  8
LAY-6
  6
CONTINUOUS
 62
     2
100
AcDbText
 10
677.851575
 20
335.349622
 30
0.0
 40
6.0
  1
ド　ア
 41
0.672
  7
EXCADSTD
 72
     5
 11
692.251576
 21
335.349622
 31
0.0
100
AcDbText
  0
TEXT
  5
46D
100
AcDbEntity
  8
LAY-6
  6
CONTINUOUS
 62
     2
100
AcDbText
 10
715.751575
 20
438.149622
 30
0.0
 40
6.0
  1
上　枠
 41
0.672
  7
EXCADSTD
 72
     5
 11
730.151576
 21
438.149622
 31
0.0
100
AcDbText
  0
LINE
  5
46E
100
AcDbEntity
  8
LAY-6
  6
CONTINUOUS
 62
     1
100
AcDbLine
 10
615.2
 20
419.815201
 30
0.0
 11
615.2
 21
416.815231
 31
0.0
  0
LINE
  5
46F
100
AcDbEntity
  8
LAY-6
  6
CONTINUOUS
 62
     1
100
AcDbLine
 10
716.2
 20
424.815201
 30
0.0
 11
716.2
 21
419.815201
 31
0.0
  0
LINE
  5
470
100
AcDbEntity
  8
LAY-6
  6
CONTINUOUS
 62
     1
100
AcDbLine
 10
726.5
 20
419.815201
 30
0.0
 11
726.5
 21
416.815171
 31
0.0
  0
LINE
  5
471
100
AcDbEntity
  8
LAY-6
  6
CONTINUOUS
 62
     1
100
AcDbLine
 10
650.9
 20
213.965455
 30
0.0
 11
650.9
 21
206.965515
 31
0.0
  0
LINE
  5
472
100
AcDbEntity
  8
LAY-6
  6
CONTINUOUS
 62
     1
100
AcDbLine
 10
726.5
 20
219.965485
 30
0.0
 11
726.5
 21
213.965455
 31
0.0
  0
TEXT
  5
473
100
AcDbEntity
  8
LAY-6
  6
CONTINUOUS
 62
     2
100
AcDbText
 10
716.4
 20
184.0
 30
0.0
 40
6.0
  1
沓　摺
 41
0.672
  7
EXCADSTD
 72
     5
 11
730.800001
 21
184.0
 31
0.0
100
AcDbText
  0
LINE
  5
474
100
AcDbEntity
  8
LAY-6
  6
CONTINUOUS
 62
     1
100
AcDbLine
 10
290.632746
 20
187.547504
 30
0.0
 11
301.914944
 21
194.061284
 31
0.0
  0
LINE
  5
475
100
AcDbEntity
  8
LAY-6
  6
CONTINUOUS
 62
     1
100
AcDbLine
 10
290.632734
 20
354.477283
 30
0.0
 11
301.914932
 21
360.991063
 31
0.0
  0
INSERT
  5
476
100
AcDbEntity
  8
LAY-6
  6
CONTINUOUS
 62
     0
100
AcDbBlockReference
  2
SYM-3
 10
298.0
 20
463.0
 30
0.0
  0
TEXT
  5
477
100
AcDbEntity
  8
LAY-6
  6
CONTINUOUS
 62
     2
100
AcDbText
 10
431.999983
 20
405.577373
 30
0.0
 40
6.0
  1
ド　ア
 41
0.672
  7
EXCADSTD
 72
     5
 11
446.399984
 21
405.577373
 31
0.0
100
AcDbText
  0
TEXT
  5
478
100
AcDbEntity
  8
LAY-6
  6
CONTINUOUS
 62
     2
100
AcDbText
 10
294.499987
 20
251.277343
 30
0.0
 40
6.0
  1
竪　枠
 41
0.672
  7
EXCADSTD
 72
     5
 11
308.899987
 21
251.277343
 31
0.0
100
AcDbText
  0
TEXT
  5
479
100
AcDbEntity
  8
LAY-6
  6
CONTINUOUS
 62
     2
100
AcDbText
 10
403.699987
 20
231.077343
 30
0.0
 40
6.0
  1
沓　摺
 41
0.672
  7
EXCADSTD
 72
     5
 11
418.099987
 21
231.077343
 31
0.0
100
AcDbText
  0
LINE
  5
47A
100
AcDbEntity
  8
LAY-6
  6
CONTINUOUS
 62
     1
100
AcDbLine
 10
423.2
 20
397.991089
 30
0.0
 11
423.2
 21
391.991363
 31
0.0
  0
LINE
  5
47B
100
AcDbEntity
  8
LAY-6
  6
CONTINUOUS
 62
     1
100
AcDbLine
 10
321.503397
 20
449.7
 30
0.0
 11
317.503371
 21
449.7
 31
0.0
  0
ARC
  5
47C
100
AcDbEntity
  8
LAY-6
  6
CONTINUOUS
 62
     4
100
AcDbCircle
 10
767.999999
 20
100.0
 30
0.0
 40
18.0
100
AcDbArc
 50
180.0
 51
225.487766
  0
ARC
  5
47D
100
AcDbEntity
  8
LAY-6
  6
CONTINUOUS
 62
     4
100
AcDbCircle
 10
732.0
 20
100.0
 30
0.0
 40
18.0
100
AcDbArc
 50
314.424746
 51
0.0
  0
LINE
  5
47E
100
AcDbEntity
  8
LAY-6
  6
CONTINUOUS
 62
     4
100
AcDbLine
 10
753.658807
 20
89.122032
 30
0.0
 11
772.5
 21
100.0
 31
0.0
  0
LINE
  5
47F
100
AcDbEntity
  8
LAY-6
  6
CONTINUOUS
 62
     4
100
AcDbLine
 10
746.341193
 20
89.122032
 30
0.0
 11
727.499999
 21
100.0
 31
0.0
  0
LINE
  5
480
100
AcDbEntity
  8
LAY-6
  6
CONTINUOUS
 62
     4
100
AcDbLine
 10
727.5
 20
100.0
 30
0.0
 11
772.5
 21
100.0
 31
0.0
  0
LINE
  5
481
100
AcDbEntity
  8
LAY-6
  6
CONTINUOUS
 62
     4
100
AcDbLine
 10
772.5
 20
103.75
 30
0.0
 11
780.0
 21
103.75
 31
0.0
  0
LINE
  5
482
100
AcDbEntity
  8
LAY-6
  6
CONTINUOUS
 62
     4
100
AcDbLine
 10
727.5
 20
103.75
 30
0.0
 11
720.0
 21
103.75
 31
0.0
  0
LINE
  5
483
100
AcDbEntity
  8
LAY-6
  6
CONTINUOUS
 62
     4
100
AcDbLine
 10
727.5
 20
96.25
 30
0.0
 11
720.0
 21
96.25
 31
0.0
  0
LINE
  5
484
100
AcDbEntity
  8
LAY-6
  6
CONTINUOUS
 62
     4
100
AcDbLine
 10
727.5
 20
96.25
 30
0.0
 11
727.5
 21
103.75
 31
0.0
  0
LINE
  5
485
100
AcDbEntity
  8
LAY-6
  6
CONTINUOUS
 62
     4
100
AcDbLine
 10
720.0
 20
96.25
 30
0.0
 11
720.0
 21
103.75
 31
0.0
  0
LINE
  5
486
100
AcDbEntity
  8
LAY-6
  6
CONTINUOUS
 62
     4
100
AcDbLine
 10
772.5
 20
96.25
 30
0.0
 11
780.0
 21
96.25
 31
0.0
  0
LINE
  5
487
100
AcDbEntity
  8
LAY-6
  6
CONTINUOUS
 62
     4
100
AcDbLine
 10
772.5
 20
96.25
 30
0.0
 11
772.5
 21
103.75
 31
0.0
  0
LINE
  5
488
100
AcDbEntity
  8
LAY-6
  6
CONTINUOUS
 62
     4
100
AcDbLine
 10
780.0
 20
96.25
 30
0.0
 11
780.0
 21
103.75
 31
0.0
  0
LINE
  5
489
100
AcDbEntity
  8
LAY-6
  6
CONTINUOUS
 62
     2
100
AcDbLine
 10
756.000003
 20
112.765001
 30
0.0
 11
750.0
 21
106.764998
 31
0.0
  0
LINE
  5
48A
100
AcDbEntity
  8
LAY-6
  6
CONTINUOUS
 62
     2
100
AcDbLine
 10
753.0
 20
112.765
 30
0.0
 11
756.000003
 21
112.765001
 31
0.0
  0
LINE
  5
48B
100
AcDbEntity
  8
LAY-6
  6
CONTINUOUS
 62
     2
100
AcDbLine
 10
744.000003
 20
112.764995
 30
0.0
 11
750.0
 21
106.764998
 31
0.0
  0
LINE
  5
48C
100
AcDbEntity
  8
LAY-6
  6
CONTINUOUS
 62
     2
100
AcDbLine
 10
744.000003
 20
112.764995
 30
0.0
 11
747.0
 21
112.764996
 31
0.0
  0
LINE
  5
48D
100
AcDbEntity
  8
LAY-6
  6
CONTINUOUS
 62
     2
100
AcDbLine
 10
753.0
 20
112.765
 30
0.0
 11
753.0
 21
118.765
 31
0.0
  0
LINE
  5
48E
100
AcDbEntity
  8
LAY-6
  6
CONTINUOUS
 62
     2
100
AcDbLine
 10
753.0
 20
118.765
 30
0.0
 11
750.0
 21
118.765
 31
0.0
  0
LINE
  5
48F
100
AcDbEntity
  8
LAY-6
  6
CONTINUOUS
 62
     2
100
AcDbLine
 10
750.0
 20
118.765
 30
0.0
 11
747.0
 21
118.765
 31
0.0
  0
LINE
  5
490
100
AcDbEntity
  8
LAY-6
  6
CONTINUOUS
 62
     2
100
AcDbLine
 10
747.0
 20
112.764996
 30
0.0
 11
747.0
 21
118.764999
 31
0.0
  0
TEXT
  5
491
100
AcDbEntity
  8
LAY-6
  6
CONTINUOUS
 62
     2
100
AcDbText
 10
716.322841
 20
125.108318
 30
0.0
 40
9.0
  1
ドアの開き勝手基準
 41
0.672
  7
EXCADSTD
 72
     5
 11
781.122844
 21
125.108318
 31
0.0
100
AcDbText
  0
LINE
  5
492
100
AcDbEntity
  8
LAY-6
  6
CONTINUOUS
 62
     2
100
AcDbLine
 10
715.113457
 20
123.279497
 30
0.0
 11
784.263457
 21
123.279497
 31
0.0
  0
TEXT
  5
493
100
AcDbEntity
  8
LAY-6
  6
CONTINUOUS
 62
     2
100
AcDbText
 10
712.244428
 20
70.110529
 30
0.0
 40
9.0
  1
本図は右開きを示します
 41
0.672
  7
EXCADSTD
 72
     5
 11
791.444431
 21
70.110529
 31
0.0
100
AcDbText
  0
TEXT
  5
494
100
AcDbEntity
  8
LAY-6
  6
CONTINUOUS
 62
     2
100
AcDbText
 10
741.813134
 20
91.896519
 30
0.0
 40
7.5
  1
右
 41
0.672
  7
EXCADSTD
 72
     5
 11
746.613134
 21
91.896519
 31
0.0
100
AcDbText
  0
TEXT
  5
495
100
AcDbEntity
  8
LAY-6
  6
CONTINUOUS
 62
     2
100
AcDbText
 10
752.528085
 20
91.885
 30
0.0
 40
7.5
  1
左
 41
0.672
  7
EXCADSTD
 72
     5
 11
757.328085
 21
91.885
 31
0.0
100
AcDbText
  0
TEXT
  5
496
100
AcDbEntity
  8
LAY-6
  6
CONTINUOUS
 62
     2
100
AcDbText
 10
97.503377
 20
447.4
 30
0.0
 40
5.0
  1
３
 41
0.672
  7
EXCADSTD
 72
     5
 11
100.703377
 21
447.4
 31
0.0
100
AcDbText
  0
LINE
  5
497
100
AcDbEntity
  8
LAY-6
  6
CONTINUOUS
 62
     1
100
AcDbLine
 10
107.503373
 20
398.4
 30
0.0
 11
107.503373
 21
448.4
 31
0.0
  0
LINE
  5
498
100
AcDbEntity
  8
LAY-6
  6
CONTINUOUS
 62
     1
100
AcDbLine
 10
97.003377
 20
446.9
 30
0.0
 11
107.503373
 21
446.9
 31
0.0
  0
LINE
  5
499
100
AcDbEntity
  8
LAY-6
  6
CONTINUOUS
 62
     1
100
AcDbLine
 10
101.503377
 20
446.4
 30
0.0
 11
104.503377
 21
446.9
 31
0.0
  0
LINE
  5
49A
100
AcDbEntity
  8
LAY-6
  6
CONTINUOUS
 62
     1
100
AcDbLine
 10
104.503377
 20
446.9
 30
0.0
 11
101.503377
 21
447.4
 31
0.0
  0
TEXT
  5
49B
100
AcDbEntity
  8
LAY-6
  6
CONTINUOUS
 62
     2
100
AcDbText
 10
107.503377
 20
447.4
 30
0.0
 40
5.0
  1
４
 41
0.672
  7
EXCADSTD
 72
     5
 11
110.703377
 21
447.4
 31
0.0
100
AcDbText
  0
LINE
  5
49C
100
AcDbEntity
  8
LAY-6
  6
CONTINUOUS
 62
     1
100
AcDbLine
 10
107.503373
 20
446.9
 30
0.0
 11
111.503381
 21
446.9
 31
0.0
  0
CIRCLE
  5
49D
100
AcDbEntity
  8
LAY-6
  6
CONTINUOUS
 62
     1
100
AcDbCircle
 10
107.503373
 20
446.9
 30
0.0
 40
1.5
  0
CIRCLE
  5
49E
100
AcDbEntity
  8
LAY-6
  6
CONTINUOUS
 62
     1
100
AcDbCircle
 10
107.503373
 20
446.9
 30
0.0
 40
0.75
  0
TEXT
  5
49F
100
AcDbEntity
  8
LAY-6
  6
CONTINUOUS
 62
     2
100
AcDbText
 10
132.503381
 20
447.4
 30
0.0
 40
5.0
  1
５０
 41
0.672
  7
EXCADSTD
 72
     5
 11
139.836181
 21
447.4
 31
0.0
100
AcDbText
  0
LINE
  5
4A0
100
AcDbEntity
  8
LAY-6
  6
CONTINUOUS
 62
     1
100
AcDbLine
 10
161.503381
 20
426.491058
 30
0.0
 11
161.503381
 21
448.4
 31
0.0
  0
LINE
  5
4A1
100
AcDbEntity
  8
LAY-6
  6
CONTINUOUS
 62
     1
100
AcDbLine
 10
111.503381
 20
446.9
 30
0.0
 11
161.503381
 21
446.9
 31
0.0
  0
LINE
  5
4A2
100
AcDbEntity
  8
LAY-6
  6
CONTINUOUS
 62
     1
100
AcDbLine
 10
114.503381
 20
447.4
 30
0.0
 11
111.503381
 21
446.9
 31
0.0
  0
LINE
  5
4A3
100
AcDbEntity
  8
LAY-6
  6
CONTINUOUS
 62
     1
100
AcDbLine
 10
111.503381
 20
446.9
 30
0.0
 11
114.503381
 21
446.4
 31
0.0
  0
LINE
  5
4A4
100
AcDbEntity
  8
LAY-6
  6
CONTINUOUS
 62
     1
100
AcDbLine
 10
158.503381
 20
446.4
 30
0.0
 11
161.503381
 21
446.9
 31
0.0
  0
LINE
  5
4A5
100
AcDbEntity
  8
LAY-6
  6
CONTINUOUS
 62
     1
100
AcDbLine
 10
161.503381
 20
446.9
 30
0.0
 11
158.503381
 21
447.4
 31
0.0
  0
TEXT
  5
4A6
100
AcDbEntity
  8
LAY-6
  6
CONTINUOUS
 62
     2
100
AcDbText
 10
111.103381
 20
439.5
 30
0.0
 40
5.0
  1
(
 41
0.4
  7
EXCADSTD
 72
     5
 11
112.403381
 21
439.5
 31
0.0
100
AcDbText
  0
TEXT
  5
4A7
100
AcDbEntity
  8
LAY-6
  6
CONTINUOUS
 62
     2
100
AcDbText
 10
113.103381
 20
439.5
 30
0.0
 40
5.0
  1
１０
 41
0.672
  7
EXCADSTD
 72
     5
 11
120.436181
 21
439.5
 31
0.0
100
AcDbText
  0
TEXT
  5
4A8
100
AcDbEntity
  8
LAY-6
  6
CONTINUOUS
 62
     2
100
AcDbText
 10
121.103381
 20
439.5
 30
0.0
 40
5.0
  1
)
 41
0.4
  7
EXCADSTD
 72
     5
 11
122.403381
 21
439.5
 31
0.0
100
AcDbText
  0
LINE
  5
4A9
100
AcDbEntity
  8
LAY-6
  6
CONTINUOUS
 62
     1
100
AcDbLine
 10
111.503381
 20
426.491054
 30
0.0
 11
111.503381
 21
440.5
 31
0.0
  0
LINE
  5
4AA
100
AcDbEntity
  8
LAY-6
  6
CONTINUOUS
 62
     1
100
AcDbLine
 10
121.503381
 20
423.491028
 30
0.0
 11
121.503381
 21
440.5
 31
0.0
  0
LINE
  5
4AB
100
AcDbEntity
  8
LAY-6
  6
CONTINUOUS
 62
     1
100
AcDbLine
 10
111.503381
 20
439.0
 30
0.0
 11
121.503381
 21
439.0
 31
0.0
  0
LINE
  5
4AC
100
AcDbEntity
  8
LAY-6
  6
CONTINUOUS
 62
     1
100
AcDbLine
 10
114.503381
 20
439.5
 30
0.0
 11
111.503381
 21
439.0
 31
0.0
  0
LINE
  5
4AD
100
AcDbEntity
  8
LAY-6
  6
CONTINUOUS
 62
     1
100
AcDbLine
 10
111.503381
 20
439.0
 30
0.0
 11
114.503381
 21
438.5
 31
0.0
  0
LINE
  5
4AE
100
AcDbEntity
  8
LAY-6
  6
CONTINUOUS
 62
     1
100
AcDbLine
 10
118.503381
 20
438.5
 30
0.0
 11
121.503381
 21
439.0
 31
0.0
  0
LINE
  5
4AF
100
AcDbEntity
  8
LAY-6
  6
CONTINUOUS
 62
     1
100
AcDbLine
 10
121.503381
 20
439.0
 30
0.0
 11
118.503381
 21
439.5
 31
0.0
  0
TEXT
  5
4B0
100
AcDbEntity
  8
LAY-6
  6
CONTINUOUS
 62
     2
100
AcDbText
 10
128.503381
 20
439.5
 30
0.0
 40
5.0
  1
（
 41
0.672
  7
EXCADSTD
 72
     5
 11
131.703381
 21
439.5
 31
0.0
100
AcDbText
  0
TEXT
  5
4B1
100
AcDbEntity
  8
LAY-6
  6
CONTINUOUS
 62
     2
100
AcDbText
 10
132.503381
 20
439.5
 30
0.0
 40
5.0
  1
３０
 41
0.672
  7
EXCADSTD
 72
     5
 11
139.836181
 21
439.5
 31
0.0
100
AcDbText
  0
TEXT
  5
4B2
100
AcDbEntity
  8
LAY-6
  6
CONTINUOUS
 62
     2
100
AcDbText
 10
140.503381
 20
439.5
 30
0.0
 40
5.0
  1
）
 41
0.672
  7
EXCADSTD
 72
     5
 11
143.703381
 21
439.5
 31
0.0
100
AcDbText
  0
LINE
  5
4B3
100
AcDbEntity
  8
LAY-6
  6
CONTINUOUS
 62
     1
100
AcDbLine
 10
151.503381
 20
423.491028
 30
0.0
 11
151.503381
 21
440.5
 31
0.0
  0
LINE
  5
4B4
100
AcDbEntity
  8
LAY-6
  6
CONTINUOUS
 62
     1
100
AcDbLine
 10
121.503381
 20
439.0
 30
0.0
 11
151.503381
 21
439.0
 31
0.0
  0
LINE
  5
4B5
100
AcDbEntity
  8
LAY-6
  6
CONTINUOUS
 62
     1
100
AcDbLine
 10
124.503381
 20
439.5
 30
0.0
 11
121.503381
 21
439.0
 31
0.0
  0
LINE
  5
4B6
100
AcDbEntity
  8
LAY-6
  6
CONTINUOUS
 62
     1
100
AcDbLine
 10
121.503381
 20
439.0
 30
0.0
 11
124.503381
 21
438.5
 31
0.0
  0
LINE
  5
4B7
100
AcDbEntity
  8
LAY-6
  6
CONTINUOUS
 62
     1
100
AcDbLine
 10
148.503381
 20
438.5
 30
0.0
 11
151.503381
 21
439.0
 31
0.0
  0
LINE
  5
4B8
100
AcDbEntity
  8
LAY-6
  6
CONTINUOUS
 62
     1
100
AcDbLine
 10
151.503381
 20
439.0
 30
0.0
 11
148.503381
 21
439.5
 31
0.0
  0
TEXT
  5
4B9
100
AcDbEntity
  8
LAY-6
  6
CONTINUOUS
 62
     2
100
AcDbText
 10
171.9
 20
387.491043
 30
0.0
 40
5.0
  1
（
 50
90.0
 41
0.672
  7
EXCADSTD
 72
     5
 11
171.9
 21
390.691043
 31
0.0
100
AcDbText
  0
TEXT
  5
4BA
100
AcDbEntity
  8
LAY-6
  6
CONTINUOUS
 62
     2
100
AcDbText
 10
171.9
 20
391.491043
 30
0.0
 40
5.0
  1
１３
 50
90.0
 41
0.672
  7
EXCADSTD
 72
     5
 11
171.9
 21
398.823843
 31
0.0
100
AcDbText
  0
TEXT
  5
4BB
100
AcDbEntity
  8
LAY-6
  6
CONTINUOUS
 62
     2
100
AcDbText
 10
171.9
 20
399.491043
 30
0.0
 40
5.0
  1
）
 50
90.0
 41
0.672
  7
EXCADSTD
 72
     5
 11
171.9
 21
402.691043
 31
0.0
100
AcDbText
  0
LINE
  5
4BC
100
AcDbEntity
  8
LAY-6
  6
CONTINUOUS
 62
     1
100
AcDbLine
 10
157.003381
 20
401.991028
 30
0.0
 11
173.9
 21
401.991028
 31
0.0
  0
LINE
  5
4BD
100
AcDbEntity
  8
LAY-6
  6
CONTINUOUS
 62
     1
100
AcDbLine
 10
172.4
 20
388.991058
 30
0.0
 11
172.4
 21
401.991028
 31
0.0
  0
LINE
  5
4BE
100
AcDbEntity
  8
LAY-6
  6
CONTINUOUS
 62
     1
100
AcDbLine
 10
171.9
 20
391.991058
 30
0.0
 11
172.4
 21
388.991058
 31
0.0
  0
LINE
  5
4BF
100
AcDbEntity
  8
LAY-6
  6
CONTINUOUS
 62
     1
100
AcDbLine
 10
172.4
 20
388.991058
 30
0.0
 11
172.9
 21
391.991058
 31
0.0
  0
LINE
  5
4C0
100
AcDbEntity
  8
LAY-6
  6
CONTINUOUS
 62
     1
100
AcDbLine
 10
172.9
 20
398.991028
 30
0.0
 11
172.4
 21
401.991028
 31
0.0
  0
LINE
  5
4C1
100
AcDbEntity
  8
LAY-6
  6
CONTINUOUS
 62
     1
100
AcDbLine
 10
172.4
 20
401.991028
 30
0.0
 11
171.9
 21
398.991028
 31
0.0
  0
TEXT
  5
4C2
100
AcDbEntity
  8
LAY-6
  6
CONTINUOUS
 62
     2
100
AcDbText
 10
171.9
 20
401.991028
 30
0.0
 40
5.0
  1
（
 50
90.0
 41
0.672
  7
EXCADSTD
 72
     5
 11
171.9
 21
405.191028
 31
0.0
100
AcDbText
  0
TEXT
  5
4C3
100
AcDbEntity
  8
LAY-6
  6
CONTINUOUS
 62
     2
100
AcDbText
 10
171.9
 20
405.991028
 30
0.0
 40
5.0
  1
１６
 50
90.0
 41
0.672
  7
EXCADSTD
 72
     5
 11
171.9
 21
413.323828
 31
0.0
100
AcDbText
  0
TEXT
  5
4C4
100
AcDbEntity
  8
LAY-6
  6
CONTINUOUS
 62
     2
100
AcDbText
 10
171.9
 20
413.991028
 30
0.0
 40
5.0
  1
）
 50
90.0
 41
0.672
  7
EXCADSTD
 72
     5
 11
171.9
 21
417.191028
 31
0.0
100
AcDbText
  0
LINE
  5
4C5
100
AcDbEntity
  8
LAY-6
  6
CONTINUOUS
 62
     1
100
AcDbLine
 10
157.003381
 20
417.991028
 30
0.0
 11
173.9
 21
417.991028
 31
0.0
  0
LINE
  5
4C6
100
AcDbEntity
  8
LAY-6
  6
CONTINUOUS
 62
     1
100
AcDbLine
 10
172.4
 20
401.991028
 30
0.0
 11
172.4
 21
417.991028
 31
0.0
  0
LINE
  5
4C7
100
AcDbEntity
  8
LAY-6
  6
CONTINUOUS
 62
     1
100
AcDbLine
 10
171.9
 20
404.991028
 30
0.0
 11
172.4
 21
401.991028
 31
0.0
  0
LINE
  5
4C8
100
AcDbEntity
  8
LAY-6
  6
CONTINUOUS
 62
     1
100
AcDbLine
 10
172.4
 20
401.991028
 30
0.0
 11
172.9
 21
404.991028
 31
0.0
  0
LINE
  5
4C9
100
AcDbEntity
  8
LAY-6
  6
CONTINUOUS
 62
     1
100
AcDbLine
 10
172.9
 20
414.991028
 30
0.0
 11
172.4
 21
417.991028
 31
0.0
  0
LINE
  5
4CA
100
AcDbEntity
  8
LAY-6
  6
CONTINUOUS
 62
     1
100
AcDbLine
 10
172.4
 20
417.991028
 30
0.0
 11
171.9
 21
414.991028
 31
0.0
  0
TEXT
  5
4CB
100
AcDbEntity
  8
LAY-6
  6
CONTINUOUS
 62
     2
100
AcDbText
 10
172.6
 20
453.0
 30
0.0
 40
5.0
  1
４－Ｍ５×２０皿小ネジ(P=0.8)(別途)
 41
0.576198
  7
EXCADSTD
 72
     5
 11
242.6
 21
453.0
 31
0.0
100
AcDbText
  0
POLYLINE
  5
4CC
100
AcDbEntity
  8
LAY-6
  6
CONTINUOUS
 62
     1
100
AcDb2dPolyline
 66
     1
 10
0.0
 20
0.0
 30
0.0
 70
   128
  0
VERTEX
  5
4CD
100
AcDbEntity
  8
LAY-6
  6
CONTINUOUS
 62
     1
100
AcDbVertex
100
AcDb2dVertex
 10
152.784645
 20
420.137837
 30
0.0
  0
VERTEX
  5
4CE
100
AcDbEntity
  8
LAY-6
  6
CONTINUOUS
 62
     1
100
AcDbVertex
100
AcDb2dVertex
 10
172.1
 20
452.5
 30
0.0
  0
VERTEX
  5
4CF
100
AcDbEntity
  8
LAY-6
  6
CONTINUOUS
 62
     1
100
AcDbVertex
100
AcDb2dVertex
 10
243.1
 20
452.5
 30
0.0
  0
SEQEND
  5
4D0
100
AcDbEntity
  8
LAY-6
  6
CONTINUOUS
 62
     1
  0
LINE
  5
4D1
100
AcDbEntity
  8
LAY-6
  6
CONTINUOUS
 62
     1
100
AcDbLine
 10
153.523428
 20
422.026041
 30
0.0
 11
152.784645
 21
420.137837
 31
0.0
  0
LINE
  5
4D2
100
AcDbEntity
  8
LAY-6
  6
CONTINUOUS
 62
     1
100
AcDbLine
 10
152.784645
 20
420.137837
 30
0.0
 11
154.095884
 21
421.68437
 31
0.0
  0
TEXT
  5
4D3
100
AcDbEntity
  8
LAY-6
  6
CONTINUOUS
 62
     2
100
AcDbText
 10
307.503389
 20
282.2
 30
0.0
 40
5.0
  1
３
 41
0.672
  7
EXCADSTD
 72
     5
 11
310.703389
 21
282.2
 31
0.0
100
AcDbText
  0
LINE
  5
4D4
100
AcDbEntity
  8
LAY-6
  6
CONTINUOUS
 62
     1
100
AcDbLine
 10
317.503375
 20
239.999999
 30
0.0
 11
317.503375
 21
283.2
 31
0.0
  0
LINE
  5
4D5
100
AcDbEntity
  8
LAY-6
  6
CONTINUOUS
 62
     1
100
AcDbLine
 10
307.003389
 20
281.7
 30
0.0
 11
317.503375
 21
281.7
 31
0.0
  0
LINE
  5
4D6
100
AcDbEntity
  8
LAY-6
  6
CONTINUOUS
 62
     1
100
AcDbLine
 10
311.503389
 20
281.2
 30
0.0
 11
314.503389
 21
281.7
 31
0.0
  0
LINE
  5
4D7
100
AcDbEntity
  8
LAY-6
  6
CONTINUOUS
 62
     1
100
AcDbLine
 10
314.503389
 20
281.7
 30
0.0
 11
311.503389
 21
282.2
 31
0.0
  0
TEXT
  5
4D8
100
AcDbEntity
  8
LAY-6
  6
CONTINUOUS
 62
     2
100
AcDbText
 10
317.503386
 20
282.2
 30
0.0
 40
5.0
  1
４
 41
0.672
  7
EXCADSTD
 72
     5
 11
320.703386
 21
282.2
 31
0.0
100
AcDbText
  0
LINE
  5
4D9
100
AcDbEntity
  8
LAY-6
  6
CONTINUOUS
 62
     1
100
AcDbLine
 10
317.503375
 20
281.7
 30
0.0
 11
321.503397
 21
281.7
 31
0.0
  0
CIRCLE
  5
4DA
100
AcDbEntity
  8
LAY-6
  6
CONTINUOUS
 62
     1
100
AcDbCircle
 10
317.503375
 20
281.7
 30
0.0
 40
1.5
  0
CIRCLE
  5
4DB
100
AcDbEntity
  8
LAY-6
  6
CONTINUOUS
 62
     1
100
AcDbCircle
 10
317.503375
 20
281.7
 30
0.0
 40
0.75
  0
TEXT
  5
4DC
100
AcDbEntity
  8
LAY-6
  6
CONTINUOUS
 62
     2
100
AcDbText
 10
342.503404
 20
282.2
 30
0.0
 40
5.0
  1
５０
 41
0.672
  7
EXCADSTD
 72
     5
 11
349.836205
 21
282.2
 31
0.0
100
AcDbText
  0
LINE
  5
4DD
100
AcDbEntity
  8
LAY-6
  6
CONTINUOUS
 62
     1
100
AcDbLine
 10
371.503412
 20
259.56131
 30
0.0
 11
371.503412
 21
283.2
 31
0.0
  0
LINE
  5
4DE
100
AcDbEntity
  8
LAY-6
  6
CONTINUOUS
 62
     1
100
AcDbLine
 10
321.503397
 20
281.7
 30
0.0
 11
371.503412
 21
281.7
 31
0.0
  0
LINE
  5
4DF
100
AcDbEntity
  8
LAY-6
  6
CONTINUOUS
 62
     1
100
AcDbLine
 10
324.503397
 20
282.2
 30
0.0
 11
321.503397
 21
281.7
 31
0.0
  0
LINE
  5
4E0
100
AcDbEntity
  8
LAY-6
  6
CONTINUOUS
 62
     1
100
AcDbLine
 10
321.503397
 20
281.7
 30
0.0
 11
324.503397
 21
281.2
 31
0.0
  0
LINE
  5
4E1
100
AcDbEntity
  8
LAY-6
  6
CONTINUOUS
 62
     1
100
AcDbLine
 10
368.503412
 20
281.2
 30
0.0
 11
371.503412
 21
281.7
 31
0.0
  0
LINE
  5
4E2
100
AcDbEntity
  8
LAY-6
  6
CONTINUOUS
 62
     1
100
AcDbLine
 10
371.503412
 20
281.7
 30
0.0
 11
368.503412
 21
282.2
 31
0.0
  0
TEXT
  5
4E3
100
AcDbEntity
  8
LAY-6
  6
CONTINUOUS
 62
     2
100
AcDbText
 10
106.003379
 20
453.2
 30
0.0
 40
5.0
  1
７
 41
0.672
  7
EXCADSTD
 72
     5
 11
109.203379
 21
453.2
 31
0.0
100
AcDbText
  0
LINE
  5
4E4
100
AcDbEntity
  8
LAY-6
  6
CONTINUOUS
 62
     1
100
AcDbLine
 10
104.503377
 20
434.49109
 30
0.0
 11
104.503377
 21
454.2
 31
0.0
  0
LINE
  5
4E5
100
AcDbEntity
  8
LAY-6
  6
CONTINUOUS
 62
     1
100
AcDbLine
 10
111.503381
 20
426.991054
 30
0.0
 11
111.503381
 21
454.2
 31
0.0
  0
LINE
  5
4E6
100
AcDbEntity
  8
LAY-6
  6
CONTINUOUS
 62
     1
100
AcDbLine
 10
104.503377
 20
452.7
 30
0.0
 11
111.503381
 21
452.7
 31
0.0
  0
LINE
  5
4E7
100
AcDbEntity
  8
LAY-6
  6
CONTINUOUS
 62
     1
100
AcDbLine
 10
107.503377
 20
453.2
 30
0.0
 11
104.503377
 21
452.7
 31
0.0
  0
LINE
  5
4E8
100
AcDbEntity
  8
LAY-6
  6
CONTINUOUS
 62
     1
100
AcDbLine
 10
104.503377
 20
452.7
 30
0.0
 11
107.503377
 21
452.2
 31
0.0
  0
LINE
  5
4E9
100
AcDbEntity
  8
LAY-6
  6
CONTINUOUS
 62
     1
100
AcDbLine
 10
108.503381
 20
452.2
 30
0.0
 11
111.503381
 21
452.7
 31
0.0
  0
LINE
  5
4EA
100
AcDbEntity
  8
LAY-6
  6
CONTINUOUS
 62
     1
100
AcDbLine
 10
111.503381
 20
452.7
 30
0.0
 11
108.503381
 21
453.2
 31
0.0
  0
TEXT
  5
4EB
100
AcDbEntity
  8
LAY-6
  6
CONTINUOUS
 62
     2
100
AcDbText
 10
316.003393
 20
288.4
 30
0.0
 40
5.0
  1
７
 41
0.672
  7
EXCADSTD
 72
     5
 11
319.203393
 21
288.4
 31
0.0
100
AcDbText
  0
LINE
  5
4EC
100
AcDbEntity
  8
LAY-6
  6
CONTINUOUS
 62
     1
100
AcDbLine
 10
314.503389
 20
267.561316
 30
0.0
 11
314.503389
 21
289.4
 31
0.0
  0
LINE
  5
4ED
100
AcDbEntity
  8
LAY-6
  6
CONTINUOUS
 62
     1
100
AcDbLine
 10
321.503397
 20
259.56134
 30
0.0
 11
321.503397
 21
289.4
 31
0.0
  0
LINE
  5
4EE
100
AcDbEntity
  8
LAY-6
  6
CONTINUOUS
 62
     1
100
AcDbLine
 10
314.503389
 20
287.9
 30
0.0
 11
321.503397
 21
287.9
 31
0.0
  0
LINE
  5
4EF
100
AcDbEntity
  8
LAY-6
  6
CONTINUOUS
 62
     1
100
AcDbLine
 10
317.503389
 20
288.4
 30
0.0
 11
314.503389
 21
287.9
 31
0.0
  0
LINE
  5
4F0
100
AcDbEntity
  8
LAY-6
  6
CONTINUOUS
 62
     1
100
AcDbLine
 10
314.503389
 20
287.9
 30
0.0
 11
317.503389
 21
287.4
 31
0.0
  0
LINE
  5
4F1
100
AcDbEntity
  8
LAY-6
  6
CONTINUOUS
 62
     1
100
AcDbLine
 10
318.503397
 20
287.4
 30
0.0
 11
321.503397
 21
287.9
 31
0.0
  0
LINE
  5
4F2
100
AcDbEntity
  8
LAY-6
  6
CONTINUOUS
 62
     1
100
AcDbLine
 10
321.503397
 20
287.9
 30
0.0
 11
318.503397
 21
288.4
 31
0.0
  0
INSERT
  5
4F3
100
AcDbEntity
  8
LAY-6
  6
CONTINUOUS
 62
     0
100
AcDbBlockReference
  2
SYM-4
 10
298.0
 20
298.5
 30
0.0
  0
TEXT
  5
4F4
100
AcDbEntity
  8
LAY-6
  6
CONTINUOUS
 62
     2
100
AcDbText
 10
321.903395
 20
273.0
 30
0.0
 40
5.0
  1
(
 41
0.4
  7
EXCADSTD
 72
     5
 11
323.203395
 21
273.0
 31
0.0
100
AcDbText
  0
TEXT
  5
4F5
100
AcDbEntity
  8
LAY-6
  6
CONTINUOUS
 62
     2
100
AcDbText
 10
323.903395
 20
273.0
 30
0.0
 40
5.0
  1
１０
 41
0.672
  7
EXCADSTD
 72
     5
 11
331.236195
 21
273.0
 31
0.0
100
AcDbText
  0
TEXT
  5
4F6
100
AcDbEntity
  8
LAY-6
  6
CONTINUOUS
 62
     2
100
AcDbText
 10
331.903395
 20
273.0
 30
0.0
 40
5.0
  1
)
 41
0.4
  7
EXCADSTD
 72
     5
 11
333.203395
 21
273.0
 31
0.0
100
AcDbText
  0
LINE
  5
4F7
100
AcDbEntity
  8
LAY-6
  6
CONTINUOUS
 62
     1
100
AcDbLine
 10
321.503397
 20
259.56134
 30
0.0
 11
321.503397
 21
274.0
 31
0.0
  0
LINE
  5
4F8
100
AcDbEntity
  8
LAY-6
  6
CONTINUOUS
 62
     1
100
AcDbLine
 10
321.503397
 20
272.5
 30
0.0
 11
331.503393
 21
272.5
 31
0.0
  0
LINE
  5
4F9
100
AcDbEntity
  8
LAY-6
  6
CONTINUOUS
 62
     1
100
AcDbLine
 10
324.503397
 20
273.0
 30
0.0
 11
321.503397
 21
272.5
 31
0.0
  0
LINE
  5
4FA
100
AcDbEntity
  8
LAY-6
  6
CONTINUOUS
 62
     1
100
AcDbLine
 10
321.503397
 20
272.5
 30
0.0
 11
324.503397
 21
272.0
 31
0.0
  0
LINE
  5
4FB
100
AcDbEntity
  8
LAY-6
  6
CONTINUOUS
 62
     1
100
AcDbLine
 10
328.503393
 20
272.0
 30
0.0
 11
331.503393
 21
272.5
 31
0.0
  0
LINE
  5
4FC
100
AcDbEntity
  8
LAY-6
  6
CONTINUOUS
 62
     1
100
AcDbLine
 10
331.503393
 20
272.5
 30
0.0
 11
328.503393
 21
273.0
 31
0.0
  0
TEXT
  5
4FD
100
AcDbEntity
  8
LAY-6
  6
CONTINUOUS
 62
     2
100
AcDbText
 10
338.503393
 20
273.0
 30
0.0
 40
5.0
  1
（
 41
0.672
  7
EXCADSTD
 72
     5
 11
341.703393
 21
273.0
 31
0.0
100
AcDbText
  0
TEXT
  5
4FE
100
AcDbEntity
  8
LAY-6
  6
CONTINUOUS
 62
     2
100
AcDbText
 10
342.503393
 20
273.0
 30
0.0
 40
5.0
  1
３０
 41
0.672
  7
EXCADSTD
 72
     5
 11
349.836193
 21
273.0
 31
0.0
100
AcDbText
  0
TEXT
  5
4FF
100
AcDbEntity
  8
LAY-6
  6
CONTINUOUS
 62
     2
100
AcDbText
 10
350.503393
 20
273.0
 30
0.0
 40
5.0
  1
）
 41
0.672
  7
EXCADSTD
 72
     5
 11
353.703393
 21
273.0
 31
0.0
100
AcDbText
  0
LINE
  5
500
100
AcDbEntity
  8
LAY-6
  6
CONTINUOUS
 62
     1
100
AcDbLine
 10
361.503393
 20
256.561354
 30
0.0
 11
361.503393
 21
274.0
 31
0.0
  0
LINE
  5
501
100
AcDbEntity
  8
LAY-6
  6
CONTINUOUS
 62
     1
100
AcDbLine
 10
331.503393
 20
272.5
 30
0.0
 11
361.503393
 21
272.5
 31
0.0
  0
LINE
  5
502
100
AcDbEntity
  8
LAY-6
  6
CONTINUOUS
 62
     1
100
AcDbLine
 10
334.503393
 20
273.0
 30
0.0
 11
331.503393
 21
272.5
 31
0.0
  0
LINE
  5
503
100
AcDbEntity
  8
LAY-6
  6
CONTINUOUS
 62
     1
100
AcDbLine
 10
331.503393
 20
272.5
 30
0.0
 11
334.503393
 21
272.0
 31
0.0
  0
LINE
  5
504
100
AcDbEntity
  8
LAY-6
  6
CONTINUOUS
 62
     1
100
AcDbLine
 10
358.503393
 20
272.0
 30
0.0
 11
361.503393
 21
272.5
 31
0.0
  0
LINE
  5
505
100
AcDbEntity
  8
LAY-6
  6
CONTINUOUS
 62
     1
100
AcDbLine
 10
361.503393
 20
272.5
 30
0.0
 11
358.503393
 21
273.0
 31
0.0
  0
LINE
  5
506
100
AcDbEntity
  8
LAY-6
  6
CONTINUOUS
 62
     1
100
AcDbLine
 10
331.503393
 20
256.561354
 30
0.0
 11
331.503393
 21
272.5
 31
0.0
  0
TEXT
  5
507
100
AcDbEntity
  8
LAY-6
  6
CONTINUOUS
 62
     2
100
AcDbText
 10
380.8
 20
220.561335
 30
0.0
 40
5.0
  1
（
 50
90.0
 41
0.672
  7
EXCADSTD
 72
     5
 11
380.8
 21
223.761335
 31
0.0
100
AcDbText
  0
TEXT
  5
508
100
AcDbEntity
  8
LAY-6
  6
CONTINUOUS
 62
     2
100
AcDbText
 10
380.8
 20
224.561335
 30
0.0
 40
5.0
  1
１３
 50
90.0
 41
0.672
  7
EXCADSTD
 72
     5
 11
380.8
 21
231.894135
 31
0.0
100
AcDbText
  0
TEXT
  5
509
100
AcDbEntity
  8
LAY-6
  6
CONTINUOUS
 62
     2
100
AcDbText
 10
380.8
 20
232.561335
 30
0.0
 40
5.0
  1
）
 50
90.0
 41
0.672
  7
EXCADSTD
 72
     5
 11
380.8
 21
235.761335
 31
0.0
100
AcDbText
  0
LINE
  5
50A
100
AcDbEntity
  8
LAY-6
  6
CONTINUOUS
 62
     1
100
AcDbLine
 10
367.003393
 20
235.061354
 30
0.0
 11
382.8
 21
235.061354
 31
0.0
  0
LINE
  5
50B
100
AcDbEntity
  8
LAY-6
  6
CONTINUOUS
 62
     1
100
AcDbLine
 10
381.3
 20
222.061316
 30
0.0
 11
381.3
 21
235.061354
 31
0.0
  0
LINE
  5
50C
100
AcDbEntity
  8
LAY-6
  6
CONTINUOUS
 62
     1
100
AcDbLine
 10
380.8
 20
225.061316
 30
0.0
 11
381.3
 21
222.061316
 31
0.0
  0
LINE
  5
50D
100
AcDbEntity
  8
LAY-6
  6
CONTINUOUS
 62
     1
100
AcDbLine
 10
381.3
 20
222.061316
 30
0.0
 11
381.8
 21
225.061316
 31
0.0
  0
LINE
  5
50E
100
AcDbEntity
  8
LAY-6
  6
CONTINUOUS
 62
     1
100
AcDbLine
 10
381.8
 20
232.061354
 30
0.0
 11
381.3
 21
235.061354
 31
0.0
  0
LINE
  5
50F
100
AcDbEntity
  8
LAY-6
  6
CONTINUOUS
 62
     1
100
AcDbLine
 10
381.3
 20
235.061354
 30
0.0
 11
380.8
 21
232.061354
 31
0.0
  0
TEXT
  5
510
100
AcDbEntity
  8
LAY-6
  6
CONTINUOUS
 62
     2
100
AcDbText
 10
380.8
 20
235.061354
 30
0.0
 40
5.0
  1
（
 50
90.0
 41
0.672
  7
EXCADSTD
 72
     5
 11
380.8
 21
238.261354
 31
0.0
100
AcDbText
  0
TEXT
  5
511
100
AcDbEntity
  8
LAY-6
  6
CONTINUOUS
 62
     2
100
AcDbText
 10
380.8
 20
239.061354
 30
0.0
 40
5.0
  1
１６
 50
90.0
 41
0.672
  7
EXCADSTD
 72
     5
 11
380.8
 21
246.394154
 31
0.0
100
AcDbText
  0
TEXT
  5
512
100
AcDbEntity
  8
LAY-6
  6
CONTINUOUS
 62
     2
100
AcDbText
 10
380.8
 20
247.061354
 30
0.0
 40
5.0
  1
）
 50
90.0
 41
0.672
  7
EXCADSTD
 72
     5
 11
380.8
 21
250.261354
 31
0.0
100
AcDbText
  0
LINE
  5
513
100
AcDbEntity
  8
LAY-6
  6
CONTINUOUS
 62
     1
100
AcDbLine
 10
367.003393
 20
251.061354
 30
0.0
 11
382.8
 21
251.061354
 31
0.0
  0
LINE
  5
514
100
AcDbEntity
  8
LAY-6
  6
CONTINUOUS
 62
     1
100
AcDbLine
 10
381.3
 20
235.061354
 30
0.0
 11
381.3
 21
251.061354
 31
0.0
  0
LINE
  5
515
100
AcDbEntity
  8
LAY-6
  6
CONTINUOUS
 62
     1
100
AcDbLine
 10
380.8
 20
238.061354
 30
0.0
 11
381.3
 21
235.061354
 31
0.0
  0
LINE
  5
516
100
AcDbEntity
  8
LAY-6
  6
CONTINUOUS
 62
     1
100
AcDbLine
 10
381.3
 20
235.061354
 30
0.0
 11
381.8
 21
238.061354
 31
0.0
  0
LINE
  5
517
100
AcDbEntity
  8
LAY-6
  6
CONTINUOUS
 62
     1
100
AcDbLine
 10
381.8
 20
248.061354
 30
0.0
 11
381.3
 21
251.061354
 31
0.0
  0
LINE
  5
518
100
AcDbEntity
  8
LAY-6
  6
CONTINUOUS
 62
     1
100
AcDbLine
 10
381.3
 20
251.061354
 30
0.0
 11
380.8
 21
248.061354
 31
0.0
  0
TEXT
  5
519
100
AcDbEntity
  8
LAY-6
  6
CONTINUOUS
 62
     2
100
AcDbText
 10
380.4
 20
284.9
 30
0.0
 40
5.0
  1
４－Ｍ５×２０皿小ネジ(P=0.8)(別途)
 41
0.576198
  7
EXCADSTD
 72
     5
 11
450.4
 21
284.9
 31
0.0
100
AcDbText
  0
POLYLINE
  5
51A
100
AcDbEntity
  8
LAY-6
  6
CONTINUOUS
 62
     1
100
AcDb2dPolyline
 66
     1
 10
0.0
 20
0.0
 30
0.0
 70
   128
  0
VERTEX
  5
51B
100
AcDbEntity
  8
LAY-6
  6
CONTINUOUS
 62
     1
100
AcDbVertex
100
AcDb2dVertex
 10
361.503393
 20
251.061354
 30
0.0
  0
VERTEX
  5
51C
100
AcDbEntity
  8
LAY-6
  6
CONTINUOUS
 62
     1
100
AcDbVertex
100
AcDb2dVertex
 10
378.7
 20
284.4
 30
0.0
  0
VERTEX
  5
51D
100
AcDbEntity
  8
LAY-6
  6
CONTINUOUS
 62
     1
100
AcDbVertex
100
AcDb2dVertex
 10
452.1
 20
284.4
 30
0.0
  0
SEQEND
  5
51E
100
AcDbEntity
  8
LAY-6
  6
CONTINUOUS
 62
     1
  0
LINE
  5
51F
100
AcDbEntity
  8
LAY-6
  6
CONTINUOUS
 62
     1
100
AcDbLine
 10
362.123995
 20
252.99163
 30
0.0
 11
361.503393
 21
251.061354
 31
0.0
  0
LINE
  5
520
100
AcDbEntity
  8
LAY-6
  6
CONTINUOUS
 62
     1
100
AcDbLine
 10
361.503393
 20
251.061354
 30
0.0
 11
362.716484
 21
252.686015
 31
0.0
  0
TEXT
  5
521
100
AcDbEntity
  8
LAY-6
  6
CONTINUOUS
 62
     2
100
AcDbText
 10
334.0
 20
87.0
 30
0.0
 40
9.0
  1
■タップ型(①④タ ップ穴加工付)は品番の後にＴＡＰを付けて下さい。(オプション)　発注例：１１Ａ ＴＡＰ
 41
0.651408
  7
EXCADSTD
 72
     5
 11
690.399991
 21
87.0
 31
0.0
100
AcDbText
  0
TEXT
  5
522
100
AcDbEntity
  8
LAY-6
  6
CONTINUOUS
 62
     2
100
AcDbText
 10
334.0
 20
78.0
 30
0.0
 40
9.0
  1
　タップ穴は(　)内寸法をご参照下さい。
 41
0.65056
  7
EXCADSTD
 72
     5
 11
470.799996
 21
78.0
 31
0.0
100
AcDbText
  0
TEXT
  5
523
100
AcDbEntity
  8
LAY-6
  6
CONTINUOUS
 62
     2
100
AcDbText
 10
334.0
 20
69.0
 30
0.0
 40
9.0
  1
■①カバー３㎜伸ばしは品番の後に①Ｔを付けて下さい。(オプション)　発注例：１１Ａ ①Ｔ
 41
0.657521
  7
EXCADSTD
 72
     5
 11
639.999992
 21
69.0
 31
0.0
100
AcDbText
  0
POLYLINE
  5
524
100
AcDbEntity
  8
LAY-6
  6
CONTINUOUS
 62
     1
100
AcDb2dPolyline
 66
     1
 10
0.0
 20
0.0
 30
0.0
 70
   128
  0
VERTEX
  5
525
100
AcDbEntity
  8
LAY-6
  6
CONTINUOUS
 62
     1
100
AcDbVertex
100
AcDb2dVertex
 10
635.577325
 20
437.815201
 30
0.0
  0
VERTEX
  5
526
100
AcDbEntity
  8
LAY-6
  6
CONTINUOUS
 62
     1
100
AcDbVertex
100
AcDb2dVertex
 10
618.8
 20
454.5
 30
0.0
  0
VERTEX
  5
527
100
AcDbEntity
  8
LAY-6
  6
CONTINUOUS
 62
     1
100
AcDbVertex
100
AcDb2dVertex
 10
602.2
 20
454.5
 30
0.0
  0
SEQEND
  5
528
100
AcDbEntity
  8
LAY-6
  6
CONTINUOUS
 62
     1
  0
LINE
  5
529
100
AcDbEntity
  8
LAY-6
  6
CONTINUOUS
 62
     1
100
AcDbLine
 10
633.924157
 20
438.989146
 30
0.0
 11
635.577325
 21
437.815201
 31
0.0
  0
LINE
  5
52A
100
AcDbEntity
  8
LAY-6
  6
CONTINUOUS
 62
     1
100
AcDbLine
 10
635.577325
 20
437.815201
 30
0.0
 11
634.394256
 21
439.461852
 31
0.0
  0
LINE
  5
52B
100
AcDbEntity
  8
LAY-9
  6
CONTINUOUS
 62
     1
100
AcDbLine
 10
704.874008
 20
421.415201
 30
0.0
 11
704.977295
 21
421.518488
 31
0.0
  0
LINE
  5
52C
100
AcDbEntity
  8
LAY-9
  6
CONTINUOUS
 62
     1
100
AcDbLine
 10
668.104456
 20
421.415201
 30
0.0
 11
671.504456
 21
424.815201
 31
0.0
  0
LINE
  5
52D
100
AcDbEntity
  8
LAY-9
  6
CONTINUOUS
 62
     1
100
AcDbLine
 10
670.932883
 20
421.415201
 30
0.0
 11
674.332883
 21
424.815201
 31
0.0
  0
LINE
  5
52E
100
AcDbEntity
  8
LAY-9
  6
CONTINUOUS
 62
     1
100
AcDbLine
 10
694.731873
 20
421.415201
 30
0.0
 11
698.131873
 21
424.815201
 31
0.0
  0
LINE
  5
52F
100
AcDbEntity
  8
LAY-9
  6
CONTINUOUS
 62
     1
100
AcDbLine
 10
697.5603
 20
421.415201
 30
0.0
 11
700.9603
 21
424.815201
 31
0.0
  0
LINE
  5
530
100
AcDbEntity
  8
LAY-9
  6
CONTINUOUS
 62
     1
100
AcDbLine
 10
662.977722
 20
416.815171
 30
0.0
 11
662.977722
 21
382.949622
 31
0.0
  0
LINE
  5
531
100
AcDbEntity
  8
LAY-9
  6
CONTINUOUS
 62
     1
100
AcDbLine
 10
671.718164
 20
403.315201
 30
0.0
 11
676.218183
 21
407.81522
 31
0.0
  0
LINE
  5
532
100
AcDbEntity
  8
LAY-9
  6
CONTINUOUS
 62
     1
100
AcDbLine
 10
674.546591
 20
403.315201
 30
0.0
 11
679.046608
 21
407.815218
 31
0.0
  0
LINE
  5
533
100
AcDbEntity
  8
LAY-9
  6
CONTINUOUS
 62
     1
100
AcDbLine
 10
670.789306
 20
228.965485
 30
0.0
 11
675.289306
 21
233.465485
 31
0.0
  0
LINE
  5
534
100
AcDbEntity
  8
LAY-9
  6
CONTINUOUS
 62
     1
100
AcDbLine
 10
673.617733
 20
228.965485
 30
0.0
 11
678.117733
 21
233.465485
 31
0.0
  0
LINE
  5
535
100
AcDbEntity
  8
LAY-9
  6
CONTINUOUS
 62
     1
100
AcDbLine
 10
667.875568
 20
206.965455
 30
0.0
 11
673.275568
 21
212.365455
 31
0.0
  0
LINE
  5
536
100
AcDbEntity
  8
LAY-9
  6
CONTINUOUS
 62
     1
100
AcDbLine
 10
670.703995
 20
206.965455
 30
0.0
 11
676.103995
 21
212.365455
 31
0.0
  0
LINE
  5
537
100
AcDbEntity
  8
LAY-9
  6
CONTINUOUS
 62
     1
100
AcDbLine
 10
694.502985
 20
206.965455
 30
0.0
 11
699.902985
 21
212.365455
 31
0.0
  0
LINE
  5
538
100
AcDbEntity
  8
LAY-9
  6
CONTINUOUS
 62
     1
100
AcDbLine
 10
697.331412
 20
206.965455
 30
0.0
 11
702.731412
 21
212.365455
 31
0.0
  0
LINE
  5
539
100
AcDbEntity
  8
LAY-9
  6
CONTINUOUS
 62
     1
100
AcDbLine
 10
691.718164
 20
403.315201
 30
0.0
 11
696.218183
 21
407.81522
 31
0.0
  0
LINE
  5
53A
100
AcDbEntity
  8
LAY-9
  6
CONTINUOUS
 62
     1
100
AcDbLine
 10
694.546591
 20
403.315201
 30
0.0
 11
699.046608
 21
407.815218
 31
0.0
  0
LINE
  5
53B
100
AcDbEntity
  8
LAY-9
  6
CONTINUOUS
 62
     1
100
AcDbLine
 10
690.789306
 20
228.965485
 30
0.0
 11
695.289306
 21
233.465485
 31
0.0
  0
LINE
  5
53C
100
AcDbEntity
  8
LAY-9
  6
CONTINUOUS
 62
     1
100
AcDbLine
 10
693.617733
 20
228.965485
 30
0.0
 11
698.117733
 21
233.465485
 31
0.0
  0
LINE
  5
53D
100
AcDbEntity
  8
LAY-9
  6
CONTINUOUS
 62
     1
100
AcDbLine
 10
104.503377
 20
390.59109
 30
0.0
 11
104.503377
 21
433.99109
 31
0.0
  0
LINE
  5
53E
100
AcDbEntity
  8
LAY-9
  6
CONTINUOUS
 62
     1
100
AcDbLine
 10
104.503377
 20
433.99109
 30
0.0
 11
117.903377
 21
433.99109
 31
0.0
  0
LINE
  5
53F
100
AcDbEntity
  8
LAY-9
  6
CONTINUOUS
 62
     1
100
AcDbLine
 10
79.503377
 20
390.59109
 30
0.0
 11
79.503377
 21
403.99109
 31
0.0
  0
LINE
  5
540
100
AcDbEntity
  8
LAY-9
  6
CONTINUOUS
 62
     1
100
AcDbLine
 10
79.503377
 20
403.99109
 30
0.0
 11
81.103377
 21
403.99109
 31
0.0
  0
LINE
  5
541
100
AcDbEntity
  8
LAY-9
  6
CONTINUOUS
 62
     1
100
AcDbLine
 10
81.103377
 20
390.59109
 30
0.0
 11
102.903377
 21
390.59109
 31
0.0
  0
LINE
  5
542
100
AcDbEntity
  8
LAY-9
  6
CONTINUOUS
 62
     1
100
AcDbLine
 10
102.903377
 20
390.59109
 30
0.0
 11
102.903377
 21
433.99109
 31
0.0
  0
LINE
  5
543
100
AcDbEntity
  8
LAY-9
  6
CONTINUOUS
 62
     1
100
AcDbLine
 10
104.503377
 20
435.59109
 30
0.0
 11
117.903377
 21
435.59109
 31
0.0
  0
LINE
  5
544
100
AcDbEntity
  8
LAY-9
  6
CONTINUOUS
 62
     1
100
AcDbLine
 10
81.103377
 20
403.99109
 30
0.0
 11
81.103377
 21
390.59109
 31
0.0
  0
ARC
  5
545
100
AcDbEntity
  8
LAY-9
  6
CONTINUOUS
 62
     1
100
AcDbCircle
 10
117.903377
 20
435.59109
 30
0.0
 40
1.6
100
AcDbArc
 50
270.0
 51
0.0
  0
ARC
  5
546
100
AcDbEntity
  8
LAY-9
  6
CONTINUOUS
 62
     1
100
AcDbCircle
 10
104.503377
 20
433.99109
 30
0.0
 40
1.6
100
AcDbArc
 50
90.0
 51
180.0
  0
ARC
  5
547
100
AcDbEntity
  8
LAY-9
  6
CONTINUOUS
 62
     1
100
AcDbCircle
 10
102.903377
 20
390.59109
 30
0.0
 40
1.6
100
AcDbArc
 50
270.0
 51
0.0
  0
ARC
  5
548
100
AcDbEntity
  8
LAY-9
  6
CONTINUOUS
 62
     1
100
AcDbCircle
 10
81.103377
 20
390.59109
 30
0.0
 40
1.6
100
AcDbArc
 50
180.0
 51
270.0
  0
LINE
  5
549
100
AcDbEntity
  8
LAY-9
  6
CONTINUOUS
 62
     1
100
AcDbLine
 10
217.399996
 20
388.99109
 30
0.0
 11
161.503381
 21
388.99109
 31
0.0
  0
POLYLINE
  5
54A
100
AcDbEntity
  8
LAY-9
  6
CONTINUOUS
 62
     1
100
AcDb2dPolyline
 66
     1
 10
0.0
 20
0.0
 30
0.0
 70
   128
  0
VERTEX
  5
54B
100
AcDbEntity
  8
LAY-9
  6
CONTINUOUS
 62
     1
100
AcDbVertex
100
AcDb2dVertex
 10
217.399996
 20
433.99109
 30
0.0
  0
VERTEX
  5
54C
100
AcDbEntity
  8
LAY-9
  6
CONTINUOUS
 62
     1
100
AcDbVertex
100
AcDb2dVertex
 10
217.460455
 20
433.802201
 30
0.0
  0
VERTEX
  5
54D
100
AcDbEntity
  8
LAY-9
  6
CONTINUOUS
 62
     1
100
AcDbVertex
100
AcDb2dVertex
 10
217.626904
 20
433.266088
 30
0.0
  0
VERTEX
  5
54E
100
AcDbEntity
  8
LAY-9
  6
CONTINUOUS
 62
     1
100
AcDbVertex
100
AcDb2dVertex
 10
217.876953
 20
432.428577
 30
0.0
  0
VERTEX
  5
54F
100
AcDbEntity
  8
LAY-9
  6
CONTINUOUS
 62
     1
100
AcDbVertex
100
AcDb2dVertex
 10
218.188209
 20
431.335494
 30
0.0
  0
VERTEX
  5
550
100
AcDbEntity
  8
LAY-9
  6
CONTINUOUS
 62
     1
100
AcDbVertex
100
AcDb2dVertex
 10
218.538283
 20
430.032666
 30
0.0
  0
VERTEX
  5
551
100
AcDbEntity
  8
LAY-9
  6
CONTINUOUS
 62
     1
100
AcDbVertex
100
AcDb2dVertex
 10
218.904784
 20
428.565921
 30
0.0
  0
VERTEX
  5
552
100
AcDbEntity
  8
LAY-9
  6
CONTINUOUS
 62
     1
100
AcDbVertex
100
AcDb2dVertex
 10
219.26532
 20
426.981086
 30
0.0
  0
VERTEX
  5
553
100
AcDbEntity
  8
LAY-9
  6
CONTINUOUS
 62
     1
100
AcDbVertex
100
AcDb2dVertex
 10
219.5975
 20
425.323986
 30
0.0
  0
VERTEX
  5
554
100
AcDbEntity
  8
LAY-9
  6
CONTINUOUS
 62
     1
100
AcDbVertex
100
AcDb2dVertex
 10
219.878933
 20
423.64045
 30
0.0
  0
VERTEX
  5
555
100
AcDbEntity
  8
LAY-9
  6
CONTINUOUS
 62
     1
100
AcDbVertex
100
AcDb2dVertex
 10
220.087229
 20
421.976303
 30
0.0
  0
VERTEX
  5
556
100
AcDbEntity
  8
LAY-9
  6
CONTINUOUS
 62
     1
100
AcDbVertex
100
AcDb2dVertex
 10
220.199996
 20
420.377374
 30
0.0
  0
VERTEX
  5
557
100
AcDbEntity
  8
LAY-9
  6
CONTINUOUS
 62
     1
100
AcDbVertex
100
AcDb2dVertex
 10
220.20936
 20
419.177208
 30
0.0
  0
VERTEX
  5
558
100
AcDbEntity
  8
LAY-9
  6
CONTINUOUS
 62
     1
100
AcDbVertex
100
AcDb2dVertex
 10
220.149522
 20
418.041154
 30
0.0
  0
VERTEX
  5
559
100
AcDbEntity
  8
LAY-9
  6
CONTINUOUS
 62
     1
100
AcDbVertex
100
AcDb2dVertex
 10
220.025956
 20
416.963005
 30
0.0
  0
VERTEX
  5
55A
100
AcDbEntity
  8
LAY-9
  6
CONTINUOUS
 62
     1
100
AcDbVertex
100
AcDb2dVertex
 10
219.844135
 20
415.936551
 30
0.0
  0
VERTEX
  5
55B
100
AcDbEntity
  8
LAY-9
  6
CONTINUOUS
 62
     1
100
AcDbVertex
100
AcDb2dVertex
 10
219.609533
 20
414.955585
 30
0.0
  0
VERTEX
  5
55C
100
AcDbEntity
  8
LAY-9
  6
CONTINUOUS
 62
     1
100
AcDbVertex
100
AcDb2dVertex
 10
219.327621
 20
414.013898
 30
0.0
  0
VERTEX
  5
55D
100
AcDbEntity
  8
LAY-9
  6
CONTINUOUS
 62
     1
100
AcDbVertex
100
AcDb2dVertex
 10
219.003875
 20
413.105283
 30
0.0
  0
VERTEX
  5
55E
100
AcDbEntity
  8
LAY-9
  6
CONTINUOUS
 62
     1
100
AcDbVertex
100
AcDb2dVertex
 10
218.643765
 20
412.223531
 30
0.0
  0
VERTEX
  5
55F
100
AcDbEntity
  8
LAY-9
  6
CONTINUOUS
 62
     1
100
AcDbVertex
100
AcDb2dVertex
 10
218.252767
 20
411.362434
 30
0.0
  0
VERTEX
  5
560
100
AcDbEntity
  8
LAY-9
  6
CONTINUOUS
 62
     1
100
AcDbVertex
100
AcDb2dVertex
 10
217.836353
 20
410.515784
 30
0.0
  0
VERTEX
  5
561
100
AcDbEntity
  8
LAY-9
  6
CONTINUOUS
 62
     1
100
AcDbVertex
100
AcDb2dVertex
 10
217.399996
 20
409.677374
 30
0.0
  0
VERTEX
  5
562
100
AcDbEntity
  8
LAY-9
  6
CONTINUOUS
 62
     1
100
AcDbVertex
100
AcDb2dVertex
 10
216.903392
 20
408.754681
 30
0.0
  0
VERTEX
  5
563
100
AcDbEntity
  8
LAY-9
  6
CONTINUOUS
 62
     1
100
AcDbVertex
100
AcDb2dVertex
 10
216.404322
 20
407.826341
 30
0.0
  0
VERTEX
  5
564
100
AcDbEntity
  8
LAY-9
  6
CONTINUOUS
 62
     1
100
AcDbVertex
100
AcDb2dVertex
 10
215.917928
 20
406.884232
 30
0.0
  0
VERTEX
  5
565
100
AcDbEntity
  8
LAY-9
  6
CONTINUOUS
 62
     1
100
AcDbVertex
100
AcDb2dVertex
 10
215.45935
 20
405.920236
 30
0.0
  0
VERTEX
  5
566
100
AcDbEntity
  8
LAY-9
  6
CONTINUOUS
 62
     1
100
AcDbVertex
100
AcDb2dVertex
 10
215.043729
 20
404.926233
 30
0.0
  0
VERTEX
  5
567
100
AcDbEntity
  8
LAY-9
  6
CONTINUOUS
 62
     1
100
AcDbVertex
100
AcDb2dVertex
 10
214.686206
 20
403.894103
 30
0.0
  0
VERTEX
  5
568
100
AcDbEntity
  8
LAY-9
  6
CONTINUOUS
 62
     1
100
AcDbVertex
100
AcDb2dVertex
 10
214.401922
 20
402.815727
 30
0.0
  0
VERTEX
  5
569
100
AcDbEntity
  8
LAY-9
  6
CONTINUOUS
 62
     1
100
AcDbVertex
100
AcDb2dVertex
 10
214.206018
 20
401.682986
 30
0.0
  0
VERTEX
  5
56A
100
AcDbEntity
  8
LAY-9
  6
CONTINUOUS
 62
     1
100
AcDbVertex
100
AcDb2dVertex
 10
214.113635
 20
400.48776
 30
0.0
  0
VERTEX
  5
56B
100
AcDbEntity
  8
LAY-9
  6
CONTINUOUS
 62
     1
100
AcDbVertex
100
AcDb2dVertex
 10
214.139914
 20
399.221929
 30
0.0
  0
VERTEX
  5
56C
100
AcDbEntity
  8
LAY-9
  6
CONTINUOUS
 62
     1
100
AcDbVertex
100
AcDb2dVertex
 10
214.299996
 20
397.877374
 30
0.0
  0
VERTEX
  5
56D
100
AcDbEntity
  8
LAY-9
  6
CONTINUOUS
 62
     1
100
AcDbVertex
100
AcDb2dVertex
 10
214.520123
 20
396.786396
 30
0.0
  0
VERTEX
  5
56E
100
AcDbEntity
  8
LAY-9
  6
CONTINUOUS
 62
     1
100
AcDbVertex
100
AcDb2dVertex
 10
214.809808
 20
395.670816
 30
0.0
  0
VERTEX
  5
56F
100
AcDbEntity
  8
LAY-9
  6
CONTINUOUS
 62
     1
100
AcDbVertex
100
AcDb2dVertex
 10
215.149979
 20
394.557711
 30
0.0
  0
VERTEX
  5
570
100
AcDbEntity
  8
LAY-9
  6
CONTINUOUS
 62
     1
100
AcDbVertex
100
AcDb2dVertex
 10
215.52156
 20
393.474156
 30
0.0
  0
VERTEX
  5
571
100
AcDbEntity
  8
LAY-9
  6
CONTINUOUS
 62
     1
100
AcDbVertex
100
AcDb2dVertex
 10
215.905481
 20
392.447228
 30
0.0
  0
VERTEX
  5
572
100
AcDbEntity
  8
LAY-9
  6
CONTINUOUS
 62
     1
100
AcDbVertex
100
AcDb2dVertex
 10
216.282666
 20
391.504003
 30
0.0
  0
VERTEX
  5
573
100
AcDbEntity
  8
LAY-9
  6
CONTINUOUS
 62
     1
100
AcDbVertex
100
AcDb2dVertex
 10
216.634042
 20
390.671558
 30
0.0
  0
VERTEX
  5
574
100
AcDbEntity
  8
LAY-9
  6
CONTINUOUS
 62
     1
100
AcDbVertex
100
AcDb2dVertex
 10
216.940537
 20
389.976967
 30
0.0
  0
VERTEX
  5
575
100
AcDbEntity
  8
LAY-9
  6
CONTINUOUS
 62
     1
100
AcDbVertex
100
AcDb2dVertex
 10
217.183077
 20
389.447308
 30
0.0
  0
VERTEX
  5
576
100
AcDbEntity
  8
LAY-9
  6
CONTINUOUS
 62
     1
100
AcDbVertex
100
AcDb2dVertex
 10
217.342587
 20
389.109657
 30
0.0
  0
VERTEX
  5
577
100
AcDbEntity
  8
LAY-9
  6
CONTINUOUS
 62
     1
100
AcDbVertex
100
AcDb2dVertex
 10
217.399996
 20
388.99109
 30
0.0
  0
SEQEND
  5
578
100
AcDbEntity
  8
LAY-9
  6
CONTINUOUS
 62
     1
  0
LINE
  5
579
100
AcDbEntity
  8
LAY-9
  6
CONTINUOUS
 62
     1
100
AcDbLine
 10
107.503398
 20
226.661584
 30
0.0
 11
107.503394
 21
263.461584
 31
0.0
  0
LINE
  5
57A
100
AcDbEntity
  8
LAY-9
  6
CONTINUOUS
 62
     1
100
AcDbLine
 10
109.103394
 20
265.061584
 30
0.0
 11
232.503394
 21
265.061584
 31
0.0
  0
LINE
  5
57B
100
AcDbEntity
  8
LAY-9
  6
CONTINUOUS
 62
     1
100
AcDbLine
 10
161.5034
 20
225.061584
 30
0.0
 11
232.503398
 21
225.061584
 31
0.0
  0
ARC
  5
57C
100
AcDbEntity
  8
LAY-9
  6
CONTINUOUS
 62
     1
100
AcDbCircle
 10
109.103394
 20
263.461584
 30
0.0
 40
1.6
100
AcDbArc
 50
90.0
 51
180.000006
  0
ARC
  5
57D
100
AcDbEntity
  8
LAY-9
  6
CONTINUOUS
 62
     1
100
AcDbCircle
 10
109.103398
 20
226.661584
 30
0.0
 40
1.6
100
AcDbArc
 50
180.000006
 51
270.0
  0
POLYLINE
  5
57E
100
AcDbEntity
  8
LAY-9
  6
CONTINUOUS
 62
     1
100
AcDb2dPolyline
 66
     1
 10
0.0
 20
0.0
 30
0.0
 70
   128
  0
VERTEX
  5
57F
100
AcDbEntity
  8
LAY-9
  6
CONTINUOUS
 62
     1
100
AcDbVertex
100
AcDb2dVertex
 10
232.503394
 20
265.061584
 30
0.0
  0
VERTEX
  5
580
100
AcDbEntity
  8
LAY-9
  6
CONTINUOUS
 62
     1
100
AcDbVertex
100
AcDb2dVertex
 10
232.553395
 20
264.920116
 30
0.0
  0
VERTEX
  5
581
100
AcDbEntity
  8
LAY-9
  6
CONTINUOUS
 62
     1
100
AcDbVertex
100
AcDb2dVertex
 10
232.691321
 20
264.518205
 30
0.0
  0
VERTEX
  5
582
100
AcDbEntity
  8
LAY-9
  6
CONTINUOUS
 62
     1
100
AcDbVertex
100
AcDb2dVertex
 10
232.899054
 20
263.889586
 30
0.0
  0
VERTEX
  5
583
100
AcDbEntity
  8
LAY-9
  6
CONTINUOUS
 62
     1
100
AcDbVertex
100
AcDb2dVertex
 10
233.158479
 20
263.067997
 30
0.0
  0
VERTEX
  5
584
100
AcDbEntity
  8
LAY-9
  6
CONTINUOUS
 62
     1
100
AcDbVertex
100
AcDb2dVertex
 10
233.451478
 20
262.087174
 30
0.0
  0
VERTEX
  5
585
100
AcDbEntity
  8
LAY-9
  6
CONTINUOUS
 62
     1
100
AcDbVertex
100
AcDb2dVertex
 10
233.759935
 20
260.980854
 30
0.0
  0
VERTEX
  5
586
100
AcDbEntity
  8
LAY-9
  6
CONTINUOUS
 62
     1
100
AcDbVertex
100
AcDb2dVertex
 10
234.065733
 20
259.782775
 30
0.0
  0
VERTEX
  5
587
100
AcDbEntity
  8
LAY-9
  6
CONTINUOUS
 62
     1
100
AcDbVertex
100
AcDb2dVertex
 10
234.350756
 20
258.526672
 30
0.0
  0
VERTEX
  5
588
100
AcDbEntity
  8
LAY-9
  6
CONTINUOUS
 62
     1
100
AcDbVertex
100
AcDb2dVertex
 10
234.596887
 20
257.246283
 30
0.0
  0
VERTEX
  5
589
100
AcDbEntity
  8
LAY-9
  6
CONTINUOUS
 62
     1
100
AcDbVertex
100
AcDb2dVertex
 10
234.786009
 20
255.975345
 30
0.0
  0
VERTEX
  5
58A
100
AcDbEntity
  8
LAY-9
  6
CONTINUOUS
 62
     1
100
AcDbVertex
100
AcDb2dVertex
 10
234.900006
 20
254.747594
 30
0.0
  0
VERTEX
  5
58B
100
AcDbEntity
  8
LAY-9
  6
CONTINUOUS
 62
     1
100
AcDbVertex
100
AcDb2dVertex
 10
234.926514
 20
253.673808
 30
0.0
  0
VERTEX
  5
58C
100
AcDbEntity
  8
LAY-9
  6
CONTINUOUS
 62
     1
100
AcDbVertex
100
AcDb2dVertex
 10
234.880905
 20
252.659931
 30
0.0
  0
VERTEX
  5
58D
100
AcDbEntity
  8
LAY-9
  6
CONTINUOUS
 62
     1
100
AcDbVertex
100
AcDb2dVertex
 10
234.770905
 20
251.700005
 30
0.0
  0
VERTEX
  5
58E
100
AcDbEntity
  8
LAY-9
  6
CONTINUOUS
 62
     1
100
AcDbVertex
100
AcDb2dVertex
 10
234.604241
 20
250.788069
 30
0.0
  0
VERTEX
  5
58F
100
AcDbEntity
  8
LAY-9
  6
CONTINUOUS
 62
     1
100
AcDbVertex
100
AcDb2dVertex
 10
234.388639
 20
249.918162
 30
0.0
  0
VERTEX
  5
590
100
AcDbEntity
  8
LAY-9
  6
CONTINUOUS
 62
     1
100
AcDbVertex
100
AcDb2dVertex
 10
234.131826
 20
249.084326
 30
0.0
  0
VERTEX
  5
591
100
AcDbEntity
  8
LAY-9
  6
CONTINUOUS
 62
     1
100
AcDbVertex
100
AcDb2dVertex
 10
233.841528
 20
248.2806
 30
0.0
  0
VERTEX
  5
592
100
AcDbEntity
  8
LAY-9
  6
CONTINUOUS
 62
     1
100
AcDbVertex
100
AcDb2dVertex
 10
233.52547
 20
247.501023
 30
0.0
  0
VERTEX
  5
593
100
AcDbEntity
  8
LAY-9
  6
CONTINUOUS
 62
     1
100
AcDbVertex
100
AcDb2dVertex
 10
233.19138
 20
246.739637
 30
0.0
  0
VERTEX
  5
594
100
AcDbEntity
  8
LAY-9
  6
CONTINUOUS
 62
     1
100
AcDbVertex
100
AcDb2dVertex
 10
232.846983
 20
245.990481
 30
0.0
  0
VERTEX
  5
595
100
AcDbEntity
  8
LAY-9
  6
CONTINUOUS
 62
     1
100
AcDbVertex
100
AcDb2dVertex
 10
232.500006
 20
245.247594
 30
0.0
  0
VERTEX
  5
596
100
AcDbEntity
  8
LAY-9
  6
CONTINUOUS
 62
     1
100
AcDbVertex
100
AcDb2dVertex
 10
232.081884
 20
244.337804
 30
0.0
  0
VERTEX
  5
597
100
AcDbEntity
  8
LAY-9
  6
CONTINUOUS
 62
     1
100
AcDbVertex
100
AcDb2dVertex
 10
231.68046
 20
243.420217
 30
0.0
  0
VERTEX
  5
598
100
AcDbEntity
  8
LAY-9
  6
CONTINUOUS
 62
     1
100
AcDbVertex
100
AcDb2dVertex
 10
231.304709
 20
242.486568
 30
0.0
  0
VERTEX
  5
599
100
AcDbEntity
  8
LAY-9
  6
CONTINUOUS
 62
     1
100
AcDbVertex
100
AcDb2dVertex
 10
230.963608
 20
241.528594
 30
0.0
  0
VERTEX
  5
59A
100
AcDbEntity
  8
LAY-9
  6
CONTINUOUS
 62
     1
100
AcDbVertex
100
AcDb2dVertex
 10
230.66613
 20
240.538033
 30
0.0
  0
VERTEX
  5
59B
100
AcDbEntity
  8
LAY-9
  6
CONTINUOUS
 62
     1
100
AcDbVertex
100
AcDb2dVertex
 10
230.421253
 20
239.506622
 30
0.0
  0
VERTEX
  5
59C
100
AcDbEntity
  8
LAY-9
  6
CONTINUOUS
 62
     1
100
AcDbVertex
100
AcDb2dVertex
 10
230.237951
 20
238.426096
 30
0.0
  0
VERTEX
  5
59D
100
AcDbEntity
  8
LAY-9
  6
CONTINUOUS
 62
     1
100
AcDbVertex
100
AcDb2dVertex
 10
230.1252
 20
237.288194
 30
0.0
  0
VERTEX
  5
59E
100
AcDbEntity
  8
LAY-9
  6
CONTINUOUS
 62
     1
100
AcDbVertex
100
AcDb2dVertex
 10
230.091975
 20
236.084652
 30
0.0
  0
VERTEX
  5
59F
100
AcDbEntity
  8
LAY-9
  6
CONTINUOUS
 62
     1
100
AcDbVertex
100
AcDb2dVertex
 10
230.147252
 20
234.807206
 30
0.0
  0
VERTEX
  5
5A0
100
AcDbEntity
  8
LAY-9
  6
CONTINUOUS
 62
     1
100
AcDbVertex
100
AcDb2dVertex
 10
230.300006
 20
233.447594
 30
0.0
  0
VERTEX
  5
5A1
100
AcDbEntity
  8
LAY-9
  6
CONTINUOUS
 62
     1
100
AcDbVertex
100
AcDb2dVertex
 10
230.473399
 20
232.414437
 30
0.0
  0
VERTEX
  5
5A2
100
AcDbEntity
  8
LAY-9
  6
CONTINUOUS
 62
     1
100
AcDbVertex
100
AcDb2dVertex
 10
230.689798
 20
231.359431
 30
0.0
  0
VERTEX
  5
5A3
100
AcDbEntity
  8
LAY-9
  6
CONTINUOUS
 62
     1
100
AcDbVertex
100
AcDb2dVertex
 10
230.936661
 20
230.307912
 30
0.0
  0
VERTEX
  5
5A4
100
AcDbEntity
  8
LAY-9
  6
CONTINUOUS
 62
     1
100
AcDbVertex
100
AcDb2dVertex
 10
231.201449
 20
229.285214
 30
0.0
  0
VERTEX
  5
5A5
100
AcDbEntity
  8
LAY-9
  6
CONTINUOUS
 62
     1
100
AcDbVertex
100
AcDb2dVertex
 10
231.471619
 20
228.316675
 30
0.0
  0
VERTEX
  5
5A6
100
AcDbEntity
  8
LAY-9
  6
CONTINUOUS
 62
     1
100
AcDbVertex
100
AcDb2dVertex
 10
231.734631
 20
227.427631
 30
0.0
  0
VERTEX
  5
5A7
100
AcDbEntity
  8
LAY-9
  6
CONTINUOUS
 62
     1
100
AcDbVertex
100
AcDb2dVertex
 10
231.977945
 20
226.643417
 30
0.0
  0
VERTEX
  5
5A8
100
AcDbEntity
  8
LAY-9
  6
CONTINUOUS
 62
     1
100
AcDbVertex
100
AcDb2dVertex
 10
232.18902
 20
225.989369
 30
0.0
  0
VERTEX
  5
5A9
100
AcDbEntity
  8
LAY-9
  6
CONTINUOUS
 62
     1
100
AcDbVertex
100
AcDb2dVertex
 10
232.355314
 20
225.490823
 30
0.0
  0
VERTEX
  5
5AA
100
AcDbEntity
  8
LAY-9
  6
CONTINUOUS
 62
     1
100
AcDbVertex
100
AcDb2dVertex
 10
232.464287
 20
225.173116
 30
0.0
  0
VERTEX
  5
5AB
100
AcDbEntity
  8
LAY-9
  6
CONTINUOUS
 62
     1
100
AcDbVertex
100
AcDb2dVertex
 10
232.503398
 20
225.061584
 30
0.0
  0
SEQEND
  5
5AC
100
AcDbEntity
  8
LAY-9
  6
CONTINUOUS
 62
     1
  0
LINE
  5
5AD
100
AcDbEntity
  8
LAY-9
  6
CONTINUOUS
 62
     1
100
AcDbLine
 10
661.577295
 20
444.815201
 30
0.0
 11
674.977295
 21
444.815201
 31
0.0
  0
LINE
  5
5AE
100
AcDbEntity
  8
LAY-9
  6
CONTINUOUS
 62
     1
100
AcDbLine
 10
674.977295
 20
444.815201
 30
0.0
 11
674.977295
 21
443.215201
 31
0.0
  0
LINE
  5
5AF
100
AcDbEntity
  8
LAY-9
  6
CONTINUOUS
 62
     1
100
AcDbLine
 10
661.577295
 20
419.815201
 30
0.0
 11
704.977295
 21
419.815201
 31
0.0
  0
LINE
  5
5B0
100
AcDbEntity
  8
LAY-9
  6
CONTINUOUS
 62
     1
100
AcDbLine
 10
706.577295
 20
404.315201
 30
0.0
 11
710.8
 21
404.315201
 31
0.0
  0
LINE
  5
5B1
100
AcDbEntity
  8
LAY-9
  6
CONTINUOUS
 62
     1
100
AcDbLine
 10
661.577295
 20
421.415201
 30
0.0
 11
704.977295
 21
421.415201
 31
0.0
  0
LINE
  5
5B2
100
AcDbEntity
  8
LAY-9
  6
CONTINUOUS
 62
     1
100
AcDbLine
 10
706.577295
 20
419.815201
 30
0.0
 11
706.577295
 21
405.915201
 31
0.0
  0
LINE
  5
5B3
100
AcDbEntity
  8
LAY-9
  6
CONTINUOUS
 62
     1
100
AcDbLine
 10
706.577295
 20
405.915201
 30
0.0
 11
710.8
 21
405.915201
 31
0.0
  0
LINE
  5
5B4
100
AcDbEntity
  8
LAY-9
  6
CONTINUOUS
 62
     1
100
AcDbLine
 10
674.977295
 20
443.215201
 30
0.0
 11
661.577295
 21
443.215201
 31
0.0
  0
ARC
  5
5B5
100
AcDbEntity
  8
LAY-9
  6
CONTINUOUS
 62
     1
100
AcDbCircle
 10
661.577295
 20
443.215201
 30
0.0
 40
1.6
100
AcDbArc
 50
90.0
 51
180.0
  0
ARC
  5
5B6
100
AcDbEntity
  8
LAY-9
  6
CONTINUOUS
 62
     1
100
AcDbCircle
 10
661.577295
 20
421.415201
 30
0.0
 40
1.6
100
AcDbArc
 50
180.0
 51
270.0
  0
ARC
  5
5B7
100
AcDbEntity
  8
LAY-9
  6
CONTINUOUS
 62
     1
100
AcDbCircle
 10
704.977295
 20
419.815201
 30
0.0
 40
1.6
100
AcDbArc
 50
0.0
 51
90.0
  0
ARC
  5
5B8
100
AcDbEntity
  8
LAY-9
  6
CONTINUOUS
 62
     1
100
AcDbCircle
 10
706.577295
 20
405.915201
 30
0.0
 40
1.6
100
AcDbArc
 50
180.0
 51
270.0
  0
LINE
  5
5B9
100
AcDbEntity
  8
LAY-9
  6
CONTINUOUS
 62
     1
100
AcDbLine
 10
664.577722
 20
416.815171
 30
0.0
 11
701.377722
 21
416.815171
 31
0.0
  0
LINE
  5
5BA
100
AcDbEntity
  8
LAY-9
  6
CONTINUOUS
 62
     1
100
AcDbLine
 10
701.377722
 20
415.215171
 30
0.0
 11
695.977325
 21
415.215171
 31
0.0
  0
LINE
  5
5BB
100
AcDbEntity
  8
LAY-9
  6
CONTINUOUS
 62
     1
100
AcDbLine
 10
699.077722
 20
412.915171
 30
0.0
 11
695.977325
 21
412.915171
 31
0.0
  0
LINE
  5
5BC
100
AcDbEntity
  8
LAY-9
  6
CONTINUOUS
 62
     1
100
AcDbLine
 10
666.877722
 20
407.815228
 30
0.0
 11
666.877722
 21
400.215171
 31
0.0
  0
LINE
  5
5BD
100
AcDbEntity
  8
LAY-9
  6
CONTINUOUS
 62
     1
100
AcDbLine
 10
699.077722
 20
400.215171
 30
0.0
 11
699.077722
 21
412.915171
 31
0.0
  0
LINE
  5
5BE
100
AcDbEntity
  8
LAY-9
  6
CONTINUOUS
 62
     1
100
AcDbLine
 10
699.077722
 20
400.215171
 30
0.0
 11
701.377722
 21
400.215171
 31
0.0
  0
LINE
  5
5BF
100
AcDbEntity
  8
LAY-9
  6
CONTINUOUS
 62
     1
100
AcDbLine
 10
666.877722
 20
400.215171
 30
0.0
 11
664.577722
 21
400.215171
 31
0.0
  0
ARC
  5
5C0
100
AcDbEntity
  8
LAY-9
  6
CONTINUOUS
 62
     1
100
AcDbCircle
 10
701.377722
 20
415.215171
 30
0.0
 40
1.6
100
AcDbArc
 50
0.0
 51
90.0
  0
ARC
  5
5C1
100
AcDbEntity
  8
LAY-9
  6
CONTINUOUS
 62
     1
100
AcDbCircle
 10
699.077722
 20
412.915171
 30
0.0
 40
2.3
100
AcDbArc
 50
0.0
 51
90.0
  0
LINE
  5
5C2
100
AcDbEntity
  8
LAY-9
  6
CONTINUOUS
 62
     1
100
AcDbLine
 10
694.477325
 20
407.815201
 30
0.0
 11
699.077722
 21
407.815201
 31
0.0
  0
LINE
  5
5C3
100
AcDbEntity
  8
LAY-9
  6
CONTINUOUS
 62
     1
100
AcDbLine
 10
666.877722
 20
403.315201
 30
0.0
 11
699.077722
 21
403.315201
 31
0.0
  0
LINE
  5
5C4
100
AcDbEntity
  8
LAY-9
  6
DIVIDE
 62
     1
100
AcDbLine
 10
658.551575
 20
328.049622
 30
0.0
 11
708.851575
 21
328.049622
 31
0.0
  0
LINE
  5
5C5
100
AcDbEntity
  8
LAY-9
  6
CONTINUOUS
 62
     1
100
AcDbLine
 10
662.977722
 20
415.215171
 30
0.0
 11
662.977722
 21
328.049622
 31
0.0
  0
LINE
  5
5C6
100
AcDbEntity
  8
LAY-9
  6
CONTINUOUS
 62
     1
100
AcDbLine
 10
702.977722
 20
415.215171
 30
0.0
 11
702.977722
 21
328.049622
 31
0.0
  0
LINE
  5
5C7
100
AcDbEntity
  8
LAY-9
  6
CONTINUOUS
 62
     1
100
AcDbLine
 10
701.377722
 20
328.049622
 30
0.0
 11
701.377722
 21
415.215171
 31
0.0
  0
LINE
  5
5C8
100
AcDbEntity
  8
LAY-9
  6
CONTINUOUS
 62
     1
100
AcDbLine
 10
664.577722
 20
407.81523
 30
0.0
 11
664.577722
 21
328.049622
 31
0.0
  0
LINE
  5
5C9
100
AcDbEntity
  8
LAY-9
  6
CONTINUOUS
 62
     1
100
AcDbLine
 10
661.577295
 20
443.215201
 30
0.0
 11
661.577295
 21
433.815201
 31
0.0
  0
LINE
  5
5CA
100
AcDbEntity
  8
LAY-9
  6
CONTINUOUS
 62
     1
100
AcDbLine
 10
661.577295
 20
424.815201
 30
0.0
 11
661.577295
 21
421.415201
 31
0.0
  0
LINE
  5
5CB
100
AcDbEntity
  8
LAY-9
  6
CONTINUOUS
 62
     1
100
AcDbLine
 10
704.977295
 20
424.815201
 30
0.0
 11
704.977295
 21
421.415201
 31
0.0
  0
LINE
  5
5CC
100
AcDbEntity
  8
LAY-9
  6
CONTINUOUS
 62
     1
100
AcDbLine
 10
704.977295
 20
419.815201
 30
0.0
 11
704.977295
 21
328.049622
 31
0.0
  0
LINE
  5
5CD
100
AcDbEntity
  8
LAY-9
  6
CONTINUOUS
 62
     1
100
AcDbLine
 10
659.977295
 20
328.049622
 30
0.0
 11
659.977295
 21
402.815231
 31
0.0
  0
LINE
  5
5CE
100
AcDbEntity
  8
LAY-9
  6
CONTINUOUS
 62
     1
100
AcDbLine
 10
659.977295
 20
416.815201
 30
0.0
 11
659.977295
 21
443.215201
 31
0.0
  0
LINE
  5
5CF
100
AcDbEntity
  8
LAY-9
  6
CONTINUOUS
 62
     1
100
AcDbLine
 10
661.476867
 20
213.965455
 30
0.0
 11
705.028472
 21
213.965455
 31
0.0
  0
LINE
  5
5D0
100
AcDbEntity
  8
LAY-9
  6
CONTINUOUS
 62
     1
100
AcDbLine
 10
705.028472
 20
213.965455
 30
0.0
 11
705.028472
 21
227.365455
 31
0.0
  0
LINE
  5
5D1
100
AcDbEntity
  8
LAY-9
  6
CONTINUOUS
 62
     1
100
AcDbLine
 10
706.628472
 20
228.965455
 30
0.0
 11
715.028472
 21
228.965455
 31
0.0
  0
LINE
  5
5D2
100
AcDbEntity
  8
LAY-9
  6
CONTINUOUS
 62
     1
100
AcDbLine
 10
706.628472
 20
227.365455
 30
0.0
 11
706.628472
 21
213.965455
 31
0.0
  0
LINE
  5
5D3
100
AcDbEntity
  8
LAY-9
  6
CONTINUOUS
 62
     1
100
AcDbLine
 10
705.028472
 20
212.365455
 30
0.0
 11
661.478472
 21
212.365455
 31
0.0
  0
LINE
  5
5D4
100
AcDbEntity
  8
LAY-9
  6
CONTINUOUS
 62
     1
100
AcDbLine
 10
715.028472
 20
227.365455
 30
0.0
 11
706.628472
 21
227.365455
 31
0.0
  0
LINE
  5
5D5
100
AcDbEntity
  8
LAY-9
  6
CONTINUOUS
 62
     1
100
AcDbLine
 10
659.928472
 20
188.965455
 30
0.0
 11
661.478472
 21
188.965455
 31
0.0
  0
ARC
  5
5D6
100
AcDbEntity
  8
LAY-9
  6
CONTINUOUS
 62
     1
100
AcDbCircle
 10
661.476867
 20
212.365455
 30
0.0
 40
1.6
100
AcDbArc
 50
90.0
 51
180.0
  0
ARC
  5
5D7
100
AcDbEntity
  8
LAY-9
  6
CONTINUOUS
 62
     1
100
AcDbCircle
 10
705.028472
 20
213.965455
 30
0.0
 40
1.6
100
AcDbArc
 50
270.0
 51
0.0
  0
ARC
  5
5D8
100
AcDbEntity
  8
LAY-9
  6
CONTINUOUS
 62
     1
100
AcDbCircle
 10
706.628472
 20
227.365455
 30
0.0
 40
1.6
100
AcDbArc
 50
90.0
 51
180.0
  0
LINE
  5
5D9
100
AcDbEntity
  8
LAY-9
  6
CONTINUOUS
 62
     1
100
AcDbLine
 10
661.478472
 20
212.365455
 30
0.0
 11
661.478472
 21
206.965515
 31
0.0
  0
LINE
  5
5DA
100
AcDbEntity
  8
LAY-9
  6
CONTINUOUS
 62
     1
100
AcDbLine
 10
661.478472
 20
197.965515
 30
0.0
 11
661.478472
 21
188.965455
 31
0.0
  0
LINE
  5
5DB
100
AcDbEntity
  8
LAY-9
  6
CONTINUOUS
 62
     1
100
AcDbLine
 10
702.977294
 20
219.965485
 30
0.0
 11
695.477356
 21
219.965485
 31
0.0
  0
LINE
  5
5DC
100
AcDbEntity
  8
LAY-9
  6
CONTINUOUS
 62
     1
100
AcDbLine
 10
694.068725
 20
228.965485
 30
0.0
 11
699.077294
 21
228.965485
 31
0.0
  0
LINE
  5
5DD
100
AcDbEntity
  8
LAY-9
  6
CONTINUOUS
 62
     1
100
AcDbLine
 10
666.877294
 20
233.465485
 30
0.0
 11
699.077294
 21
233.465485
 31
0.0
  0
LINE
  5
5DE
100
AcDbEntity
  8
LAY-9
  6
CONTINUOUS
 62
     1
100
AcDbLine
 10
666.877294
 20
235.765485
 30
0.0
 11
699.077294
 21
235.765485
 31
0.0
  0
LINE
  5
5DF
100
AcDbEntity
  8
LAY-9
  6
CONTINUOUS
 62
     1
100
AcDbLine
 10
666.877294
 20
233.465485
 30
0.0
 11
666.877294
 21
228.965485
 31
0.0
  0
ARC
  5
5E0
100
AcDbEntity
  8
LAY-9
  6
CONTINUOUS
 62
     1
100
AcDbCircle
 10
666.877294
 20
233.465485
 30
0.0
 40
2.3
100
AcDbArc
 50
90.0
 51
180.0
  0
LINE
  5
5E1
100
AcDbEntity
  8
LAY-9
  6
CONTINUOUS
 62
     1
100
AcDbLine
 10
699.077294
 20
233.465485
 30
0.0
 11
699.077294
 21
219.965485
 31
0.0
  0
ARC
  5
5E2
100
AcDbEntity
  8
LAY-9
  6
CONTINUOUS
 62
     1
100
AcDbCircle
 10
699.077294
 20
233.465485
 30
0.0
 40
2.3
100
AcDbArc
 50
0.0
 51
90.0
  0
LINE
  5
5E3
100
AcDbEntity
  8
LAY-9
  6
CONTINUOUS
 62
     1
100
AcDbLine
 10
694.726593
 20
206.965455
 30
0.0
 11
705.028472
 21
206.965455
 31
0.0
  0
LINE
  5
5E4
100
AcDbEntity
  8
LAY-9
  6
CONTINUOUS
 62
     1
100
AcDbLine
 10
705.028472
 20
206.965455
 30
0.0
 11
705.028472
 21
212.365455
 31
0.0
  0
LINE
  5
5E5
100
AcDbEntity
  8
LAY-9
  6
DIVIDE
 62
     1
100
AcDbLine
 10
658.551147
 20
322.999909
 30
0.0
 11
708.851147
 21
322.999909
 31
0.0
  0
LINE
  5
5E6
100
AcDbEntity
  8
LAY-9
  6
CONTINUOUS
 62
     1
100
AcDbLine
 10
662.977294
 20
322.999909
 30
0.0
 11
662.977294
 21
219.965485
 31
0.0
  0
LINE
  5
5E7
100
AcDbEntity
  8
LAY-9
  6
CONTINUOUS
 62
     1
100
AcDbLine
 10
702.977294
 20
322.999909
 30
0.0
 11
702.977294
 21
219.965485
 31
0.0
  0
LINE
  5
5E8
100
AcDbEntity
  8
LAY-9
  6
CONTINUOUS
 62
     1
100
AcDbLine
 10
701.377294
 20
219.965485
 30
0.0
 11
701.377294
 21
322.999909
 31
0.0
  0
LINE
  5
5E9
100
AcDbEntity
  8
LAY-9
  6
CONTINUOUS
 62
     1
100
AcDbLine
 10
664.577294
 20
322.999909
 30
0.0
 11
664.577294
 21
228.965485
 31
0.0
  0
LINE
  5
5EA
100
AcDbEntity
  8
LAY-9
  6
CONTINUOUS
 62
     1
100
AcDbLine
 10
659.976867
 20
233.965485
 30
0.0
 11
659.976867
 21
322.999909
 31
0.0
  0
LINE
  5
5EB
100
AcDbEntity
  8
LAY-9
  6
CONTINUOUS
 62
     1
100
AcDbLine
 10
704.976867
 20
322.999909
 30
0.0
 11
704.976867
 21
227.365455
 31
0.0
  0
LINE
  5
5EC
100
AcDbEntity
  8
LAY-9
  6
CONTINUOUS
 62
     1
100
AcDbLine
 10
659.876867
 20
211.965546
 30
0.0
 11
659.876867
 21
219.965485
 31
0.0
  0
LINE
  5
5ED
100
AcDbEntity
  8
LAY-9
  6
CONTINUOUS
 62
     1
100
AcDbLine
 10
627.978472
 20
211.965455
 30
0.0
 11
575.051147
 21
211.965455
 31
0.0
  0
LINE
  5
5EE
100
AcDbEntity
  8
LAY-9
  6
CONTINUOUS
 62
     1
100
AcDbLine
 10
698.477325
 20
424.815201
 30
0.0
 11
704.977295
 21
424.815201
 31
0.0
  0
LINE
  5
5EF
100
AcDbEntity
  8
LAY-9
  6
CONTINUOUS
 62
     1
100
AcDbLine
 10
659.878472
 20
197.965546
 30
0.0
 11
659.878472
 21
188.965455
 31
0.0
  0
POLYLINE
  5
5F0
100
AcDbEntity
  8
LAY-9
  6
CONTINUOUS
 62
     1
100
AcDb2dPolyline
 66
     1
 10
0.0
 20
0.0
 30
0.0
 70
   128
  0
VERTEX
  5
5F1
100
AcDbEntity
  8
LAY-9
  6
CONTINUOUS
 62
     1
100
AcDbVertex
100
AcDb2dVertex
 10
575.051147
 20
211.965455
 30
0.0
  0
VERTEX
  5
5F2
100
AcDbEntity
  8
LAY-9
  6
CONTINUOUS
 62
     1
100
AcDbVertex
100
AcDb2dVertex
 10
575.024056
 20
211.897278
 30
0.0
  0
VERTEX
  5
5F3
100
AcDbEntity
  8
LAY-9
  6
CONTINUOUS
 62
     1
100
AcDbVertex
100
AcDb2dVertex
 10
574.949323
 20
211.703602
 30
0.0
  0
VERTEX
  5
5F4
100
AcDbEntity
  8
LAY-9
  6
CONTINUOUS
 62
     1
100
AcDbVertex
100
AcDb2dVertex
 10
574.836756
 20
211.400711
 30
0.0
  0
VERTEX
  5
5F5
100
AcDbEntity
  8
LAY-9
  6
CONTINUOUS
 62
     1
100
AcDbVertex
100
AcDb2dVertex
 10
574.696162
 20
211.00489
 30
0.0
  0
VERTEX
  5
5F6
100
AcDbEntity
  8
LAY-9
  6
CONTINUOUS
 62
     1
100
AcDbVertex
100
AcDb2dVertex
 10
574.537351
 20
210.532421
 30
0.0
  0
VERTEX
  5
5F7
100
AcDbEntity
  8
LAY-9
  6
CONTINUOUS
 62
     1
100
AcDbVertex
100
AcDb2dVertex
 10
574.370128
 20
209.999589
 30
0.0
  0
VERTEX
  5
5F8
100
AcDbEntity
  8
LAY-9
  6
CONTINUOUS
 62
     1
100
AcDbVertex
100
AcDb2dVertex
 10
574.204304
 20
209.422677
 30
0.0
  0
VERTEX
  5
5F9
100
AcDbEntity
  8
LAY-9
  6
CONTINUOUS
 62
     1
100
AcDbVertex
100
AcDb2dVertex
 10
574.049686
 20
208.817969
 30
0.0
  0
VERTEX
  5
5FA
100
AcDbEntity
  8
LAY-9
  6
CONTINUOUS
 62
     1
100
AcDbVertex
100
AcDb2dVertex
 10
573.916081
 20
208.201749
 30
0.0
  0
VERTEX
  5
5FB
100
AcDbEntity
  8
LAY-9
  6
CONTINUOUS
 62
     1
100
AcDbVertex
100
AcDb2dVertex
 10
573.813299
 20
207.590301
 30
0.0
  0
VERTEX
  5
5FC
100
AcDbEntity
  8
LAY-9
  6
CONTINUOUS
 62
     1
100
AcDbVertex
100
AcDb2dVertex
 10
573.751147
 20
206.999909
 30
0.0
  0
VERTEX
  5
5FD
100
AcDbEntity
  8
LAY-9
  6
CONTINUOUS
 62
     1
100
AcDbVertex
100
AcDb2dVertex
 10
573.736076
 20
206.506478
 30
0.0
  0
VERTEX
  5
5FE
100
AcDbEntity
  8
LAY-9
  6
CONTINUOUS
 62
     1
100
AcDbVertex
100
AcDb2dVertex
 10
573.756294
 20
206.039584
 30
0.0
  0
VERTEX
  5
5FF
100
AcDbEntity
  8
LAY-9
  6
CONTINUOUS
 62
     1
100
AcDbVertex
100
AcDb2dVertex
 10
573.807708
 20
205.596608
 30
0.0
  0
VERTEX
  5
600
100
AcDbEntity
  8
LAY-9
  6
CONTINUOUS
 62
     1
100
AcDbVertex
100
AcDb2dVertex
 10
573.886227
 20
205.174935
 30
0.0
  0
VERTEX
  5
601
100
AcDbEntity
  8
LAY-9
  6
CONTINUOUS
 62
     1
100
AcDbVertex
100
AcDb2dVertex
 10
573.987761
 20
204.771949
 30
0.0
  0
VERTEX
  5
602
100
AcDbEntity
  8
LAY-9
  6
CONTINUOUS
 62
     1
100
AcDbVertex
100
AcDb2dVertex
 10
574.108218
 20
204.385032
 30
0.0
  0
VERTEX
  5
603
100
AcDbEntity
  8
LAY-9
  6
CONTINUOUS
 62
     1
100
AcDbVertex
100
AcDb2dVertex
 10
574.243506
 20
204.011568
 30
0.0
  0
VERTEX
  5
604
100
AcDbEntity
  8
LAY-9
  6
CONTINUOUS
 62
     1
100
AcDbVertex
100
AcDb2dVertex
 10
574.389534
 20
203.64894
 30
0.0
  0
VERTEX
  5
605
100
AcDbEntity
  8
LAY-9
  6
CONTINUOUS
 62
     1
100
AcDbVertex
100
AcDb2dVertex
 10
574.542211
 20
203.294532
 30
0.0
  0
VERTEX
  5
606
100
AcDbEntity
  8
LAY-9
  6
CONTINUOUS
 62
     1
100
AcDbVertex
100
AcDb2dVertex
 10
574.697446
 20
202.945727
 30
0.0
  0
VERTEX
  5
607
100
AcDbEntity
  8
LAY-9
  6
CONTINUOUS
 62
     1
100
AcDbVertex
100
AcDb2dVertex
 10
574.851147
 20
202.599909
 30
0.0
  0
VERTEX
  5
608
100
AcDbEntity
  8
LAY-9
  6
CONTINUOUS
 62
     1
100
AcDbVertex
100
AcDb2dVertex
 10
575.052632
 20
202.127771
 30
0.0
  0
VERTEX
  5
609
100
AcDbEntity
  8
LAY-9
  6
CONTINUOUS
 62
     1
100
AcDbVertex
100
AcDb2dVertex
 10
575.241163
 20
201.652031
 30
0.0
  0
VERTEX
  5
60A
100
AcDbEntity
  8
LAY-9
  6
CONTINUOUS
 62
     1
100
AcDbVertex
100
AcDb2dVertex
 10
575.414293
 20
201.168395
 30
0.0
  0
VERTEX
  5
60B
100
AcDbEntity
  8
LAY-9
  6
CONTINUOUS
 62
     1
100
AcDbVertex
100
AcDb2dVertex
 10
575.569573
 20
200.672572
 30
0.0
  0
VERTEX
  5
60C
100
AcDbEntity
  8
LAY-9
  6
CONTINUOUS
 62
     1
100
AcDbVertex
100
AcDb2dVertex
 10
575.704556
 20
200.160267
 30
0.0
  0
VERTEX
  5
60D
100
AcDbEntity
  8
LAY-9
  6
CONTINUOUS
 62
     1
100
AcDbVertex
100
AcDb2dVertex
 10
575.816795
 20
199.627187
 30
0.0
  0
VERTEX
  5
60E
100
AcDbEntity
  8
LAY-9
  6
CONTINUOUS
 62
     1
100
AcDbVertex
100
AcDb2dVertex
 10
575.903841
 20
199.069039
 30
0.0
  0
VERTEX
  5
60F
100
AcDbEntity
  8
LAY-9
  6
CONTINUOUS
 62
     1
100
AcDbVertex
100
AcDb2dVertex
 10
575.963247
 20
198.481531
 30
0.0
  0
VERTEX
  5
610
100
AcDbEntity
  8
LAY-9
  6
CONTINUOUS
 62
     1
100
AcDbVertex
100
AcDb2dVertex
 10
575.992565
 20
197.860369
 30
0.0
  0
VERTEX
  5
611
100
AcDbEntity
  8
LAY-9
  6
CONTINUOUS
 62
     1
100
AcDbVertex
100
AcDb2dVertex
 10
575.989348
 20
197.201259
 30
0.0
  0
VERTEX
  5
612
100
AcDbEntity
  8
LAY-9
  6
CONTINUOUS
 62
     1
100
AcDbVertex
100
AcDb2dVertex
 10
575.951147
 20
196.499909
 30
0.0
  0
VERTEX
  5
613
100
AcDbEntity
  8
LAY-9
  6
CONTINUOUS
 62
     1
100
AcDbVertex
100
AcDb2dVertex
 10
575.890424
 20
195.869434
 30
0.0
  0
VERTEX
  5
614
100
AcDbEntity
  8
LAY-9
  6
CONTINUOUS
 62
     1
100
AcDbVertex
100
AcDb2dVertex
 10
575.808296
 20
195.221547
 30
0.0
  0
VERTEX
  5
615
100
AcDbEntity
  8
LAY-9
  6
CONTINUOUS
 62
     1
100
AcDbVertex
100
AcDb2dVertex
 10
575.710493
 20
194.57257
 30
0.0
  0
VERTEX
  5
616
100
AcDbEntity
  8
LAY-9
  6
CONTINUOUS
 62
     1
100
AcDbVertex
100
AcDb2dVertex
 10
575.602741
 20
193.938822
 30
0.0
  0
VERTEX
  5
617
100
AcDbEntity
  8
LAY-9
  6
CONTINUOUS
 62
     1
100
AcDbVertex
100
AcDb2dVertex
 10
575.490771
 20
193.336623
 30
0.0
  0
VERTEX
  5
618
100
AcDbEntity
  8
LAY-9
  6
CONTINUOUS
 62
     1
100
AcDbVertex
100
AcDb2dVertex
 10
575.38031
 20
192.782295
 30
0.0
  0
VERTEX
  5
619
100
AcDbEntity
  8
LAY-9
  6
CONTINUOUS
 62
     1
100
AcDbVertex
100
AcDb2dVertex
 10
575.277088
 20
192.292157
 30
0.0
  0
VERTEX
  5
61A
100
AcDbEntity
  8
LAY-9
  6
CONTINUOUS
 62
     1
100
AcDbVertex
100
AcDb2dVertex
 10
575.186831
 20
191.882529
 30
0.0
  0
VERTEX
  5
61B
100
AcDbEntity
  8
LAY-9
  6
CONTINUOUS
 62
     1
100
AcDbVertex
100
AcDb2dVertex
 10
575.11527
 20
191.569731
 30
0.0
  0
VERTEX
  5
61C
100
AcDbEntity
  8
LAY-9
  6
CONTINUOUS
 62
     1
100
AcDbVertex
100
AcDb2dVertex
 10
575.068133
 20
191.370085
 30
0.0
  0
VERTEX
  5
61D
100
AcDbEntity
  8
LAY-9
  6
CONTINUOUS
 62
     1
100
AcDbVertex
100
AcDb2dVertex
 10
575.051147
 20
191.299909
 30
0.0
  0
SEQEND
  5
61E
100
AcDbEntity
  8
LAY-9
  6
CONTINUOUS
 62
     1
  0
LINE
  5
61F
100
AcDbEntity
  8
LAY-9
  6
CONTINUOUS
 62
     1
100
AcDbLine
 10
317.503375
 20
393.591363
 30
0.0
 11
317.503371
 21
430.391363
 31
0.0
  0
LINE
  5
620
100
AcDbEntity
  8
LAY-9
  6
CONTINUOUS
 62
     1
100
AcDbLine
 10
319.103371
 20
431.991363
 30
0.0
 11
457.503371
 21
431.991363
 31
0.0
  0
ARC
  5
621
100
AcDbEntity
  8
LAY-9
  6
CONTINUOUS
 62
     1
100
AcDbCircle
 10
319.103371
 20
430.391363
 30
0.0
 40
1.6
100
AcDbArc
 50
90.0
 51
180.000006
  0
ARC
  5
622
100
AcDbEntity
  8
LAY-9
  6
CONTINUOUS
 62
     1
100
AcDbCircle
 10
319.103375
 20
393.591363
 30
0.0
 40
1.6
100
AcDbArc
 50
180.000006
 51
270.0
  0
POLYLINE
  5
623
100
AcDbEntity
  8
LAY-9
  6
CONTINUOUS
 62
     1
100
AcDb2dPolyline
 66
     1
 10
0.0
 20
0.0
 30
0.0
 70
   128
  0
VERTEX
  5
624
100
AcDbEntity
  8
LAY-9
  6
CONTINUOUS
 62
     1
100
AcDbVertex
100
AcDb2dVertex
 10
457.503371
 20
431.991363
 30
0.0
  0
VERTEX
  5
625
100
AcDbEntity
  8
LAY-9
  6
CONTINUOUS
 62
     1
100
AcDbVertex
100
AcDb2dVertex
 10
457.542158
 20
431.909746
 30
0.0
  0
VERTEX
  5
626
100
AcDbEntity
  8
LAY-9
  6
CONTINUOUS
 62
     1
100
AcDbVertex
100
AcDb2dVertex
 10
457.650926
 20
431.67667
 30
0.0
  0
VERTEX
  5
627
100
AcDbEntity
  8
LAY-9
  6
CONTINUOUS
 62
     1
100
AcDbVertex
100
AcDb2dVertex
 10
457.818288
 20
431.309795
 30
0.0
  0
VERTEX
  5
628
100
AcDbEntity
  8
LAY-9
  6
CONTINUOUS
 62
     1
100
AcDbVertex
100
AcDb2dVertex
 10
458.032856
 20
430.826783
 30
0.0
  0
VERTEX
  5
629
100
AcDbEntity
  8
LAY-9
  6
CONTINUOUS
 62
     1
100
AcDbVertex
100
AcDb2dVertex
 10
458.283241
 20
430.245295
 30
0.0
  0
VERTEX
  5
62A
100
AcDbEntity
  8
LAY-9
  6
CONTINUOUS
 62
     1
100
AcDbVertex
100
AcDb2dVertex
 10
458.558055
 20
429.58299
 30
0.0
  0
VERTEX
  5
62B
100
AcDbEntity
  8
LAY-9
  6
CONTINUOUS
 62
     1
100
AcDbVertex
100
AcDb2dVertex
 10
458.845911
 20
428.857532
 30
0.0
  0
VERTEX
  5
62C
100
AcDbEntity
  8
LAY-9
  6
CONTINUOUS
 62
     1
100
AcDbVertex
100
AcDb2dVertex
 10
459.135419
 20
428.08658
 30
0.0
  0
VERTEX
  5
62D
100
AcDbEntity
  8
LAY-9
  6
CONTINUOUS
 62
     1
100
AcDbVertex
100
AcDb2dVertex
 10
459.415193
 20
427.287795
 30
0.0
  0
VERTEX
  5
62E
100
AcDbEntity
  8
LAY-9
  6
CONTINUOUS
 62
     1
100
AcDbVertex
100
AcDb2dVertex
 10
459.673844
 20
426.478839
 30
0.0
  0
VERTEX
  5
62F
100
AcDbEntity
  8
LAY-9
  6
CONTINUOUS
 62
     1
100
AcDbVertex
100
AcDb2dVertex
 10
459.899983
 20
425.677373
 30
0.0
  0
VERTEX
  5
630
100
AcDbEntity
  8
LAY-9
  6
CONTINUOUS
 62
     1
100
AcDbVertex
100
AcDb2dVertex
 10
460.230888
 20
424.119982
 30
0.0
  0
VERTEX
  5
631
100
AcDbEntity
  8
LAY-9
  6
CONTINUOUS
 62
     1
100
AcDbVertex
100
AcDb2dVertex
 10
460.398621
 20
422.656852
 30
0.0
  0
VERTEX
  5
632
100
AcDbEntity
  8
LAY-9
  6
CONTINUOUS
 62
     1
100
AcDbVertex
100
AcDb2dVertex
 10
460.420967
 20
421.27857
 30
0.0
  0
VERTEX
  5
633
100
AcDbEntity
  8
LAY-9
  6
CONTINUOUS
 62
     1
100
AcDbVertex
100
AcDb2dVertex
 10
460.315711
 20
419.975724
 30
0.0
  0
VERTEX
  5
634
100
AcDbEntity
  8
LAY-9
  6
CONTINUOUS
 62
     1
100
AcDbVertex
100
AcDb2dVertex
 10
460.100637
 20
418.738901
 30
0.0
  0
VERTEX
  5
635
100
AcDbEntity
  8
LAY-9
  6
CONTINUOUS
 62
     1
100
AcDbVertex
100
AcDb2dVertex
 10
459.79353
 20
417.55869
 30
0.0
  0
VERTEX
  5
636
100
AcDbEntity
  8
LAY-9
  6
CONTINUOUS
 62
     1
100
AcDbVertex
100
AcDb2dVertex
 10
459.412176
 20
416.425678
 30
0.0
  0
VERTEX
  5
637
100
AcDbEntity
  8
LAY-9
  6
CONTINUOUS
 62
     1
100
AcDbVertex
100
AcDb2dVertex
 10
458.97436
 20
415.330453
 30
0.0
  0
VERTEX
  5
638
100
AcDbEntity
  8
LAY-9
  6
CONTINUOUS
 62
     1
100
AcDbVertex
100
AcDb2dVertex
 10
458.497865
 20
414.263602
 30
0.0
  0
VERTEX
  5
639
100
AcDbEntity
  8
LAY-9
  6
CONTINUOUS
 62
     1
100
AcDbVertex
100
AcDb2dVertex
 10
458.000478
 20
413.215713
 30
0.0
  0
VERTEX
  5
63A
100
AcDbEntity
  8
LAY-9
  6
CONTINUOUS
 62
     1
100
AcDbVertex
100
AcDb2dVertex
 10
457.499983
 20
412.177373
 30
0.0
  0
VERTEX
  5
63B
100
AcDbEntity
  8
LAY-9
  6
CONTINUOUS
 62
     1
100
AcDbVertex
100
AcDb2dVertex
 10
457.072724
 20
411.268516
 30
0.0
  0
VERTEX
  5
63C
100
AcDbEntity
  8
LAY-9
  6
CONTINUOUS
 62
     1
100
AcDbVertex
100
AcDb2dVertex
 10
456.665262
 20
410.351545
 30
0.0
  0
VERTEX
  5
63D
100
AcDbEntity
  8
LAY-9
  6
CONTINUOUS
 62
     1
100
AcDbVertex
100
AcDb2dVertex
 10
456.286151
 20
409.418239
 30
0.0
  0
VERTEX
  5
63E
100
AcDbEntity
  8
LAY-9
  6
CONTINUOUS
 62
     1
100
AcDbVertex
100
AcDb2dVertex
 10
455.943941
 20
408.460379
 30
0.0
  0
VERTEX
  5
63F
100
AcDbEntity
  8
LAY-9
  6
CONTINUOUS
 62
     1
100
AcDbVertex
100
AcDb2dVertex
 10
455.647183
 20
407.469745
 30
0.0
  0
VERTEX
  5
640
100
AcDbEntity
  8
LAY-9
  6
CONTINUOUS
 62
     1
100
AcDbVertex
100
AcDb2dVertex
 10
455.404427
 20
406.438117
 30
0.0
  0
VERTEX
  5
641
100
AcDbEntity
  8
LAY-9
  6
CONTINUOUS
 62
     1
100
AcDbVertex
100
AcDb2dVertex
 10
455.224226
 20
405.357275
 30
0.0
  0
VERTEX
  5
642
100
AcDbEntity
  8
LAY-9
  6
CONTINUOUS
 62
     1
100
AcDbVertex
100
AcDb2dVertex
 10
455.11513
 20
404.218999
 30
0.0
  0
VERTEX
  5
643
100
AcDbEntity
  8
LAY-9
  6
CONTINUOUS
 62
     1
100
AcDbVertex
100
AcDb2dVertex
 10
455.08569
 20
403.01507
 30
0.0
  0
VERTEX
  5
644
100
AcDbEntity
  8
LAY-9
  6
CONTINUOUS
 62
     1
100
AcDbVertex
100
AcDb2dVertex
 10
455.144457
 20
401.737268
 30
0.0
  0
VERTEX
  5
645
100
AcDbEntity
  8
LAY-9
  6
CONTINUOUS
 62
     1
100
AcDbVertex
100
AcDb2dVertex
 10
455.299983
 20
400.377373
 30
0.0
  0
VERTEX
  5
646
100
AcDbEntity
  8
LAY-9
  6
CONTINUOUS
 62
     1
100
AcDbVertex
100
AcDb2dVertex
 10
455.474732
 20
399.344078
 30
0.0
  0
VERTEX
  5
647
100
AcDbEntity
  8
LAY-9
  6
CONTINUOUS
 62
     1
100
AcDbVertex
100
AcDb2dVertex
 10
455.691971
 20
398.288986
 30
0.0
  0
VERTEX
  5
648
100
AcDbEntity
  8
LAY-9
  6
CONTINUOUS
 62
     1
100
AcDbVertex
100
AcDb2dVertex
 10
455.939241
 20
397.237425
 30
0.0
  0
VERTEX
  5
649
100
AcDbEntity
  8
LAY-9
  6
CONTINUOUS
 62
     1
100
AcDbVertex
100
AcDb2dVertex
 10
456.204083
 20
396.214722
 30
0.0
  0
VERTEX
  5
64A
100
AcDbEntity
  8
LAY-9
  6
CONTINUOUS
 62
     1
100
AcDbVertex
100
AcDb2dVertex
 10
456.474036
 20
395.246205
 30
0.0
  0
VERTEX
  5
64B
100
AcDbEntity
  8
LAY-9
  6
CONTINUOUS
 62
     1
100
AcDbVertex
100
AcDb2dVertex
 10
456.736642
 20
394.357202
 30
0.0
  0
VERTEX
  5
64C
100
AcDbEntity
  8
LAY-9
  6
CONTINUOUS
 62
     1
100
AcDbVertex
100
AcDb2dVertex
 10
456.979441
 20
393.57304
 30
0.0
  0
VERTEX
  5
64D
100
AcDbEntity
  8
LAY-9
  6
CONTINUOUS
 62
     1
100
AcDbVertex
100
AcDb2dVertex
 10
457.189973
 20
392.919048
 30
0.0
  0
VERTEX
  5
64E
100
AcDbEntity
  8
LAY-9
  6
CONTINUOUS
 62
     1
100
AcDbVertex
100
AcDb2dVertex
 10
457.355779
 20
392.420553
 30
0.0
  0
VERTEX
  5
64F
100
AcDbEntity
  8
LAY-9
  6
CONTINUOUS
 62
     1
100
AcDbVertex
100
AcDb2dVertex
 10
457.4644
 20
392.102882
 30
0.0
  0
VERTEX
  5
650
100
AcDbEntity
  8
LAY-9
  6
CONTINUOUS
 62
     1
100
AcDbVertex
100
AcDb2dVertex
 10
457.503375
 20
391.991363
 30
0.0
  0
SEQEND
  5
651
100
AcDbEntity
  8
LAY-9
  6
CONTINUOUS
 62
     1
  0
LINE
  5
652
100
AcDbEntity
  8
LAY-9
  6
CONTINUOUS
 62
     1
100
AcDbLine
 10
314.503389
 20
223.661316
 30
0.0
 11
314.503389
 21
267.061316
 31
0.0
  0
LINE
  5
653
100
AcDbEntity
  8
LAY-9
  6
CONTINUOUS
 62
     1
100
AcDbLine
 10
314.503389
 20
267.061316
 30
0.0
 11
327.903389
 21
267.061316
 31
0.0
  0
LINE
  5
654
100
AcDbEntity
  8
LAY-9
  6
CONTINUOUS
 62
     1
100
AcDbLine
 10
289.503389
 20
223.661316
 30
0.0
 11
289.503389
 21
237.061316
 31
0.0
  0
LINE
  5
655
100
AcDbEntity
  8
LAY-9
  6
CONTINUOUS
 62
     1
100
AcDbLine
 10
289.503389
 20
237.061316
 30
0.0
 11
291.103389
 21
237.061316
 31
0.0
  0
LINE
  5
656
100
AcDbEntity
  8
LAY-9
  6
CONTINUOUS
 62
     1
100
AcDbLine
 10
291.103389
 20
223.661316
 30
0.0
 11
312.903389
 21
223.661316
 31
0.0
  0
LINE
  5
657
100
AcDbEntity
  8
LAY-9
  6
CONTINUOUS
 62
     1
100
AcDbLine
 10
312.903389
 20
223.661316
 30
0.0
 11
312.903389
 21
267.061316
 31
0.0
  0
LINE
  5
658
100
AcDbEntity
  8
LAY-9
  6
CONTINUOUS
 62
     1
100
AcDbLine
 10
314.503389
 20
268.661316
 30
0.0
 11
327.903389
 21
268.661316
 31
0.0
  0
LINE
  5
659
100
AcDbEntity
  8
LAY-9
  6
CONTINUOUS
 62
     1
100
AcDbLine
 10
291.103389
 20
237.061316
 30
0.0
 11
291.103389
 21
223.661316
 31
0.0
  0
ARC
  5
65A
100
AcDbEntity
  8
LAY-9
  6
CONTINUOUS
 62
     1
100
AcDbCircle
 10
327.903389
 20
268.661316
 30
0.0
 40
1.6
100
AcDbArc
 50
270.0
 51
0.0
  0
ARC
  5
65B
100
AcDbEntity
  8
LAY-9
  6
CONTINUOUS
 62
     1
100
AcDbCircle
 10
314.503389
 20
267.061316
 30
0.0
 40
1.6
100
AcDbArc
 50
90.0
 51
180.0
  0
ARC
  5
65C
100
AcDbEntity
  8
LAY-9
  6
CONTINUOUS
 62
     1
100
AcDbCircle
 10
312.903389
 20
223.661316
 30
0.0
 40
1.6
100
AcDbArc
 50
270.0
 51
0.0
  0
ARC
  5
65D
100
AcDbEntity
  8
LAY-9
  6
CONTINUOUS
 62
     1
100
AcDbCircle
 10
291.103389
 20
223.661316
 30
0.0
 40
1.6
100
AcDbArc
 50
180.0
 51
270.0
  0
POLYLINE
  5
65E
100
AcDbEntity
  8
LAY-9
  6
CONTINUOUS
 62
     1
100
AcDb2dPolyline
 66
     1
 10
0.0
 20
0.0
 30
0.0
 70
   128
  0
VERTEX
  5
65F
100
AcDbEntity
  8
LAY-9
  6
CONTINUOUS
 62
     1
100
AcDbVertex
100
AcDb2dVertex
 10
432.400008
 20
263.061316
 30
0.0
  0
VERTEX
  5
660
100
AcDbEntity
  8
LAY-9
  6
CONTINUOUS
 62
     1
100
AcDbVertex
100
AcDb2dVertex
 10
432.453808
 20
262.931381
 30
0.0
  0
VERTEX
  5
661
100
AcDbEntity
  8
LAY-9
  6
CONTINUOUS
 62
     1
100
AcDbVertex
100
AcDb2dVertex
 10
432.602946
 20
262.561771
 30
0.0
  0
VERTEX
  5
662
100
AcDbEntity
  8
LAY-9
  6
CONTINUOUS
 62
     1
100
AcDbVertex
100
AcDb2dVertex
 10
432.829024
 20
261.982774
 30
0.0
  0
VERTEX
  5
663
100
AcDbEntity
  8
LAY-9
  6
CONTINUOUS
 62
     1
100
AcDbVertex
100
AcDb2dVertex
 10
433.113648
 20
261.224679
 30
0.0
  0
VERTEX
  5
664
100
AcDbEntity
  8
LAY-9
  6
CONTINUOUS
 62
     1
100
AcDbVertex
100
AcDb2dVertex
 10
433.43842
 20
260.317777
 30
0.0
  0
VERTEX
  5
665
100
AcDbEntity
  8
LAY-9
  6
CONTINUOUS
 62
     1
100
AcDbVertex
100
AcDb2dVertex
 10
433.784945
 20
259.292356
 30
0.0
  0
VERTEX
  5
666
100
AcDbEntity
  8
LAY-9
  6
CONTINUOUS
 62
     1
100
AcDbVertex
100
AcDb2dVertex
 10
434.134828
 20
258.178706
 30
0.0
  0
VERTEX
  5
667
100
AcDbEntity
  8
LAY-9
  6
CONTINUOUS
 62
     1
100
AcDbVertex
100
AcDb2dVertex
 10
434.469671
 20
257.007116
 30
0.0
  0
VERTEX
  5
668
100
AcDbEntity
  8
LAY-9
  6
CONTINUOUS
 62
     1
100
AcDbVertex
100
AcDb2dVertex
 10
434.77108
 20
255.807875
 30
0.0
  0
VERTEX
  5
669
100
AcDbEntity
  8
LAY-9
  6
CONTINUOUS
 62
     1
100
AcDbVertex
100
AcDb2dVertex
 10
435.020657
 20
254.611273
 30
0.0
  0
VERTEX
  5
66A
100
AcDbEntity
  8
LAY-9
  6
CONTINUOUS
 62
     1
100
AcDbVertex
100
AcDb2dVertex
 10
435.200008
 20
253.4476
 30
0.0
  0
VERTEX
  5
66B
100
AcDbEntity
  8
LAY-9
  6
CONTINUOUS
 62
     1
100
AcDbVertex
100
AcDb2dVertex
 10
435.300042
 20
252.228975
 30
0.0
  0
VERTEX
  5
66C
100
AcDbEntity
  8
LAY-9
  6
CONTINUOUS
 62
     1
100
AcDbVertex
100
AcDb2dVertex
 10
435.301252
 20
251.080493
 30
0.0
  0
VERTEX
  5
66D
100
AcDbEntity
  8
LAY-9
  6
CONTINUOUS
 62
     1
100
AcDbVertex
100
AcDb2dVertex
 10
435.21294
 20
249.995166
 30
0.0
  0
VERTEX
  5
66E
100
AcDbEntity
  8
LAY-9
  6
CONTINUOUS
 62
     1
100
AcDbVertex
100
AcDb2dVertex
 10
435.044409
 20
248.966006
 30
0.0
  0
VERTEX
  5
66F
100
AcDbEntity
  8
LAY-9
  6
CONTINUOUS
 62
     1
100
AcDbVertex
100
AcDb2dVertex
 10
434.804962
 20
247.986026
 30
0.0
  0
VERTEX
  5
670
100
AcDbEntity
  8
LAY-9
  6
CONTINUOUS
 62
     1
100
AcDbVertex
100
AcDb2dVertex
 10
434.503902
 20
247.048238
 30
0.0
  0
VERTEX
  5
671
100
AcDbEntity
  8
LAY-9
  6
CONTINUOUS
 62
     1
100
AcDbVertex
100
AcDb2dVertex
 10
434.150532
 20
246.145654
 30
0.0
  0
VERTEX
  5
672
100
AcDbEntity
  8
LAY-9
  6
CONTINUOUS
 62
     1
100
AcDbVertex
100
AcDb2dVertex
 10
433.754155
 20
245.271285
 30
0.0
  0
VERTEX
  5
673
100
AcDbEntity
  8
LAY-9
  6
CONTINUOUS
 62
     1
100
AcDbVertex
100
AcDb2dVertex
 10
433.324073
 20
244.418146
 30
0.0
  0
VERTEX
  5
674
100
AcDbEntity
  8
LAY-9
  6
CONTINUOUS
 62
     1
100
AcDbVertex
100
AcDb2dVertex
 10
432.86959
 20
243.579246
 30
0.0
  0
VERTEX
  5
675
100
AcDbEntity
  8
LAY-9
  6
CONTINUOUS
 62
     1
100
AcDbVertex
100
AcDb2dVertex
 10
432.400008
 20
242.7476
 30
0.0
  0
VERTEX
  5
676
100
AcDbEntity
  8
LAY-9
  6
CONTINUOUS
 62
     1
100
AcDbVertex
100
AcDb2dVertex
 10
431.8759
 20
241.830507
 30
0.0
  0
VERTEX
  5
677
100
AcDbEntity
  8
LAY-9
  6
CONTINUOUS
 62
     1
100
AcDbVertex
100
AcDb2dVertex
 10
431.358618
 20
240.905874
 30
0.0
  0
VERTEX
  5
678
100
AcDbEntity
  8
LAY-9
  6
CONTINUOUS
 62
     1
100
AcDbVertex
100
AcDb2dVertex
 10
430.862038
 20
239.965839
 30
0.0
  0
VERTEX
  5
679
100
AcDbEntity
  8
LAY-9
  6
CONTINUOUS
 62
     1
100
AcDbVertex
100
AcDb2dVertex
 10
430.400039
 20
239.002539
 30
0.0
  0
VERTEX
  5
67A
100
AcDbEntity
  8
LAY-9
  6
CONTINUOUS
 62
     1
100
AcDbVertex
100
AcDb2dVertex
 10
429.986498
 20
238.008113
 30
0.0
  0
VERTEX
  5
67B
100
AcDbEntity
  8
LAY-9
  6
CONTINUOUS
 62
     1
100
AcDbVertex
100
AcDb2dVertex
 10
429.635292
 20
236.974697
 30
0.0
  0
VERTEX
  5
67C
100
AcDbEntity
  8
LAY-9
  6
CONTINUOUS
 62
     1
100
AcDbVertex
100
AcDb2dVertex
 10
429.360299
 20
235.89443
 30
0.0
  0
VERTEX
  5
67D
100
AcDbEntity
  8
LAY-9
  6
CONTINUOUS
 62
     1
100
AcDbVertex
100
AcDb2dVertex
 10
429.175396
 20
234.759449
 30
0.0
  0
VERTEX
  5
67E
100
AcDbEntity
  8
LAY-9
  6
CONTINUOUS
 62
     1
100
AcDbVertex
100
AcDb2dVertex
 10
429.094462
 20
233.561892
 30
0.0
  0
VERTEX
  5
67F
100
AcDbEntity
  8
LAY-9
  6
CONTINUOUS
 62
     1
100
AcDbVertex
100
AcDb2dVertex
 10
429.131374
 20
232.293896
 30
0.0
  0
VERTEX
  5
680
100
AcDbEntity
  8
LAY-9
  6
CONTINUOUS
 62
     1
100
AcDbVertex
100
AcDb2dVertex
 10
429.300008
 20
230.9476
 30
0.0
  0
VERTEX
  5
681
100
AcDbEntity
  8
LAY-9
  6
CONTINUOUS
 62
     1
100
AcDbVertex
100
AcDb2dVertex
 10
429.524656
 20
229.855702
 30
0.0
  0
VERTEX
  5
682
100
AcDbEntity
  8
LAY-9
  6
CONTINUOUS
 62
     1
100
AcDbVertex
100
AcDb2dVertex
 10
429.817144
 20
228.739551
 30
0.0
  0
VERTEX
  5
683
100
AcDbEntity
  8
LAY-9
  6
CONTINUOUS
 62
     1
100
AcDbVertex
100
AcDb2dVertex
 10
430.158671
 20
227.62617
 30
0.0
  0
VERTEX
  5
684
100
AcDbEntity
  8
LAY-9
  6
CONTINUOUS
 62
     1
100
AcDbVertex
100
AcDb2dVertex
 10
430.530434
 20
226.542578
 30
0.0
  0
VERTEX
  5
685
100
AcDbEntity
  8
LAY-9
  6
CONTINUOUS
 62
     1
100
AcDbVertex
100
AcDb2dVertex
 10
430.913631
 20
225.515798
 30
0.0
  0
VERTEX
  5
686
100
AcDbEntity
  8
LAY-9
  6
CONTINUOUS
 62
     1
100
AcDbVertex
100
AcDb2dVertex
 10
431.289459
 20
224.572849
 30
0.0
  0
VERTEX
  5
687
100
AcDbEntity
  8
LAY-9
  6
CONTINUOUS
 62
     1
100
AcDbVertex
100
AcDb2dVertex
 10
431.639118
 20
223.740753
 30
0.0
  0
VERTEX
  5
688
100
AcDbEntity
  8
LAY-9
  6
CONTINUOUS
 62
     1
100
AcDbVertex
100
AcDb2dVertex
 10
431.943804
 20
223.046531
 30
0.0
  0
VERTEX
  5
689
100
AcDbEntity
  8
LAY-9
  6
CONTINUOUS
 62
     1
100
AcDbVertex
100
AcDb2dVertex
 10
432.184716
 20
222.517203
 30
0.0
  0
VERTEX
  5
68A
100
AcDbEntity
  8
LAY-9
  6
CONTINUOUS
 62
     1
100
AcDbVertex
100
AcDb2dVertex
 10
432.343051
 20
222.179791
 30
0.0
  0
VERTEX
  5
68B
100
AcDbEntity
  8
LAY-9
  6
CONTINUOUS
 62
     1
100
AcDbVertex
100
AcDb2dVertex
 10
432.400008
 20
222.061316
 30
0.0
  0
SEQEND
  5
68C
100
AcDbEntity
  8
LAY-9
  6
CONTINUOUS
 62
     1
  0
LINE
  5
68D
100
AcDbEntity
  8
LAY-9
  6
CONTINUOUS
 62
     1
100
AcDbLine
 10
111.503381
 20
388.99109
 30
0.0
 11
81.103377
 21
388.99109
 31
0.0
  0
LINE
  5
68E
100
AcDbEntity
  8
LAY-9
  6
CONTINUOUS
 62
     1
100
AcDbLine
 10
119.503377
 20
435.59109
 30
0.0
 11
119.503377
 21
439.7
 31
0.0
  0
LINE
  5
68F
100
AcDbEntity
  8
LAY-9
  6
CONTINUOUS
 62
     1
100
AcDbLine
 10
119.503377
 20
444.9
 30
0.0
 11
119.503377
 21
448.99109
 31
0.0
  0
LINE
  5
690
100
AcDbEntity
  8
LAY-9
  6
CONTINUOUS
 62
     1
100
AcDbLine
 10
117.903377
 20
435.59109
 30
0.0
 11
117.903377
 21
439.7
 31
0.0
  0
LINE
  5
691
100
AcDbEntity
  8
LAY-9
  6
CONTINUOUS
 62
     1
100
AcDbLine
 10
117.903377
 20
444.9
 30
0.0
 11
117.903377
 21
448.99109
 31
0.0
  0
LINE
  5
692
100
AcDbEntity
  8
LAY-9
  6
CONTINUOUS
 62
     1
100
AcDbLine
 10
319.103375
 20
391.991363
 30
0.0
 11
321.503397
 21
391.991363
 31
0.0
  0
LINE
  5
693
100
AcDbEntity
  8
LAY-9
  6
CONTINUOUS
 62
     1
100
AcDbLine
 10
375.503427
 20
391.991363
 30
0.0
 11
457.503375
 21
391.991363
 31
0.0
  0
LINE
  5
694
100
AcDbEntity
  8
LAY-9
  6
CONTINUOUS
 62
     1
100
AcDbLine
 10
109.103398
 20
225.061584
 30
0.0
 11
111.503404
 21
225.061584
 31
0.0
  0
LINE
  5
695
100
AcDbEntity
  8
LAY-9
  6
CONTINUOUS
 62
     1
100
AcDbLine
 10
329.503389
 20
268.661316
 30
0.0
 11
329.503389
 21
272.5
 31
0.0
  0
LINE
  5
696
100
AcDbEntity
  8
LAY-9
  6
CONTINUOUS
 62
     1
100
AcDbLine
 10
329.503389
 20
278.9
 30
0.0
 11
329.503389
 21
282.061316
 31
0.0
  0
LINE
  5
697
100
AcDbEntity
  8
LAY-9
  6
CONTINUOUS
 62
     1
100
AcDbLine
 10
327.903389
 20
268.661316
 30
0.0
 11
327.903389
 21
272.5
 31
0.0
  0
LINE
  5
698
100
AcDbEntity
  8
LAY-9
  6
CONTINUOUS
 62
     1
100
AcDbLine
 10
327.903389
 20
278.9
 30
0.0
 11
327.903389
 21
282.061316
 31
0.0
  0
LINE
  5
699
100
AcDbEntity
  8
LAY-9
  6
CONTINUOUS
 62
     1
100
AcDbLine
 10
432.400008
 20
222.061316
 30
0.0
 11
375.503442
 21
222.061316
 31
0.0
  0
LINE
  5
69A
100
AcDbEntity
  8
LAY-9
  6
CONTINUOUS
 62
     1
100
AcDbLine
 10
321.503397
 20
222.061316
 30
0.0
 11
291.103389
 21
222.061316
 31
0.0
  0
LINE
  5
69B
100
AcDbEntity
  8
LAY-10
  6
CONTINUOUS
 62
     5
100
AcDbLine
 10
15.0
 20
15.0
 30
0.0
 11
826.0
 21
15.0
 31
0.0
  0
LINE
  5
69C
100
AcDbEntity
  8
LAY-10
  6
CONTINUOUS
 62
     5
100
AcDbLine
 10
826.0
 20
15.0
 30
0.0
 11
826.0
 21
579.0
 31
0.0
  0
LINE
  5
69D
100
AcDbEntity
  8
LAY-10
  6
CONTINUOUS
 62
     5
100
AcDbLine
 10
15.0
 20
15.0
 30
0.0
 11
15.0
 21
579.0
 31
0.0
  0
LINE
  5
69E
100
AcDbEntity
  8
LAY-10
  6
CONTINUOUS
 62
     5
100
AcDbLine
 10
15.0
 20
579.0
 30
0.0
 11
826.0
 21
579.0
 31
0.0
  0
LINE
  5
69F
100
AcDbEntity
  8
LAY-10
  6
CONTINUOUS
 62
     5
100
AcDbLine
 10
15.0
 20
40.0
 30
0.0
 11
826.0
 21
40.0
 31
0.0
  0
LINE
  5
6A0
100
AcDbEntity
  8
LAY-10
  6
CONTINUOUS
 62
     1
100
AcDbLine
 10
224.0
 20
40.0
 30
0.0
 11
224.0
 21
15.0
 31
0.0
  0
LINE
  5
6A1
100
AcDbEntity
  8
LAY-10
  6
CONTINUOUS
 62
     1
100
AcDbLine
 10
249.5
 20
40.0
 30
0.0
 11
249.5
 21
15.0
 31
0.0
  0
LINE
  5
6A2
100
AcDbEntity
  8
LAY-10
  6
CONTINUOUS
 62
     1
100
AcDbLine
 10
275.0
 20
40.0
 30
0.0
 11
275.0
 21
15.0
 31
0.0
  0
LINE
  5
6A3
100
AcDbEntity
  8
LAY-10
  6
CONTINUOUS
 62
     1
100
AcDbLine
 10
300.5
 20
40.0
 30
0.0
 11
300.5
 21
15.0
 31
0.0
  0
LINE
  5
6A4
100
AcDbEntity
  8
LAY-10
  6
CONTINUOUS
 62
     1
100
AcDbLine
 10
326.0
 20
40.0
 30
0.0
 11
326.0
 21
15.0
 31
0.0
  0
LINE
  5
6A5
100
AcDbEntity
  8
LAY-10
  6
CONTINUOUS
 62
     1
100
AcDbLine
 10
377.0
 20
40.0
 30
0.0
 11
377.0
 21
15.0
 31
0.0
  0
LINE
  5
6A6
100
AcDbEntity
  8
LAY-10
  6
CONTINUOUS
 62
     1
100
AcDbLine
 10
738.0
 20
40.0
 30
0.0
 11
738.0
 21
15.0
 31
0.0
  0
LINE
  5
6A7
100
AcDbEntity
  8
LAY-10
  6
CONTINUOUS
 62
     1
100
AcDbLine
 10
224.0
 20
32.0
 30
0.0
 11
377.0
 21
32.0
 31
0.0
  0
TEXT
  5
6A8
100
AcDbEntity
  8
LAY-10
  6
CONTINUOUS
 62
     4
100
AcDbText
 10
227.5
 20
33.0
 30
0.0
 40
6.0
  1
検　  図
 41
0.57856
  7
EXCADSTD
 72
     5
 11
246.700001
 21
33.0
 31
0.0
100
AcDbText
  0
TEXT
  5
6A9
100
AcDbEntity
  8
LAY-10
  6
CONTINUOUS
 62
     4
100
AcDbText
 10
253.2
 20
33.0
 30
0.0
 40
6.0
  1
担　　当
 41
0.672
  7
EXCADSTD
 72
     5
 11
272.400001
 21
33.0
 31
0.0
100
AcDbText
  0
TEXT
  5
6AA
100
AcDbEntity
  8
LAY-10
  6
CONTINUOUS
 62
     4
100
AcDbText
 10
278.4
 20
33.0
 30
0.0
 40
6.0
  1
製　　図
 41
0.672
  7
EXCADSTD
 72
     5
 11
297.600001
 21
33.0
 31
0.0
100
AcDbText
  0
TEXT
  5
6AB
100
AcDbEntity
  8
LAY-10
  6
CONTINUOUS
 62
     4
100
AcDbText
 10
303.9
 20
33.0
 30
0.0
 40
6.0
  1
尺　　度
 41
0.672
  7
EXCADSTD
 72
     5
 11
323.100001
 21
33.0
 31
0.0
100
AcDbText
  0
TEXT
  5
6AC
100
AcDbEntity
  8
LAY-10
  6
CONTINUOUS
 62
     4
100
AcDbText
 10
339.5
 20
33.0
 30
0.0
 40
6.0
  1
作成年月日
 41
0.672
  7
EXCADSTD
 72
     5
 11
363.500001
 21
33.0
 31
0.0
100
AcDbText
  0
TEXT
  5
6AD
100
AcDbEntity
  8
LAY-10
  6
CONTINUOUS
 62
   134
100
AcDbText
 10
42.98
 20
20.91
 30
0.0
 40
13.0
  1
日本ドアーチエック製造株式会社
 41
0.653908
  7
EXCADSTD
 72
     5
 11
194.779994
 21
20.91
 31
0.0
100
AcDbText
  0
LINE
  5
6AE
100
AcDbEntity
  8
LAY-10
  6
CONTINUOUS
 62
     1
100
AcDbLine
 10
841.0
 20
0.0
 30
0.0
 11
841.0
 21
2.0
 31
0.0
  0
LINE
  5
6AF
100
AcDbEntity
  8
LAY-10
  6
CONTINUOUS
 62
     1
100
AcDbLine
 10
841.0
 20
592.0
 30
0.0
 11
841.0
 21
594.0
 31
0.0
  0
LINE
  5
6B0
100
AcDbEntity
  8
LAY-10
  6
CONTINUOUS
 62
     1
100
AcDbLine
 10
841.0
 20
594.0
 30
0.0
 11
839.0
 21
594.0
 31
0.0
  0
LINE
  5
6B1
100
AcDbEntity
  8
LAY-10
  6
CONTINUOUS
 62
     1
100
AcDbLine
 10
2.0
 20
594.0
 30
0.0
 11
0.0
 21
594.0
 31
0.0
  0
LINE
  5
6B2
100
AcDbEntity
  8
LAY-10
  6
CONTINUOUS
 62
     1
100
AcDbLine
 10
0.0
 20
594.0
 30
0.0
 11
0.0
 21
592.0
 31
0.0
  0
LINE
  5
6B3
100
AcDbEntity
  8
LAY-10
  6
CONTINUOUS
 62
     1
100
AcDbLine
 10
0.0
 20
2.0
 30
0.0
 11
0.0
 21
0.0
 31
0.0
  0
LINE
  5
6B4
100
AcDbEntity
  8
LAY-10
  6
CONTINUOUS
 62
     1
100
AcDbLine
 10
0.0
 20
0.0
 30
0.0
 11
2.0
 21
0.0
 31
0.0
  0
LINE
  5
6B5
100
AcDbEntity
  8
LAY-10
  6
CONTINUOUS
 62
     1
100
AcDbLine
 10
839.0
 20
0.0
 30
0.0
 11
841.0
 21
0.0
 31
0.0
  0
TEXT
  5
6B6
100
AcDbEntity
  8
LAY-10
  6
CONTINUOUS
 62
     4
100
AcDbText
 10
383.0
 20
33.0
 30
0.0
 40
6.0
  1
図 面 名
 41
0.57856
  7
EXCADSTD
 72
     5
 11
402.200001
 21
33.0
 31
0.0
100
AcDbText
  0
TEXT
  5
6B7
100
AcDbEntity
  8
LAY-10
  6
CONTINUOUS
 62
     4
100
AcDbText
 10
744.0
 20
33.0
 30
0.0
 40
6.0
  1
図面番号
 41
0.672
  7
EXCADSTD
 72
     5
 11
763.200001
 21
33.0
 31
0.0
100
AcDbText
  0
TEXT
  5
6B8
100
AcDbEntity
  8
LAY-10
  6
CONTINUOUS
 62
     2
100
AcDbText
 10
306.5
 20
20.2
 30
0.0
 40
6.0
  1
１／１
 41
0.672
  7
EXCADSTD
 72
     5
 11
320.900001
 21
20.2
 31
0.0
100
AcDbText
  0
TEXT
  5
6B9
100
AcDbEntity
  8
LAY-10
  6
CONTINUOUS
 62
     2
100
AcDbText
 10
332.6
 20
20.2
 30
0.0
 40
6.0
  1
Ｈ１３.　７.　２
 41
0.622617
  7
EXCADSTD
 72
     5
 11
371.000002
 21
20.2
 31
0.0
100
AcDbText
  0
TEXT
  5
6BA
100
AcDbEntity
  8
LAY-10
  6
CONTINUOUS
 62
     2
100
AcDbText
 10
406.828367
 20
19.274519
 30
0.0
 40
10.0
  1
ピボットヒンジ　１１Ａ(沓摺挿入型 )　納まり図
 41
0.653429
  7
EXCADSTD
 72
     5
 11
582.828367
 21
19.274519
 31
0.0
100
AcDbText
  0
ENDSEC
  0
SECTION
  2
OBJECTS
  0
DICTIONARY
  5
19
100
AcDbDictionary
  3
ACAD_GROUP
350
1A
  3
ACAD_MLINESTYLE
350
1B
  0
DICTIONARY
  5
1A
102
{ACAD_REACTORS
330
19
102
}
100
AcDbDictionary
  0
DICTIONARY
  5
1B
102
{ACAD_REACTORS
330
19
102
}
100
AcDbDictionary
  3
STANDARD
350
1C
  0
MLINESTYLE
  5
1C
102
{ACAD_REACTORS
330
1B
102
}
100
AcDbMlineStyle
  2
Standard
 70
     0
  3

 62
     0
 51
90.0
 52
90.0
 71
     2
 49
0.5
 62
   256
  6
ByLayer
 49
-0.5
 62
   256
  6
ByLayer
  0
ENDSEC
  0
EOF
