  0
SECTION
  2
HEADER
  9
$ACADVER
  1
AC1014
  9
$ACADMAINTVER
 70
     0
  9
$DWGCODEPAGE
  3
ANSI_932
  9
$INSBASE
 10
0.0
 20
0.0
 30
0.0
  9
$EXTMIN
 10
0.0
 20
0.0
 30
0.0
  9
$EXTMAX
 10
841.0
 20
594.0
 30
0.0
  9
$LIMMIN
 10
0.0
 20
0.0
  9
$LIMMAX
 10
841.0
 20
594.0
  9
$ORTHOMODE
 70
     0
  9
$REGENMODE
 70
     1
  9
$FILLMODE
 70
     1
  9
$QTEXTMODE
 70
     0
  9
$MIRRTEXT
 70
     1
  9
$DRAGMODE
 70
     2
  9
$LTSCALE
 40
1.0
  9
$OSMODE
 70
     0
  9
$ATTMODE
 70
     1
  9
$TEXTSIZE
 40
0.2
  9
$TRACEWID
 40
0.05
  9
$TEXTSTYLE
  7
STANDARD
  9
$CLAYER
  8
LAY-1
  9
$CELTYPE
  6
CONTINUOUS
  9
$CECOLOR
 62
   256
  9
$CELTSCALE
 40
1.0
  9
$DELOBJ
 70
     1
  9
$DISPSILH
 70
     0
  9
$DIMSCALE
 40
1.0
  9
$DIMASZ
 40
0.18
  9
$DIMEXO
 40
0.0625
  9
$DIMDLI
 40
0.38
  9
$DIMRND
 40
0.0
  9
$DIMDLE
 40
0.0
  9
$DIMEXE
 40
0.18
  9
$DIMTP
 40
0.0
  9
$DIMTM
 40
0.0
  9
$DIMTXT
 40
0.18
  9
$DIMCEN
 40
0.09
  9
$DIMTSZ
 40
0.0
  9
$DIMTOL
 70
     0
  9
$DIMLIM
 70
     0
  9
$DIMTIH
 70
     1
  9
$DIMTOH
 70
     1
  9
$DIMSE1
 70
     0
  9
$DIMSE2
 70
     0
  9
$DIMTAD
 70
     0
  9
$DIMZIN
 70
     0
  9
$DIMBLK
  1

  9
$DIMASO
 70
     1
  9
$DIMSHO
 70
     1
  9
$DIMPOST
  1

  9
$DIMAPOST
  1

  9
$DIMALT
 70
     0
  9
$DIMALTD
 70
     2
  9
$DIMALTF
 40
25.4
  9
$DIMLFAC
 40
1.0
  9
$DIMTOFL
 70
     0
  9
$DIMTVP
 40
0.0
  9
$DIMTIX
 70
     0
  9
$DIMSOXD
 70
     0
  9
$DIMSAH
 70
     0
  9
$DIMBLK1
  1

  9
$DIMBLK2
  1

  9
$DIMSTYLE
  2
STANDARD
  9
$DIMCLRD
 70
     0
  9
$DIMCLRE
 70
     0
  9
$DIMCLRT
 70
     0
  9
$DIMTFAC
 40
1.0
  9
$DIMGAP
 40
0.09
  9
$DIMJUST
 70
     0
  9
$DIMSD1
 70
     0
  9
$DIMSD2
 70
     0
  9
$DIMTOLJ
 70
     1
  9
$DIMTZIN
 70
     0
  9
$DIMALTZ
 70
     0
  9
$DIMALTTZ
 70
     0
  9
$DIMFIT
 70
     3
  9
$DIMUPT
 70
     0
  9
$DIMUNIT
 70
     2
  9
$DIMDEC
 70
     4
  9
$DIMTDEC
 70
     4
  9
$DIMALTU
 70
     2
  9
$DIMALTTD
 70
     2
  9
$DIMTXSTY
  7
STANDARD
  9
$DIMAUNIT
 70
     0
  9
$LUNITS
 70
     2
  9
$LUPREC
 70
     4
  9
$SKETCHINC
 40
0.1
  9
$FILLETRAD
 40
0.0
  9
$AUNITS
 70
     0
  9
$AUPREC
 70
     0
  9
$MENU
  1
acad
  9
$ELEVATION
 40
0.0
  9
$PELEVATION
 40
0.0
  9
$THICKNESS
 40
0.0
  9
$LIMCHECK
 70
     0
  9
$BLIPMODE
 70
     1
  9
$CHAMFERA
 40
0.0
  9
$CHAMFERB
 40
0.0
  9
$CHAMFERC
 40
0.0
  9
$CHAMFERD
 40
0.0
  9
$SKPOLY
 70
     0
  9
$TDCREATE
 40
2455606.814573704
  9
$TDUPDATE
 40
2455606.814573704
  9
$TDINDWG
 40
0.0000000000
  9
$TDUSRTIMER
 40
0.0000000000
  9
$USRTIMER
 70
     1
  9
$ANGBASE
 50
0.0
  9
$ANGDIR
 70
     0
  9
$PDMODE
 70
     0
  9
$PDSIZE
 40
0.0
  9
$PLINEWID
 40
0.0
  9
$COORDS
 70
     1
  9
$SPLFRAME
 70
     0
  9
$SPLINETYPE
 70
     6
  9
$SPLINESEGS
 70
     8
  9
$ATTDIA
 70
     0
  9
$ATTREQ
 70
     1
  9
$HANDLING
 70
     1
  9
$HANDSEED
  5
67E
  9
$SURFTAB1
 70
     6
  9
$SURFTAB2
 70
     6
  9
$SURFTYPE
 70
     6
  9
$SURFU
 70
     6
  9
$SURFV
 70
     6
  9
$UCSNAME
  2

  9
$UCSORG
 10
0.0
 20
0.0
 30
0.0
  9
$UCSXDIR
 10
1.0
 20
0.0
 30
0.0
  9
$UCSYDIR
 10
0.0
 20
1.0
 30
0.0
  9
$PUCSNAME
  2

  9
$PUCSORG
 10
0.0
 20
0.0
 30
0.0
  9
$PUCSXDIR
 10
1.0
 20
0.0
 30
0.0
  9
$PUCSYDIR
 10
0.0
 20
1.0
 30
0.0
  9
$USERI1
 70
     0
  9
$USERI2
 70
     0
  9
$USERI3
 70
     0
  9
$USERI4
 70
     0
  9
$USERI5
 70
     0
  9
$USERR1
 40
0.0
  9
$USERR2
 40
0.0
  9
$USERR3
 40
0.0
  9
$USERR4
 40
0.0
  9
$USERR5
 40
0.0
  9
$WORLDVIEW
 70
     1
  9
$SHADEDGE
 70
     3
  9
$SHADEDIF
 70
    70
  9
$TILEMODE
 70
     1
  9
$MAXACTVP
 70
    16
  9
$PINSBASE
 10
0.0
 20
0.0
 30
0.0
  9
$PLIMCHECK
 70
     0
  9
$PEXTMIN
 10
1.000000E+20
 20
1.000000E+20
 30
1.000000E+20
  9
$PEXTMAX
 10
-1.000000E+20
 20
-1.000000E+20
 30
-1.000000E+20
  9
$PLIMMIN
 10
0.0
 20
0.0
  9
$PLIMMAX
 10
12.0
 20
9.0
  9
$UNITMODE
 70
     0
  9
$VISRETAIN
 70
     0
  9
$PLINEGEN
 70
     1
  9
$PSLTSCALE
 70
     0
  9
$TREEDEPTH
 70
  3020
  9
$PICKSTYLE
 70
     1
  9
$CMLSTYLE
  2
Standard
  9
$CMLJUST
 70
     0
  9
$CMLSCALE
 40
1.0
  9
$PROXYGRAPHICS
 70
     0
  9
$MEASUREMENT
 70
     0
  0
ENDSEC
  0
SECTION
  2
CLASSES
  0
CLASS
  1
LWPOLYLINE
  2
AcDbPolyline
  3
"AutoCAD"
 90
        0
280
     0
281
     1
  0
CLASS
  1
IMAGE
  2
AcDbRasterImage
  3
ISM
 90
      127
280
     0
281
     1
  0
CLASS
  1
OLE2FRAME
  2
AcDbOle2Frame
  3
""
 90
        0
280
     0
281
     1
  0
CLASS
  1
HATCH
  2
AcDbHatch
  3
"ACAD_SEDONA"
 90
        0
280
     0
281
     1
  0
CLASS
  1
DICTIONARYVAR
  2
AcDbDictionaryVar
  3
"AutoCAD"
 90
        0
280
     0
281
     0
  0
CLASS
  1
RASTERVARIABLES
  2
AcDbRasterVariables
  3
ISM
 90
        0
280
     0
281
     0
  0
CLASS
  1
IMAGEDEF
  2
AcDbRasterImageDef
  3
ISM
 90
        0
280
     0
281
     0
  0
CLASS
  1
IMAGEDEF_REACTOR
  2
AcDbRasterImageDefReactor
  3
ISM
 90
        1
280
     0
281
     0
  0
CLASS
  1
IDBUFFER
  2
AcDbIdBuffer
  3
"Acad"
 90
        0
280
     0
281
     0
  0
CLASS
  1
SPATIAL_FILTER
  2
AcDbSpatialFilter
  3
"Acad"
 90
        0
280
     0
281
     0
  0
CLASS
  1
XRECORD
  2
AcDbXrecord
  3
"<Built In>"
 90
        0
280
     0
281
     0
  0
CLASS
  1
SORTENTSTABLE
  2
AcDbSortentsTable
  3
"AutoCAD"
 90
        0
280
     0
281
     0
  0
CLASS
  1
LAYER_INDEX
  2
AcDbLayerIndex
  3
"Acad"
 90
        0
280
     0
281
     0
  0
CLASS
  1
SPATIAL_INDEX
  2
AcDbSpatialIndex
  3
"Acad"
 90
        0
280
     0
281
     0
  0
CLASS
  1
OBJECT_PTR
  2
CAseDLPNTableRecord
  3
"ASE-LPNTableRecord"
 90
        1
280
     0
281
     0
  0
CLASS
  1
LAYOUT
  2
AcDbLayout
  3
"AutoCAD 2000"
 90
        0
280
     0
281
     0
  0
CLASS
  1
PLOTSETTINGS
  2
AcDbPlotSettings
  3
"AutoCAD 2000"
 90
        0
280
     0
281
     0
  0
CLASS
  1
ACDBDICTIONARYWDFLT
  2
AcDbDictionaryWithDefault
  3
"AutoCAD 2000"
 90
        0
280
     0
281
     0
  0
CLASS
  1
ACDBPLACEHOLDER
  2
AcDbPlaceHolder
  3
"AutoCAD 2000"
 90
        0
280
     0
281
     0
  0
CLASS
  1
VBA_PROJECT
  2
AcDbVbaProject
  3
"acadvba"
 90
        0
280
     0
281
     0
  0
CLASS
  1
WIPEOUT
  2
AcDbWipeout
  3
WipeOut|AutoCAD Express Tool|expresstools@autodesk.com
 90
      127
280
     0
281
     1
  0
CLASS
  1
WIPEOUTVARIABLES
  2
AcDbWipeoutVariables
  3
WipeOut|AutoCAD Express Tool|expresstools@autodesk.com
 90
        0
280
     0
281
     0
  0
CLASS
  1
RTEXT
  2
RText
  3
RText|AutoCAD Express Tool|expresstools@autodesk.com
 90
        0
280
     0
281
     1
  0
CLASS
  1
ARCALIGNEDTEXT
  2
AcDbArcAlignedText
  3
ATEXT|AutoCAD Express Tool|expresstools@autodesk.com
 90
        0
280
     0
281
     1
  0
ENDSEC
  0
SECTION
  2
TABLES
  0
TABLE
  2
VPORT
  5
7
100
AcDbSymbolTable
 70
     1
  0
VPORT
  5
15
100
AcDbSymbolTableRecord
100
AcDbViewportTableRecord
  2
*ACTIVE
 70
     0
 10
0.0
 20
0.0
 11
1.0
 21
1.0
 12
420.5
 22
297.0
 13
0.0
 23
0.0
 14
1.0
 24
1.0
 15
0.0
 25
0.0
 16
0.0
 26
0.0
 36
1.0
 17
0.0
 27
0.0
 37
0.0
 40
594.0
 41
1.722533
 42
50.0
 43
0.0
 44
0.0
 50
0.0
 51
0.0
 71
     0
 72
   100
 73
     1
 74
     1
 75
     0
 76
     0
 77
     0
 78
     0
  0
ENDTAB
  0
TABLE
  2
LTYPE
  5
4
100
AcDbSymbolTable
 70
     9
  0
LTYPE
  5
11
100
AcDbSymbolTableRecord
100
AcDbLinetypeTableRecord
  2
BYBLOCK
 70
    64
  3

 72
    65
 73
     0
 40
0.0
  0
LTYPE
  5
12
100
AcDbSymbolTableRecord
100
AcDbLinetypeTableRecord
  2
BYLAYER
 70
    64
  3

 72
    65
 73
     0
 40
0.0
  0
LTYPE
  5
13
100
AcDbSymbolTableRecord
100
AcDbLinetypeTableRecord
  2
CONTINUOUS
 70
    64
  3
実線
 72
    65
 73
     0
 40
0.0
  0
LTYPE
  5
1D
100
AcDbSymbolTableRecord
100
AcDbLinetypeTableRecord
  2
DASHED
 70
    64
  3
Dashed __ __ __ __ __ __ __ __ __ __ __ __ __ _
 72
    65
 73
     2
 40
19.05
 49
12.7
 74
     0
 49
-6.35
 74
     0
  0
LTYPE
  5
1E
100
AcDbSymbolTableRecord
100
AcDbLinetypeTableRecord
  2
DASHED2
 70
    64
  3
Dashed (.5x) _ _ _ _ _ _ _ _ _ _ _ _ _ _ _ _ _ 
 72
    65
 73
     2
 40
9.525
 49
6.35
 74
     0
 49
-3.175
 74
     0
  0
LTYPE
  5
1F
100
AcDbSymbolTableRecord
100
AcDbLinetypeTableRecord
  2
DASHDOT
 70
    64
  3
Dash dot __ . __ . __ . __ . __ . __ . __ . __
 72
    65
 73
     4
 40
25.4
 49
12.7
 74
     0
 49
-6.35
 74
     0
 49
0.0
 74
     0
 49
-6.35
 74
     0
  0
LTYPE
  5
20
100
AcDbSymbolTableRecord
100
AcDbLinetypeTableRecord
  2
DIVIDE
 70
    64
  3
Divide ____ . . ____ . . ____ . . ____ . . ____
 72
    65
 73
     6
 40
31.75
 49
12.7
 74
     0
 49
-6.35
 74
     0
 49
0.0
 74
     0
 49
-6.35
 74
     0
 49
0.0
 74
     0
 49
-6.35
 74
     0
  0
LTYPE
  5
21
100
AcDbSymbolTableRecord
100
AcDbLinetypeTableRecord
  2
ACAD_ISO06W100
 70
    64
  3
ISO long-dash triple-dot ____ ... ____ ... ____
 72
    65
 73
     8
 40
36.0
 49
24.0
 74
     0
 49
-3.0
 74
     0
 49
0.0
 74
     0
 49
-3.0
 74
     0
 49
0.0
 74
     0
 49
-3.0
 74
     0
 49
0.0
 74
     0
 49
-3.0
 74
     0
  0
LTYPE
  5
22
100
AcDbSymbolTableRecord
100
AcDbLinetypeTableRecord
  2
ACAD_ISO15W100
 70
    64
  3
ISO double-dash triple-dot __ __ . . . __ __ . .
 72
    65
 73
    10
 40
39.0
 49
12.0
 74
     0
 49
-3.0
 74
     0
 49
12.0
 74
     0
 49
-3.0
 74
     0
 49
0.0
 74
     0
 49
-3.0
 74
     0
 49
0.0
 74
     0
 49
-3.0
 74
     0
 49
0.0
 74
     0
 49
-3.0
 74
     0
  0
ENDTAB
  0
TABLE
  2
LAYER
  5
2
100
AcDbSymbolTable
 70
     9
  0
LAYER
  5
14
100
AcDbSymbolTableRecord
100
AcDbLayerTableRecord
  2
0
 70
     0
 62
     7
  6
CONTINUOUS
  0
LAYER
  5
25
100
AcDbSymbolTableRecord
100
AcDbLayerTableRecord
  2
LAY-1
 70
    64
 62
     3
  6
CONTINUOUS
  0
LAYER
  5
26
100
AcDbSymbolTableRecord
100
AcDbLayerTableRecord
  2
LAY-2
 70
    64
 62
     3
  6
CONTINUOUS
  0
LAYER
  5
27
100
AcDbSymbolTableRecord
100
AcDbLayerTableRecord
  2
LAY-3
 70
    64
 62
     3
  6
CONTINUOUS
  0
LAYER
  5
28
100
AcDbSymbolTableRecord
100
AcDbLayerTableRecord
  2
LAY-4
 70
    64
 62
     3
  6
CONTINUOUS
  0
LAYER
  5
29
100
AcDbSymbolTableRecord
100
AcDbLayerTableRecord
  2
LAY-5
 70
    64
 62
     1
  6
DASHDOT
  0
LAYER
  5
2A
100
AcDbSymbolTableRecord
100
AcDbLayerTableRecord
  2
LAY-6
 70
    64
 62
     2
  6
CONTINUOUS
  0
LAYER
  5
2B
100
AcDbSymbolTableRecord
100
AcDbLayerTableRecord
  2
LAY-9
 70
    64
 62
     1
  6
CONTINUOUS
  0
LAYER
  5
2C
100
AcDbSymbolTableRecord
100
AcDbLayerTableRecord
  2
LAY-10
 70
    64
 62
     5
  6
CONTINUOUS
  0
ENDTAB
  0
TABLE
  2
STYLE
  5
3
100
AcDbSymbolTable
 70
     3
  0
STYLE
  5
17
100
AcDbSymbolTableRecord
100
AcDbTextStyleTableRecord
  2
STANDARD
 70
     0
 40
0.0
 41
1.0
 50
0.0
 71
     0
 42
0.0
  3
monotxt
  4
extfont
  0
STYLE
  5
23
100
AcDbSymbolTableRecord
100
AcDbTextStyleTableRecord
  2
EXCADSTD
 70
    64
 40
0.0
 41
1.0
 50
0.0
 71
     0
 42
0.2
  3
monotxt
  4
extfont
  0
STYLE
  5
24
100
AcDbSymbolTableRecord
100
AcDbTextStyleTableRecord
  2
EXCADVERT
 70
    68
 40
0.0
 41
1.0
 50
0.0
 71
     0
 42
0.286885
  3
monotxt
  4
extfont
  0
ENDTAB
  0
TABLE
  2
VIEW
  5
5
100
AcDbSymbolTable
 70
     0
  0
ENDTAB
  0
TABLE
  2
UCS
  5
6
100
AcDbSymbolTable
 70
     0
  0
ENDTAB
  0
TABLE
  2
APPID
  5
8
100
AcDbSymbolTable
 70
     1
  0
APPID
  5
16
100
AcDbSymbolTableRecord
100
AcDbRegAppTableRecord
  2
ACAD
 70
     0
  0
ENDTAB
  0
TABLE
  2
DIMSTYLE
  5
9
100
AcDbSymbolTable
 70
     1
  0
DIMSTYLE
105
18
100
AcDbSymbolTableRecord
100
AcDbDimStyleTableRecord
  2
STANDARD
 70
     0
  3

  4

  5

  6

  7

 40
1.0
 41
0.18
 42
0.0625
 43
0.38
 44
0.18
 45
0.0
 46
0.0
 47
0.0
 48
0.0
 71
     0
 72
     0
 73
     1
 74
     1
 75
     0
 76
     0
 77
     0
 78
     0
140
0.18
141
0.09
142
0.0
143
25.4
144
1.0
145
0.0
146
1.0
147
0.09
170
     0
171
     2
172
     1
173
     0
174
     0
175
     0
176
     0
177
     0
178
     0
270
     2
271
     4
272
     4
273
     2
274
     2
275
     0
280
     0
281
     0
282
     0
283
     1
284
     0
285
     0
286
     0
287
     3
288
     0
340
17
  0
ENDTAB
  0
TABLE
  2
BLOCK_RECORD
  5
1
100
AcDbSymbolTable
 70
    14
  0
BLOCK_RECORD
  5
A
100
AcDbSymbolTableRecord
100
AcDbBlockTableRecord
  2
*MODEL_SPACE
  0
BLOCK_RECORD
  5
B
100
AcDbSymbolTableRecord
100
AcDbBlockTableRecord
  2
*PAPER_SPACE
  0
BLOCK_RECORD
  5
2D
100
AcDbSymbolTableRecord
100
AcDbBlockTableRecord
  2
_EX_NORM
  0
BLOCK_RECORD
  5
2E
100
AcDbSymbolTableRecord
100
AcDbBlockTableRecord
  2
_EX_BNORM
  0
BLOCK_RECORD
  5
2F
100
AcDbSymbolTableRecord
100
AcDbBlockTableRecord
  2
_EX_BCIR
  0
BLOCK_RECORD
  5
30
100
AcDbSymbolTableRecord
100
AcDbBlockTableRecord
  2
_EX_RCIVIL
  0
BLOCK_RECORD
  5
31
100
AcDbSymbolTableRecord
100
AcDbBlockTableRecord
  2
_EX_SLANT
  0
BLOCK_RECORD
  5
32
100
AcDbSymbolTableRecord
100
AcDbBlockTableRecord
  2
_EX_NONE
  0
BLOCK_RECORD
  5
33
100
AcDbSymbolTableRecord
100
AcDbBlockTableRecord
  2
_EX_CIVIL
  0
BLOCK_RECORD
  5
34
100
AcDbSymbolTableRecord
100
AcDbBlockTableRecord
  2
_EX_WCIR
  0
BLOCK_RECORD
  5
35
100
AcDbSymbolTableRecord
100
AcDbBlockTableRecord
  2
_EX_WCIR2
  0
BLOCK_RECORD
  5
36
100
AcDbSymbolTableRecord
100
AcDbBlockTableRecord
  2
_EX_WNORM
  0
BLOCK_RECORD
  5
37
100
AcDbSymbolTableRecord
100
AcDbBlockTableRecord
  2
_EX_NNORM
  0
BLOCK_RECORD
  5
38
100
AcDbSymbolTableRecord
100
AcDbBlockTableRecord
  2
_EX_BBOX
  0
BLOCK_RECORD
  5
39
100
AcDbSymbolTableRecord
100
AcDbBlockTableRecord
  2
_EX_WBOX
  0
BLOCK_RECORD
  5
3A
100
AcDbSymbolTableRecord
100
AcDbBlockTableRecord
  2
_EX_INTEGRAL
  0
ENDTAB
  0
ENDSEC
  0
SECTION
  2
BLOCKS
  0
BLOCK
  5
D
100
AcDbEntity
  8
0
100
AcDbBlockBegin
  2
*MODEL_SPACE
 70
     0
 10
0.0
 20
0.0
 30
0.0
  3
*MODEL_SPACE
  1

  0
ENDBLK
  5
E
100
AcDbEntity
  8
0
100
AcDbBlockEnd
  0
BLOCK
  5
F
100
AcDbEntity
 67
     1
  8
0
100
AcDbBlockBegin
  2
*PAPER_SPACE
 70
     0
 10
0.0
 20
0.0
 30
0.0
  3
*PAPER_SPACE
  1

  0
ENDBLK
  5
10
100
AcDbEntity
 67
     1
  8
0
100
AcDbBlockEnd
  0
BLOCK
  5
3B
100
AcDbEntity
  8
0
100
AcDbBlockBegin
  2
_EX_NORM
 70
     0
 10
0.0
 20
0.0
 30
0.0
  3
_EX_NORM
  1

  0
LINE
  5
3C
100
AcDbEntity
  8
0
  6
CONTINUOUS
 62
     0
100
AcDbLine
 10
0.0
 20
0.0
 30
0.0
 11
-1.0
 21
0.0
 31
0.0
  0
LINE
  5
3D
100
AcDbEntity
  8
0
  6
CONTINUOUS
 62
     0
100
AcDbLine
 10
0.0
 20
0.0
 30
0.0
 11
-1.0
 21
0.166667
 31
0.0
  0
LINE
  5
3E
100
AcDbEntity
  8
0
  6
CONTINUOUS
 62
     0
100
AcDbLine
 10
0.0
 20
0.0
 30
0.0
 11
-1.0
 21
-0.166667
 31
0.0
  0
ENDBLK
  5
3F
100
AcDbEntity
  8
0
100
AcDbBlockEnd
  0
BLOCK
  5
40
100
AcDbEntity
  8
0
100
AcDbBlockBegin
  2
_EX_BNORM
 70
     0
 10
0.0
 20
0.0
 30
0.0
  3
_EX_BNORM
  1

  0
LINE
  5
41
100
AcDbEntity
  8
0
  6
CONTINUOUS
 62
     0
100
AcDbLine
 10
0.0
 20
0.0
 30
0.0
 11
-1.0
 21
0.0
 31
0.0
  0
LINE
  5
42
100
AcDbEntity
  8
0
  6
CONTINUOUS
 62
     0
100
AcDbLine
 10
0.0
 20
0.0
 30
0.0
 11
-1.0
 21
0.166667
 31
0.0
  0
LINE
  5
43
100
AcDbEntity
  8
0
  6
CONTINUOUS
 62
     0
100
AcDbLine
 10
0.0
 20
0.0
 30
0.0
 11
-1.0
 21
-0.166667
 31
0.0
  0
LINE
  5
44
100
AcDbEntity
  8
0
  6
CONTINUOUS
 62
     0
100
AcDbLine
 10
0.0
 20
0.0
 30
0.0
 11
-1.0
 21
0.083333
 31
0.0
  0
LINE
  5
45
100
AcDbEntity
  8
0
  6
CONTINUOUS
 62
     0
100
AcDbLine
 10
0.0
 20
0.0
 30
0.0
 11
-1.0
 21
-0.083333
 31
0.0
  0
LINE
  5
46
100
AcDbEntity
  8
0
  6
CONTINUOUS
 62
     0
100
AcDbLine
 10
-1.0
 20
0.166667
 30
0.0
 11
-1.0
 21
-0.166667
 31
0.0
  0
ENDBLK
  5
47
100
AcDbEntity
  8
0
100
AcDbBlockEnd
  0
BLOCK
  5
48
100
AcDbEntity
  8
0
100
AcDbBlockBegin
  2
_EX_BCIR
 70
     0
 10
0.0
 20
0.0
 30
0.0
  3
_EX_BCIR
  1

  0
LINE
  5
49
100
AcDbEntity
  8
0
  6
CONTINUOUS
 62
     0
100
AcDbLine
 10
0.0
 20
0.0
 30
0.0
 11
-1.0
 21
0.0
 31
0.0
  0
CIRCLE
  5
4A
100
AcDbEntity
  8
0
  6
CONTINUOUS
 62
     0
100
AcDbCircle
 10
0.0
 20
0.0
 30
0.0
 40
0.5
  0
CIRCLE
  5
4B
100
AcDbEntity
  8
0
  6
CONTINUOUS
 62
     0
100
AcDbCircle
 10
0.0
 20
0.0
 30
0.0
 40
0.25
  0
ENDBLK
  5
4C
100
AcDbEntity
  8
0
100
AcDbBlockEnd
  0
BLOCK
  5
4D
100
AcDbEntity
  8
0
100
AcDbBlockBegin
  2
_EX_RCIVIL
 70
     0
 10
0.0
 20
0.0
 30
0.0
  3
_EX_RCIVIL
  1

  0
LINE
  5
4E
100
AcDbEntity
  8
0
  6
CONTINUOUS
 62
     0
100
AcDbLine
 10
0.0
 20
0.0
 30
0.0
 11
-1.0
 21
0.0
 31
0.0
  0
LINE
  5
4F
100
AcDbEntity
  8
0
  6
CONTINUOUS
 62
     0
100
AcDbLine
 10
-1.0
 20
-0.25
 30
0.0
 11
0.0
 21
-0.25
 31
0.0
  0
LINE
  5
50
100
AcDbEntity
  8
0
  6
CONTINUOUS
 62
     0
100
AcDbLine
 10
-1.0
 20
-0.125
 30
0.0
 11
0.0
 21
-0.125
 31
0.0
  0
ENDBLK
  5
51
100
AcDbEntity
  8
0
100
AcDbBlockEnd
  0
BLOCK
  5
52
100
AcDbEntity
  8
0
100
AcDbBlockBegin
  2
_EX_SLANT
 70
     0
 10
0.0
 20
0.0
 30
0.0
  3
_EX_SLANT
  1

  0
LINE
  5
53
100
AcDbEntity
  8
0
  6
CONTINUOUS
 62
     0
100
AcDbLine
 10
0.0
 20
0.0
 30
0.0
 11
-1.0
 21
0.0
 31
0.0
  0
LINE
  5
54
100
AcDbEntity
  8
0
  6
CONTINUOUS
 62
     0
100
AcDbLine
 10
0.707107
 20
0.707107
 30
0.0
 11
-0.707107
 21
-0.707107
 31
0.0
  0
ENDBLK
  5
55
100
AcDbEntity
  8
0
100
AcDbBlockEnd
  0
BLOCK
  5
56
100
AcDbEntity
  8
0
100
AcDbBlockBegin
  2
_EX_NONE
 70
     0
 10
0.0
 20
0.0
 30
0.0
  3
_EX_NONE
  1

  0
LINE
  5
57
100
AcDbEntity
  8
0
  6
CONTINUOUS
 62
     0
100
AcDbLine
 10
0.0
 20
0.0
 30
0.0
 11
-1.0
 21
0.0
 31
0.0
  0
ENDBLK
  5
58
100
AcDbEntity
  8
0
100
AcDbBlockEnd
  0
BLOCK
  5
59
100
AcDbEntity
  8
0
100
AcDbBlockBegin
  2
_EX_CIVIL
 70
     0
 10
0.0
 20
0.0
 30
0.0
  3
_EX_CIVIL
  1

  0
LINE
  5
5A
100
AcDbEntity
  8
0
  6
CONTINUOUS
 62
     0
100
AcDbLine
 10
0.0
 20
0.0
 30
0.0
 11
-1.0
 21
0.0
 31
0.0
  0
LINE
  5
5B
100
AcDbEntity
  8
0
  6
CONTINUOUS
 62
     0
100
AcDbLine
 10
-1.0
 20
0.25
 30
0.0
 11
0.0
 21
0.25
 31
0.0
  0
LINE
  5
5C
100
AcDbEntity
  8
0
  6
CONTINUOUS
 62
     0
100
AcDbLine
 10
-1.0
 20
0.125
 30
0.0
 11
0.0
 21
0.125
 31
0.0
  0
ENDBLK
  5
5D
100
AcDbEntity
  8
0
100
AcDbBlockEnd
  0
BLOCK
  5
5E
100
AcDbEntity
  8
0
100
AcDbBlockBegin
  2
_EX_WCIR
 70
     0
 10
0.0
 20
0.0
 30
0.0
  3
_EX_WCIR
  1

  0
LINE
  5
5F
100
AcDbEntity
  8
0
  6
CONTINUOUS
 62
     0
100
AcDbLine
 10
0.0
 20
0.0
 30
0.0
 11
-1.0
 21
0.0
 31
0.0
  0
CIRCLE
  5
60
100
AcDbEntity
  8
0
  6
CONTINUOUS
 62
     0
100
AcDbCircle
 10
0.0
 20
0.0
 30
0.0
 40
0.5
  0
ENDBLK
  5
61
100
AcDbEntity
  8
0
100
AcDbBlockEnd
  0
BLOCK
  5
62
100
AcDbEntity
  8
0
100
AcDbBlockBegin
  2
_EX_WCIR2
 70
     0
 10
0.0
 20
0.0
 30
0.0
  3
_EX_WCIR2
  1

  0
LINE
  5
63
100
AcDbEntity
  8
0
  6
CONTINUOUS
 62
     0
100
AcDbLine
 10
-0.5
 20
0.0
 30
0.0
 11
-1.0
 21
0.0
 31
0.0
  0
CIRCLE
  5
64
100
AcDbEntity
  8
0
  6
CONTINUOUS
 62
     0
100
AcDbCircle
 10
0.0
 20
0.0
 30
0.0
 40
0.5
  0
ENDBLK
  5
65
100
AcDbEntity
  8
0
100
AcDbBlockEnd
  0
BLOCK
  5
66
100
AcDbEntity
  8
0
100
AcDbBlockBegin
  2
_EX_WNORM
 70
     0
 10
0.0
 20
0.0
 30
0.0
  3
_EX_WNORM
  1

  0
LINE
  5
67
100
AcDbEntity
  8
0
  6
CONTINUOUS
 62
     0
100
AcDbLine
 10
-1.0
 20
0.0
 30
0.0
 11
-1.0
 21
0.0
 31
0.0
  0
LINE
  5
68
100
AcDbEntity
  8
0
  6
CONTINUOUS
 62
     0
100
AcDbLine
 10
0.0
 20
0.0
 30
0.0
 11
-1.0
 21
0.166667
 31
0.0
  0
LINE
  5
69
100
AcDbEntity
  8
0
  6
CONTINUOUS
 62
     0
100
AcDbLine
 10
0.0
 20
0.0
 30
0.0
 11
-1.0
 21
-0.166667
 31
0.0
  0
LINE
  5
6A
100
AcDbEntity
  8
0
  6
CONTINUOUS
 62
     0
100
AcDbLine
 10
-1.0
 20
0.166667
 30
0.0
 11
-1.0
 21
-0.166667
 31
0.0
  0
ENDBLK
  5
6B
100
AcDbEntity
  8
0
100
AcDbBlockEnd
  0
BLOCK
  5
6C
100
AcDbEntity
  8
0
100
AcDbBlockBegin
  2
_EX_NNORM
 70
     0
 10
0.0
 20
0.0
 30
0.0
  3
_EX_NNORM
  1

  0
LINE
  5
6D
100
AcDbEntity
  8
0
  6
CONTINUOUS
 62
     0
100
AcDbLine
 10
0.0
 20
0.0
 30
0.0
 11
-1.0
 21
0.0
 31
0.0
  0
LINE
  5
6E
100
AcDbEntity
  8
0
  6
CONTINUOUS
 62
     0
100
AcDbLine
 10
0.0
 20
0.0
 30
0.0
 11
-1.0
 21
0.166667
 31
0.0
  0
LINE
  5
6F
100
AcDbEntity
  8
0
  6
CONTINUOUS
 62
     0
100
AcDbLine
 10
0.0
 20
0.0
 30
0.0
 11
-1.0
 21
-0.166667
 31
0.0
  0
LINE
  5
70
100
AcDbEntity
  8
0
  6
CONTINUOUS
 62
     0
100
AcDbLine
 10
-1.0
 20
0.166667
 30
0.0
 11
-1.0
 21
-0.166667
 31
0.0
  0
ENDBLK
  5
71
100
AcDbEntity
  8
0
100
AcDbBlockEnd
  0
BLOCK
  5
72
100
AcDbEntity
  8
0
100
AcDbBlockBegin
  2
_EX_BBOX
 70
     0
 10
0.0
 20
0.0
 30
0.0
  3
_EX_BBOX
  1

  0
LINE
  5
73
100
AcDbEntity
  8
0
  6
CONTINUOUS
 62
     0
100
AcDbLine
 10
0.0
 20
0.0
 30
0.0
 11
-1.0
 21
0.0
 31
0.0
  0
LINE
  5
74
100
AcDbEntity
  8
0
  6
CONTINUOUS
 62
     0
100
AcDbLine
 10
-0.5
 20
0.5
 30
0.0
 11
0.5
 21
0.5
 31
0.0
  0
LINE
  5
75
100
AcDbEntity
  8
0
  6
CONTINUOUS
 62
     0
100
AcDbLine
 10
0.5
 20
0.5
 30
0.0
 11
0.5
 21
-0.5
 31
0.0
  0
LINE
  5
76
100
AcDbEntity
  8
0
  6
CONTINUOUS
 62
     0
100
AcDbLine
 10
0.5
 20
-0.5
 30
0.0
 11
-0.5
 21
-0.5
 31
0.0
  0
LINE
  5
77
100
AcDbEntity
  8
0
  6
CONTINUOUS
 62
     0
100
AcDbLine
 10
-0.5
 20
-0.5
 30
0.0
 11
-0.5
 21
0.5
 31
0.0
  0
LINE
  5
78
100
AcDbEntity
  8
0
  6
CONTINUOUS
 62
     0
100
AcDbLine
 10
-0.25
 20
0.25
 30
0.0
 11
0.25
 21
0.25
 31
0.0
  0
LINE
  5
79
100
AcDbEntity
  8
0
  6
CONTINUOUS
 62
     0
100
AcDbLine
 10
0.25
 20
0.25
 30
0.0
 11
0.25
 21
-0.25
 31
0.0
  0
LINE
  5
7A
100
AcDbEntity
  8
0
  6
CONTINUOUS
 62
     0
100
AcDbLine
 10
0.25
 20
-0.25
 30
0.0
 11
-0.25
 21
-0.25
 31
0.0
  0
LINE
  5
7B
100
AcDbEntity
  8
0
  6
CONTINUOUS
 62
     0
100
AcDbLine
 10
-0.25
 20
-0.25
 30
0.0
 11
-0.25
 21
0.25
 31
0.0
  0
ENDBLK
  5
7C
100
AcDbEntity
  8
0
100
AcDbBlockEnd
  0
BLOCK
  5
7D
100
AcDbEntity
  8
0
100
AcDbBlockBegin
  2
_EX_WBOX
 70
     0
 10
0.0
 20
0.0
 30
0.0
  3
_EX_WBOX
  1

  0
LINE
  5
7E
100
AcDbEntity
  8
0
  6
CONTINUOUS
 62
     0
100
AcDbLine
 10
-0.5
 20
0.0
 30
0.0
 11
-1.0
 21
0.0
 31
0.0
  0
LINE
  5
7F
100
AcDbEntity
  8
0
  6
CONTINUOUS
 62
     0
100
AcDbLine
 10
-0.5
 20
0.5
 30
0.0
 11
0.5
 21
0.5
 31
0.0
  0
LINE
  5
80
100
AcDbEntity
  8
0
  6
CONTINUOUS
 62
     0
100
AcDbLine
 10
0.5
 20
0.5
 30
0.0
 11
0.5
 21
-0.5
 31
0.0
  0
LINE
  5
81
100
AcDbEntity
  8
0
  6
CONTINUOUS
 62
     0
100
AcDbLine
 10
0.5
 20
-0.5
 30
0.0
 11
-0.5
 21
-0.5
 31
0.0
  0
LINE
  5
82
100
AcDbEntity
  8
0
  6
CONTINUOUS
 62
     0
100
AcDbLine
 10
-0.5
 20
-0.5
 30
0.0
 11
-0.5
 21
0.5
 31
0.0
  0
ENDBLK
  5
83
100
AcDbEntity
  8
0
100
AcDbBlockEnd
  0
BLOCK
  5
84
100
AcDbEntity
  8
0
100
AcDbBlockBegin
  2
_EX_INTEGRAL
 70
     0
 10
0.0
 20
0.0
 30
0.0
  3
_EX_INTEGRAL
  1

  0
LINE
  5
85
100
AcDbEntity
  8
0
  6
CONTINUOUS
 62
     0
100
AcDbLine
 10
0.0
 20
0.0
 30
0.0
 11
-1.0
 21
0.0
 31
0.0
  0
ARC
  5
86
100
AcDbEntity
  8
0
  6
CONTINUOUS
 62
     0
100
AcDbCircle
 10
0.542115
 20
0.164992
 30
0.0
 40
0.56667
100
AcDbArc
 50
73.07249
 51
196.927513
  0
ARC
  5
87
100
AcDbEntity
  8
0
  6
CONTINUOUS
 62
     0
100
AcDbCircle
 10
-0.542115
 20
-0.164992
 30
0.0
 40
0.56667
100
AcDbArc
 50
253.072487
 51
16.927513
  0
ENDBLK
  5
88
100
AcDbEntity
  8
0
100
AcDbBlockEnd
  0
ENDSEC
  0
SECTION
  2
ENTITIES
  0
LINE
  5
89
100
AcDbEntity
  8
LAY-1
  6
DASHED2
 62
     3
100
AcDbLine
 10
647.429016
 20
383.848987
 30
0.0
 11
642.429016
 21
383.848987
 31
0.0
  0
LINE
  5
8A
100
AcDbEntity
  8
LAY-1
  6
DASHED2
 62
     3
100
AcDbLine
 10
642.429016
 20
383.848987
 30
0.0
 11
640.279016
 21
381.698987
 31
0.0
  0
LINE
  5
8B
100
AcDbEntity
  8
LAY-1
  6
DASHED2
 62
     3
100
AcDbLine
 10
647.429016
 20
383.848987
 30
0.0
 11
649.579016
 21
381.698987
 31
0.0
  0
LINE
  5
8C
100
AcDbEntity
  8
LAY-1
  6
DASHED2
 62
     3
100
AcDbLine
 10
640.279016
 20
381.698987
 30
0.0
 11
649.579016
 21
381.698987
 31
0.0
  0
LINE
  5
8D
100
AcDbEntity
  8
LAY-1
  6
DASHED2
 62
     3
100
AcDbLine
 10
640.279016
 20
381.698987
 30
0.0
 11
640.279016
 21
381.148987
 31
0.0
  0
LINE
  5
8E
100
AcDbEntity
  8
LAY-1
  6
DASHED2
 62
     3
100
AcDbLine
 10
649.579016
 20
381.698987
 30
0.0
 11
649.579016
 21
381.148987
 31
0.0
  0
LINE
  5
8F
100
AcDbEntity
  8
LAY-1
  6
DASHED2
 62
     3
100
AcDbLine
 10
642.429016
 20
396.148987
 30
0.0
 11
642.429016
 21
383.848987
 31
0.0
  0
LINE
  5
90
100
AcDbEntity
  8
LAY-1
  6
DASHED2
 62
     1
100
AcDbLine
 10
642.929016
 20
396.148987
 30
0.0
 11
642.929016
 21
383.848987
 31
0.0
  0
LINE
  5
91
100
AcDbEntity
  8
LAY-1
  6
DASHED2
 62
     1
100
AcDbLine
 10
646.929016
 20
396.148987
 30
0.0
 11
646.929016
 21
383.848987
 31
0.0
  0
LINE
  5
92
100
AcDbEntity
  8
LAY-1
  6
DASHED2
 62
     3
100
AcDbLine
 10
647.429016
 20
396.148987
 30
0.0
 11
647.429016
 21
383.848987
 31
0.0
  0
LINE
  5
93
100
AcDbEntity
  8
LAY-1
  6
CONTINUOUS
 62
     3
100
AcDbLine
 10
647.429016
 20
401.698987
 30
0.0
 11
642.429016
 21
401.698987
 31
0.0
  0
LINE
  5
94
100
AcDbEntity
  8
LAY-1
  6
CONTINUOUS
 62
     3
100
AcDbLine
 10
642.429016
 20
401.698987
 30
0.0
 11
642.429016
 21
396.148987
 31
0.0
  0
LINE
  5
95
100
AcDbEntity
  8
LAY-1
  6
CONTINUOUS
 62
     1
100
AcDbLine
 10
642.929016
 20
401.698987
 30
0.0
 11
642.929016
 21
396.148987
 31
0.0
  0
LINE
  5
96
100
AcDbEntity
  8
LAY-1
  6
CONTINUOUS
 62
     1
100
AcDbLine
 10
646.929016
 20
401.698987
 30
0.0
 11
646.929016
 21
396.148987
 31
0.0
  0
LINE
  5
97
100
AcDbEntity
  8
LAY-1
  6
CONTINUOUS
 62
     3
100
AcDbLine
 10
647.429016
 20
401.698987
 30
0.0
 11
647.429016
 21
396.148987
 31
0.0
  0
LINE
  5
98
100
AcDbEntity
  8
LAY-1
  6
DASHED2
 62
     3
100
AcDbLine
 10
665.429016
 20
383.848987
 30
0.0
 11
660.429016
 21
383.848987
 31
0.0
  0
LINE
  5
99
100
AcDbEntity
  8
LAY-1
  6
DASHED2
 62
     3
100
AcDbLine
 10
660.429016
 20
383.848987
 30
0.0
 11
658.279016
 21
381.698987
 31
0.0
  0
LINE
  5
9A
100
AcDbEntity
  8
LAY-1
  6
DASHED2
 62
     3
100
AcDbLine
 10
665.429016
 20
383.848987
 30
0.0
 11
667.579016
 21
381.698987
 31
0.0
  0
LINE
  5
9B
100
AcDbEntity
  8
LAY-1
  6
DASHED2
 62
     3
100
AcDbLine
 10
658.279016
 20
381.698987
 30
0.0
 11
667.579016
 21
381.698987
 31
0.0
  0
LINE
  5
9C
100
AcDbEntity
  8
LAY-1
  6
DASHED2
 62
     3
100
AcDbLine
 10
658.279016
 20
381.698987
 30
0.0
 11
658.279016
 21
381.148987
 31
0.0
  0
LINE
  5
9D
100
AcDbEntity
  8
LAY-1
  6
DASHED2
 62
     3
100
AcDbLine
 10
667.579016
 20
381.698987
 30
0.0
 11
667.579016
 21
381.148987
 31
0.0
  0
LINE
  5
9E
100
AcDbEntity
  8
LAY-1
  6
DASHED2
 62
     3
100
AcDbLine
 10
660.429016
 20
396.148987
 30
0.0
 11
660.429016
 21
383.848987
 31
0.0
  0
LINE
  5
9F
100
AcDbEntity
  8
LAY-1
  6
DASHED2
 62
     1
100
AcDbLine
 10
660.929016
 20
396.148987
 30
0.0
 11
660.929016
 21
383.848987
 31
0.0
  0
LINE
  5
A0
100
AcDbEntity
  8
LAY-1
  6
DASHED2
 62
     1
100
AcDbLine
 10
664.929016
 20
396.148987
 30
0.0
 11
664.929016
 21
383.848987
 31
0.0
  0
LINE
  5
A1
100
AcDbEntity
  8
LAY-1
  6
DASHED2
 62
     3
100
AcDbLine
 10
665.429016
 20
396.148987
 30
0.0
 11
665.429016
 21
383.848987
 31
0.0
  0
LINE
  5
A2
100
AcDbEntity
  8
LAY-1
  6
CONTINUOUS
 62
     3
100
AcDbLine
 10
665.429016
 20
401.698987
 30
0.0
 11
660.429016
 21
401.698987
 31
0.0
  0
LINE
  5
A3
100
AcDbEntity
  8
LAY-1
  6
CONTINUOUS
 62
     3
100
AcDbLine
 10
660.429016
 20
401.698987
 30
0.0
 11
660.429016
 21
396.148987
 31
0.0
  0
LINE
  5
A4
100
AcDbEntity
  8
LAY-1
  6
CONTINUOUS
 62
     1
100
AcDbLine
 10
660.929016
 20
401.698987
 30
0.0
 11
660.929016
 21
396.148987
 31
0.0
  0
LINE
  5
A5
100
AcDbEntity
  8
LAY-1
  6
CONTINUOUS
 62
     1
100
AcDbLine
 10
664.929016
 20
401.698987
 30
0.0
 11
664.929016
 21
396.148987
 31
0.0
  0
LINE
  5
A6
100
AcDbEntity
  8
LAY-1
  6
CONTINUOUS
 62
     3
100
AcDbLine
 10
665.429016
 20
401.698987
 30
0.0
 11
665.429016
 21
396.148987
 31
0.0
  0
ARC
  5
A7
100
AcDbEntity
  8
LAY-1
  6
CONTINUOUS
 62
     3
100
AcDbCircle
 10
203.227921
 20
383.262939
 30
0.0
 40
16.0
100
AcDbArc
 50
154.99998
 51
334.999943
  0
ARC
  5
A8
100
AcDbEntity
  8
LAY-1
  6
CONTINUOUS
 62
     3
100
AcDbCircle
 10
203.227921
 20
383.262939
 30
0.0
 40
15.0
100
AcDbArc
 50
154.999923
 51
335.0
  0
LINE
  5
A9
100
AcDbEntity
  8
LAY-1
  6
CONTINUOUS
 62
     3
100
AcDbLine
 10
216.822517
 20
376.923706
 30
0.0
 11
227.239479
 21
399.262939
 31
0.0
  0
LINE
  5
AA
100
AcDbEntity
  8
LAY-1
  6
CONTINUOUS
 62
     3
100
AcDbLine
 10
217.728828
 20
376.501038
 30
0.0
 11
228.342873
 21
399.262939
 31
0.0
  0
LINE
  5
AB
100
AcDbEntity
  8
LAY-1
  6
CONTINUOUS
 62
     3
100
AcDbLine
 10
193.034798
 20
399.262939
 30
0.0
 11
188.726997
 21
390.024841
 31
0.0
  0
LINE
  5
AC
100
AcDbEntity
  8
LAY-1
  6
CONTINUOUS
 62
     3
100
AcDbLine
 10
194.138168
 20
399.262939
 30
0.0
 11
189.633308
 21
389.602234
 31
0.0
  0
LINE
  5
AD
100
AcDbEntity
  8
LAY-1
  6
CONTINUOUS
 62
     3
100
AcDbLine
 10
198.741135
 20
398.817017
 30
0.0
 11
193.433495
 21
393.954956
 31
0.0
  0
LINE
  5
AE
100
AcDbEntity
  8
LAY-1
  6
CONTINUOUS
 62
     3
100
AcDbLine
 10
224.227913
 20
399.262939
 30
0.0
 11
216.906166
 21
378.450867
 31
0.0
  0
ARC
  5
AF
100
AcDbEntity
  8
LAY-1
  6
CONTINUOUS
 62
     3
100
AcDbCircle
 10
203.227921
 20
383.262939
 30
0.0
 40
14.5
100
AcDbArc
 50
132.491276
 51
340.617852
  0
LINE
  5
B0
100
AcDbEntity
  8
LAY-1
  6
CONTINUOUS
 62
     3
100
AcDbLine
 10
224.227913
 20
399.262939
 30
0.0
 11
228.342873
 21
399.262939
 31
0.0
  0
LINE
  5
B1
100
AcDbEntity
  8
LAY-1
  6
CONTINUOUS
 62
     3
100
AcDbLine
 10
199.227921
 20
399.923096
 30
0.0
 11
199.227921
 21
429.262939
 31
0.0
  0
LINE
  5
B2
100
AcDbEntity
  8
LAY-1
  6
CONTINUOUS
 62
     3
100
AcDbLine
 10
224.227913
 20
399.262939
 30
0.0
 11
224.227913
 21
429.262939
 31
0.0
  0
LINE
  5
B3
100
AcDbEntity
  8
LAY-1
  6
CONTINUOUS
 62
     3
100
AcDbLine
 10
202.227921
 20
432.262939
 30
0.0
 11
221.227913
 21
432.262939
 31
0.0
  0
ARC
  5
B4
100
AcDbEntity
  8
LAY-1
  6
CONTINUOUS
 62
     3
100
AcDbCircle
 10
202.227921
 20
429.262939
 30
0.0
 40
3.0
100
AcDbArc
 50
89.999981
 51
180.00002
  0
ARC
  5
B5
100
AcDbEntity
  8
LAY-1
  6
CONTINUOUS
 62
     3
100
AcDbCircle
 10
221.227913
 20
429.262939
 30
0.0
 40
3.0
100
AcDbArc
 50
0.0
 51
89.999981
  0
CIRCLE
  5
B6
100
AcDbEntity
  8
LAY-1
  6
DASHED2
 62
     3
100
AcDbCircle
 10
203.227921
 20
383.262939
 30
0.0
 40
6.25
  0
ARC
  5
B7
100
AcDbEntity
  8
LAY-1
  6
CONTINUOUS
 62
     3
100
AcDbCircle
 10
197.727921
 20
399.923096
 30
0.0
 40
1.5
100
AcDbArc
 50
312.491239
 51
359.999982
  0
LINE
  5
B8
100
AcDbEntity
  8
LAY-1
  6
CONTINUOUS
 62
     3
100
AcDbLine
 10
193.034798
 20
399.262939
 30
0.0
 11
199.074844
 21
399.262939
 31
0.0
  0
LINE
  5
B9
100
AcDbEntity
  8
LAY-1
  6
DASHED2
 62
     3
100
AcDbLine
 10
224.227913
 20
399.262939
 30
0.0
 11
199.074837
 21
399.262939
 31
0.0
  0
CIRCLE
  5
BA
100
AcDbEntity
  8
LAY-1
  6
CONTINUOUS
 62
     1
100
AcDbCircle
 10
205.227921
 20
427.262939
 30
0.0
 40
2.5
  0
CIRCLE
  5
BB
100
AcDbEntity
  8
LAY-1
  6
CONTINUOUS
 62
     3
100
AcDbCircle
 10
205.227921
 20
427.262939
 30
0.0
 40
2.0
  0
CIRCLE
  5
BC
100
AcDbEntity
  8
LAY-1
  6
CONTINUOUS
 62
     1
100
AcDbCircle
 10
205.227921
 20
409.262939
 30
0.0
 40
2.5
  0
CIRCLE
  5
BD
100
AcDbEntity
  8
LAY-1
  6
CONTINUOUS
 62
     3
100
AcDbCircle
 10
205.227921
 20
409.262939
 30
0.0
 40
2.0
  0
CIRCLE
  5
BE
100
AcDbEntity
  8
LAY-1
  6
CONTINUOUS
 62
     1
100
AcDbCircle
 10
218.227921
 20
409.262939
 30
0.0
 40
2.5
  0
CIRCLE
  5
BF
100
AcDbEntity
  8
LAY-1
  6
CONTINUOUS
 62
     3
100
AcDbCircle
 10
218.227921
 20
409.262939
 30
0.0
 40
2.0
  0
CIRCLE
  5
C0
100
AcDbEntity
  8
LAY-1
  6
CONTINUOUS
 62
     1
100
AcDbCircle
 10
218.227921
 20
427.262939
 30
0.0
 40
2.5
  0
CIRCLE
  5
C1
100
AcDbEntity
  8
LAY-1
  6
CONTINUOUS
 62
     3
100
AcDbCircle
 10
218.227921
 20
427.262939
 30
0.0
 40
2.0
  0
CIRCLE
  5
C2
100
AcDbEntity
  8
LAY-1
  6
CONTINUOUS
 62
     3
100
AcDbCircle
 10
203.227921
 20
383.262939
 30
0.0
 40
9.4
  0
LINE
  5
C3
100
AcDbEntity
  8
LAY-1
  6
DASHED2
 62
     3
100
AcDbLine
 10
603.929016
 20
382.148987
 30
0.0
 11
603.929016
 21
394.148987
 31
0.0
  0
LINE
  5
C4
100
AcDbEntity
  8
LAY-1
  6
CONTINUOUS
 62
     3
100
AcDbLine
 10
602.929016
 20
394.148987
 30
0.0
 11
602.929016
 21
382.148987
 31
0.0
  0
LINE
  5
C5
100
AcDbEntity
  8
LAY-1
  6
CONTINUOUS
 62
     3
100
AcDbLine
 10
603.929016
 20
381.148987
 30
0.0
 11
634.929016
 21
381.148987
 31
0.0
  0
LINE
  5
C6
100
AcDbEntity
  8
LAY-1
  6
DASHED2
 62
     3
100
AcDbLine
 10
603.929016
 20
382.148987
 30
0.0
 11
634.929016
 21
382.148987
 31
0.0
  0
LINE
  5
C7
100
AcDbEntity
  8
LAY-1
  6
CONTINUOUS
 62
     3
100
AcDbLine
 10
602.929016
 20
394.148987
 30
0.0
 11
666.929016
 21
394.148987
 31
0.0
  0
LINE
  5
C8
100
AcDbEntity
  8
LAY-1
  6
CONTINUOUS
 62
     3
100
AcDbLine
 10
666.929016
 20
387.648987
 30
0.0
 11
634.929016
 21
387.648987
 31
0.0
  0
LINE
  5
C9
100
AcDbEntity
  8
LAY-1
  6
CONTINUOUS
 62
     3
100
AcDbLine
 10
634.929016
 20
394.148987
 30
0.0
 11
634.929016
 21
381.148987
 31
0.0
  0
LINE
  5
CA
100
AcDbEntity
  8
LAY-1
  6
CONTINUOUS
 62
     3
100
AcDbLine
 10
667.929016
 20
393.148987
 30
0.0
 11
667.929016
 21
388.648987
 31
0.0
  0
ARC
  5
CB
100
AcDbEntity
  8
LAY-1
  6
CONTINUOUS
 62
     3
100
AcDbCircle
 10
666.929016
 20
393.148987
 30
0.0
 40
1.0
100
AcDbArc
 50
0.0
 51
89.999981
  0
ARC
  5
CC
100
AcDbEntity
  8
LAY-1
  6
CONTINUOUS
 62
     3
100
AcDbCircle
 10
666.929016
 20
388.648987
 30
0.0
 40
1.0
100
AcDbArc
 50
270.0
 51
359.999982
  0
ARC
  5
CD
100
AcDbEntity
  8
LAY-1
  6
CONTINUOUS
 62
     3
100
AcDbCircle
 10
603.929016
 20
382.148987
 30
0.0
 40
1.0
100
AcDbArc
 50
180.00002
 51
270.0
  0
LINE
  5
CE
100
AcDbEntity
  8
LAY-1
  6
CONTINUOUS
 62
     3
100
AcDbLine
 10
618.929016
 20
398.148987
 30
0.0
 11
624.329016
 21
398.148987
 31
0.0
  0
ARC
  5
CF
100
AcDbEntity
  8
LAY-1
  6
CONTINUOUS
 62
     3
100
AcDbCircle
 10
624.329016
 20
394.148987
 30
0.0
 40
4.0
100
AcDbArc
 50
0.0
 51
90.0
  0
LINE
  5
D0
100
AcDbEntity
  8
LAY-1
  6
CONTINUOUS
 62
     3
100
AcDbLine
 10
618.929016
 20
398.148987
 30
0.0
 11
613.529016
 21
398.148987
 31
0.0
  0
ARC
  5
D1
100
AcDbEntity
  8
LAY-1
  6
CONTINUOUS
 62
     3
100
AcDbCircle
 10
613.529016
 20
394.148987
 30
0.0
 40
4.0
100
AcDbArc
 50
90.0
 51
180.0
  0
LINE
  5
D2
100
AcDbEntity
  8
LAY-1
  6
DASHED2
 62
     3
100
AcDbLine
 10
612.429016
 20
396.948987
 30
0.0
 11
618.929016
 21
396.948987
 31
0.0
  0
LINE
  5
D3
100
AcDbEntity
  8
LAY-1
  6
DASHED2
 62
     3
100
AcDbLine
 10
612.129016
 20
396.648987
 30
0.0
 11
612.129016
 21
394.148987
 31
0.0
  0
ARC
  5
D4
100
AcDbEntity
  8
LAY-1
  6
DASHED2
 62
     3
100
AcDbCircle
 10
612.429016
 20
396.648987
 30
0.0
 40
0.3
100
AcDbArc
 50
90.0
 51
180.0
  0
LINE
  5
D5
100
AcDbEntity
  8
LAY-1
  6
DASHED2
 62
     3
100
AcDbLine
 10
625.429016
 20
396.948987
 30
0.0
 11
618.929016
 21
396.948987
 31
0.0
  0
LINE
  5
D6
100
AcDbEntity
  8
LAY-1
  6
DASHED2
 62
     3
100
AcDbLine
 10
625.729016
 20
396.648987
 30
0.0
 11
625.729016
 21
394.148987
 31
0.0
  0
ARC
  5
D7
100
AcDbEntity
  8
LAY-1
  6
DASHED2
 62
     3
100
AcDbCircle
 10
625.429016
 20
396.648987
 30
0.0
 40
0.3
100
AcDbArc
 50
0.0
 51
90.0
  0
ARC
  5
D8
100
AcDbEntity
  8
LAY-2
  6
CONTINUOUS
 62
     3
100
AcDbCircle
 10
203.227921
 20
270.262939
 30
0.0
 40
15.0
100
AcDbArc
 50
154.99998
 51
335.0
  0
ARC
  5
D9
100
AcDbEntity
  8
LAY-2
  6
CONTINUOUS
 62
     3
100
AcDbCircle
 10
203.227921
 20
270.262939
 30
0.0
 40
16.0
100
AcDbArc
 50
155.000038
 51
334.999943
  0
LINE
  5
DA
100
AcDbEntity
  8
LAY-2
  6
CONTINUOUS
 62
     3
100
AcDbLine
 10
194.433723
 20
289.262939
 30
0.0
 11
188.726997
 21
277.024826
 31
0.0
  0
LINE
  5
DB
100
AcDbEntity
  8
LAY-2
  6
CONTINUOUS
 62
     3
100
AcDbLine
 10
195.537086
 20
289.262939
 30
0.0
 11
189.633301
 21
276.602219
 31
0.0
  0
LINE
  5
DC
100
AcDbEntity
  8
LAY-2
  6
CONTINUOUS
 62
     3
100
AcDbLine
 10
228.638435
 20
289.262939
 30
0.0
 11
216.822548
 21
263.92366
 31
0.0
  0
LINE
  5
DD
100
AcDbEntity
  8
LAY-2
  6
CONTINUOUS
 62
     3
100
AcDbLine
 10
229.741798
 20
289.262939
 30
0.0
 11
217.728828
 21
263.501038
 31
0.0
  0
CIRCLE
  5
DE
100
AcDbEntity
  8
LAY-2
  6
CONTINUOUS
 62
     3
100
AcDbCircle
 10
203.227921
 20
270.262939
 30
0.0
 40
6.25
  0
CIRCLE
  5
DF
100
AcDbEntity
  8
LAY-2
  6
CONTINUOUS
 62
     1
100
AcDbCircle
 10
203.227921
 20
270.262939
 30
0.0
 40
7.5
  0
LINE
  5
E0
100
AcDbEntity
  8
LAY-2
  6
CONTINUOUS
 62
     3
100
AcDbLine
 10
225.227913
 20
289.262939
 30
0.0
 11
216.916115
 21
265.479248
 31
0.0
  0
LINE
  5
E1
100
AcDbEntity
  8
LAY-2
  6
CONTINUOUS
 62
     3
100
AcDbLine
 10
200.227921
 20
289.262939
 30
0.0
 11
192.112091
 21
279.573593
 31
0.0
  0
ARC
  5
E2
100
AcDbEntity
  8
LAY-2
  6
CONTINUOUS
 62
     3
100
AcDbCircle
 10
203.227921
 20
270.262939
 30
0.0
 40
14.5
100
AcDbArc
 50
140.050366
 51
340.73674
  0
LINE
  5
E3
100
AcDbEntity
  8
LAY-2
  6
CONTINUOUS
 62
     3
100
AcDbLine
 10
225.227913
 20
289.262939
 30
0.0
 11
229.741798
 21
289.262939
 31
0.0
  0
LINE
  5
E4
100
AcDbEntity
  8
LAY-2
  6
CONTINUOUS
 62
     3
100
AcDbLine
 10
200.227921
 20
289.262939
 30
0.0
 11
194.433723
 21
289.262939
 31
0.0
  0
LINE
  5
E5
100
AcDbEntity
  8
LAY-2
  6
DASHED2
 62
     3
100
AcDbLine
 10
200.227921
 20
289.262939
 30
0.0
 11
225.227913
 21
289.262939
 31
0.0
  0
LINE
  5
E6
100
AcDbEntity
  8
LAY-2
  6
CONTINUOUS
 62
     3
100
AcDbLine
 10
200.227921
 20
289.262939
 30
0.0
 11
200.227921
 21
316.262939
 31
0.0
  0
LINE
  5
E7
100
AcDbEntity
  8
LAY-2
  6
CONTINUOUS
 62
     3
100
AcDbLine
 10
225.227913
 20
289.262939
 30
0.0
 11
225.227913
 21
294.762939
 31
0.0
  0
LINE
  5
E8
100
AcDbEntity
  8
LAY-2
  6
CONTINUOUS
 62
     3
100
AcDbLine
 10
203.227921
 20
319.262939
 30
0.0
 11
237.227905
 21
319.262939
 31
0.0
  0
LINE
  5
E9
100
AcDbEntity
  8
LAY-2
  6
CONTINUOUS
 62
     3
100
AcDbLine
 10
225.727913
 20
295.262939
 30
0.0
 11
237.227905
 21
295.262939
 31
0.0
  0
LINE
  5
EA
100
AcDbEntity
  8
LAY-2
  6
CONTINUOUS
 62
     3
100
AcDbLine
 10
240.227905
 20
298.262939
 30
0.0
 11
240.227905
 21
316.262939
 31
0.0
  0
ARC
  5
EB
100
AcDbEntity
  8
LAY-2
  6
CONTINUOUS
 62
     3
100
AcDbCircle
 10
203.227921
 20
316.262939
 30
0.0
 40
3.0
100
AcDbArc
 50
89.999981
 51
180.00002
  0
ARC
  5
EC
100
AcDbEntity
  8
LAY-2
  6
CONTINUOUS
 62
     3
100
AcDbCircle
 10
237.227905
 20
316.262939
 30
0.0
 40
3.0
100
AcDbArc
 50
0.0
 51
89.999981
  0
ARC
  5
ED
100
AcDbEntity
  8
LAY-2
  6
CONTINUOUS
 62
     3
100
AcDbCircle
 10
237.227905
 20
298.262939
 30
0.0
 40
3.0
100
AcDbArc
 50
270.0
 51
359.999982
  0
ARC
  5
EE
100
AcDbEntity
  8
LAY-2
  6
CONTINUOUS
 62
     3
100
AcDbCircle
 10
225.727913
 20
294.762939
 30
0.0
 40
0.5
100
AcDbArc
 50
89.999981
 51
180.00002
  0
LINE
  5
EF
100
AcDbEntity
  8
LAY-2
  6
DASHED2
 62
     3
100
AcDbLine
 10
191.638657
 20
278.977234
 30
0.0
 11
199.526543
 21
275.299042
 31
0.0
  0
LINE
  5
F0
100
AcDbEntity
  8
LAY-2
  6
DASHED2
 62
     3
100
AcDbLine
 10
196.990845
 20
269.861206
 30
0.0
 11
189.102951
 21
273.539398
 31
0.0
  0
LINE
  5
F1
100
AcDbEntity
  8
LAY-2
  6
DASHED2
 62
     1
100
AcDbLine
 10
191.224854
 20
278.397827
 30
0.0
 11
199.230713
 21
274.664627
 31
0.0
  0
LINE
  5
F2
100
AcDbEntity
  8
LAY-2
  6
DASHED2
 62
     1
100
AcDbLine
 10
189.280815
 20
274.228821
 30
0.0
 11
197.286675
 21
270.495621
 31
0.0
  0
CIRCLE
  5
F3
100
AcDbEntity
  8
LAY-2
  6
CONTINUOUS
 62
     3
100
AcDbCircle
 10
207.227921
 20
301.262939
 30
0.0
 40
2.75
  0
CIRCLE
  5
F4
100
AcDbEntity
  8
LAY-2
  6
CONTINUOUS
 62
     3
100
AcDbCircle
 10
207.227921
 20
301.262939
 30
0.0
 40
5.0
  0
CIRCLE
  5
F5
100
AcDbEntity
  8
LAY-2
  6
CONTINUOUS
 62
     3
100
AcDbCircle
 10
207.227921
 20
313.262939
 30
0.0
 40
2.75
  0
CIRCLE
  5
F6
100
AcDbEntity
  8
LAY-2
  6
CONTINUOUS
 62
     3
100
AcDbCircle
 10
207.227921
 20
313.262939
 30
0.0
 40
5.0
  0
CIRCLE
  5
F7
100
AcDbEntity
  8
LAY-2
  6
CONTINUOUS
 62
     3
100
AcDbCircle
 10
231.227913
 20
301.262939
 30
0.0
 40
2.75
  0
CIRCLE
  5
F8
100
AcDbEntity
  8
LAY-2
  6
CONTINUOUS
 62
     3
100
AcDbCircle
 10
231.227913
 20
301.262939
 30
0.0
 40
5.0
  0
CIRCLE
  5
F9
100
AcDbEntity
  8
LAY-2
  6
CONTINUOUS
 62
     3
100
AcDbCircle
 10
231.227913
 20
313.262939
 30
0.0
 40
2.75
  0
CIRCLE
  5
FA
100
AcDbEntity
  8
LAY-2
  6
CONTINUOUS
 62
     3
100
AcDbCircle
 10
231.227913
 20
313.262939
 30
0.0
 40
5.0
  0
LINE
  5
FB
100
AcDbEntity
  8
LAY-2
  6
CONTINUOUS
 62
     3
100
AcDbLine
 10
602.929016
 20
378.148987
 30
0.0
 11
666.929016
 21
378.148987
 31
0.0
  0
LINE
  5
FC
100
AcDbEntity
  8
LAY-2
  6
CONTINUOUS
 62
     3
100
AcDbLine
 10
667.929016
 20
377.148987
 30
0.0
 11
667.929016
 21
370.148987
 31
0.0
  0
LINE
  5
FD
100
AcDbEntity
  8
LAY-2
  6
CONTINUOUS
 62
     3
100
AcDbLine
 10
666.929016
 20
369.148987
 30
0.0
 11
637.929016
 21
369.148987
 31
0.0
  0
LINE
  5
FE
100
AcDbEntity
  8
LAY-2
  6
CONTINUOUS
 62
     3
100
AcDbLine
 10
637.929016
 20
365.148987
 30
0.0
 11
637.929016
 21
378.148987
 31
0.0
  0
LINE
  5
FF
100
AcDbEntity
  8
LAY-2
  6
CONTINUOUS
 62
     3
100
AcDbLine
 10
637.929016
 20
365.148987
 30
0.0
 11
603.929016
 21
365.148987
 31
0.0
  0
LINE
  5
100
100
AcDbEntity
  8
LAY-2
  6
CONTINUOUS
 62
     3
100
AcDbLine
 10
602.929016
 20
366.148987
 30
0.0
 11
602.929016
 21
378.148987
 31
0.0
  0
LINE
  5
101
100
AcDbEntity
  8
LAY-2
  6
DASHED2
 62
     3
100
AcDbLine
 10
603.929016
 20
366.148987
 30
0.0
 11
603.929016
 21
378.148987
 31
0.0
  0
LINE
  5
102
100
AcDbEntity
  8
LAY-2
  6
DASHED2
 62
     3
100
AcDbLine
 10
603.929016
 20
366.148987
 30
0.0
 11
637.929016
 21
366.148987
 31
0.0
  0
ARC
  5
103
100
AcDbEntity
  8
LAY-2
  6
CONTINUOUS
 62
     3
100
AcDbCircle
 10
666.929016
 20
377.148987
 30
0.0
 40
1.0
100
AcDbArc
 50
0.0
 51
89.999981
  0
ARC
  5
104
100
AcDbEntity
  8
LAY-2
  6
CONTINUOUS
 62
     3
100
AcDbCircle
 10
666.929016
 20
370.148987
 30
0.0
 40
1.0
100
AcDbArc
 50
270.0
 51
359.999982
  0
ARC
  5
105
100
AcDbEntity
  8
LAY-2
  6
CONTINUOUS
 62
     3
100
AcDbCircle
 10
603.929016
 20
366.148987
 30
0.0
 40
1.0
100
AcDbArc
 50
180.00002
 51
270.0
  0
LINE
  5
106
100
AcDbEntity
  8
LAY-2
  6
DASHED2
 62
     3
100
AcDbLine
 10
647.429016
 20
372.648987
 30
0.0
 11
652.429016
 21
372.648987
 31
0.0
  0
LINE
  5
107
100
AcDbEntity
  8
LAY-2
  6
DASHED2
 62
     3
100
AcDbLine
 10
647.429016
 20
372.648987
 30
0.0
 11
644.929016
 21
375.148987
 31
0.0
  0
LINE
  5
108
100
AcDbEntity
  8
LAY-2
  6
DASHED2
 62
     3
100
AcDbLine
 10
652.429016
 20
372.648987
 30
0.0
 11
654.929016
 21
375.148987
 31
0.0
  0
LINE
  5
109
100
AcDbEntity
  8
LAY-2
  6
DASHED2
 62
     3
100
AcDbLine
 10
644.929016
 20
375.148987
 30
0.0
 11
654.929016
 21
375.148987
 31
0.0
  0
LINE
  5
10A
100
AcDbEntity
  8
LAY-2
  6
DASHED2
 62
     3
100
AcDbLine
 10
654.929016
 20
375.148987
 30
0.0
 11
654.929016
 21
378.148987
 31
0.0
  0
LINE
  5
10B
100
AcDbEntity
  8
LAY-2
  6
DASHED2
 62
     3
100
AcDbLine
 10
644.929016
 20
375.148987
 30
0.0
 11
644.929016
 21
378.148987
 31
0.0
  0
LINE
  5
10C
100
AcDbEntity
  8
LAY-2
  6
CONTINUOUS
 62
     3
100
AcDbLine
 10
647.429016
 20
363.148987
 30
0.0
 11
652.429016
 21
363.148987
 31
0.0
  0
LINE
  5
10D
100
AcDbEntity
  8
LAY-2
  6
CONTINUOUS
 62
     3
100
AcDbLine
 10
652.429016
 20
363.148987
 30
0.0
 11
652.429016
 21
365.948975
 31
0.0
  0
LINE
  5
10E
100
AcDbEntity
  8
LAY-2
  6
DASHED2
 62
     3
100
AcDbLine
 10
652.429016
 20
365.948975
 30
0.0
 11
652.429016
 21
372.648987
 31
0.0
  0
LINE
  5
10F
100
AcDbEntity
  8
LAY-2
  6
CONTINUOUS
 62
     1
100
AcDbLine
 10
651.929016
 20
365.948975
 30
0.0
 11
651.929016
 21
363.148987
 31
0.0
  0
LINE
  5
110
100
AcDbEntity
  8
LAY-2
  6
DASHED2
 62
     1
100
AcDbLine
 10
651.929016
 20
365.948975
 30
0.0
 11
651.929016
 21
372.648987
 31
0.0
  0
LINE
  5
111
100
AcDbEntity
  8
LAY-2
  6
CONTINUOUS
 62
     3
100
AcDbLine
 10
647.429016
 20
363.148987
 30
0.0
 11
647.429016
 21
365.948975
 31
0.0
  0
LINE
  5
112
100
AcDbEntity
  8
LAY-2
  6
CONTINUOUS
 62
     1
100
AcDbLine
 10
647.929016
 20
365.948975
 30
0.0
 11
647.929016
 21
363.148987
 31
0.0
  0
LINE
  5
113
100
AcDbEntity
  8
LAY-2
  6
DASHED2
 62
     3
100
AcDbLine
 10
647.429016
 20
365.948975
 30
0.0
 11
647.429016
 21
372.648987
 31
0.0
  0
LINE
  5
114
100
AcDbEntity
  8
LAY-2
  6
DASHED2
 62
     1
100
AcDbLine
 10
647.929016
 20
365.948975
 30
0.0
 11
647.929016
 21
372.648987
 31
0.0
  0
LINE
  5
115
100
AcDbEntity
  8
LAY-2
  6
DASHED2
 62
     3
100
AcDbLine
 10
659.429016
 20
372.648987
 30
0.0
 11
664.429016
 21
372.649017
 31
0.0
  0
LINE
  5
116
100
AcDbEntity
  8
LAY-2
  6
DASHED2
 62
     3
100
AcDbLine
 10
656.929016
 20
375.148987
 30
0.0
 11
666.929016
 21
375.149017
 31
0.0
  0
LINE
  5
117
100
AcDbEntity
  8
LAY-2
  6
DASHED2
 62
     3
100
AcDbLine
 10
656.929016
 20
375.148987
 30
0.0
 11
659.429016
 21
372.648987
 31
0.0
  0
LINE
  5
118
100
AcDbEntity
  8
LAY-2
  6
DASHED2
 62
     3
100
AcDbLine
 10
666.929016
 20
375.149017
 30
0.0
 11
664.429016
 21
372.649017
 31
0.0
  0
LINE
  5
119
100
AcDbEntity
  8
LAY-2
  6
DASHED2
 62
     3
100
AcDbLine
 10
656.929016
 20
375.148987
 30
0.0
 11
656.929016
 21
378.148987
 31
0.0
  0
LINE
  5
11A
100
AcDbEntity
  8
LAY-2
  6
DASHED2
 62
     3
100
AcDbLine
 10
666.929016
 20
375.149017
 30
0.0
 11
666.929016
 21
378.149017
 31
0.0
  0
LINE
  5
11B
100
AcDbEntity
  8
LAY-2
  6
CONTINUOUS
 62
     3
100
AcDbLine
 10
659.429016
 20
363.148987
 30
0.0
 11
664.429016
 21
363.149017
 31
0.0
  0
LINE
  5
11C
100
AcDbEntity
  8
LAY-2
  6
CONTINUOUS
 62
     3
100
AcDbLine
 10
664.429016
 20
363.149017
 30
0.0
 11
664.429016
 21
365.949005
 31
0.0
  0
LINE
  5
11D
100
AcDbEntity
  8
LAY-2
  6
CONTINUOUS
 62
     1
100
AcDbLine
 10
663.929016
 20
365.949005
 30
0.0
 11
663.929016
 21
363.149017
 31
0.0
  0
LINE
  5
11E
100
AcDbEntity
  8
LAY-2
  6
CONTINUOUS
 62
     3
100
AcDbLine
 10
659.429016
 20
363.148987
 30
0.0
 11
659.429016
 21
365.948975
 31
0.0
  0
LINE
  5
11F
100
AcDbEntity
  8
LAY-2
  6
CONTINUOUS
 62
     1
100
AcDbLine
 10
659.929016
 20
365.948975
 30
0.0
 11
659.929016
 21
363.148987
 31
0.0
  0
LINE
  5
120
100
AcDbEntity
  8
LAY-2
  6
DASHED2
 62
     3
100
AcDbLine
 10
659.429016
 20
365.948975
 30
0.0
 11
659.429016
 21
372.648987
 31
0.0
  0
LINE
  5
121
100
AcDbEntity
  8
LAY-2
  6
DASHED2
 62
     1
100
AcDbLine
 10
659.929016
 20
365.948975
 30
0.0
 11
659.929016
 21
372.648987
 31
0.0
  0
LINE
  5
122
100
AcDbEntity
  8
LAY-2
  6
DASHED2
 62
     3
100
AcDbLine
 10
664.429016
 20
365.949005
 30
0.0
 11
664.429016
 21
372.649017
 31
0.0
  0
LINE
  5
123
100
AcDbEntity
  8
LAY-2
  6
DASHED2
 62
     1
100
AcDbLine
 10
663.929016
 20
365.949005
 30
0.0
 11
663.929016
 21
372.649017
 31
0.0
  0
LINE
  5
124
100
AcDbEntity
  8
LAY-2
  6
CONTINUOUS
 62
     3
100
AcDbLine
 10
625.179016
 20
381.148987
 30
0.0
 11
625.179016
 21
378.148987
 31
0.0
  0
LINE
  5
125
100
AcDbEntity
  8
LAY-2
  6
CONTINUOUS
 62
     3
100
AcDbLine
 10
612.679016
 20
381.148987
 30
0.0
 11
612.679016
 21
378.148987
 31
0.0
  0
ARC
  5
126
100
AcDbEntity
  8
LAY-3
  6
DASHED2
 62
     3
100
AcDbCircle
 10
203.227921
 20
160.262932
 30
0.0
 40
15.0
100
AcDbArc
 50
154.99998
 51
335.0
  0
ARC
  5
127
100
AcDbEntity
  8
LAY-3
  6
CONTINUOUS
 62
     3
100
AcDbCircle
 10
203.227921
 20
160.262932
 30
0.0
 40
16.0
100
AcDbArc
 50
155.000038
 51
334.999943
  0
LINE
  5
128
100
AcDbEntity
  8
LAY-3
  6
CONTINUOUS
 62
     3
100
AcDbLine
 10
194.433723
 20
179.262932
 30
0.0
 11
188.726997
 21
167.024818
 31
0.0
  0
LINE
  5
129
100
AcDbEntity
  8
LAY-3
  6
DASHED2
 62
     3
100
AcDbLine
 10
195.537086
 20
179.262932
 30
0.0
 11
189.633301
 21
166.602211
 31
0.0
  0
LINE
  5
12A
100
AcDbEntity
  8
LAY-3
  6
DASHED2
 62
     3
100
AcDbLine
 10
228.638435
 20
179.262932
 30
0.0
 11
216.822548
 21
153.923653
 31
0.0
  0
LINE
  5
12B
100
AcDbEntity
  8
LAY-3
  6
CONTINUOUS
 62
     3
100
AcDbLine
 10
229.741798
 20
179.262932
 30
0.0
 11
217.728828
 21
153.50103
 31
0.0
  0
LINE
  5
12C
100
AcDbEntity
  8
LAY-3
  6
DASHED2
 62
     3
100
AcDbLine
 10
225.227913
 20
179.262932
 30
0.0
 11
216.916115
 21
155.47924
 31
0.0
  0
LINE
  5
12D
100
AcDbEntity
  8
LAY-3
  6
DASHED2
 62
     3
100
AcDbLine
 10
200.227921
 20
179.262932
 30
0.0
 11
192.112091
 21
169.573586
 31
0.0
  0
ARC
  5
12E
100
AcDbEntity
  8
LAY-3
  6
DASHED2
 62
     3
100
AcDbCircle
 10
203.227921
 20
160.262932
 30
0.0
 40
14.5
100
AcDbArc
 50
140.050366
 51
340.73674
  0
LINE
  5
12F
100
AcDbEntity
  8
LAY-3
  6
CONTINUOUS
 62
     3
100
AcDbLine
 10
229.741798
 20
179.262932
 30
0.0
 11
194.433723
 21
179.262932
 31
0.0
  0
LINE
  5
130
100
AcDbEntity
  8
LAY-3
  6
CONTINUOUS
 62
     3
100
AcDbLine
 10
200.227921
 20
179.262932
 30
0.0
 11
200.227921
 21
206.262939
 31
0.0
  0
LINE
  5
131
100
AcDbEntity
  8
LAY-3
  6
CONTINUOUS
 62
     3
100
AcDbLine
 10
225.227913
 20
179.262932
 30
0.0
 11
225.227913
 21
184.762932
 31
0.0
  0
LINE
  5
132
100
AcDbEntity
  8
LAY-3
  6
CONTINUOUS
 62
     3
100
AcDbLine
 10
203.227921
 20
209.262939
 30
0.0
 11
237.227905
 21
209.262939
 31
0.0
  0
LINE
  5
133
100
AcDbEntity
  8
LAY-3
  6
CONTINUOUS
 62
     3
100
AcDbLine
 10
225.727913
 20
185.262932
 30
0.0
 11
237.227905
 21
185.262932
 31
0.0
  0
LINE
  5
134
100
AcDbEntity
  8
LAY-3
  6
CONTINUOUS
 62
     3
100
AcDbLine
 10
240.227905
 20
188.262932
 30
0.0
 11
240.227905
 21
206.262939
 31
0.0
  0
ARC
  5
135
100
AcDbEntity
  8
LAY-3
  6
CONTINUOUS
 62
     3
100
AcDbCircle
 10
203.227921
 20
206.262939
 30
0.0
 40
3.0
100
AcDbArc
 50
89.999981
 51
180.00002
  0
ARC
  5
136
100
AcDbEntity
  8
LAY-3
  6
CONTINUOUS
 62
     3
100
AcDbCircle
 10
237.227905
 20
206.262939
 30
0.0
 40
3.0
100
AcDbArc
 50
0.0
 51
89.999981
  0
ARC
  5
137
100
AcDbEntity
  8
LAY-3
  6
CONTINUOUS
 62
     3
100
AcDbCircle
 10
237.227905
 20
188.262932
 30
0.0
 40
3.0
100
AcDbArc
 50
270.0
 51
359.999982
  0
ARC
  5
138
100
AcDbEntity
  8
LAY-3
  6
CONTINUOUS
 62
     3
100
AcDbCircle
 10
225.727913
 20
184.762932
 30
0.0
 40
0.5
100
AcDbArc
 50
89.999981
 51
180.00002
  0
CIRCLE
  5
139
100
AcDbEntity
  8
LAY-3
  6
CONTINUOUS
 62
     3
100
AcDbCircle
 10
207.227921
 20
191.262932
 30
0.0
 40
2.75
  0
CIRCLE
  5
13A
100
AcDbEntity
  8
LAY-3
  6
DASHED2
 62
     3
100
AcDbCircle
 10
207.227921
 20
191.262932
 30
0.0
 40
5.0
  0
CIRCLE
  5
13B
100
AcDbEntity
  8
LAY-3
  6
CONTINUOUS
 62
     3
100
AcDbCircle
 10
207.227921
 20
203.262932
 30
0.0
 40
2.75
  0
CIRCLE
  5
13C
100
AcDbEntity
  8
LAY-3
  6
DASHED2
 62
     3
100
AcDbCircle
 10
207.227921
 20
203.262932
 30
0.0
 40
5.0
  0
CIRCLE
  5
13D
100
AcDbEntity
  8
LAY-3
  6
CONTINUOUS
 62
     3
100
AcDbCircle
 10
231.227913
 20
191.262932
 30
0.0
 40
2.75
  0
CIRCLE
  5
13E
100
AcDbEntity
  8
LAY-3
  6
DASHED2
 62
     3
100
AcDbCircle
 10
231.227913
 20
191.262932
 30
0.0
 40
5.0
  0
CIRCLE
  5
13F
100
AcDbEntity
  8
LAY-3
  6
CONTINUOUS
 62
     3
100
AcDbCircle
 10
231.227913
 20
203.262932
 30
0.0
 40
2.75
  0
CIRCLE
  5
140
100
AcDbEntity
  8
LAY-3
  6
DASHED2
 62
     3
100
AcDbCircle
 10
231.227913
 20
203.262932
 30
0.0
 40
5.0
  0
CIRCLE
  5
141
100
AcDbEntity
  8
LAY-3
  6
DASHED2
 62
     3
100
AcDbCircle
 10
203.227921
 20
160.262932
 30
0.0
 40
12.0
  0
CIRCLE
  5
142
100
AcDbEntity
  8
LAY-3
  6
DASHED2
 62
     3
100
AcDbCircle
 10
203.227921
 20
160.262932
 30
0.0
 40
6.0
  0
LINE
  5
143
100
AcDbEntity
  8
LAY-3
  6
CONTINUOUS
 62
     3
100
AcDbLine
 10
603.929016
 20
194.148972
 30
0.0
 11
637.929016
 21
194.148972
 31
0.0
  0
LINE
  5
144
100
AcDbEntity
  8
LAY-3
  6
CONTINUOUS
 62
     3
100
AcDbLine
 10
602.929016
 20
181.148972
 30
0.0
 11
602.929016
 21
193.148972
 31
0.0
  0
LINE
  5
145
100
AcDbEntity
  8
LAY-3
  6
CONTINUOUS
 62
     3
100
AcDbLine
 10
602.929016
 20
181.148972
 30
0.0
 11
666.929016
 21
181.148972
 31
0.0
  0
LINE
  5
146
100
AcDbEntity
  8
LAY-3
  6
DASHED2
 62
     3
100
AcDbLine
 10
603.929016
 20
193.148972
 30
0.0
 11
637.929016
 21
193.148972
 31
0.0
  0
LINE
  5
147
100
AcDbEntity
  8
LAY-3
  6
DASHED2
 62
     3
100
AcDbLine
 10
603.929016
 20
193.148972
 30
0.0
 11
603.929016
 21
181.148972
 31
0.0
  0
LINE
  5
148
100
AcDbEntity
  8
LAY-3
  6
CONTINUOUS
 62
     3
100
AcDbLine
 10
637.929016
 20
194.148972
 30
0.0
 11
637.929016
 21
181.148972
 31
0.0
  0
LINE
  5
149
100
AcDbEntity
  8
LAY-3
  6
CONTINUOUS
 62
     3
100
AcDbLine
 10
637.929016
 20
190.148972
 30
0.0
 11
666.929016
 21
190.148972
 31
0.0
  0
LINE
  5
14A
100
AcDbEntity
  8
LAY-3
  6
CONTINUOUS
 62
     3
100
AcDbLine
 10
667.929016
 20
182.148972
 30
0.0
 11
667.929016
 21
189.148972
 31
0.0
  0
ARC
  5
14B
100
AcDbEntity
  8
LAY-3
  6
CONTINUOUS
 62
     3
100
AcDbCircle
 10
603.929016
 20
193.148972
 30
0.0
 40
1.0
100
AcDbArc
 50
89.999981
 51
180.00002
  0
ARC
  5
14C
100
AcDbEntity
  8
LAY-3
  6
CONTINUOUS
 62
     3
100
AcDbCircle
 10
666.929016
 20
189.148972
 30
0.0
 40
1.0
100
AcDbArc
 50
0.0
 51
89.999981
  0
ARC
  5
14D
100
AcDbEntity
  8
LAY-3
  6
CONTINUOUS
 62
     3
100
AcDbCircle
 10
666.929016
 20
182.148972
 30
0.0
 40
1.0
100
AcDbArc
 50
270.0
 51
359.999982
  0
LINE
  5
14E
100
AcDbEntity
  8
LAY-3
  6
DASHED2
 62
     3
100
AcDbLine
 10
664.429016
 20
186.648972
 30
0.0
 11
659.429016
 21
186.648972
 31
0.0
  0
LINE
  5
14F
100
AcDbEntity
  8
LAY-3
  6
DASHED2
 62
     3
100
AcDbLine
 10
666.929016
 20
184.148972
 30
0.0
 11
656.929016
 21
184.148972
 31
0.0
  0
LINE
  5
150
100
AcDbEntity
  8
LAY-3
  6
DASHED2
 62
     3
100
AcDbLine
 10
666.929016
 20
184.148972
 30
0.0
 11
664.429016
 21
186.648972
 31
0.0
  0
LINE
  5
151
100
AcDbEntity
  8
LAY-3
  6
DASHED2
 62
     3
100
AcDbLine
 10
656.929016
 20
184.148972
 30
0.0
 11
659.429016
 21
186.648972
 31
0.0
  0
LINE
  5
152
100
AcDbEntity
  8
LAY-3
  6
DASHED2
 62
     3
100
AcDbLine
 10
666.929016
 20
184.148972
 30
0.0
 11
666.929016
 21
181.148972
 31
0.0
  0
LINE
  5
153
100
AcDbEntity
  8
LAY-3
  6
DASHED2
 62
     3
100
AcDbLine
 10
656.929016
 20
184.148972
 30
0.0
 11
656.929016
 21
181.148972
 31
0.0
  0
LINE
  5
154
100
AcDbEntity
  8
LAY-3
  6
CONTINUOUS
 62
     3
100
AcDbLine
 10
664.429016
 20
196.148972
 30
0.0
 11
659.429016
 21
196.148972
 31
0.0
  0
LINE
  5
155
100
AcDbEntity
  8
LAY-3
  6
CONTINUOUS
 62
     3
100
AcDbLine
 10
664.429016
 20
195.648972
 30
0.0
 11
664.429016
 21
196.148972
 31
0.0
  0
LINE
  5
156
100
AcDbEntity
  8
LAY-3
  6
CONTINUOUS
 62
     1
100
AcDbLine
 10
663.929016
 20
195.648972
 30
0.0
 11
663.929016
 21
196.148972
 31
0.0
  0
LINE
  5
157
100
AcDbEntity
  8
LAY-3
  6
DASHED2
 62
     3
100
AcDbLine
 10
664.429016
 20
195.648972
 30
0.0
 11
664.429016
 21
186.648972
 31
0.0
  0
LINE
  5
158
100
AcDbEntity
  8
LAY-3
  6
DASHED2
 62
     1
100
AcDbLine
 10
663.929016
 20
195.648972
 30
0.0
 11
663.929016
 21
186.648972
 31
0.0
  0
LINE
  5
159
100
AcDbEntity
  8
LAY-3
  6
DASHED2
 62
     3
100
AcDbLine
 10
659.429016
 20
195.648972
 30
0.0
 11
659.429016
 21
186.648972
 31
0.0
  0
LINE
  5
15A
100
AcDbEntity
  8
LAY-3
  6
DASHED2
 62
     1
100
AcDbLine
 10
659.929016
 20
195.648972
 30
0.0
 11
659.929016
 21
186.648972
 31
0.0
  0
LINE
  5
15B
100
AcDbEntity
  8
LAY-3
  6
DASHED2
 62
     3
100
AcDbLine
 10
652.429016
 20
186.648972
 30
0.0
 11
647.429016
 21
186.648972
 31
0.0
  0
LINE
  5
15C
100
AcDbEntity
  8
LAY-3
  6
DASHED2
 62
     3
100
AcDbLine
 10
654.929016
 20
184.148972
 30
0.0
 11
644.929016
 21
184.148972
 31
0.0
  0
LINE
  5
15D
100
AcDbEntity
  8
LAY-3
  6
DASHED2
 62
     3
100
AcDbLine
 10
654.929016
 20
184.148972
 30
0.0
 11
652.429016
 21
186.648972
 31
0.0
  0
LINE
  5
15E
100
AcDbEntity
  8
LAY-3
  6
DASHED2
 62
     3
100
AcDbLine
 10
644.929016
 20
184.148972
 30
0.0
 11
647.429016
 21
186.648972
 31
0.0
  0
LINE
  5
15F
100
AcDbEntity
  8
LAY-3
  6
DASHED2
 62
     3
100
AcDbLine
 10
654.929016
 20
184.148972
 30
0.0
 11
654.929016
 21
181.148972
 31
0.0
  0
LINE
  5
160
100
AcDbEntity
  8
LAY-3
  6
DASHED2
 62
     3
100
AcDbLine
 10
644.929016
 20
184.148972
 30
0.0
 11
644.929016
 21
181.148972
 31
0.0
  0
LINE
  5
161
100
AcDbEntity
  8
LAY-3
  6
CONTINUOUS
 62
     3
100
AcDbLine
 10
652.429016
 20
196.148972
 30
0.0
 11
647.429016
 21
196.148972
 31
0.0
  0
LINE
  5
162
100
AcDbEntity
  8
LAY-3
  6
CONTINUOUS
 62
     3
100
AcDbLine
 10
652.429016
 20
195.648972
 30
0.0
 11
652.429016
 21
196.148972
 31
0.0
  0
LINE
  5
163
100
AcDbEntity
  8
LAY-3
  6
CONTINUOUS
 62
     1
100
AcDbLine
 10
651.929016
 20
195.648972
 30
0.0
 11
651.929016
 21
196.148972
 31
0.0
  0
LINE
  5
164
100
AcDbEntity
  8
LAY-3
  6
DASHED2
 62
     3
100
AcDbLine
 10
652.429016
 20
195.648972
 30
0.0
 11
652.429016
 21
186.648972
 31
0.0
  0
LINE
  5
165
100
AcDbEntity
  8
LAY-3
  6
DASHED2
 62
     1
100
AcDbLine
 10
651.929016
 20
195.648972
 30
0.0
 11
651.929016
 21
186.648972
 31
0.0
  0
LINE
  5
166
100
AcDbEntity
  8
LAY-3
  6
DASHED2
 62
     3
100
AcDbLine
 10
647.429016
 20
195.648972
 30
0.0
 11
647.429016
 21
186.648972
 31
0.0
  0
LINE
  5
167
100
AcDbEntity
  8
LAY-3
  6
DASHED2
 62
     1
100
AcDbLine
 10
647.929016
 20
195.648972
 30
0.0
 11
647.929016
 21
186.648972
 31
0.0
  0
LINE
  5
168
100
AcDbEntity
  8
LAY-3
  6
CONTINUOUS
 62
     3
100
AcDbLine
 10
659.429016
 20
195.648972
 30
0.0
 11
659.429016
 21
196.148972
 31
0.0
  0
LINE
  5
169
100
AcDbEntity
  8
LAY-3
  6
CONTINUOUS
 62
     1
100
AcDbLine
 10
659.929016
 20
195.648972
 30
0.0
 11
659.929016
 21
196.148972
 31
0.0
  0
LINE
  5
16A
100
AcDbEntity
  8
LAY-3
  6
CONTINUOUS
 62
     3
100
AcDbLine
 10
647.429016
 20
195.648972
 30
0.0
 11
647.429016
 21
196.148972
 31
0.0
  0
LINE
  5
16B
100
AcDbEntity
  8
LAY-3
  6
CONTINUOUS
 62
     1
100
AcDbLine
 10
647.929016
 20
195.648972
 30
0.0
 11
647.929016
 21
196.148972
 31
0.0
  0
CIRCLE
  5
16C
100
AcDbEntity
  8
LAY-4
  6
CONTINUOUS
 62
     3
100
AcDbCircle
 10
428.227966
 20
383.262939
 30
0.0
 40
11.0
  0
CIRCLE
  5
16D
100
AcDbEntity
  8
LAY-4
  6
CONTINUOUS
 62
     3
100
AcDbCircle
 10
428.227966
 20
383.262939
 30
0.0
 40
6.0
  0
CIRCLE
  5
16E
100
AcDbEntity
  8
LAY-4
  6
CONTINUOUS
 62
     3
100
AcDbCircle
 10
428.227966
 20
383.262939
 30
0.0
 40
5.0
  0
LINE
  5
16F
100
AcDbEntity
  8
LAY-4
  6
CONTINUOUS
 62
     3
100
AcDbLine
 10
408.727966
 20
399.262939
 30
0.0
 11
408.727966
 21
427.262939
 31
0.0
  0
LINE
  5
170
100
AcDbEntity
  8
LAY-4
  6
CONTINUOUS
 62
     3
100
AcDbLine
 10
403.727966
 20
399.262939
 30
0.0
 11
403.727966
 21
427.262939
 31
0.0
  0
LINE
  5
171
100
AcDbEntity
  8
LAY-4
  6
CONTINUOUS
 62
     3
100
AcDbLine
 10
403.727966
 20
427.262939
 30
0.0
 11
408.727966
 21
427.262939
 31
0.0
  0
LINE
  5
172
100
AcDbEntity
  8
LAY-4
  6
CONTINUOUS
 62
     3
100
AcDbLine
 10
403.727966
 20
399.262939
 30
0.0
 11
408.727966
 21
399.262939
 31
0.0
  0
LINE
  5
173
100
AcDbEntity
  8
LAY-4
  6
CONTINUOUS
 62
     3
100
AcDbLine
 10
406.607758
 20
375.028809
 30
0.0
 11
408.727966
 21
399.262939
 31
0.0
  0
LINE
  5
174
100
AcDbEntity
  8
LAY-4
  6
CONTINUOUS
 62
     3
100
AcDbLine
 10
401.645737
 20
375.462952
 30
0.0
 11
403.727966
 21
399.262939
 31
0.0
  0
LINE
  5
175
100
AcDbEntity
  8
LAY-4
  6
CONTINUOUS
 62
     3
100
AcDbLine
 10
415.843781
 20
374.220764
 30
0.0
 11
401.645737
 21
375.462952
 31
0.0
  0
LINE
  5
176
100
AcDbEntity
  8
LAY-4
  6
CONTINUOUS
 62
     3
100
AcDbLine
 10
417.363647
 20
394.164215
 30
0.0
 11
408.350876
 21
394.952728
 31
0.0
  0
LINE
  5
177
100
AcDbEntity
  8
LAY-4
  6
DASHED2
 62
     3
100
AcDbLine
 10
403.388855
 20
395.386841
 30
0.0
 11
408.350876
 21
394.952728
 31
0.0
  0
ARC
  5
178
100
AcDbEntity
  8
LAY-4
  6
CONTINUOUS
 62
     3
100
AcDbCircle
 10
428.227966
 20
383.262939
 30
0.0
 40
14.0
100
AcDbArc
 50
227.566403
 51
123.289517
  0
ARC
  5
179
100
AcDbEntity
  8
LAY-4
  6
CONTINUOUS
 62
     3
100
AcDbCircle
 10
417.799438
 20
399.145203
 30
0.0
 40
5.0
100
AcDbArc
 50
264.999856
 51
303.289537
  0
ARC
  5
17A
100
AcDbEntity
  8
LAY-4
  6
CONTINUOUS
 62
     3
100
AcDbCircle
 10
415.40799
 20
369.239807
 30
0.0
 40
5.0
100
AcDbArc
 50
47.566269
 51
84.999836
  0
LINE
  5
17B
100
AcDbEntity
  8
LAY-4
  6
CONTINUOUS
 62
     3
100
AcDbLine
 10
407.731277
 20
387.870667
 30
0.0
 11
402.769257
 21
388.30481
 31
0.0
  0
LINE
  5
17C
100
AcDbEntity
  8
LAY-4
  6
DASHED2
 62
     3
100
AcDbLine
 10
412.527966
 20
424.762939
 30
0.0
 11
412.527966
 21
419.762939
 31
0.0
  0
LINE
  5
17D
100
AcDbEntity
  8
LAY-4
  6
DASHED2
 62
     3
100
AcDbLine
 10
412.527966
 20
419.762939
 30
0.0
 11
414.677966
 21
417.612939
 31
0.0
  0
LINE
  5
17E
100
AcDbEntity
  8
LAY-4
  6
DASHED2
 62
     3
100
AcDbLine
 10
412.527966
 20
424.762939
 30
0.0
 11
414.677966
 21
426.912939
 31
0.0
  0
LINE
  5
17F
100
AcDbEntity
  8
LAY-4
  6
DASHED2
 62
     3
100
AcDbLine
 10
414.677966
 20
417.612939
 30
0.0
 11
414.677966
 21
426.912939
 31
0.0
  0
LINE
  5
180
100
AcDbEntity
  8
LAY-4
  6
DASHED2
 62
     3
100
AcDbLine
 10
414.677966
 20
417.612939
 30
0.0
 11
415.227966
 21
417.612939
 31
0.0
  0
LINE
  5
181
100
AcDbEntity
  8
LAY-4
  6
DASHED2
 62
     3
100
AcDbLine
 10
414.677966
 20
426.912939
 30
0.0
 11
415.227966
 21
426.912939
 31
0.0
  0
LINE
  5
182
100
AcDbEntity
  8
LAY-4
  6
DASHED2
 62
     3
100
AcDbLine
 10
400.227966
 20
419.762939
 30
0.0
 11
412.527966
 21
419.762939
 31
0.0
  0
LINE
  5
183
100
AcDbEntity
  8
LAY-4
  6
DASHED2
 62
     1
100
AcDbLine
 10
400.227966
 20
420.262939
 30
0.0
 11
412.527966
 21
420.262939
 31
0.0
  0
LINE
  5
184
100
AcDbEntity
  8
LAY-4
  6
DASHED2
 62
     1
100
AcDbLine
 10
400.227966
 20
424.262939
 30
0.0
 11
412.527966
 21
424.262939
 31
0.0
  0
LINE
  5
185
100
AcDbEntity
  8
LAY-4
  6
DASHED2
 62
     3
100
AcDbLine
 10
400.227966
 20
424.762939
 30
0.0
 11
412.527966
 21
424.762939
 31
0.0
  0
LINE
  5
186
100
AcDbEntity
  8
LAY-4
  6
CONTINUOUS
 62
     3
100
AcDbLine
 10
394.677966
 20
424.762939
 30
0.0
 11
394.677966
 21
419.762939
 31
0.0
  0
LINE
  5
187
100
AcDbEntity
  8
LAY-4
  6
CONTINUOUS
 62
     3
100
AcDbLine
 10
394.677966
 20
419.762939
 30
0.0
 11
400.227966
 21
419.762939
 31
0.0
  0
LINE
  5
188
100
AcDbEntity
  8
LAY-4
  6
CONTINUOUS
 62
     1
100
AcDbLine
 10
394.677966
 20
420.262939
 30
0.0
 11
400.227966
 21
420.262939
 31
0.0
  0
LINE
  5
189
100
AcDbEntity
  8
LAY-4
  6
CONTINUOUS
 62
     1
100
AcDbLine
 10
394.677966
 20
424.262939
 30
0.0
 11
400.227966
 21
424.262939
 31
0.0
  0
LINE
  5
18A
100
AcDbEntity
  8
LAY-4
  6
CONTINUOUS
 62
     3
100
AcDbLine
 10
394.677966
 20
424.762939
 30
0.0
 11
400.227966
 21
424.762939
 31
0.0
  0
LINE
  5
18B
100
AcDbEntity
  8
LAY-4
  6
DASHED2
 62
     3
100
AcDbLine
 10
412.527966
 20
411.762939
 30
0.0
 11
412.527966
 21
406.762939
 31
0.0
  0
LINE
  5
18C
100
AcDbEntity
  8
LAY-4
  6
DASHED2
 62
     3
100
AcDbLine
 10
412.527966
 20
406.762939
 30
0.0
 11
414.677966
 21
404.612939
 31
0.0
  0
LINE
  5
18D
100
AcDbEntity
  8
LAY-4
  6
DASHED2
 62
     3
100
AcDbLine
 10
412.527966
 20
411.762939
 30
0.0
 11
414.677966
 21
413.912939
 31
0.0
  0
LINE
  5
18E
100
AcDbEntity
  8
LAY-4
  6
DASHED2
 62
     3
100
AcDbLine
 10
414.677966
 20
404.612939
 30
0.0
 11
414.677966
 21
413.912939
 31
0.0
  0
LINE
  5
18F
100
AcDbEntity
  8
LAY-4
  6
DASHED2
 62
     3
100
AcDbLine
 10
414.677966
 20
404.612939
 30
0.0
 11
415.227966
 21
404.612939
 31
0.0
  0
LINE
  5
190
100
AcDbEntity
  8
LAY-4
  6
DASHED2
 62
     3
100
AcDbLine
 10
414.677966
 20
413.912939
 30
0.0
 11
415.227966
 21
413.912939
 31
0.0
  0
LINE
  5
191
100
AcDbEntity
  8
LAY-4
  6
DASHED2
 62
     3
100
AcDbLine
 10
400.227966
 20
406.762939
 30
0.0
 11
412.527966
 21
406.762939
 31
0.0
  0
LINE
  5
192
100
AcDbEntity
  8
LAY-4
  6
DASHED2
 62
     1
100
AcDbLine
 10
400.227966
 20
407.262939
 30
0.0
 11
412.527966
 21
407.262939
 31
0.0
  0
LINE
  5
193
100
AcDbEntity
  8
LAY-4
  6
DASHED2
 62
     1
100
AcDbLine
 10
400.227966
 20
411.262939
 30
0.0
 11
412.527966
 21
411.262939
 31
0.0
  0
LINE
  5
194
100
AcDbEntity
  8
LAY-4
  6
DASHED2
 62
     3
100
AcDbLine
 10
400.227966
 20
411.762939
 30
0.0
 11
412.527966
 21
411.762939
 31
0.0
  0
LINE
  5
195
100
AcDbEntity
  8
LAY-4
  6
CONTINUOUS
 62
     3
100
AcDbLine
 10
394.677966
 20
411.762939
 30
0.0
 11
394.677966
 21
406.762939
 31
0.0
  0
LINE
  5
196
100
AcDbEntity
  8
LAY-4
  6
CONTINUOUS
 62
     3
100
AcDbLine
 10
394.677966
 20
406.762939
 30
0.0
 11
400.227966
 21
406.762939
 31
0.0
  0
LINE
  5
197
100
AcDbEntity
  8
LAY-4
  6
CONTINUOUS
 62
     1
100
AcDbLine
 10
394.677966
 20
407.262939
 30
0.0
 11
400.227966
 21
407.262939
 31
0.0
  0
LINE
  5
198
100
AcDbEntity
  8
LAY-4
  6
CONTINUOUS
 62
     1
100
AcDbLine
 10
394.677966
 20
411.262939
 30
0.0
 11
400.227966
 21
411.262939
 31
0.0
  0
LINE
  5
199
100
AcDbEntity
  8
LAY-4
  6
CONTINUOUS
 62
     3
100
AcDbLine
 10
394.677966
 20
411.762939
 30
0.0
 11
400.227966
 21
411.762939
 31
0.0
  0
LINE
  5
19A
100
AcDbEntity
  8
LAY-4
  6
CONTINUOUS
 62
     3
100
AcDbLine
 10
613.921753
 20
194.148972
 30
0.0
 11
623.029144
 21
233.282318
 31
0.0
  0
ARC
  5
19B
100
AcDbEntity
  8
LAY-4
  6
CONTINUOUS
 62
     3
100
AcDbCircle
 10
627.898987
 20
232.148972
 30
0.0
 40
5.0
100
AcDbArc
 50
89.999981
 51
166.898939
  0
LINE
  5
19C
100
AcDbEntity
  8
LAY-4
  6
CONTINUOUS
 62
     3
100
AcDbLine
 10
627.898987
 20
237.148972
 30
0.0
 11
634.929016
 21
237.148972
 31
0.0
  0
LINE
  5
19D
100
AcDbEntity
  8
LAY-4
  6
CONTINUOUS
 62
     3
100
AcDbLine
 10
634.929016
 20
237.148972
 30
0.0
 11
634.929016
 21
232.148972
 31
0.0
  0
LINE
  5
19E
100
AcDbEntity
  8
LAY-4
  6
DASHED2
 62
     3
100
AcDbLine
 10
657.929016
 20
232.148972
 30
0.0
 11
634.929016
 21
232.148972
 31
0.0
  0
ARC
  5
19F
100
AcDbEntity
  8
LAY-4
  6
DASHED2
 62
     3
100
AcDbCircle
 10
657.929016
 20
227.148972
 30
0.0
 40
5.0
100
AcDbArc
 50
0.0
 51
89.999981
  0
LINE
  5
1A0
100
AcDbEntity
  8
LAY-4
  6
DASHED2
 62
     3
100
AcDbLine
 10
662.929016
 20
227.148972
 30
0.0
 11
662.929016
 21
187.148972
 31
0.0
  0
LINE
  5
1A1
100
AcDbEntity
  8
LAY-4
  6
CONTINUOUS
 62
     3
100
AcDbLine
 10
632.929016
 20
172.148972
 30
0.0
 11
604.929016
 21
172.148972
 31
0.0
  0
LINE
  5
1A2
100
AcDbEntity
  8
LAY-4
  6
CONTINUOUS
 62
     3
100
AcDbLine
 10
632.929016
 20
180.148972
 30
0.0
 11
632.929016
 21
172.148972
 31
0.0
  0
LINE
  5
1A3
100
AcDbEntity
  8
LAY-4
  6
CONTINUOUS
 62
     3
100
AcDbLine
 10
604.929016
 20
177.148972
 30
0.0
 11
632.929016
 21
177.148972
 31
0.0
  0
LINE
  5
1A4
100
AcDbEntity
  8
LAY-4
  6
CONTINUOUS
 62
     3
100
AcDbLine
 10
629.929016
 20
177.148972
 30
0.0
 11
629.929016
 21
181.148972
 31
0.0
  0
LINE
  5
1A5
100
AcDbEntity
  8
LAY-4
  6
CONTINUOUS
 62
     3
100
AcDbLine
 10
604.929016
 20
177.148972
 30
0.0
 11
604.929016
 21
172.148972
 31
0.0
  0
LINE
  5
1A6
100
AcDbEntity
  8
LAY-4
  6
DASHED2
 62
     3
100
AcDbLine
 10
611.129028
 20
181.574829
 30
0.0
 11
611.129028
 21
172.148972
 31
0.0
  0
LINE
  5
1A7
100
AcDbEntity
  8
LAY-4
  6
DASHED2
 62
     3
100
AcDbLine
 10
613.921753
 20
194.148972
 30
0.0
 11
611.259155
 21
182.708176
 31
0.0
  0
ARC
  5
1A8
100
AcDbEntity
  8
LAY-4
  6
DASHED2
 62
     3
100
AcDbCircle
 10
634.929016
 20
180.148972
 30
0.0
 40
2.0
100
AcDbArc
 50
89.999981
 51
150.000064
  0
ARC
  5
1A9
100
AcDbEntity
  8
LAY-4
  6
CONTINUOUS
 62
     3
100
AcDbCircle
 10
634.929016
 20
180.148972
 30
0.0
 40
2.0
100
AcDbArc
 50
150.000064
 51
180.00002
  0
LINE
  5
1AA
100
AcDbEntity
  8
LAY-4
  6
DASHED2
 62
     3
100
AcDbLine
 10
634.929016
 20
182.148972
 30
0.0
 11
657.929016
 21
182.148972
 31
0.0
  0
ARC
  5
1AB
100
AcDbEntity
  8
LAY-4
  6
DASHED2
 62
     3
100
AcDbCircle
 10
657.929016
 20
187.148972
 30
0.0
 40
5.0
100
AcDbArc
 50
270.0
 51
0.0
  0
ARC
  5
1AC
100
AcDbEntity
  8
LAY-4
  6
DASHED2
 62
     3
100
AcDbCircle
 10
616.129028
 20
181.574829
 30
0.0
 40
5.0
100
AcDbArc
 50
166.898939
 51
180.00002
  0
CIRCLE
  5
1AD
100
AcDbEntity
  8
LAY-4
  6
DASHED2
 62
     1
100
AcDbCircle
 10
644.929016
 20
222.148972
 30
0.0
 40
2.5
  0
CIRCLE
  5
1AE
100
AcDbEntity
  8
LAY-4
  6
DASHED2
 62
     3
100
AcDbCircle
 10
644.929016
 20
222.148972
 30
0.0
 40
2.0
  0
CIRCLE
  5
1AF
100
AcDbEntity
  8
LAY-4
  6
DASHED2
 62
     1
100
AcDbCircle
 10
657.929016
 20
222.148972
 30
0.0
 40
2.5
  0
CIRCLE
  5
1B0
100
AcDbEntity
  8
LAY-4
  6
DASHED2
 62
     3
100
AcDbCircle
 10
657.929016
 20
222.148972
 30
0.0
 40
2.0
  0
CIRCLE
  5
1B1
100
AcDbEntity
  8
LAY-4
  6
DASHED2
 62
     1
100
AcDbCircle
 10
657.929016
 20
192.148972
 30
0.0
 40
2.5
  0
CIRCLE
  5
1B2
100
AcDbEntity
  8
LAY-4
  6
DASHED2
 62
     3
100
AcDbCircle
 10
657.929016
 20
192.148972
 30
0.0
 40
2.0
  0
CIRCLE
  5
1B3
100
AcDbEntity
  8
LAY-4
  6
DASHED2
 62
     3
100
AcDbCircle
 10
644.929016
 20
192.148972
 30
0.0
 40
2.0
  0
CIRCLE
  5
1B4
100
AcDbEntity
  8
LAY-4
  6
DASHED2
 62
     1
100
AcDbCircle
 10
644.929016
 20
192.148972
 30
0.0
 40
2.5
  0
CIRCLE
  5
1B5
100
AcDbEntity
  8
LAY-4
  6
CONTINUOUS
 62
     3
100
AcDbCircle
 10
428.227966
 20
383.262939
 30
0.0
 40
3.25
  0
CIRCLE
  5
1B6
100
AcDbEntity
  8
LAY-4
  6
CONTINUOUS
 62
     3
100
AcDbCircle
 10
428.227966
 20
383.262939
 30
0.0
 40
3.0
  0
CIRCLE
  5
1B7
100
AcDbEntity
  8
LAY-4
  6
CONTINUOUS
 62
     3
100
AcDbCircle
 10
428.227966
 20
383.262939
 30
0.0
 40
2.5
  0
LINE
  5
1B8
100
AcDbEntity
  8
LAY-4
  6
CONTINUOUS
 62
     3
100
AcDbLine
 10
425.977966
 20
382.762939
 30
0.0
 11
425.977966
 21
383.762939
 31
0.0
  0
LINE
  5
1B9
100
AcDbEntity
  8
LAY-4
  6
CONTINUOUS
 62
     3
100
AcDbLine
 10
427.727966
 20
381.012939
 30
0.0
 11
427.727966
 21
381.762939
 31
0.0
  0
LINE
  5
1BA
100
AcDbEntity
  8
LAY-4
  6
CONTINUOUS
 62
     3
100
AcDbLine
 10
425.977966
 20
382.762939
 30
0.0
 11
426.727966
 21
382.762939
 31
0.0
  0
ARC
  5
1BB
100
AcDbEntity
  8
LAY-4
  6
CONTINUOUS
 62
     3
100
AcDbCircle
 10
426.727966
 20
381.762939
 30
0.0
 40
1.0
100
AcDbArc
 50
359.999981
 51
90.00002
  0
LINE
  5
1BC
100
AcDbEntity
  8
LAY-4
  6
CONTINUOUS
 62
     3
100
AcDbLine
 10
428.727966
 20
381.012939
 30
0.0
 11
427.727966
 21
381.012939
 31
0.0
  0
LINE
  5
1BD
100
AcDbEntity
  8
LAY-4
  6
CONTINUOUS
 62
     3
100
AcDbLine
 10
430.477966
 20
382.762939
 30
0.0
 11
429.727966
 21
382.762939
 31
0.0
  0
LINE
  5
1BE
100
AcDbEntity
  8
LAY-4
  6
CONTINUOUS
 62
     3
100
AcDbLine
 10
428.727966
 20
381.012939
 30
0.0
 11
428.727966
 21
381.762939
 31
0.0
  0
ARC
  5
1BF
100
AcDbEntity
  8
LAY-4
  6
CONTINUOUS
 62
     3
100
AcDbCircle
 10
429.727966
 20
381.762939
 30
0.0
 40
1.0
100
AcDbArc
 50
90.00002
 51
180.0
  0
LINE
  5
1C0
100
AcDbEntity
  8
LAY-4
  6
CONTINUOUS
 62
     3
100
AcDbLine
 10
430.477966
 20
383.762939
 30
0.0
 11
430.477966
 21
382.762939
 31
0.0
  0
LINE
  5
1C1
100
AcDbEntity
  8
LAY-4
  6
CONTINUOUS
 62
     3
100
AcDbLine
 10
428.727966
 20
385.512939
 30
0.0
 11
428.727966
 21
384.762939
 31
0.0
  0
LINE
  5
1C2
100
AcDbEntity
  8
LAY-4
  6
CONTINUOUS
 62
     3
100
AcDbLine
 10
430.477966
 20
383.762939
 30
0.0
 11
429.727966
 21
383.762939
 31
0.0
  0
ARC
  5
1C3
100
AcDbEntity
  8
LAY-4
  6
CONTINUOUS
 62
     3
100
AcDbCircle
 10
429.727966
 20
384.762939
 30
0.0
 40
1.0
100
AcDbArc
 50
180.0
 51
269.999982
  0
LINE
  5
1C4
100
AcDbEntity
  8
LAY-4
  6
CONTINUOUS
 62
     3
100
AcDbLine
 10
427.727966
 20
385.512939
 30
0.0
 11
428.727966
 21
385.512939
 31
0.0
  0
LINE
  5
1C5
100
AcDbEntity
  8
LAY-4
  6
CONTINUOUS
 62
     3
100
AcDbLine
 10
425.977966
 20
383.762939
 30
0.0
 11
426.727966
 21
383.762939
 31
0.0
  0
LINE
  5
1C6
100
AcDbEntity
  8
LAY-4
  6
CONTINUOUS
 62
     3
100
AcDbLine
 10
427.727966
 20
385.512939
 30
0.0
 11
427.727966
 21
384.762939
 31
0.0
  0
ARC
  5
1C7
100
AcDbEntity
  8
LAY-4
  6
CONTINUOUS
 62
     3
100
AcDbCircle
 10
426.727966
 20
384.762939
 30
0.0
 40
1.0
100
AcDbArc
 50
269.999982
 51
0.000021
  0
LINE
  5
1C8
100
AcDbEntity
  8
LAY-4
  6
DASHED2
 62
     3
100
AcDbLine
 10
615.929016
 20
192.148972
 30
0.0
 11
621.929016
 21
192.148972
 31
0.0
  0
LINE
  5
1C9
100
AcDbEntity
  8
LAY-4
  6
DASHED2
 62
     3
100
AcDbLine
 10
615.929016
 20
172.148972
 30
0.0
 11
615.929016
 21
193.148972
 31
0.0
  0
LINE
  5
1CA
100
AcDbEntity
  8
LAY-4
  6
DASHED2
 62
     1
100
AcDbLine
 10
616.429016
 20
172.148972
 30
0.0
 11
616.429016
 21
193.148972
 31
0.0
  0
LINE
  5
1CB
100
AcDbEntity
  8
LAY-4
  6
DASHED2
 62
     1
100
AcDbLine
 10
621.429016
 20
172.148972
 30
0.0
 11
621.429016
 21
193.148972
 31
0.0
  0
LINE
  5
1CC
100
AcDbEntity
  8
LAY-4
  6
DASHED2
 62
     3
100
AcDbLine
 10
621.929016
 20
172.148972
 30
0.0
 11
621.929016
 21
193.148972
 31
0.0
  0
LINE
  5
1CD
100
AcDbEntity
  8
LAY-4
  6
DASHED2
 62
     3
100
AcDbLine
 10
607.929016
 20
181.148972
 30
0.0
 11
629.929016
 21
181.148972
 31
0.0
  0
LINE
  5
1CE
100
AcDbEntity
  8
LAY-4
  6
DASHED2
 62
     3
100
AcDbLine
 10
629.429016
 20
181.648972
 30
0.0
 11
629.929016
 21
181.148972
 31
0.0
  0
LINE
  5
1CF
100
AcDbEntity
  8
LAY-4
  6
DASHED2
 62
     3
100
AcDbLine
 10
608.429016
 20
181.648972
 30
0.0
 11
629.429016
 21
181.648972
 31
0.0
  0
LINE
  5
1D0
100
AcDbEntity
  8
LAY-4
  6
DASHED2
 62
     3
100
AcDbLine
 10
608.429016
 20
181.648972
 30
0.0
 11
607.929016
 21
181.148972
 31
0.0
  0
LINE
  5
1D1
100
AcDbEntity
  8
LAY-4
  6
DASHED2
 62
     3
100
AcDbLine
 10
623.929016
 20
191.648972
 30
0.0
 11
624.929016
 21
188.648972
 31
0.0
  0
LINE
  5
1D2
100
AcDbEntity
  8
LAY-4
  6
DASHED2
 62
     3
100
AcDbLine
 10
613.929016
 20
191.648972
 30
0.0
 11
612.929016
 21
188.648972
 31
0.0
  0
LINE
  5
1D3
100
AcDbEntity
  8
LAY-4
  6
DASHED2
 62
     3
100
AcDbLine
 10
624.929016
 20
181.648972
 30
0.0
 11
624.929016
 21
188.648972
 31
0.0
  0
LINE
  5
1D4
100
AcDbEntity
  8
LAY-4
  6
DASHED2
 62
     3
100
AcDbLine
 10
613.929016
 20
191.648972
 30
0.0
 11
623.929016
 21
191.648972
 31
0.0
  0
LINE
  5
1D5
100
AcDbEntity
  8
LAY-4
  6
DASHED2
 62
     3
100
AcDbLine
 10
612.929016
 20
181.648972
 30
0.0
 11
612.929016
 21
188.648972
 31
0.0
  0
LINE
  5
1D6
100
AcDbEntity
  8
LAY-4
  6
DASHED2
 62
     3
100
AcDbLine
 10
612.929016
 20
188.648972
 30
0.0
 11
624.929016
 21
188.648972
 31
0.0
  0
LINE
  5
1D7
100
AcDbEntity
  8
LAY-4
  6
CONTINUOUS
 62
     3
100
AcDbLine
 10
607.929016
 20
177.148972
 30
0.0
 11
607.929016
 21
181.148972
 31
0.0
  0
ARC
  5
1D8
100
AcDbEntity
  8
LAY-4
  6
CONTINUOUS
 62
     3
100
AcDbCircle
 10
438.898987
 20
232.148972
 30
0.0
 40
5.0
100
AcDbArc
 50
89.999981
 51
166.898939
  0
LINE
  5
1D9
100
AcDbEntity
  8
LAY-4
  6
CONTINUOUS
 62
     3
100
AcDbLine
 10
438.898987
 20
237.148972
 30
0.0
 11
445.929016
 21
237.148972
 31
0.0
  0
LINE
  5
1DA
100
AcDbEntity
  8
LAY-4
  6
CONTINUOUS
 62
     3
100
AcDbLine
 10
445.929016
 20
237.148972
 30
0.0
 11
445.929016
 21
232.148972
 31
0.0
  0
LINE
  5
1DB
100
AcDbEntity
  8
LAY-4
  6
CONTINUOUS
 62
     3
100
AcDbLine
 10
443.929016
 20
172.148972
 30
0.0
 11
415.929016
 21
172.148972
 31
0.0
  0
LINE
  5
1DC
100
AcDbEntity
  8
LAY-4
  6
CONTINUOUS
 62
     3
100
AcDbLine
 10
443.929016
 20
180.148972
 30
0.0
 11
443.929016
 21
172.148972
 31
0.0
  0
LINE
  5
1DD
100
AcDbEntity
  8
LAY-4
  6
CONTINUOUS
 62
     3
100
AcDbLine
 10
415.929016
 20
177.148972
 30
0.0
 11
443.929016
 21
177.148972
 31
0.0
  0
LINE
  5
1DE
100
AcDbEntity
  8
LAY-4
  6
CONTINUOUS
 62
     3
100
AcDbLine
 10
440.929016
 20
177.148972
 30
0.0
 11
440.929016
 21
181.148972
 31
0.0
  0
LINE
  5
1DF
100
AcDbEntity
  8
LAY-4
  6
CONTINUOUS
 62
     3
100
AcDbLine
 10
415.929016
 20
177.148972
 30
0.0
 11
415.929016
 21
172.148972
 31
0.0
  0
LINE
  5
1E0
100
AcDbEntity
  8
LAY-4
  6
DASHED2
 62
     3
100
AcDbLine
 10
422.129028
 20
181.574829
 30
0.0
 11
422.129028
 21
172.148972
 31
0.0
  0
LINE
  5
1E1
100
AcDbEntity
  8
LAY-4
  6
DASHED2
 62
     3
100
AcDbLine
 10
418.929016
 20
181.148972
 30
0.0
 11
440.929016
 21
181.148972
 31
0.0
  0
LINE
  5
1E2
100
AcDbEntity
  8
LAY-4
  6
DASHED2
 62
     3
100
AcDbLine
 10
440.429016
 20
181.648972
 30
0.0
 11
440.929016
 21
181.148972
 31
0.0
  0
LINE
  5
1E3
100
AcDbEntity
  8
LAY-4
  6
CONTINUOUS
 62
     3
100
AcDbLine
 10
418.929016
 20
177.148972
 30
0.0
 11
418.929016
 21
181.148972
 31
0.0
  0
LINE
  5
1E4
100
AcDbEntity
  8
LAY-4
  6
CONTINUOUS
 62
     3
100
AcDbLine
 10
422.258813
 20
182.706644
 30
0.0
 11
434.029144
 21
233.282318
 31
0.0
  0
ARC
  5
1E5
100
AcDbEntity
  8
LAY-4
  6
CONTINUOUS
 62
     3
100
AcDbCircle
 10
427.129028
 20
181.574829
 30
0.0
 40
5.0
100
AcDbArc
 50
166.898939
 51
180.00002
  0
LINE
  5
1E6
100
AcDbEntity
  8
LAY-4
  6
CONTINUOUS
 62
     3
100
AcDbLine
 10
419.429016
 20
181.648972
 30
0.0
 11
440.429016
 21
181.648972
 31
0.0
  0
LINE
  5
1E7
100
AcDbEntity
  8
LAY-4
  6
CONTINUOUS
 62
     3
100
AcDbLine
 10
419.429016
 20
181.648972
 30
0.0
 11
418.929016
 21
181.148972
 31
0.0
  0
LINE
  5
1E8
100
AcDbEntity
  8
LAY-4
  6
CONTINUOUS
 62
     3
100
AcDbLine
 10
426.929016
 20
192.148972
 30
0.0
 11
432.929016
 21
192.148972
 31
0.0
  0
LINE
  5
1E9
100
AcDbEntity
  8
LAY-4
  6
CONTINUOUS
 62
     3
100
AcDbLine
 10
434.929016
 20
191.648972
 30
0.0
 11
435.929016
 21
188.648972
 31
0.0
  0
LINE
  5
1EA
100
AcDbEntity
  8
LAY-4
  6
CONTINUOUS
 62
     3
100
AcDbLine
 10
424.929016
 20
191.648972
 30
0.0
 11
423.929016
 21
188.648972
 31
0.0
  0
LINE
  5
1EB
100
AcDbEntity
  8
LAY-4
  6
CONTINUOUS
 62
     3
100
AcDbLine
 10
435.929016
 20
181.648972
 30
0.0
 11
435.929016
 21
188.648972
 31
0.0
  0
LINE
  5
1EC
100
AcDbEntity
  8
LAY-4
  6
CONTINUOUS
 62
     3
100
AcDbLine
 10
424.929016
 20
191.648972
 30
0.0
 11
434.929016
 21
191.648972
 31
0.0
  0
LINE
  5
1ED
100
AcDbEntity
  8
LAY-4
  6
CONTINUOUS
 62
     3
100
AcDbLine
 10
423.929016
 20
181.648972
 30
0.0
 11
423.929016
 21
188.648972
 31
0.0
  0
LINE
  5
1EE
100
AcDbEntity
  8
LAY-4
  6
CONTINUOUS
 62
     3
100
AcDbLine
 10
423.929016
 20
188.648972
 30
0.0
 11
435.929016
 21
188.648972
 31
0.0
  0
LINE
  5
1EF
100
AcDbEntity
  8
LAY-4
  6
DASHED2
 62
     3
100
AcDbLine
 10
432.929016
 20
172.148972
 30
0.0
 11
432.929016
 21
191.648972
 31
0.0
  0
LINE
  5
1F0
100
AcDbEntity
  8
LAY-4
  6
DASHED2
 62
     1
100
AcDbLine
 10
432.429016
 20
172.148972
 30
0.0
 11
432.429016
 21
191.648972
 31
0.0
  0
LINE
  5
1F1
100
AcDbEntity
  8
LAY-4
  6
DASHED2
 62
     1
100
AcDbLine
 10
427.429016
 20
172.148972
 30
0.0
 11
427.429016
 21
191.648972
 31
0.0
  0
LINE
  5
1F2
100
AcDbEntity
  8
LAY-4
  6
DASHED2
 62
     3
100
AcDbLine
 10
426.929016
 20
172.148972
 30
0.0
 11
426.929016
 21
191.648972
 31
0.0
  0
LINE
  5
1F3
100
AcDbEntity
  8
LAY-4
  6
CONTINUOUS
 62
     3
100
AcDbLine
 10
426.929016
 20
191.648972
 30
0.0
 11
426.929016
 21
192.148972
 31
0.0
  0
LINE
  5
1F4
100
AcDbEntity
  8
LAY-4
  6
CONTINUOUS
 62
     3
100
AcDbLine
 10
432.929016
 20
191.648972
 30
0.0
 11
432.929016
 21
192.148972
 31
0.0
  0
LINE
  5
1F5
100
AcDbEntity
  8
LAY-4
  6
CONTINUOUS
 62
     1
100
AcDbLine
 10
427.429016
 20
191.648972
 30
0.0
 11
427.429016
 21
192.148972
 31
0.0
  0
LINE
  5
1F6
100
AcDbEntity
  8
LAY-4
  6
CONTINUOUS
 62
     1
100
AcDbLine
 10
432.429016
 20
191.648972
 30
0.0
 11
432.429016
 21
192.148972
 31
0.0
  0
LINE
  5
1F7
100
AcDbEntity
  8
LAY-4
  6
CONTINUOUS
 62
     3
100
AcDbLine
 10
468.929016
 20
232.148972
 30
0.0
 11
445.929016
 21
232.148972
 31
0.0
  0
ARC
  5
1F8
100
AcDbEntity
  8
LAY-4
  6
CONTINUOUS
 62
     3
100
AcDbCircle
 10
468.929016
 20
227.148972
 30
0.0
 40
5.0
100
AcDbArc
 50
0.0
 51
89.999981
  0
CIRCLE
  5
1F9
100
AcDbEntity
  8
LAY-4
  6
CONTINUOUS
 62
     1
100
AcDbCircle
 10
468.929016
 20
222.148972
 30
0.0
 40
2.5
  0
CIRCLE
  5
1FA
100
AcDbEntity
  8
LAY-4
  6
CONTINUOUS
 62
     3
100
AcDbCircle
 10
468.929016
 20
222.148972
 30
0.0
 40
2.0
  0
ARC
  5
1FB
100
AcDbEntity
  8
LAY-4
  6
CONTINUOUS
 62
     3
100
AcDbCircle
 10
468.929016
 20
187.148972
 30
0.0
 40
5.0
100
AcDbArc
 50
270.0
 51
0.0
  0
CIRCLE
  5
1FC
100
AcDbEntity
  8
LAY-4
  6
CONTINUOUS
 62
     1
100
AcDbCircle
 10
468.929016
 20
192.148972
 30
0.0
 40
2.5
  0
CIRCLE
  5
1FD
100
AcDbEntity
  8
LAY-4
  6
CONTINUOUS
 62
     3
100
AcDbCircle
 10
468.929016
 20
192.148972
 30
0.0
 40
2.0
  0
LINE
  5
1FE
100
AcDbEntity
  8
LAY-4
  6
CONTINUOUS
 62
     3
100
AcDbLine
 10
445.929016
 20
182.148972
 30
0.0
 11
468.929016
 21
182.148972
 31
0.0
  0
ARC
  5
1FF
100
AcDbEntity
  8
LAY-4
  6
CONTINUOUS
 62
     3
100
AcDbCircle
 10
445.929016
 20
180.148972
 30
0.0
 40
2.0
100
AcDbArc
 50
89.999981
 51
150.000064
  0
ARC
  5
200
100
AcDbEntity
  8
LAY-4
  6
CONTINUOUS
 62
     3
100
AcDbCircle
 10
445.929016
 20
180.148972
 30
0.0
 40
2.0
100
AcDbArc
 50
150.000064
 51
180.00002
  0
LINE
  5
201
100
AcDbEntity
  8
LAY-4
  6
CONTINUOUS
 62
     3
100
AcDbLine
 10
473.929016
 20
227.148972
 30
0.0
 11
473.929016
 21
187.148972
 31
0.0
  0
CIRCLE
  5
202
100
AcDbEntity
  8
LAY-4
  6
CONTINUOUS
 62
     1
100
AcDbCircle
 10
455.929016
 20
222.148972
 30
0.0
 40
2.5
  0
CIRCLE
  5
203
100
AcDbEntity
  8
LAY-4
  6
CONTINUOUS
 62
     3
100
AcDbCircle
 10
455.929016
 20
222.148972
 30
0.0
 40
2.0
  0
CIRCLE
  5
204
100
AcDbEntity
  8
LAY-4
  6
CONTINUOUS
 62
     3
100
AcDbCircle
 10
455.929016
 20
192.148972
 30
0.0
 40
2.0
  0
CIRCLE
  5
205
100
AcDbEntity
  8
LAY-4
  6
CONTINUOUS
 62
     1
100
AcDbCircle
 10
455.929016
 20
192.148972
 30
0.0
 40
2.5
  0
LINE
  5
206
100
AcDbEntity
  8
LAY-5
  6
DASHDOT
 62
     1
100
AcDbLine
 10
428.227966
 20
346.418243
 30
0.0
 11
428.227966
 21
453.22757
 31
0.0
  0
LINE
  5
207
100
AcDbEntity
  8
LAY-5
  6
DASHDOT
 62
     1
100
AcDbLine
 10
453.227966
 20
383.262939
 30
0.0
 11
403.227966
 21
383.262939
 31
0.0
  0
LINE
  5
208
100
AcDbEntity
  8
LAY-5
  6
DIVIDE
 62
     1
100
AcDbLine
 10
401.714096
 20
364.262939
 30
0.0
 11
413.727051
 21
390.024841
 31
0.0
  0
ARC
  5
209
100
AcDbEntity
  8
LAY-5
  6
DIVIDE
 62
     1
100
AcDbCircle
 10
428.227966
 20
383.262939
 30
0.0
 40
16.0
100
AcDbArc
 50
335.0
 51
154.999963
  0
LINE
  5
20A
100
AcDbEntity
  8
LAY-5
  6
DIVIDE
 62
     1
100
AcDbLine
 10
437.022156
 20
364.262939
 30
0.0
 11
442.728882
 21
376.501038
 31
0.0
  0
LINE
  5
20B
100
AcDbEntity
  8
LAY-5
  6
DASHDOT
 62
     1
100
AcDbLine
 10
391.3
 20
409.262939
 30
0.0
 11
416.6
 21
409.262939
 31
0.0
  0
LINE
  5
20C
100
AcDbEntity
  8
LAY-5
  6
DASHDOT
 62
     1
100
AcDbLine
 10
391.4
 20
422.262939
 30
0.0
 11
416.4
 21
422.262939
 31
0.0
  0
LINE
  5
20D
100
AcDbEntity
  8
LAY-5
  6
DASHDOT
 62
     1
100
AcDbLine
 10
231.227913
 20
210.262939
 30
0.0
 11
231.227913
 21
184.262932
 31
0.0
  0
LINE
  5
20E
100
AcDbEntity
  8
LAY-5
  6
DASHDOT
 62
     1
100
AcDbLine
 10
207.227921
 20
210.262939
 30
0.0
 11
207.227921
 21
184.262932
 31
0.0
  0
LINE
  5
20F
100
AcDbEntity
  8
LAY-5
  6
DASHDOT
 62
     1
100
AcDbLine
 10
200.227921
 20
191.262932
 30
0.0
 11
214.227921
 21
191.262932
 31
0.0
  0
LINE
  5
210
100
AcDbEntity
  8
LAY-5
  6
DASHDOT
 62
     1
100
AcDbLine
 10
200.227921
 20
203.262932
 30
0.0
 11
214.227921
 21
203.262932
 31
0.0
  0
LINE
  5
211
100
AcDbEntity
  8
LAY-5
  6
DASHDOT
 62
     1
100
AcDbLine
 10
224.227913
 20
203.262932
 30
0.0
 11
238.227905
 21
203.262932
 31
0.0
  0
LINE
  5
212
100
AcDbEntity
  8
LAY-5
  6
DASHDOT
 62
     1
100
AcDbLine
 10
224.227913
 20
191.262932
 30
0.0
 11
238.227905
 21
191.262932
 31
0.0
  0
LINE
  5
213
100
AcDbEntity
  8
LAY-5
  6
DASHDOT
 62
     1
100
AcDbLine
 10
207.227921
 20
320.262939
 30
0.0
 11
207.227921
 21
294.262939
 31
0.0
  0
LINE
  5
214
100
AcDbEntity
  8
LAY-5
  6
DASHDOT
 62
     1
100
AcDbLine
 10
231.227913
 20
320.262939
 30
0.0
 11
231.227913
 21
294.262939
 31
0.0
  0
LINE
  5
215
100
AcDbEntity
  8
LAY-5
  6
DASHDOT
 62
     1
100
AcDbLine
 10
200.227921
 20
313.262939
 30
0.0
 11
214.227921
 21
313.262939
 31
0.0
  0
LINE
  5
216
100
AcDbEntity
  8
LAY-5
  6
DASHDOT
 62
     1
100
AcDbLine
 10
224.227913
 20
313.262939
 30
0.0
 11
238.227905
 21
313.262939
 31
0.0
  0
LINE
  5
217
100
AcDbEntity
  8
LAY-5
  6
DASHDOT
 62
     1
100
AcDbLine
 10
200.227921
 20
301.262939
 30
0.0
 11
214.227921
 21
301.262939
 31
0.0
  0
LINE
  5
218
100
AcDbEntity
  8
LAY-5
  6
DASHDOT
 62
     1
100
AcDbLine
 10
224.227913
 20
301.262939
 30
0.0
 11
238.227905
 21
301.262939
 31
0.0
  0
LINE
  5
219
100
AcDbEntity
  8
LAY-5
  6
DASHDOT
 62
     1
100
AcDbLine
 10
200.559341
 20
271.507324
 30
0.0
 11
187.265564
 21
277.706314
 31
0.0
  0
LINE
  5
21A
100
AcDbEntity
  8
LAY-5
  6
DASHDOT
 62
     1
100
AcDbLine
 10
183.5
 20
383.262939
 30
0.0
 11
240.227905
 21
383.262939
 31
0.0
  0
LINE
  5
21B
100
AcDbEntity
  8
LAY-5
  6
DASHDOT
 62
     1
100
AcDbLine
 10
203.227921
 20
364.1
 30
0.0
 11
203.227921
 21
448.2276
 31
0.0
  0
LINE
  5
21C
100
AcDbEntity
  8
LAY-5
  6
DASHDOT
 62
     1
100
AcDbLine
 10
184.5
 20
270.262939
 30
0.0
 11
240.227905
 21
270.262939
 31
0.0
  0
LINE
  5
21D
100
AcDbEntity
  8
LAY-5
  6
DASHDOT
 62
     1
100
AcDbLine
 10
203.227921
 20
251.9
 30
0.0
 11
203.227921
 21
326.9
 31
0.0
  0
LINE
  5
21E
100
AcDbEntity
  8
LAY-5
  6
DASHDOT
 62
     1
100
AcDbLine
 10
183.3
 20
160.262932
 30
0.0
 11
240.227905
 21
160.262932
 31
0.0
  0
LINE
  5
21F
100
AcDbEntity
  8
LAY-5
  6
DASHDOT
 62
     1
100
AcDbLine
 10
203.227921
 20
141.7
 30
0.0
 11
203.227921
 21
217.0
 31
0.0
  0
LINE
  5
220
100
AcDbEntity
  8
LAY-5
  6
DASHDOT
 62
     1
100
AcDbLine
 10
200.227921
 20
427.262939
 30
0.0
 11
210.227921
 21
427.262939
 31
0.0
  0
LINE
  5
221
100
AcDbEntity
  8
LAY-5
  6
DASHDOT
 62
     1
100
AcDbLine
 10
205.227921
 20
432.262939
 30
0.0
 11
205.227921
 21
419.762939
 31
0.0
  0
LINE
  5
222
100
AcDbEntity
  8
LAY-5
  6
DASHDOT
 62
     1
100
AcDbLine
 10
205.227921
 20
414.262939
 30
0.0
 11
205.227921
 21
404.262939
 31
0.0
  0
LINE
  5
223
100
AcDbEntity
  8
LAY-5
  6
DASHDOT
 62
     1
100
AcDbLine
 10
200.227921
 20
409.262939
 30
0.0
 11
210.227921
 21
409.262939
 31
0.0
  0
LINE
  5
224
100
AcDbEntity
  8
LAY-5
  6
DASHDOT
 62
     1
100
AcDbLine
 10
213.227921
 20
409.262939
 30
0.0
 11
223.227921
 21
409.262939
 31
0.0
  0
LINE
  5
225
100
AcDbEntity
  8
LAY-5
  6
DASHDOT
 62
     1
100
AcDbLine
 10
218.227921
 20
414.262939
 30
0.0
 11
218.227921
 21
404.262939
 31
0.0
  0
LINE
  5
226
100
AcDbEntity
  8
LAY-5
  6
DASHDOT
 62
     1
100
AcDbLine
 10
213.227921
 20
427.262939
 30
0.0
 11
223.227921
 21
427.262939
 31
0.0
  0
LINE
  5
227
100
AcDbEntity
  8
LAY-5
  6
DASHDOT
 62
     1
100
AcDbLine
 10
218.227921
 20
432.262939
 30
0.0
 11
218.227921
 21
419.762939
 31
0.0
  0
LINE
  5
228
100
AcDbEntity
  8
LAY-5
  6
DASHDOT
 62
     1
100
AcDbLine
 10
618.929016
 20
415.080292
 30
0.0
 11
618.929016
 21
346.112183
 31
0.0
  0
LINE
  5
229
100
AcDbEntity
  8
LAY-5
  6
DASHDOT
 62
     1
100
AcDbLine
 10
649.929016
 20
359.071655
 30
0.0
 11
649.929016
 21
380.354889
 31
0.0
  0
LINE
  5
22A
100
AcDbEntity
  8
LAY-5
  6
DASHDOT
 62
     1
100
AcDbLine
 10
661.929016
 20
359.071686
 30
0.0
 11
661.929016
 21
380.354919
 31
0.0
  0
LINE
  5
22B
100
AcDbEntity
  8
LAY-5
  6
DASHDOT
 62
     1
100
AcDbLine
 10
649.929016
 20
200.226303
 30
0.0
 11
649.929016
 21
178.943069
 31
0.0
  0
LINE
  5
22C
100
AcDbEntity
  8
LAY-5
  6
DASHDOT
 62
     1
100
AcDbLine
 10
661.929016
 20
200.226303
 30
0.0
 11
661.929016
 21
178.943069
 31
0.0
  0
LINE
  5
22D
100
AcDbEntity
  8
LAY-5
  6
DASHDOT
 62
     1
100
AcDbLine
 10
618.929016
 20
166.6
 30
0.0
 11
618.929016
 21
208.092987
 31
0.0
  0
LINE
  5
22E
100
AcDbEntity
  8
LAY-5
  6
DASHDOT
 62
     1
100
AcDbLine
 10
644.929016
 20
227.148972
 30
0.0
 11
644.929016
 21
217.148972
 31
0.0
  0
LINE
  5
22F
100
AcDbEntity
  8
LAY-5
  6
DASHDOT
 62
     1
100
AcDbLine
 10
644.929016
 20
197.148972
 30
0.0
 11
644.929016
 21
187.148972
 31
0.0
  0
LINE
  5
230
100
AcDbEntity
  8
LAY-5
  6
DASHDOT
 62
     1
100
AcDbLine
 10
644.929016
 20
380.3
 30
0.0
 11
644.929016
 21
403.0
 31
0.0
  0
LINE
  5
231
100
AcDbEntity
  8
LAY-5
  6
DASHDOT
 62
     1
100
AcDbLine
 10
662.929016
 20
403.0
 30
0.0
 11
662.929016
 21
380.2
 31
0.0
  0
LINE
  5
232
100
AcDbEntity
  8
LAY-5
  6
DASHDOT
 62
     1
100
AcDbLine
 10
652.929016
 20
222.148972
 30
0.0
 11
662.929016
 21
222.148972
 31
0.0
  0
LINE
  5
233
100
AcDbEntity
  8
LAY-5
  6
DASHDOT
 62
     1
100
AcDbLine
 10
657.929016
 20
227.148972
 30
0.0
 11
657.929016
 21
217.148972
 31
0.0
  0
LINE
  5
234
100
AcDbEntity
  8
LAY-5
  6
DASHDOT
 62
     1
100
AcDbLine
 10
639.929016
 20
222.148972
 30
0.0
 11
649.929016
 21
222.148972
 31
0.0
  0
LINE
  5
235
100
AcDbEntity
  8
LAY-5
  6
DASHDOT
 62
     1
100
AcDbLine
 10
644.929016
 20
227.148972
 30
0.0
 11
644.929016
 21
217.148972
 31
0.0
  0
LINE
  5
236
100
AcDbEntity
  8
LAY-5
  6
DASHDOT
 62
     1
100
AcDbLine
 10
652.929016
 20
192.148972
 30
0.0
 11
662.929016
 21
192.148972
 31
0.0
  0
LINE
  5
237
100
AcDbEntity
  8
LAY-5
  6
DASHDOT
 62
     1
100
AcDbLine
 10
657.929016
 20
197.148972
 30
0.0
 11
657.929016
 21
187.148972
 31
0.0
  0
LINE
  5
238
100
AcDbEntity
  8
LAY-5
  6
DASHDOT
 62
     1
100
AcDbLine
 10
639.929016
 20
192.148972
 30
0.0
 11
649.929016
 21
192.148972
 31
0.0
  0
LINE
  5
239
100
AcDbEntity
  8
LAY-5
  6
DASHDOT
 62
     1
100
AcDbLine
 10
644.929016
 20
197.148972
 30
0.0
 11
644.929016
 21
187.148972
 31
0.0
  0
LINE
  5
23A
100
AcDbEntity
  8
LAY-5
  6
DASHDOT
 62
     1
100
AcDbLine
 10
429.929016
 20
166.6
 30
0.0
 11
429.929016
 21
208.092987
 31
0.0
  0
LINE
  5
23B
100
AcDbEntity
  8
LAY-5
  6
DASHDOT
 62
     1
100
AcDbLine
 10
455.929016
 20
227.148972
 30
0.0
 11
455.929016
 21
217.148972
 31
0.0
  0
LINE
  5
23C
100
AcDbEntity
  8
LAY-5
  6
DASHDOT
 62
     1
100
AcDbLine
 10
455.929016
 20
197.148972
 30
0.0
 11
455.929016
 21
187.148972
 31
0.0
  0
LINE
  5
23D
100
AcDbEntity
  8
LAY-5
  6
DASHDOT
 62
     1
100
AcDbLine
 10
463.929016
 20
222.148972
 30
0.0
 11
473.929016
 21
222.148972
 31
0.0
  0
LINE
  5
23E
100
AcDbEntity
  8
LAY-5
  6
DASHDOT
 62
     1
100
AcDbLine
 10
468.929016
 20
227.148972
 30
0.0
 11
468.929016
 21
217.148972
 31
0.0
  0
LINE
  5
23F
100
AcDbEntity
  8
LAY-5
  6
DASHDOT
 62
     1
100
AcDbLine
 10
450.929016
 20
222.148972
 30
0.0
 11
460.929016
 21
222.148972
 31
0.0
  0
LINE
  5
240
100
AcDbEntity
  8
LAY-5
  6
DASHDOT
 62
     1
100
AcDbLine
 10
455.929016
 20
227.148972
 30
0.0
 11
455.929016
 21
217.148972
 31
0.0
  0
LINE
  5
241
100
AcDbEntity
  8
LAY-5
  6
DASHDOT
 62
     1
100
AcDbLine
 10
463.929016
 20
192.148972
 30
0.0
 11
473.929016
 21
192.148972
 31
0.0
  0
LINE
  5
242
100
AcDbEntity
  8
LAY-5
  6
DASHDOT
 62
     1
100
AcDbLine
 10
468.929016
 20
197.148972
 30
0.0
 11
468.929016
 21
187.148972
 31
0.0
  0
LINE
  5
243
100
AcDbEntity
  8
LAY-5
  6
DASHDOT
 62
     1
100
AcDbLine
 10
450.929016
 20
192.148972
 30
0.0
 11
460.929016
 21
192.148972
 31
0.0
  0
LINE
  5
244
100
AcDbEntity
  8
LAY-5
  6
DASHDOT
 62
     1
100
AcDbLine
 10
455.929016
 20
197.148972
 30
0.0
 11
455.929016
 21
187.148972
 31
0.0
  0
LINE
  5
245
100
AcDbEntity
  8
LAY-6
  6
CONTINUOUS
 62
     1
100
AcDbLine
 10
602.429016
 20
378.148987
 30
0.0
 11
586.929016
 21
378.148987
 31
0.0
  0
LINE
  5
246
100
AcDbEntity
  8
LAY-6
  6
CONTINUOUS
 62
     1
100
AcDbLine
 10
603.429016
 20
365.148987
 30
0.0
 11
586.929016
 21
365.148987
 31
0.0
  0
TEXT
  5
247
100
AcDbEntity
  8
LAY-6
  6
CONTINUOUS
 62
     2
100
AcDbText
 10
587.429016
 20
367.648987
 30
0.0
 40
5.0
  1
１３
 50
90.0
 41
0.672
  7
EXCADSTD
 72
     5
 11
587.429016
 21
374.981787
 31
0.0
100
AcDbText
  0
LINE
  5
248
100
AcDbEntity
  8
LAY-6
  6
CONTINUOUS
 62
     1
100
AcDbLine
 10
587.929016
 20
378.148987
 30
0.0
 11
587.929016
 21
365.148987
 31
0.0
  0
LINE
  5
249
100
AcDbEntity
  8
LAY-6
  6
CONTINUOUS
 62
     1
100
AcDbLine
 10
588.179016
 20
376.648987
 30
0.0
 11
587.929016
 21
378.148987
 31
0.0
  0
LINE
  5
24A
100
AcDbEntity
  8
LAY-6
  6
CONTINUOUS
 62
     1
100
AcDbLine
 10
587.929016
 20
378.148987
 30
0.0
 11
587.679016
 21
376.648987
 31
0.0
  0
LINE
  5
24B
100
AcDbEntity
  8
LAY-6
  6
CONTINUOUS
 62
     1
100
AcDbLine
 10
587.679016
 20
366.648987
 30
0.0
 11
587.929016
 21
365.148987
 31
0.0
  0
LINE
  5
24C
100
AcDbEntity
  8
LAY-6
  6
CONTINUOUS
 62
     1
100
AcDbLine
 10
587.929016
 20
365.148987
 30
0.0
 11
588.179016
 21
366.648987
 31
0.0
  0
LINE
  5
24D
100
AcDbEntity
  8
LAY-6
  6
CONTINUOUS
 62
     1
100
AcDbLine
 10
618.929016
 20
356.299408
 30
0.0
 11
618.929016
 21
344.148987
 31
0.0
  0
TEXT
  5
24E
100
AcDbEntity
  8
LAY-6
  6
CONTINUOUS
 62
     2
100
AcDbText
 10
624.429016
 20
345.648987
 30
0.0
 40
5.0
  1
１９
 41
0.672
  7
EXCADSTD
 72
     5
 11
631.761816
 21
345.648987
 31
0.0
100
AcDbText
  0
LINE
  5
24F
100
AcDbEntity
  8
LAY-6
  6
CONTINUOUS
 62
     1
100
AcDbLine
 10
618.929016
 20
345.148987
 30
0.0
 11
637.929016
 21
345.148987
 31
0.0
  0
LINE
  5
250
100
AcDbEntity
  8
LAY-6
  6
CONTINUOUS
 62
     1
100
AcDbLine
 10
620.429016
 20
345.398987
 30
0.0
 11
618.929016
 21
345.148987
 31
0.0
  0
LINE
  5
251
100
AcDbEntity
  8
LAY-6
  6
CONTINUOUS
 62
     1
100
AcDbLine
 10
618.929016
 20
345.148987
 30
0.0
 11
620.429016
 21
344.898987
 31
0.0
  0
LINE
  5
252
100
AcDbEntity
  8
LAY-6
  6
CONTINUOUS
 62
     1
100
AcDbLine
 10
636.429016
 20
344.898987
 30
0.0
 11
637.929016
 21
345.148987
 31
0.0
  0
LINE
  5
253
100
AcDbEntity
  8
LAY-6
  6
CONTINUOUS
 62
     1
100
AcDbLine
 10
637.929016
 20
345.148987
 30
0.0
 11
636.429016
 21
345.398987
 31
0.0
  0
LINE
  5
254
100
AcDbEntity
  8
LAY-6
  6
CONTINUOUS
 62
     1
100
AcDbLine
 10
637.929016
 20
353.686584
 30
0.0
 11
637.929016
 21
344.148987
 31
0.0
  0
LINE
  5
255
100
AcDbEntity
  8
LAY-6
  6
CONTINUOUS
 62
     1
100
AcDbLine
 10
667.929016
 20
369.648987
 30
0.0
 11
667.929016
 21
344.148987
 31
0.0
  0
TEXT
  5
256
100
AcDbEntity
  8
LAY-6
  6
CONTINUOUS
 62
     2
100
AcDbText
 10
648.929016
 20
345.648987
 30
0.0
 40
5.0
  1
３０
 41
0.672
  7
EXCADSTD
 72
     5
 11
656.261816
 21
345.648987
 31
0.0
100
AcDbText
  0
LINE
  5
257
100
AcDbEntity
  8
LAY-6
  6
CONTINUOUS
 62
     1
100
AcDbLine
 10
637.929016
 20
345.148987
 30
0.0
 11
667.929016
 21
345.148987
 31
0.0
  0
LINE
  5
258
100
AcDbEntity
  8
LAY-6
  6
CONTINUOUS
 62
     1
100
AcDbLine
 10
639.429016
 20
345.398987
 30
0.0
 11
637.929016
 21
345.148987
 31
0.0
  0
LINE
  5
259
100
AcDbEntity
  8
LAY-6
  6
CONTINUOUS
 62
     1
100
AcDbLine
 10
637.929016
 20
345.148987
 30
0.0
 11
639.429016
 21
344.898987
 31
0.0
  0
LINE
  5
25A
100
AcDbEntity
  8
LAY-6
  6
CONTINUOUS
 62
     1
100
AcDbLine
 10
666.429016
 20
344.898987
 30
0.0
 11
667.929016
 21
345.148987
 31
0.0
  0
LINE
  5
25B
100
AcDbEntity
  8
LAY-6
  6
CONTINUOUS
 62
     1
100
AcDbLine
 10
667.929016
 20
345.148987
 30
0.0
 11
666.429016
 21
345.398987
 31
0.0
  0
LINE
  5
25C
100
AcDbEntity
  8
LAY-6
  6
CONTINUOUS
 62
     1
100
AcDbLine
 10
618.929016
 20
406.942963
 30
0.0
 11
618.929016
 21
417.148987
 31
0.0
  0
TEXT
  5
25D
100
AcDbEntity
  8
LAY-6
  6
CONTINUOUS
 62
     2
100
AcDbText
 10
622.929016
 20
416.648987
 30
0.0
 40
5.0
  1
１６
 41
0.672
  7
EXCADSTD
 72
     5
 11
630.261816
 21
416.648987
 31
0.0
100
AcDbText
  0
LINE
  5
25E
100
AcDbEntity
  8
LAY-6
  6
CONTINUOUS
 62
     1
100
AcDbLine
 10
618.929016
 20
416.148987
 30
0.0
 11
634.929016
 21
416.148987
 31
0.0
  0
LINE
  5
25F
100
AcDbEntity
  8
LAY-6
  6
CONTINUOUS
 62
     1
100
AcDbLine
 10
620.429016
 20
416.398987
 30
0.0
 11
618.929016
 21
416.148987
 31
0.0
  0
LINE
  5
260
100
AcDbEntity
  8
LAY-6
  6
CONTINUOUS
 62
     1
100
AcDbLine
 10
618.929016
 20
416.148987
 30
0.0
 11
620.429016
 21
415.898987
 31
0.0
  0
LINE
  5
261
100
AcDbEntity
  8
LAY-6
  6
CONTINUOUS
 62
     1
100
AcDbLine
 10
633.429016
 20
415.898987
 30
0.0
 11
634.929016
 21
416.148987
 31
0.0
  0
LINE
  5
262
100
AcDbEntity
  8
LAY-6
  6
CONTINUOUS
 62
     1
100
AcDbLine
 10
634.929016
 20
416.148987
 30
0.0
 11
633.429016
 21
416.398987
 31
0.0
  0
LINE
  5
263
100
AcDbEntity
  8
LAY-6
  6
CONTINUOUS
 62
     1
100
AcDbLine
 10
634.929016
 20
405.04895
 30
0.0
 11
634.929016
 21
417.148987
 31
0.0
  0
LINE
  5
264
100
AcDbEntity
  8
LAY-6
  6
CONTINUOUS
 62
     1
100
AcDbLine
 10
667.929016
 20
393.648987
 30
0.0
 11
667.929016
 21
417.148987
 31
0.0
  0
TEXT
  5
265
100
AcDbEntity
  8
LAY-6
  6
CONTINUOUS
 62
     2
100
AcDbText
 10
647.429016
 20
416.648987
 30
0.0
 40
5.0
  1
３３
 41
0.672
  7
EXCADSTD
 72
     5
 11
654.761816
 21
416.648987
 31
0.0
100
AcDbText
  0
LINE
  5
266
100
AcDbEntity
  8
LAY-6
  6
CONTINUOUS
 62
     1
100
AcDbLine
 10
634.929016
 20
416.148987
 30
0.0
 11
667.929016
 21
416.148987
 31
0.0
  0
LINE
  5
267
100
AcDbEntity
  8
LAY-6
  6
CONTINUOUS
 62
     1
100
AcDbLine
 10
636.429016
 20
416.398987
 30
0.0
 11
634.929016
 21
416.148987
 31
0.0
  0
LINE
  5
268
100
AcDbEntity
  8
LAY-6
  6
CONTINUOUS
 62
     1
100
AcDbLine
 10
634.929016
 20
416.148987
 30
0.0
 11
636.429016
 21
415.898987
 31
0.0
  0
LINE
  5
269
100
AcDbEntity
  8
LAY-6
  6
CONTINUOUS
 62
     1
100
AcDbLine
 10
666.429016
 20
415.898987
 30
0.0
 11
667.929016
 21
416.148987
 31
0.0
  0
LINE
  5
26A
100
AcDbEntity
  8
LAY-6
  6
CONTINUOUS
 62
     1
100
AcDbLine
 10
667.929016
 20
416.148987
 30
0.0
 11
666.429016
 21
416.398987
 31
0.0
  0
LINE
  5
26B
100
AcDbEntity
  8
LAY-6
  6
CONTINUOUS
 62
     1
100
AcDbLine
 10
618.929016
 20
206.170517
 30
0.0
 11
618.929016
 21
210.148972
 31
0.0
  0
TEXT
  5
26C
100
AcDbEntity
  8
LAY-6
  6
CONTINUOUS
 62
     2
100
AcDbText
 10
624.429016
 20
209.648972
 30
0.0
 40
5.0
  1
１９
 41
0.672
  7
EXCADSTD
 72
     5
 11
631.761816
 21
209.648972
 31
0.0
100
AcDbText
  0
LINE
  5
26D
100
AcDbEntity
  8
LAY-6
  6
CONTINUOUS
 62
     1
100
AcDbLine
 10
618.929016
 20
209.148972
 30
0.0
 11
637.929016
 21
209.148972
 31
0.0
  0
LINE
  5
26E
100
AcDbEntity
  8
LAY-6
  6
CONTINUOUS
 62
     1
100
AcDbLine
 10
620.429016
 20
209.398972
 30
0.0
 11
618.929016
 21
209.148972
 31
0.0
  0
LINE
  5
26F
100
AcDbEntity
  8
LAY-6
  6
CONTINUOUS
 62
     1
100
AcDbLine
 10
618.929016
 20
209.148972
 30
0.0
 11
620.429016
 21
208.898972
 31
0.0
  0
LINE
  5
270
100
AcDbEntity
  8
LAY-6
  6
CONTINUOUS
 62
     1
100
AcDbLine
 10
636.429016
 20
208.898972
 30
0.0
 11
637.929016
 21
209.148972
 31
0.0
  0
LINE
  5
271
100
AcDbEntity
  8
LAY-6
  6
CONTINUOUS
 62
     1
100
AcDbLine
 10
637.929016
 20
209.148972
 30
0.0
 11
636.429016
 21
209.398972
 31
0.0
  0
LINE
  5
272
100
AcDbEntity
  8
LAY-6
  6
CONTINUOUS
 62
     1
100
AcDbLine
 10
637.929016
 20
207.441452
 30
0.0
 11
637.929016
 21
210.148972
 31
0.0
  0
LINE
  5
273
100
AcDbEntity
  8
LAY-6
  6
CONTINUOUS
 62
     1
100
AcDbLine
 10
667.929016
 20
189.648972
 30
0.0
 11
667.929016
 21
210.148972
 31
0.0
  0
TEXT
  5
274
100
AcDbEntity
  8
LAY-6
  6
CONTINUOUS
 62
     2
100
AcDbText
 10
648.929016
 20
209.648972
 30
0.0
 40
5.0
  1
３０
 41
0.672
  7
EXCADSTD
 72
     5
 11
656.261816
 21
209.648972
 31
0.0
100
AcDbText
  0
LINE
  5
275
100
AcDbEntity
  8
LAY-6
  6
CONTINUOUS
 62
     1
100
AcDbLine
 10
637.929016
 20
209.148972
 30
0.0
 11
667.929016
 21
209.148972
 31
0.0
  0
LINE
  5
276
100
AcDbEntity
  8
LAY-6
  6
CONTINUOUS
 62
     1
100
AcDbLine
 10
639.429016
 20
209.398972
 30
0.0
 11
637.929016
 21
209.148972
 31
0.0
  0
LINE
  5
277
100
AcDbEntity
  8
LAY-6
  6
CONTINUOUS
 62
     1
100
AcDbLine
 10
637.929016
 20
209.148972
 30
0.0
 11
639.429016
 21
208.898972
 31
0.0
  0
LINE
  5
278
100
AcDbEntity
  8
LAY-6
  6
CONTINUOUS
 62
     1
100
AcDbLine
 10
666.429016
 20
208.898972
 30
0.0
 11
667.929016
 21
209.148972
 31
0.0
  0
LINE
  5
279
100
AcDbEntity
  8
LAY-6
  6
CONTINUOUS
 62
     1
100
AcDbLine
 10
667.929016
 20
209.148972
 30
0.0
 11
666.429016
 21
209.398972
 31
0.0
  0
LINE
  5
27A
100
AcDbEntity
  8
LAY-6
  6
CONTINUOUS
 62
     1
100
AcDbLine
 10
672.82901
 20
378.148987
 30
0.0
 11
686.929016
 21
378.148987
 31
0.0
  0
LINE
  5
27B
100
AcDbEntity
  8
LAY-6
  6
CONTINUOUS
 62
     1
100
AcDbLine
 10
670.529022
 20
369.148987
 30
0.0
 11
686.929016
 21
369.148987
 31
0.0
  0
TEXT
  5
27C
100
AcDbEntity
  8
LAY-6
  6
CONTINUOUS
 62
     2
100
AcDbText
 10
685.429016
 20
371.648987
 30
0.0
 40
5.0
  1
９
 50
90.0
 41
0.672
  7
EXCADSTD
 72
     5
 11
685.429016
 21
374.848987
 31
0.0
100
AcDbText
  0
LINE
  5
27D
100
AcDbEntity
  8
LAY-6
  6
CONTINUOUS
 62
     1
100
AcDbLine
 10
685.929016
 20
378.148987
 30
0.0
 11
685.929016
 21
369.148987
 31
0.0
  0
LINE
  5
27E
100
AcDbEntity
  8
LAY-6
  6
CONTINUOUS
 62
     1
100
AcDbLine
 10
686.179016
 20
376.648987
 30
0.0
 11
685.929016
 21
378.148987
 31
0.0
  0
LINE
  5
27F
100
AcDbEntity
  8
LAY-6
  6
CONTINUOUS
 62
     1
100
AcDbLine
 10
685.929016
 20
378.148987
 30
0.0
 11
685.679016
 21
376.648987
 31
0.0
  0
LINE
  5
280
100
AcDbEntity
  8
LAY-6
  6
CONTINUOUS
 62
     1
100
AcDbLine
 10
685.679016
 20
370.648987
 30
0.0
 11
685.929016
 21
369.148987
 31
0.0
  0
LINE
  5
281
100
AcDbEntity
  8
LAY-6
  6
CONTINUOUS
 62
     1
100
AcDbLine
 10
685.929016
 20
369.148987
 30
0.0
 11
686.179016
 21
370.648987
 31
0.0
  0
LINE
  5
282
100
AcDbEntity
  8
LAY-6
  6
CONTINUOUS
 62
     1
100
AcDbLine
 10
676.429016
 20
387.648987
 30
0.0
 11
686.929016
 21
387.648987
 31
0.0
  0
LINE
  5
283
100
AcDbEntity
  8
LAY-6
  6
CONTINUOUS
 62
     1
100
AcDbLine
 10
676.429016
 20
381.148987
 30
0.0
 11
686.929016
 21
381.148987
 31
0.0
  0
TEXT
  5
284
100
AcDbEntity
  8
LAY-6
  6
CONTINUOUS
 62
     2
100
AcDbText
 10
692.635468
 20
381.125641
 30
0.0
 40
5.0
  1
６.５
 50
90.0
 41
0.595556
  7
EXCADSTD
 72
     5
 11
692.635468
 21
391.125641
 31
0.0
100
AcDbText
  0
LINE
  5
285
100
AcDbEntity
  8
LAY-6
  6
CONTINUOUS
 62
     1
100
AcDbLine
 10
685.929016
 20
387.648987
 30
0.0
 11
685.929016
 21
381.148987
 31
0.0
  0
LINE
  5
286
100
AcDbEntity
  8
LAY-6
  6
CONTINUOUS
 62
     1
100
AcDbLine
 10
686.179016
 20
386.148987
 30
0.0
 11
685.929016
 21
387.648987
 31
0.0
  0
LINE
  5
287
100
AcDbEntity
  8
LAY-6
  6
CONTINUOUS
 62
     1
100
AcDbLine
 10
685.929016
 20
387.648987
 30
0.0
 11
685.679016
 21
386.148987
 31
0.0
  0
LINE
  5
288
100
AcDbEntity
  8
LAY-6
  6
CONTINUOUS
 62
     1
100
AcDbLine
 10
685.679016
 20
382.648987
 30
0.0
 11
685.929016
 21
381.148987
 31
0.0
  0
LINE
  5
289
100
AcDbEntity
  8
LAY-6
  6
CONTINUOUS
 62
     1
100
AcDbLine
 10
685.929016
 20
381.148987
 30
0.0
 11
686.179016
 21
382.648987
 31
0.0
  0
LINE
  5
28A
100
AcDbEntity
  8
LAY-6
  6
CONTINUOUS
 62
     1
100
AcDbLine
 10
676.429016
 20
381.148987
 30
0.0
 11
706.929016
 21
381.148987
 31
0.0
  0
LINE
  5
28B
100
AcDbEntity
  8
LAY-6
  6
CONTINUOUS
 62
     1
100
AcDbLine
 10
672.82901
 20
378.148987
 30
0.0
 11
706.929016
 21
378.148987
 31
0.0
  0
TEXT
  5
28C
100
AcDbEntity
  8
LAY-6
  6
CONTINUOUS
 62
     2
100
AcDbText
 10
705.429016
 20
382.648987
 30
0.0
 40
5.0
  1
３
 50
90.0
 41
0.672
  7
EXCADSTD
 72
     5
 11
705.429016
 21
385.848987
 31
0.0
100
AcDbText
  0
LINE
  5
28D
100
AcDbEntity
  8
LAY-6
  6
CONTINUOUS
 62
     1
100
AcDbLine
 10
705.929016
 20
384.148987
 30
0.0
 11
705.929016
 21
375.148987
 31
0.0
  0
LINE
  5
28E
100
AcDbEntity
  8
LAY-6
  6
CONTINUOUS
 62
     1
100
AcDbLine
 10
705.679016
 20
382.648987
 30
0.0
 11
705.929016
 21
381.148987
 31
0.0
  0
LINE
  5
28F
100
AcDbEntity
  8
LAY-6
  6
CONTINUOUS
 62
     1
100
AcDbLine
 10
705.929016
 20
381.148987
 30
0.0
 11
706.179016
 21
382.648987
 31
0.0
  0
LINE
  5
290
100
AcDbEntity
  8
LAY-6
  6
CONTINUOUS
 62
     1
100
AcDbLine
 10
706.179016
 20
376.648987
 30
0.0
 11
705.929016
 21
378.148987
 31
0.0
  0
LINE
  5
291
100
AcDbEntity
  8
LAY-6
  6
CONTINUOUS
 62
     1
100
AcDbLine
 10
705.929016
 20
378.148987
 30
0.0
 11
705.679016
 21
376.648987
 31
0.0
  0
LINE
  5
292
100
AcDbEntity
  8
LAY-6
  6
CONTINUOUS
 62
     1
100
AcDbLine
 10
663.429016
 20
394.148987
 30
0.0
 11
686.929016
 21
394.148987
 31
0.0
  0
LINE
  5
293
100
AcDbEntity
  8
LAY-6
  6
CONTINUOUS
 62
     1
100
AcDbLine
 10
672.429016
 20
387.648987
 30
0.0
 11
686.929016
 21
387.648987
 31
0.0
  0
TEXT
  5
294
100
AcDbEntity
  8
LAY-6
  6
CONTINUOUS
 62
     2
100
AcDbText
 10
685.429016
 20
394.898987
 30
0.0
 40
5.0
  1
６.５
 50
90.0
 41
0.595556
  7
EXCADSTD
 72
     5
 11
685.429016
 21
404.898987
 31
0.0
100
AcDbText
  0
LINE
  5
295
100
AcDbEntity
  8
LAY-6
  6
CONTINUOUS
 62
     1
100
AcDbLine
 10
685.929016
 20
394.148987
 30
0.0
 11
685.929016
 21
387.648987
 31
0.0
  0
LINE
  5
296
100
AcDbEntity
  8
LAY-6
  6
CONTINUOUS
 62
     1
100
AcDbLine
 10
686.179016
 20
392.648987
 30
0.0
 11
685.929016
 21
394.148987
 31
0.0
  0
LINE
  5
297
100
AcDbEntity
  8
LAY-6
  6
CONTINUOUS
 62
     1
100
AcDbLine
 10
685.929016
 20
394.148987
 30
0.0
 11
685.679016
 21
392.648987
 31
0.0
  0
LINE
  5
298
100
AcDbEntity
  8
LAY-6
  6
CONTINUOUS
 62
     1
100
AcDbLine
 10
685.679016
 20
389.148987
 30
0.0
 11
685.929016
 21
387.648987
 31
0.0
  0
LINE
  5
299
100
AcDbEntity
  8
LAY-6
  6
CONTINUOUS
 62
     1
100
AcDbLine
 10
685.929016
 20
387.648987
 30
0.0
 11
686.179016
 21
389.148987
 31
0.0
  0
LINE
  5
29A
100
AcDbEntity
  8
LAY-6
  6
CONTINUOUS
 62
     1
100
AcDbLine
 10
674.429016
 20
178.148972
 30
0.0
 11
706.929016
 21
178.148972
 31
0.0
  0
LINE
  5
29B
100
AcDbEntity
  8
LAY-6
  6
CONTINUOUS
 62
     1
100
AcDbLine
 10
676.429016
 20
172.148972
 30
0.0
 11
706.929016
 21
172.148972
 31
0.0
  0
TEXT
  5
29C
100
AcDbEntity
  8
LAY-6
  6
CONTINUOUS
 62
     2
100
AcDbText
 10
705.429016
 20
173.148972
 30
0.0
 40
5.0
  1
６
 50
90.0
 41
0.672
  7
EXCADSTD
 72
     5
 11
705.429016
 21
176.348972
 31
0.0
100
AcDbText
  0
LINE
  5
29D
100
AcDbEntity
  8
LAY-6
  6
CONTINUOUS
 62
     1
100
AcDbLine
 10
705.929016
 20
181.148972
 30
0.0
 11
705.929016
 21
169.148972
 31
0.0
  0
LINE
  5
29E
100
AcDbEntity
  8
LAY-6
  6
CONTINUOUS
 62
     1
100
AcDbLine
 10
705.679016
 20
179.648972
 30
0.0
 11
705.929016
 21
178.148972
 31
0.0
  0
LINE
  5
29F
100
AcDbEntity
  8
LAY-6
  6
CONTINUOUS
 62
     1
100
AcDbLine
 10
705.929016
 20
178.148972
 30
0.0
 11
706.179016
 21
179.648972
 31
0.0
  0
LINE
  5
2A0
100
AcDbEntity
  8
LAY-6
  6
CONTINUOUS
 62
     1
100
AcDbLine
 10
706.179016
 20
170.648972
 30
0.0
 11
705.929016
 21
172.148972
 31
0.0
  0
LINE
  5
2A1
100
AcDbEntity
  8
LAY-6
  6
CONTINUOUS
 62
     1
100
AcDbLine
 10
705.929016
 20
172.148972
 30
0.0
 11
705.679016
 21
170.648972
 31
0.0
  0
LINE
  5
2A2
100
AcDbEntity
  8
LAY-6
  6
CONTINUOUS
 62
     1
100
AcDbLine
 10
674.429016
 20
178.148972
 30
0.0
 11
686.929016
 21
178.148972
 31
0.0
  0
LINE
  5
2A3
100
AcDbEntity
  8
LAY-6
  6
CONTINUOUS
 62
     1
100
AcDbLine
 10
663.429016
 20
181.148972
 30
0.0
 11
686.929016
 21
181.148972
 31
0.0
  0
TEXT
  5
2A4
100
AcDbEntity
  8
LAY-6
  6
CONTINUOUS
 62
     2
100
AcDbText
 10
685.429016
 20
173.648972
 30
0.0
 40
5.0
  1
３
 50
90.0
 41
0.672
  7
EXCADSTD
 72
     5
 11
685.429016
 21
176.848972
 31
0.0
100
AcDbText
  0
LINE
  5
2A5
100
AcDbEntity
  8
LAY-6
  6
CONTINUOUS
 62
     1
100
AcDbLine
 10
685.929016
 20
175.148972
 30
0.0
 11
685.929016
 21
184.148972
 31
0.0
  0
LINE
  5
2A6
100
AcDbEntity
  8
LAY-6
  6
CONTINUOUS
 62
     1
100
AcDbLine
 10
686.179016
 20
176.648972
 30
0.0
 11
685.929016
 21
178.148972
 31
0.0
  0
LINE
  5
2A7
100
AcDbEntity
  8
LAY-6
  6
CONTINUOUS
 62
     1
100
AcDbLine
 10
685.929016
 20
178.148972
 30
0.0
 11
685.679016
 21
176.648972
 31
0.0
  0
LINE
  5
2A8
100
AcDbEntity
  8
LAY-6
  6
CONTINUOUS
 62
     1
100
AcDbLine
 10
685.679016
 20
182.648972
 30
0.0
 11
685.929016
 21
181.148972
 31
0.0
  0
LINE
  5
2A9
100
AcDbEntity
  8
LAY-6
  6
CONTINUOUS
 62
     1
100
AcDbLine
 10
685.929016
 20
181.148972
 30
0.0
 11
686.179016
 21
182.648972
 31
0.0
  0
LINE
  5
2AA
100
AcDbEntity
  8
LAY-6
  6
CONTINUOUS
 62
     1
100
AcDbLine
 10
663.429016
 20
181.148972
 30
0.0
 11
686.929016
 21
181.148972
 31
0.0
  0
LINE
  5
2AB
100
AcDbEntity
  8
LAY-6
  6
CONTINUOUS
 62
     1
100
AcDbLine
 10
670.529022
 20
190.148972
 30
0.0
 11
686.929016
 21
190.148972
 31
0.0
  0
TEXT
  5
2AC
100
AcDbEntity
  8
LAY-6
  6
CONTINUOUS
 62
     2
100
AcDbText
 10
685.429016
 20
183.648972
 30
0.0
 40
5.0
  1
９
 50
90.0
 41
0.672
  7
EXCADSTD
 72
     5
 11
685.429016
 21
186.848972
 31
0.0
100
AcDbText
  0
LINE
  5
2AD
100
AcDbEntity
  8
LAY-6
  6
CONTINUOUS
 62
     1
100
AcDbLine
 10
685.929016
 20
181.148972
 30
0.0
 11
685.929016
 21
190.148972
 31
0.0
  0
LINE
  5
2AE
100
AcDbEntity
  8
LAY-6
  6
CONTINUOUS
 62
     1
100
AcDbLine
 10
685.679016
 20
182.648972
 30
0.0
 11
685.929016
 21
181.148972
 31
0.0
  0
LINE
  5
2AF
100
AcDbEntity
  8
LAY-6
  6
CONTINUOUS
 62
     1
100
AcDbLine
 10
685.929016
 20
181.148972
 30
0.0
 11
686.179016
 21
182.648972
 31
0.0
  0
LINE
  5
2B0
100
AcDbEntity
  8
LAY-6
  6
CONTINUOUS
 62
     1
100
AcDbLine
 10
686.179016
 20
188.648972
 30
0.0
 11
685.929016
 21
190.148972
 31
0.0
  0
LINE
  5
2B1
100
AcDbEntity
  8
LAY-6
  6
CONTINUOUS
 62
     1
100
AcDbLine
 10
685.929016
 20
190.148972
 30
0.0
 11
685.679016
 21
188.648972
 31
0.0
  0
TEXT
  5
2B2
100
AcDbEntity
  8
LAY-6
  6
CONTINUOUS
 62
     2
100
AcDbText
 10
181.996742
 20
362.738861
 30
0.0
 40
5.0
  1
Ｒ
 50
45.000035
 41
0.672
  7
EXCADSTD
 72
     5
 11
184.259482
 21
365.001604
 31
0.0
100
AcDbText
  0
TEXT
  5
2B3
100
AcDbEntity
  8
LAY-6
  6
CONTINUOUS
 62
     2
100
AcDbText
 10
184.825167
 20
365.56729
 30
0.0
 40
5.0
  1
１６
 50
45.000035
 41
0.672
  7
EXCADSTD
 72
     5
 11
190.010237
 21
370.752366
 31
0.0
100
AcDbText
  0
LINE
  5
2B4
100
AcDbEntity
  8
LAY-6
  6
CONTINUOUS
 62
     1
100
AcDbLine
 10
181.732503
 20
361.767494
 30
0.0
 11
203.227921
 21
383.262939
 31
0.0
  0
LINE
  5
2B5
100
AcDbEntity
  8
LAY-6
  6
CONTINUOUS
 62
     1
100
AcDbLine
 10
192.798098
 20
373.186656
 30
0.0
 11
191.914215
 21
371.949219
 31
0.0
  0
LINE
  5
2B6
100
AcDbEntity
  8
LAY-6
  6
CONTINUOUS
 62
     1
100
AcDbLine
 10
191.914215
 20
371.949219
 30
0.0
 11
193.151651
 21
372.833103
 31
0.0
  0
LINE
  5
2B7
100
AcDbEntity
  8
LAY-6
  6
CONTINUOUS
 62
     1
100
AcDbLine
 10
221.381966
 20
383.262939
 30
0.0
 11
231.881966
 21
383.262939
 31
0.0
  0
LINE
  5
2B8
100
AcDbEntity
  8
LAY-6
  6
CONTINUOUS
 62
     1
100
AcDbLine
 10
221.093275
 20
383.716093
 30
0.0
 11
225.530767
 21
393.232325
 31
0.0
  0
TEXT
  5
2B9
100
AcDbEntity
  8
LAY-6
  6
CONTINUOUS
 62
     2
100
AcDbText
 10
227.266213
 20
392.727337
 30
0.0
 40
5.0
  1
６５
 50
300.023926
 41
0.672
  7
EXCADSTD
 72
     5
 11
230.935265
 21
386.378477
 31
0.0
100
AcDbText
  0
TEXT
  5
2BA
100
AcDbEntity
  8
LAY-6
  6
CONTINUOUS
 62
     2
100
AcDbText
 10
231.269106
 20
385.800804
 30
0.0
 40
5.0
  1
ﾟ
 50
300.023926
 41
0.4
  7
EXCADSTD
 72
     5
 11
231.919576
 21
384.675243
 31
0.0
100
AcDbText
  0
ARC
  5
2BB
100
AcDbEntity
  8
LAY-6
  6
CONTINUOUS
 62
     1
100
AcDbCircle
 10
220.88195
 20
383.262929
 30
0.0
 40
10.000016
100
AcDbArc
 50
0.000057
 51
64.999943
  0
LINE
  5
2BC
100
AcDbEntity
  8
LAY-6
  6
CONTINUOUS
 62
     1
100
AcDbLine
 10
230.631966
 20
384.762939
 30
0.0
 11
230.881966
 21
383.262939
 31
0.0
  0
LINE
  5
2BD
100
AcDbEntity
  8
LAY-6
  6
CONTINUOUS
 62
     1
100
AcDbLine
 10
230.881966
 20
383.262939
 30
0.0
 11
231.131966
 21
384.762939
 31
0.0
  0
LINE
  5
2BE
100
AcDbEntity
  8
LAY-6
  6
CONTINUOUS
 62
     1
100
AcDbLine
 10
226.573265
 20
391.918666
 30
0.0
 11
225.108149
 21
392.326017
 31
0.0
  0
LINE
  5
2BF
100
AcDbEntity
  8
LAY-6
  6
CONTINUOUS
 62
     1
100
AcDbLine
 10
225.108149
 20
392.326017
 30
0.0
 11
226.361956
 21
391.465512
 31
0.0
  0
LINE
  5
2C0
100
AcDbEntity
  8
LAY-6
  6
CONTINUOUS
 62
     1
100
AcDbLine
 10
235.536835
 20
383.262939
 30
0.0
 11
251.227921
 21
383.262939
 31
0.0
  0
TEXT
  5
2C1
100
AcDbEntity
  8
LAY-6
  6
CONTINUOUS
 62
     2
100
AcDbText
 10
249.727921
 20
387.262939
 30
0.0
 40
5.0
  1
１６
 50
90.0
 41
0.672
  7
EXCADSTD
 72
     5
 11
249.727921
 21
394.595739
 31
0.0
100
AcDbText
  0
LINE
  5
2C2
100
AcDbEntity
  8
LAY-6
  6
CONTINUOUS
 62
     1
100
AcDbLine
 10
250.227921
 20
383.262939
 30
0.0
 11
250.227921
 21
399.262939
 31
0.0
  0
LINE
  5
2C3
100
AcDbEntity
  8
LAY-6
  6
CONTINUOUS
 62
     1
100
AcDbLine
 10
249.977921
 20
384.762939
 30
0.0
 11
250.227921
 21
383.262939
 31
0.0
  0
LINE
  5
2C4
100
AcDbEntity
  8
LAY-6
  6
CONTINUOUS
 62
     1
100
AcDbLine
 10
250.227921
 20
383.262939
 30
0.0
 11
250.477921
 21
384.762939
 31
0.0
  0
LINE
  5
2C5
100
AcDbEntity
  8
LAY-6
  6
CONTINUOUS
 62
     1
100
AcDbLine
 10
250.477921
 20
397.762939
 30
0.0
 11
250.227921
 21
399.262939
 31
0.0
  0
LINE
  5
2C6
100
AcDbEntity
  8
LAY-6
  6
CONTINUOUS
 62
     1
100
AcDbLine
 10
250.227921
 20
399.262939
 30
0.0
 11
249.977921
 21
397.762939
 31
0.0
  0
LINE
  5
2C7
100
AcDbEntity
  8
LAY-6
  6
CONTINUOUS
 62
     1
100
AcDbLine
 10
236.343903
 20
399.262939
 30
0.0
 11
251.227905
 21
399.262939
 31
0.0
  0
LINE
  5
2C8
100
AcDbEntity
  8
LAY-6
  6
CONTINUOUS
 62
     1
100
AcDbLine
 10
221.727913
 20
432.262939
 30
0.0
 11
251.227905
 21
432.262939
 31
0.0
  0
TEXT
  5
2C9
100
AcDbEntity
  8
LAY-6
  6
CONTINUOUS
 62
     2
100
AcDbText
 10
249.727905
 20
411.762939
 30
0.0
 40
5.0
  1
３３
 50
90.0
 41
0.672
  7
EXCADSTD
 72
     5
 11
249.727905
 21
419.095739
 31
0.0
100
AcDbText
  0
LINE
  5
2CA
100
AcDbEntity
  8
LAY-6
  6
CONTINUOUS
 62
     1
100
AcDbLine
 10
250.227905
 20
399.262939
 30
0.0
 11
250.227905
 21
432.262939
 31
0.0
  0
LINE
  5
2CB
100
AcDbEntity
  8
LAY-6
  6
CONTINUOUS
 62
     1
100
AcDbLine
 10
249.977905
 20
400.762939
 30
0.0
 11
250.227905
 21
399.262939
 31
0.0
  0
LINE
  5
2CC
100
AcDbEntity
  8
LAY-6
  6
CONTINUOUS
 62
     1
100
AcDbLine
 10
250.227905
 20
399.262939
 30
0.0
 11
250.477905
 21
400.762939
 31
0.0
  0
LINE
  5
2CD
100
AcDbEntity
  8
LAY-6
  6
CONTINUOUS
 62
     1
100
AcDbLine
 10
250.477905
 20
430.762939
 30
0.0
 11
250.227905
 21
432.262939
 31
0.0
  0
LINE
  5
2CE
100
AcDbEntity
  8
LAY-6
  6
CONTINUOUS
 62
     1
100
AcDbLine
 10
250.227905
 20
432.262939
 30
0.0
 11
249.977905
 21
430.762939
 31
0.0
  0
LINE
  5
2CF
100
AcDbEntity
  8
LAY-6
  6
CONTINUOUS
 62
     1
100
AcDbLine
 10
237.727905
 20
295.262939
 30
0.0
 11
251.227905
 21
295.262939
 31
0.0
  0
TEXT
  5
2D0
100
AcDbEntity
  8
LAY-6
  6
CONTINUOUS
 62
     2
100
AcDbText
 10
249.727905
 20
296.262939
 30
0.0
 40
5.0
  1
６
 50
90.0
 41
0.672
  7
EXCADSTD
 72
     5
 11
249.727905
 21
299.462939
 31
0.0
100
AcDbText
  0
LINE
  5
2D1
100
AcDbEntity
  8
LAY-6
  6
CONTINUOUS
 62
     1
100
AcDbLine
 10
250.227905
 20
295.262939
 30
0.0
 11
250.227905
 21
301.262939
 31
0.0
  0
LINE
  5
2D2
100
AcDbEntity
  8
LAY-6
  6
CONTINUOUS
 62
     1
100
AcDbLine
 10
249.977905
 20
296.762939
 30
0.0
 11
250.227905
 21
295.262939
 31
0.0
  0
LINE
  5
2D3
100
AcDbEntity
  8
LAY-6
  6
CONTINUOUS
 62
     1
100
AcDbLine
 10
250.227905
 20
295.262939
 30
0.0
 11
250.477905
 21
296.762939
 31
0.0
  0
LINE
  5
2D4
100
AcDbEntity
  8
LAY-6
  6
CONTINUOUS
 62
     1
100
AcDbLine
 10
250.477905
 20
299.762939
 30
0.0
 11
250.227905
 21
301.262939
 31
0.0
  0
LINE
  5
2D5
100
AcDbEntity
  8
LAY-6
  6
CONTINUOUS
 62
     1
100
AcDbLine
 10
250.227905
 20
301.262939
 30
0.0
 11
249.977905
 21
299.762939
 31
0.0
  0
LINE
  5
2D6
100
AcDbEntity
  8
LAY-6
  6
CONTINUOUS
 62
     1
100
AcDbLine
 10
236.727905
 20
301.262939
 30
0.0
 11
251.227905
 21
301.262939
 31
0.0
  0
LINE
  5
2D7
100
AcDbEntity
  8
LAY-6
  6
CONTINUOUS
 62
     1
100
AcDbLine
 10
236.727905
 20
313.262939
 30
0.0
 11
251.227905
 21
313.262939
 31
0.0
  0
TEXT
  5
2D8
100
AcDbEntity
  8
LAY-6
  6
CONTINUOUS
 62
     2
100
AcDbText
 10
249.727905
 20
303.262939
 30
0.0
 40
5.0
  1
１２
 50
90.0
 41
0.672
  7
EXCADSTD
 72
     5
 11
249.727905
 21
310.595739
 31
0.0
100
AcDbText
  0
LINE
  5
2D9
100
AcDbEntity
  8
LAY-6
  6
CONTINUOUS
 62
     1
100
AcDbLine
 10
250.227905
 20
301.262939
 30
0.0
 11
250.227905
 21
313.262939
 31
0.0
  0
LINE
  5
2DA
100
AcDbEntity
  8
LAY-6
  6
CONTINUOUS
 62
     1
100
AcDbLine
 10
249.977905
 20
302.762939
 30
0.0
 11
250.227905
 21
301.262939
 31
0.0
  0
LINE
  5
2DB
100
AcDbEntity
  8
LAY-6
  6
CONTINUOUS
 62
     1
100
AcDbLine
 10
250.227905
 20
301.262939
 30
0.0
 11
250.477905
 21
302.762939
 31
0.0
  0
LINE
  5
2DC
100
AcDbEntity
  8
LAY-6
  6
CONTINUOUS
 62
     1
100
AcDbLine
 10
250.477905
 20
311.762939
 30
0.0
 11
250.227905
 21
313.262939
 31
0.0
  0
LINE
  5
2DD
100
AcDbEntity
  8
LAY-6
  6
CONTINUOUS
 62
     1
100
AcDbLine
 10
250.227905
 20
313.262939
 30
0.0
 11
249.977905
 21
311.762939
 31
0.0
  0
LINE
  5
2DE
100
AcDbEntity
  8
LAY-6
  6
CONTINUOUS
 62
     1
100
AcDbLine
 10
232.627693
 20
270.262939
 30
0.0
 11
266.227905
 21
270.262939
 31
0.0
  0
TEXT
  5
2DF
100
AcDbEntity
  8
LAY-6
  6
CONTINUOUS
 62
     2
100
AcDbText
 10
264.727905
 20
275.762939
 30
0.0
 40
5.0
  1
１９
 50
90.0
 41
0.672
  7
EXCADSTD
 72
     5
 11
264.727905
 21
283.095739
 31
0.0
100
AcDbText
  0
LINE
  5
2E0
100
AcDbEntity
  8
LAY-6
  6
CONTINUOUS
 62
     1
100
AcDbLine
 10
265.227905
 20
270.262939
 30
0.0
 11
265.227905
 21
289.262939
 31
0.0
  0
LINE
  5
2E1
100
AcDbEntity
  8
LAY-6
  6
CONTINUOUS
 62
     1
100
AcDbLine
 10
264.977905
 20
271.762939
 30
0.0
 11
265.227905
 21
270.262939
 31
0.0
  0
LINE
  5
2E2
100
AcDbEntity
  8
LAY-6
  6
CONTINUOUS
 62
     1
100
AcDbLine
 10
265.227905
 20
270.262939
 30
0.0
 11
265.477905
 21
271.762939
 31
0.0
  0
LINE
  5
2E3
100
AcDbEntity
  8
LAY-6
  6
CONTINUOUS
 62
     1
100
AcDbLine
 10
265.477905
 20
287.762939
 30
0.0
 11
265.227905
 21
289.262939
 31
0.0
  0
LINE
  5
2E4
100
AcDbEntity
  8
LAY-6
  6
CONTINUOUS
 62
     1
100
AcDbLine
 10
265.227905
 20
289.262939
 30
0.0
 11
264.977905
 21
287.762939
 31
0.0
  0
LINE
  5
2E5
100
AcDbEntity
  8
LAY-6
  6
CONTINUOUS
 62
     1
100
AcDbLine
 10
255.896332
 20
289.262939
 30
0.0
 11
266.227905
 21
289.262939
 31
0.0
  0
LINE
  5
2E6
100
AcDbEntity
  8
LAY-6
  6
CONTINUOUS
 62
     1
100
AcDbLine
 10
237.727905
 20
295.262939
 30
0.0
 11
266.227905
 21
295.262939
 31
0.0
  0
TEXT
  5
2E7
100
AcDbEntity
  8
LAY-6
  6
CONTINUOUS
 62
     2
100
AcDbText
 10
264.727905
 20
290.262939
 30
0.0
 40
5.0
  1
６
 50
90.0
 41
0.672
  7
EXCADSTD
 72
     5
 11
264.727905
 21
293.462939
 31
0.0
100
AcDbText
  0
LINE
  5
2E8
100
AcDbEntity
  8
LAY-6
  6
CONTINUOUS
 62
     1
100
AcDbLine
 10
265.227905
 20
286.262939
 30
0.0
 11
265.227905
 21
298.262939
 31
0.0
  0
LINE
  5
2E9
100
AcDbEntity
  8
LAY-6
  6
CONTINUOUS
 62
     1
100
AcDbLine
 10
265.477905
 20
287.762939
 30
0.0
 11
265.227905
 21
289.262939
 31
0.0
  0
LINE
  5
2EA
100
AcDbEntity
  8
LAY-6
  6
CONTINUOUS
 62
     1
100
AcDbLine
 10
265.227905
 20
289.262939
 30
0.0
 11
264.977905
 21
287.762939
 31
0.0
  0
LINE
  5
2EB
100
AcDbEntity
  8
LAY-6
  6
CONTINUOUS
 62
     1
100
AcDbLine
 10
264.977905
 20
296.762939
 30
0.0
 11
265.227905
 21
295.262939
 31
0.0
  0
LINE
  5
2EC
100
AcDbEntity
  8
LAY-6
  6
CONTINUOUS
 62
     1
100
AcDbLine
 10
265.227905
 20
295.262939
 30
0.0
 11
265.477905
 21
296.762939
 31
0.0
  0
LINE
  5
2ED
100
AcDbEntity
  8
LAY-6
  6
CONTINUOUS
 62
     1
100
AcDbLine
 10
237.727905
 20
295.262939
 30
0.0
 11
266.227905
 21
295.262939
 31
0.0
  0
LINE
  5
2EE
100
AcDbEntity
  8
LAY-6
  6
CONTINUOUS
 62
     1
100
AcDbLine
 10
237.727905
 20
319.262939
 30
0.0
 11
266.227905
 21
319.262939
 31
0.0
  0
TEXT
  5
2EF
100
AcDbEntity
  8
LAY-6
  6
CONTINUOUS
 62
     2
100
AcDbText
 10
264.727905
 20
303.262939
 30
0.0
 40
5.0
  1
２４
 50
90.0
 41
0.672
  7
EXCADSTD
 72
     5
 11
264.727905
 21
310.595739
 31
0.0
100
AcDbText
  0
LINE
  5
2F0
100
AcDbEntity
  8
LAY-6
  6
CONTINUOUS
 62
     1
100
AcDbLine
 10
265.227905
 20
295.262939
 30
0.0
 11
265.227905
 21
319.262939
 31
0.0
  0
LINE
  5
2F1
100
AcDbEntity
  8
LAY-6
  6
CONTINUOUS
 62
     1
100
AcDbLine
 10
264.977905
 20
296.762939
 30
0.0
 11
265.227905
 21
295.262939
 31
0.0
  0
LINE
  5
2F2
100
AcDbEntity
  8
LAY-6
  6
CONTINUOUS
 62
     1
100
AcDbLine
 10
265.227905
 20
295.262939
 30
0.0
 11
265.477905
 21
296.762939
 31
0.0
  0
LINE
  5
2F3
100
AcDbEntity
  8
LAY-6
  6
CONTINUOUS
 62
     1
100
AcDbLine
 10
265.477905
 20
317.762939
 30
0.0
 11
265.227905
 21
319.262939
 31
0.0
  0
LINE
  5
2F4
100
AcDbEntity
  8
LAY-6
  6
CONTINUOUS
 62
     1
100
AcDbLine
 10
265.227905
 20
319.262939
 30
0.0
 11
264.977905
 21
317.762939
 31
0.0
  0
TEXT
  5
2F5
100
AcDbEntity
  8
LAY-6
  6
CONTINUOUS
 62
     2
100
AcDbText
 10
181.996742
 20
249.738876
 30
0.0
 40
5.0
  1
Ｒ
 50
44.999997
 41
0.672
  7
EXCADSTD
 72
     5
 11
184.259484
 21
252.001618
 31
0.0
100
AcDbText
  0
TEXT
  5
2F6
100
AcDbEntity
  8
LAY-6
  6
CONTINUOUS
 62
     2
100
AcDbText
 10
184.825169
 20
252.567303
 30
0.0
 40
5.0
  1
１６
 50
44.999997
 41
0.672
  7
EXCADSTD
 72
     5
 11
190.010242
 21
257.752375
 31
0.0
100
AcDbText
  0
LINE
  5
2F7
100
AcDbEntity
  8
LAY-6
  6
CONTINUOUS
 62
     1
100
AcDbLine
 10
181.88249
 20
248.91751
 30
0.0
 11
203.227921
 21
270.262939
 31
0.0
  0
LINE
  5
2F8
100
AcDbEntity
  8
LAY-6
  6
CONTINUOUS
 62
     1
100
AcDbLine
 10
192.798099
 20
260.186671
 30
0.0
 11
191.914215
 21
258.949234
 31
0.0
  0
LINE
  5
2F9
100
AcDbEntity
  8
LAY-6
  6
CONTINUOUS
 62
     1
100
AcDbLine
 10
191.914215
 20
258.949234
 30
0.0
 11
193.151652
 21
259.833117
 31
0.0
  0
LINE
  5
2FA
100
AcDbEntity
  8
LAY-6
  6
CONTINUOUS
 62
     1
100
AcDbLine
 10
193.227928
 20
309.492584
 30
0.0
 11
193.227928
 21
306.262939
 31
0.0
  0
LINE
  5
2FB
100
AcDbEntity
  8
LAY-6
  6
CONTINUOUS
 62
     1
100
AcDbLine
 10
203.227921
 20
309.762939
 30
0.0
 11
203.227921
 21
306.262939
 31
0.0
  0
TEXT
  5
2FC
100
AcDbEntity
  8
LAY-6
  6
CONTINUOUS
 62
     2
100
AcDbText
 10
192.227921
 20
307.762939
 30
0.0
 40
5.0
  1
１０
 41
0.672
  7
EXCADSTD
 72
     5
 11
199.560721
 21
307.762939
 31
0.0
100
AcDbText
  0
LINE
  5
2FD
100
AcDbEntity
  8
LAY-6
  6
CONTINUOUS
 62
     1
100
AcDbLine
 10
190.227928
 20
307.262939
 30
0.0
 11
206.227921
 21
307.262939
 31
0.0
  0
LINE
  5
2FE
100
AcDbEntity
  8
LAY-6
  6
CONTINUOUS
 62
     1
100
AcDbLine
 10
191.727928
 20
307.012939
 30
0.0
 11
193.227928
 21
307.262939
 31
0.0
  0
LINE
  5
2FF
100
AcDbEntity
  8
LAY-6
  6
CONTINUOUS
 62
     1
100
AcDbLine
 10
193.227928
 20
307.262939
 30
0.0
 11
191.727928
 21
307.512939
 31
0.0
  0
LINE
  5
300
100
AcDbEntity
  8
LAY-6
  6
CONTINUOUS
 62
     1
100
AcDbLine
 10
204.727921
 20
307.512939
 30
0.0
 11
203.227921
 21
307.262939
 31
0.0
  0
LINE
  5
301
100
AcDbEntity
  8
LAY-6
  6
CONTINUOUS
 62
     1
100
AcDbLine
 10
203.227921
 20
307.262939
 30
0.0
 11
204.727921
 21
307.012939
 31
0.0
  0
LINE
  5
302
100
AcDbEntity
  8
LAY-6
  6
CONTINUOUS
 62
     1
100
AcDbLine
 10
221.381966
 20
270.262939
 30
0.0
 11
231.881966
 21
270.262939
 31
0.0
  0
LINE
  5
303
100
AcDbEntity
  8
LAY-6
  6
CONTINUOUS
 62
     1
100
AcDbLine
 10
221.093275
 20
270.716093
 30
0.0
 11
225.530767
 21
280.232325
 31
0.0
  0
TEXT
  5
304
100
AcDbEntity
  8
LAY-6
  6
CONTINUOUS
 62
     2
100
AcDbText
 10
227.266242
 20
279.727315
 30
0.0
 40
5.0
  1
６５
 50
300.023739
 41
0.672
  7
EXCADSTD
 72
     5
 11
230.935273
 21
273.378443
 31
0.0
100
AcDbText
  0
TEXT
  5
305
100
AcDbEntity
  8
LAY-6
  6
CONTINUOUS
 62
     2
100
AcDbText
 10
231.269112
 20
272.800769
 30
0.0
 40
5.0
  1
ﾟ
 50
300.023739
 41
0.4
  7
EXCADSTD
 72
     5
 11
231.919579
 21
271.675206
 31
0.0
100
AcDbText
  0
ARC
  5
306
100
AcDbEntity
  8
LAY-6
  6
CONTINUOUS
 62
     1
100
AcDbCircle
 10
220.88195
 20
270.262929
 30
0.0
 40
10.000016
100
AcDbArc
 50
0.000057
 51
64.999943
  0
LINE
  5
307
100
AcDbEntity
  8
LAY-6
  6
CONTINUOUS
 62
     1
100
AcDbLine
 10
230.631966
 20
271.762939
 30
0.0
 11
230.881966
 21
270.262939
 31
0.0
  0
LINE
  5
308
100
AcDbEntity
  8
LAY-6
  6
CONTINUOUS
 62
     1
100
AcDbLine
 10
230.881966
 20
270.262939
 30
0.0
 11
231.131966
 21
271.762939
 31
0.0
  0
LINE
  5
309
100
AcDbEntity
  8
LAY-6
  6
CONTINUOUS
 62
     1
100
AcDbLine
 10
226.573265
 20
278.918666
 30
0.0
 11
225.108149
 21
279.326017
 31
0.0
  0
LINE
  5
30A
100
AcDbEntity
  8
LAY-6
  6
CONTINUOUS
 62
     1
100
AcDbLine
 10
225.108149
 20
279.326017
 30
0.0
 11
226.361956
 21
278.465512
 31
0.0
  0
LINE
  5
30B
100
AcDbEntity
  8
LAY-6
  6
CONTINUOUS
 62
     1
100
AcDbLine
 10
237.727905
 20
185.262932
 30
0.0
 11
251.227905
 21
185.262932
 31
0.0
  0
TEXT
  5
30C
100
AcDbEntity
  8
LAY-6
  6
CONTINUOUS
 62
     2
100
AcDbText
 10
249.727905
 20
186.262932
 30
0.0
 40
5.0
  1
６
 50
90.0
 41
0.672
  7
EXCADSTD
 72
     5
 11
249.727905
 21
189.462932
 31
0.0
100
AcDbText
  0
LINE
  5
30D
100
AcDbEntity
  8
LAY-6
  6
CONTINUOUS
 62
     1
100
AcDbLine
 10
250.227905
 20
185.262932
 30
0.0
 11
250.227905
 21
191.262932
 31
0.0
  0
LINE
  5
30E
100
AcDbEntity
  8
LAY-6
  6
CONTINUOUS
 62
     1
100
AcDbLine
 10
249.977905
 20
186.762932
 30
0.0
 11
250.227905
 21
185.262932
 31
0.0
  0
LINE
  5
30F
100
AcDbEntity
  8
LAY-6
  6
CONTINUOUS
 62
     1
100
AcDbLine
 10
250.227905
 20
185.262932
 30
0.0
 11
250.477905
 21
186.762932
 31
0.0
  0
LINE
  5
310
100
AcDbEntity
  8
LAY-6
  6
CONTINUOUS
 62
     1
100
AcDbLine
 10
250.477905
 20
189.762932
 30
0.0
 11
250.227905
 21
191.262932
 31
0.0
  0
LINE
  5
311
100
AcDbEntity
  8
LAY-6
  6
CONTINUOUS
 62
     1
100
AcDbLine
 10
250.227905
 20
191.262932
 30
0.0
 11
249.977905
 21
189.762932
 31
0.0
  0
LINE
  5
312
100
AcDbEntity
  8
LAY-6
  6
CONTINUOUS
 62
     1
100
AcDbLine
 10
236.727905
 20
191.262932
 30
0.0
 11
251.227905
 21
191.262932
 31
0.0
  0
LINE
  5
313
100
AcDbEntity
  8
LAY-6
  6
CONTINUOUS
 62
     1
100
AcDbLine
 10
236.727905
 20
203.262932
 30
0.0
 11
251.227905
 21
203.262932
 31
0.0
  0
TEXT
  5
314
100
AcDbEntity
  8
LAY-6
  6
CONTINUOUS
 62
     2
100
AcDbText
 10
249.727905
 20
193.262932
 30
0.0
 40
5.0
  1
１２
 50
90.0
 41
0.672
  7
EXCADSTD
 72
     5
 11
249.727905
 21
200.595732
 31
0.0
100
AcDbText
  0
LINE
  5
315
100
AcDbEntity
  8
LAY-6
  6
CONTINUOUS
 62
     1
100
AcDbLine
 10
250.227905
 20
191.262932
 30
0.0
 11
250.227905
 21
203.262932
 31
0.0
  0
LINE
  5
316
100
AcDbEntity
  8
LAY-6
  6
CONTINUOUS
 62
     1
100
AcDbLine
 10
249.977905
 20
192.762932
 30
0.0
 11
250.227905
 21
191.262932
 31
0.0
  0
LINE
  5
317
100
AcDbEntity
  8
LAY-6
  6
CONTINUOUS
 62
     1
100
AcDbLine
 10
250.227905
 20
191.262932
 30
0.0
 11
250.477905
 21
192.762932
 31
0.0
  0
LINE
  5
318
100
AcDbEntity
  8
LAY-6
  6
CONTINUOUS
 62
     1
100
AcDbLine
 10
250.477905
 20
201.762932
 30
0.0
 11
250.227905
 21
203.262932
 31
0.0
  0
LINE
  5
319
100
AcDbEntity
  8
LAY-6
  6
CONTINUOUS
 62
     1
100
AcDbLine
 10
250.227905
 20
203.262932
 30
0.0
 11
249.977905
 21
201.762932
 31
0.0
  0
LINE
  5
31A
100
AcDbEntity
  8
LAY-6
  6
CONTINUOUS
 62
     1
100
AcDbLine
 10
232.627693
 20
160.262932
 30
0.0
 11
266.227905
 21
160.262932
 31
0.0
  0
TEXT
  5
31B
100
AcDbEntity
  8
LAY-6
  6
CONTINUOUS
 62
     2
100
AcDbText
 10
264.727905
 20
165.762932
 30
0.0
 40
5.0
  1
１９
 50
90.0
 41
0.672
  7
EXCADSTD
 72
     5
 11
264.727905
 21
173.095732
 31
0.0
100
AcDbText
  0
LINE
  5
31C
100
AcDbEntity
  8
LAY-6
  6
CONTINUOUS
 62
     1
100
AcDbLine
 10
265.227905
 20
160.262932
 30
0.0
 11
265.227905
 21
179.262932
 31
0.0
  0
LINE
  5
31D
100
AcDbEntity
  8
LAY-6
  6
CONTINUOUS
 62
     1
100
AcDbLine
 10
264.977905
 20
161.762932
 30
0.0
 11
265.227905
 21
160.262932
 31
0.0
  0
LINE
  5
31E
100
AcDbEntity
  8
LAY-6
  6
CONTINUOUS
 62
     1
100
AcDbLine
 10
265.227905
 20
160.262932
 30
0.0
 11
265.477905
 21
161.762932
 31
0.0
  0
LINE
  5
31F
100
AcDbEntity
  8
LAY-6
  6
CONTINUOUS
 62
     1
100
AcDbLine
 10
265.477905
 20
177.762932
 30
0.0
 11
265.227905
 21
179.262932
 31
0.0
  0
LINE
  5
320
100
AcDbEntity
  8
LAY-6
  6
CONTINUOUS
 62
     1
100
AcDbLine
 10
265.227905
 20
179.262932
 30
0.0
 11
264.977905
 21
177.762932
 31
0.0
  0
LINE
  5
321
100
AcDbEntity
  8
LAY-6
  6
CONTINUOUS
 62
     1
100
AcDbLine
 10
255.896332
 20
179.262932
 30
0.0
 11
266.227905
 21
179.262932
 31
0.0
  0
LINE
  5
322
100
AcDbEntity
  8
LAY-6
  6
CONTINUOUS
 62
     1
100
AcDbLine
 10
237.727905
 20
185.262932
 30
0.0
 11
266.227905
 21
185.262932
 31
0.0
  0
TEXT
  5
323
100
AcDbEntity
  8
LAY-6
  6
CONTINUOUS
 62
     2
100
AcDbText
 10
264.727905
 20
180.262932
 30
0.0
 40
5.0
  1
６
 50
90.0
 41
0.672
  7
EXCADSTD
 72
     5
 11
264.727905
 21
183.462932
 31
0.0
100
AcDbText
  0
LINE
  5
324
100
AcDbEntity
  8
LAY-6
  6
CONTINUOUS
 62
     1
100
AcDbLine
 10
265.227905
 20
176.262932
 30
0.0
 11
265.227905
 21
188.262932
 31
0.0
  0
LINE
  5
325
100
AcDbEntity
  8
LAY-6
  6
CONTINUOUS
 62
     1
100
AcDbLine
 10
265.477905
 20
177.762932
 30
0.0
 11
265.227905
 21
179.262932
 31
0.0
  0
LINE
  5
326
100
AcDbEntity
  8
LAY-6
  6
CONTINUOUS
 62
     1
100
AcDbLine
 10
265.227905
 20
179.262932
 30
0.0
 11
264.977905
 21
177.762932
 31
0.0
  0
LINE
  5
327
100
AcDbEntity
  8
LAY-6
  6
CONTINUOUS
 62
     1
100
AcDbLine
 10
264.977905
 20
186.762932
 30
0.0
 11
265.227905
 21
185.262932
 31
0.0
  0
LINE
  5
328
100
AcDbEntity
  8
LAY-6
  6
CONTINUOUS
 62
     1
100
AcDbLine
 10
265.227905
 20
185.262932
 30
0.0
 11
265.477905
 21
186.762932
 31
0.0
  0
LINE
  5
329
100
AcDbEntity
  8
LAY-6
  6
CONTINUOUS
 62
     1
100
AcDbLine
 10
237.727905
 20
185.262932
 30
0.0
 11
266.227905
 21
185.262932
 31
0.0
  0
LINE
  5
32A
100
AcDbEntity
  8
LAY-6
  6
CONTINUOUS
 62
     1
100
AcDbLine
 10
237.727905
 20
209.262939
 30
0.0
 11
266.227905
 21
209.262939
 31
0.0
  0
TEXT
  5
32B
100
AcDbEntity
  8
LAY-6
  6
CONTINUOUS
 62
     2
100
AcDbText
 10
264.727905
 20
193.262932
 30
0.0
 40
5.0
  1
２４
 50
90.0
 41
0.672
  7
EXCADSTD
 72
     5
 11
264.727905
 21
200.595732
 31
0.0
100
AcDbText
  0
LINE
  5
32C
100
AcDbEntity
  8
LAY-6
  6
CONTINUOUS
 62
     1
100
AcDbLine
 10
265.227905
 20
185.262932
 30
0.0
 11
265.227905
 21
209.262939
 31
0.0
  0
LINE
  5
32D
100
AcDbEntity
  8
LAY-6
  6
CONTINUOUS
 62
     1
100
AcDbLine
 10
264.977905
 20
186.762932
 30
0.0
 11
265.227905
 21
185.262932
 31
0.0
  0
LINE
  5
32E
100
AcDbEntity
  8
LAY-6
  6
CONTINUOUS
 62
     1
100
AcDbLine
 10
265.227905
 20
185.262932
 30
0.0
 11
265.477905
 21
186.762932
 31
0.0
  0
LINE
  5
32F
100
AcDbEntity
  8
LAY-6
  6
CONTINUOUS
 62
     1
100
AcDbLine
 10
265.477905
 20
207.762939
 30
0.0
 11
265.227905
 21
209.262939
 31
0.0
  0
LINE
  5
330
100
AcDbEntity
  8
LAY-6
  6
CONTINUOUS
 62
     1
100
AcDbLine
 10
265.227905
 20
209.262939
 30
0.0
 11
264.977905
 21
207.762939
 31
0.0
  0
TEXT
  5
331
100
AcDbEntity
  8
LAY-6
  6
CONTINUOUS
 62
     2
100
AcDbText
 10
181.996742
 20
139.738869
 30
0.0
 40
5.0
  1
Ｒ
 50
45.0
 41
0.672
  7
EXCADSTD
 72
     5
 11
184.259484
 21
142.001611
 31
0.0
100
AcDbText
  0
TEXT
  5
332
100
AcDbEntity
  8
LAY-6
  6
CONTINUOUS
 62
     2
100
AcDbText
 10
184.825169
 20
142.567296
 30
0.0
 40
5.0
  1
１６
 50
45.0
 41
0.672
  7
EXCADSTD
 72
     5
 11
190.010242
 21
147.752369
 31
0.0
100
AcDbText
  0
LINE
  5
333
100
AcDbEntity
  8
LAY-6
  6
CONTINUOUS
 62
     1
100
AcDbLine
 10
182.032495
 20
139.067506
 30
0.0
 11
203.227921
 21
160.262932
 31
0.0
  0
LINE
  5
334
100
AcDbEntity
  8
LAY-6
  6
CONTINUOUS
 62
     1
100
AcDbLine
 10
192.798098
 20
150.186663
 30
0.0
 11
191.914215
 21
148.949226
 31
0.0
  0
LINE
  5
335
100
AcDbEntity
  8
LAY-6
  6
CONTINUOUS
 62
     1
100
AcDbLine
 10
191.914215
 20
148.949226
 30
0.0
 11
193.151652
 21
149.833109
 31
0.0
  0
LINE
  5
336
100
AcDbEntity
  8
LAY-6
  6
CONTINUOUS
 62
     1
100
AcDbLine
 10
193.227928
 20
199.492592
 30
0.0
 11
193.227928
 21
196.262932
 31
0.0
  0
LINE
  5
337
100
AcDbEntity
  8
LAY-6
  6
CONTINUOUS
 62
     1
100
AcDbLine
 10
203.227921
 20
199.762932
 30
0.0
 11
203.227921
 21
196.262932
 31
0.0
  0
TEXT
  5
338
100
AcDbEntity
  8
LAY-6
  6
CONTINUOUS
 62
     2
100
AcDbText
 10
192.227921
 20
197.762932
 30
0.0
 40
5.0
  1
１０
 41
0.672
  7
EXCADSTD
 72
     5
 11
199.560721
 21
197.762932
 31
0.0
100
AcDbText
  0
LINE
  5
339
100
AcDbEntity
  8
LAY-6
  6
CONTINUOUS
 62
     1
100
AcDbLine
 10
190.227928
 20
197.262932
 30
0.0
 11
206.227921
 21
197.262932
 31
0.0
  0
LINE
  5
33A
100
AcDbEntity
  8
LAY-6
  6
CONTINUOUS
 62
     1
100
AcDbLine
 10
191.727928
 20
197.012932
 30
0.0
 11
193.227928
 21
197.262932
 31
0.0
  0
LINE
  5
33B
100
AcDbEntity
  8
LAY-6
  6
CONTINUOUS
 62
     1
100
AcDbLine
 10
193.227928
 20
197.262932
 30
0.0
 11
191.727928
 21
197.512932
 31
0.0
  0
LINE
  5
33C
100
AcDbEntity
  8
LAY-6
  6
CONTINUOUS
 62
     1
100
AcDbLine
 10
204.727921
 20
197.512932
 30
0.0
 11
203.227921
 21
197.262932
 31
0.0
  0
LINE
  5
33D
100
AcDbEntity
  8
LAY-6
  6
CONTINUOUS
 62
     1
100
AcDbLine
 10
203.227921
 20
197.262932
 30
0.0
 11
204.727921
 21
197.012932
 31
0.0
  0
LINE
  5
33E
100
AcDbEntity
  8
LAY-6
  6
CONTINUOUS
 62
     1
100
AcDbLine
 10
221.381966
 20
160.262932
 30
0.0
 11
231.881966
 21
160.262932
 31
0.0
  0
LINE
  5
33F
100
AcDbEntity
  8
LAY-6
  6
CONTINUOUS
 62
     1
100
AcDbLine
 10
221.093275
 20
160.716086
 30
0.0
 11
225.530767
 21
170.232318
 31
0.0
  0
TEXT
  5
340
100
AcDbEntity
  8
LAY-6
  6
CONTINUOUS
 62
     2
100
AcDbText
 10
227.266243
 20
169.727307
 30
0.0
 40
5.0
  1
６５
 50
300.023734
 41
0.672
  7
EXCADSTD
 72
     5
 11
230.935273
 21
163.378435
 31
0.0
100
AcDbText
  0
TEXT
  5
341
100
AcDbEntity
  8
LAY-6
  6
CONTINUOUS
 62
     2
100
AcDbText
 10
231.269112
 20
162.800761
 30
0.0
 40
5.0
  1
ﾟ
 50
300.023734
 41
0.4
  7
EXCADSTD
 72
     5
 11
231.919578
 21
161.675198
 31
0.0
100
AcDbText
  0
ARC
  5
342
100
AcDbEntity
  8
LAY-6
  6
CONTINUOUS
 62
     1
100
AcDbCircle
 10
220.88195
 20
160.262922
 30
0.0
 40
10.000016
100
AcDbArc
 50
0.000057
 51
64.999943
  0
LINE
  5
343
100
AcDbEntity
  8
LAY-6
  6
CONTINUOUS
 62
     1
100
AcDbLine
 10
230.631966
 20
161.762932
 30
0.0
 11
230.881966
 21
160.262932
 31
0.0
  0
LINE
  5
344
100
AcDbEntity
  8
LAY-6
  6
CONTINUOUS
 62
     1
100
AcDbLine
 10
230.881966
 20
160.262932
 30
0.0
 11
231.131966
 21
161.762932
 31
0.0
  0
LINE
  5
345
100
AcDbEntity
  8
LAY-6
  6
CONTINUOUS
 62
     1
100
AcDbLine
 10
226.573265
 20
168.918659
 30
0.0
 11
225.108149
 21
169.32601
 31
0.0
  0
LINE
  5
346
100
AcDbEntity
  8
LAY-6
  6
CONTINUOUS
 62
     1
100
AcDbLine
 10
225.108149
 20
169.32601
 30
0.0
 11
226.361956
 21
168.465505
 31
0.0
  0
LINE
  5
347
100
AcDbEntity
  8
LAY-6
  6
CONTINUOUS
 62
     1
100
AcDbLine
 10
200.227921
 20
316.762939
 30
0.0
 11
200.227921
 21
331.262939
 31
0.0
  0
TEXT
  5
348
100
AcDbEntity
  8
LAY-6
  6
CONTINUOUS
 62
     2
100
AcDbText
 10
201.727921
 20
330.762939
 30
0.0
 40
5.0
  1
７
 41
0.672
  7
EXCADSTD
 72
     5
 11
204.927921
 21
330.762939
 31
0.0
100
AcDbText
  0
LINE
  5
349
100
AcDbEntity
  8
LAY-6
  6
CONTINUOUS
 62
     1
100
AcDbLine
 10
200.227921
 20
330.262939
 30
0.0
 11
207.227921
 21
330.262939
 31
0.0
  0
LINE
  5
34A
100
AcDbEntity
  8
LAY-6
  6
CONTINUOUS
 62
     1
100
AcDbLine
 10
201.727921
 20
330.512939
 30
0.0
 11
200.227921
 21
330.262939
 31
0.0
  0
LINE
  5
34B
100
AcDbEntity
  8
LAY-6
  6
CONTINUOUS
 62
     1
100
AcDbLine
 10
200.227921
 20
330.262939
 30
0.0
 11
201.727921
 21
330.012939
 31
0.0
  0
LINE
  5
34C
100
AcDbEntity
  8
LAY-6
  6
CONTINUOUS
 62
     1
100
AcDbLine
 10
205.727921
 20
330.012939
 30
0.0
 11
207.227921
 21
330.262939
 31
0.0
  0
LINE
  5
34D
100
AcDbEntity
  8
LAY-6
  6
CONTINUOUS
 62
     1
100
AcDbLine
 10
207.227921
 20
330.262939
 30
0.0
 11
205.727921
 21
330.512939
 31
0.0
  0
LINE
  5
34E
100
AcDbEntity
  8
LAY-6
  6
CONTINUOUS
 62
     1
100
AcDbLine
 10
207.227921
 20
319.762939
 30
0.0
 11
207.227921
 21
331.262939
 31
0.0
  0
LINE
  5
34F
100
AcDbEntity
  8
LAY-6
  6
CONTINUOUS
 62
     1
100
AcDbLine
 10
231.227913
 20
319.762939
 30
0.0
 11
231.227913
 21
331.262939
 31
0.0
  0
TEXT
  5
350
100
AcDbEntity
  8
LAY-6
  6
CONTINUOUS
 62
     2
100
AcDbText
 10
215.227913
 20
330.762939
 30
0.0
 40
5.0
  1
２４
 41
0.672
  7
EXCADSTD
 72
     5
 11
222.560713
 21
330.762939
 31
0.0
100
AcDbText
  0
LINE
  5
351
100
AcDbEntity
  8
LAY-6
  6
CONTINUOUS
 62
     1
100
AcDbLine
 10
207.227921
 20
330.262939
 30
0.0
 11
231.227913
 21
330.262939
 31
0.0
  0
LINE
  5
352
100
AcDbEntity
  8
LAY-6
  6
CONTINUOUS
 62
     1
100
AcDbLine
 10
208.727921
 20
330.512939
 30
0.0
 11
207.227921
 21
330.262939
 31
0.0
  0
LINE
  5
353
100
AcDbEntity
  8
LAY-6
  6
CONTINUOUS
 62
     1
100
AcDbLine
 10
207.227921
 20
330.262939
 30
0.0
 11
208.727921
 21
330.012939
 31
0.0
  0
LINE
  5
354
100
AcDbEntity
  8
LAY-6
  6
CONTINUOUS
 62
     1
100
AcDbLine
 10
229.727913
 20
330.012939
 30
0.0
 11
231.227913
 21
330.262939
 31
0.0
  0
LINE
  5
355
100
AcDbEntity
  8
LAY-6
  6
CONTINUOUS
 62
     1
100
AcDbLine
 10
231.227913
 20
330.262939
 30
0.0
 11
229.727913
 21
330.512939
 31
0.0
  0
LINE
  5
356
100
AcDbEntity
  8
LAY-6
  6
CONTINUOUS
 62
     1
100
AcDbLine
 10
193.227928
 20
324.162933
 30
0.0
 11
193.227928
 21
341.262939
 31
0.0
  0
TEXT
  5
357
100
AcDbEntity
  8
LAY-6
  6
CONTINUOUS
 62
     2
100
AcDbText
 10
194.727921
 20
340.762939
 30
0.0
 40
5.0
  1
７
 41
0.672
  7
EXCADSTD
 72
     5
 11
197.927921
 21
340.762939
 31
0.0
100
AcDbText
  0
LINE
  5
358
100
AcDbEntity
  8
LAY-6
  6
CONTINUOUS
 62
     1
100
AcDbLine
 10
193.227928
 20
340.262939
 30
0.0
 11
200.227921
 21
340.262939
 31
0.0
  0
LINE
  5
359
100
AcDbEntity
  8
LAY-6
  6
CONTINUOUS
 62
     1
100
AcDbLine
 10
194.727928
 20
340.512939
 30
0.0
 11
193.227928
 21
340.262939
 31
0.0
  0
LINE
  5
35A
100
AcDbEntity
  8
LAY-6
  6
CONTINUOUS
 62
     1
100
AcDbLine
 10
193.227928
 20
340.262939
 30
0.0
 11
194.727928
 21
340.012939
 31
0.0
  0
LINE
  5
35B
100
AcDbEntity
  8
LAY-6
  6
CONTINUOUS
 62
     1
100
AcDbLine
 10
198.727921
 20
340.012939
 30
0.0
 11
200.227921
 21
340.262939
 31
0.0
  0
LINE
  5
35C
100
AcDbEntity
  8
LAY-6
  6
CONTINUOUS
 62
     1
100
AcDbLine
 10
200.227921
 20
340.262939
 30
0.0
 11
198.727921
 21
340.512939
 31
0.0
  0
LINE
  5
35D
100
AcDbEntity
  8
LAY-6
  6
CONTINUOUS
 62
     1
100
AcDbLine
 10
200.227921
 20
316.762939
 30
0.0
 11
200.227921
 21
341.262939
 31
0.0
  0
LINE
  5
35E
100
AcDbEntity
  8
LAY-6
  6
CONTINUOUS
 62
     1
100
AcDbLine
 10
240.227905
 20
316.762939
 30
0.0
 11
240.227905
 21
341.262939
 31
0.0
  0
TEXT
  5
35F
100
AcDbEntity
  8
LAY-6
  6
CONTINUOUS
 62
     2
100
AcDbText
 10
216.227913
 20
340.762939
 30
0.0
 40
5.0
  1
４０
 41
0.672
  7
EXCADSTD
 72
     5
 11
223.560713
 21
340.762939
 31
0.0
100
AcDbText
  0
LINE
  5
360
100
AcDbEntity
  8
LAY-6
  6
CONTINUOUS
 62
     1
100
AcDbLine
 10
200.227921
 20
340.262939
 30
0.0
 11
240.227905
 21
340.262939
 31
0.0
  0
LINE
  5
361
100
AcDbEntity
  8
LAY-6
  6
CONTINUOUS
 62
     1
100
AcDbLine
 10
201.727921
 20
340.512939
 30
0.0
 11
200.227921
 21
340.262939
 31
0.0
  0
LINE
  5
362
100
AcDbEntity
  8
LAY-6
  6
CONTINUOUS
 62
     1
100
AcDbLine
 10
200.227921
 20
340.262939
 30
0.0
 11
201.727921
 21
340.012939
 31
0.0
  0
LINE
  5
363
100
AcDbEntity
  8
LAY-6
  6
CONTINUOUS
 62
     1
100
AcDbLine
 10
238.727905
 20
340.012939
 30
0.0
 11
240.227905
 21
340.262939
 31
0.0
  0
LINE
  5
364
100
AcDbEntity
  8
LAY-6
  6
CONTINUOUS
 62
     1
100
AcDbLine
 10
240.227905
 20
340.262939
 30
0.0
 11
238.727905
 21
340.512939
 31
0.0
  0
LINE
  5
365
100
AcDbEntity
  8
LAY-6
  6
CONTINUOUS
 62
     1
100
AcDbLine
 10
200.227921
 20
293.12529
 30
0.0
 11
200.227921
 21
290.262939
 31
0.0
  0
LINE
  5
366
100
AcDbEntity
  8
LAY-6
  6
CONTINUOUS
 62
     1
100
AcDbLine
 10
225.227913
 20
292.837708
 30
0.0
 11
225.227913
 21
290.262939
 31
0.0
  0
TEXT
  5
367
100
AcDbEntity
  8
LAY-6
  6
CONTINUOUS
 62
     2
100
AcDbText
 10
208.727921
 20
291.762939
 30
0.0
 40
5.0
  1
２５
 41
0.672
  7
EXCADSTD
 72
     5
 11
216.060721
 21
291.762939
 31
0.0
100
AcDbText
  0
LINE
  5
368
100
AcDbEntity
  8
LAY-6
  6
CONTINUOUS
 62
     1
100
AcDbLine
 10
200.227921
 20
291.262939
 30
0.0
 11
225.227913
 21
291.262939
 31
0.0
  0
LINE
  5
369
100
AcDbEntity
  8
LAY-6
  6
CONTINUOUS
 62
     1
100
AcDbLine
 10
201.727921
 20
291.512939
 30
0.0
 11
200.227921
 21
291.262939
 31
0.0
  0
LINE
  5
36A
100
AcDbEntity
  8
LAY-6
  6
CONTINUOUS
 62
     1
100
AcDbLine
 10
200.227921
 20
291.262939
 30
0.0
 11
201.727921
 21
291.012939
 31
0.0
  0
LINE
  5
36B
100
AcDbEntity
  8
LAY-6
  6
CONTINUOUS
 62
     1
100
AcDbLine
 10
223.727913
 20
291.012939
 30
0.0
 11
225.227913
 21
291.262939
 31
0.0
  0
LINE
  5
36C
100
AcDbEntity
  8
LAY-6
  6
CONTINUOUS
 62
     1
100
AcDbLine
 10
225.227913
 20
291.262939
 30
0.0
 11
223.727913
 21
291.512939
 31
0.0
  0
LINE
  5
36D
100
AcDbEntity
  8
LAY-6
  6
CONTINUOUS
 62
     1
100
AcDbLine
 10
200.227921
 20
206.762939
 30
0.0
 11
200.227921
 21
221.262939
 31
0.0
  0
TEXT
  5
36E
100
AcDbEntity
  8
LAY-6
  6
CONTINUOUS
 62
     2
100
AcDbText
 10
201.727921
 20
220.762939
 30
0.0
 40
5.0
  1
７
 41
0.672
  7
EXCADSTD
 72
     5
 11
204.927921
 21
220.762939
 31
0.0
100
AcDbText
  0
LINE
  5
36F
100
AcDbEntity
  8
LAY-6
  6
CONTINUOUS
 62
     1
100
AcDbLine
 10
200.227921
 20
220.262939
 30
0.0
 11
207.227921
 21
220.262939
 31
0.0
  0
LINE
  5
370
100
AcDbEntity
  8
LAY-6
  6
CONTINUOUS
 62
     1
100
AcDbLine
 10
201.727921
 20
220.512939
 30
0.0
 11
200.227921
 21
220.262939
 31
0.0
  0
LINE
  5
371
100
AcDbEntity
  8
LAY-6
  6
CONTINUOUS
 62
     1
100
AcDbLine
 10
200.227921
 20
220.262939
 30
0.0
 11
201.727921
 21
220.012939
 31
0.0
  0
LINE
  5
372
100
AcDbEntity
  8
LAY-6
  6
CONTINUOUS
 62
     1
100
AcDbLine
 10
205.727921
 20
220.012939
 30
0.0
 11
207.227921
 21
220.262939
 31
0.0
  0
LINE
  5
373
100
AcDbEntity
  8
LAY-6
  6
CONTINUOUS
 62
     1
100
AcDbLine
 10
207.227921
 20
220.262939
 30
0.0
 11
205.727921
 21
220.512939
 31
0.0
  0
LINE
  5
374
100
AcDbEntity
  8
LAY-6
  6
CONTINUOUS
 62
     1
100
AcDbLine
 10
207.227921
 20
209.762939
 30
0.0
 11
207.227921
 21
221.262939
 31
0.0
  0
LINE
  5
375
100
AcDbEntity
  8
LAY-6
  6
CONTINUOUS
 62
     1
100
AcDbLine
 10
231.227913
 20
209.762939
 30
0.0
 11
231.227913
 21
221.262939
 31
0.0
  0
TEXT
  5
376
100
AcDbEntity
  8
LAY-6
  6
CONTINUOUS
 62
     2
100
AcDbText
 10
215.227913
 20
220.762939
 30
0.0
 40
5.0
  1
２４
 41
0.672
  7
EXCADSTD
 72
     5
 11
222.560713
 21
220.762939
 31
0.0
100
AcDbText
  0
LINE
  5
377
100
AcDbEntity
  8
LAY-6
  6
CONTINUOUS
 62
     1
100
AcDbLine
 10
207.227921
 20
220.262939
 30
0.0
 11
231.227913
 21
220.262939
 31
0.0
  0
LINE
  5
378
100
AcDbEntity
  8
LAY-6
  6
CONTINUOUS
 62
     1
100
AcDbLine
 10
208.727921
 20
220.512939
 30
0.0
 11
207.227921
 21
220.262939
 31
0.0
  0
LINE
  5
379
100
AcDbEntity
  8
LAY-6
  6
CONTINUOUS
 62
     1
100
AcDbLine
 10
207.227921
 20
220.262939
 30
0.0
 11
208.727921
 21
220.012939
 31
0.0
  0
LINE
  5
37A
100
AcDbEntity
  8
LAY-6
  6
CONTINUOUS
 62
     1
100
AcDbLine
 10
229.727913
 20
220.012939
 30
0.0
 11
231.227913
 21
220.262939
 31
0.0
  0
LINE
  5
37B
100
AcDbEntity
  8
LAY-6
  6
CONTINUOUS
 62
     1
100
AcDbLine
 10
231.227913
 20
220.262939
 30
0.0
 11
229.727913
 21
220.512939
 31
0.0
  0
LINE
  5
37C
100
AcDbEntity
  8
LAY-6
  6
CONTINUOUS
 62
     1
100
AcDbLine
 10
193.227928
 20
214.162933
 30
0.0
 11
193.227928
 21
231.262939
 31
0.0
  0
TEXT
  5
37D
100
AcDbEntity
  8
LAY-6
  6
CONTINUOUS
 62
     2
100
AcDbText
 10
194.727921
 20
230.762939
 30
0.0
 40
5.0
  1
７
 41
0.672
  7
EXCADSTD
 72
     5
 11
197.927921
 21
230.762939
 31
0.0
100
AcDbText
  0
LINE
  5
37E
100
AcDbEntity
  8
LAY-6
  6
CONTINUOUS
 62
     1
100
AcDbLine
 10
193.227928
 20
230.262939
 30
0.0
 11
200.227921
 21
230.262939
 31
0.0
  0
LINE
  5
37F
100
AcDbEntity
  8
LAY-6
  6
CONTINUOUS
 62
     1
100
AcDbLine
 10
194.727928
 20
230.512939
 30
0.0
 11
193.227928
 21
230.262939
 31
0.0
  0
LINE
  5
380
100
AcDbEntity
  8
LAY-6
  6
CONTINUOUS
 62
     1
100
AcDbLine
 10
193.227928
 20
230.262939
 30
0.0
 11
194.727928
 21
230.012939
 31
0.0
  0
LINE
  5
381
100
AcDbEntity
  8
LAY-6
  6
CONTINUOUS
 62
     1
100
AcDbLine
 10
198.727921
 20
230.012939
 30
0.0
 11
200.227921
 21
230.262939
 31
0.0
  0
LINE
  5
382
100
AcDbEntity
  8
LAY-6
  6
CONTINUOUS
 62
     1
100
AcDbLine
 10
200.227921
 20
230.262939
 30
0.0
 11
198.727921
 21
230.512939
 31
0.0
  0
LINE
  5
383
100
AcDbEntity
  8
LAY-6
  6
CONTINUOUS
 62
     1
100
AcDbLine
 10
200.227921
 20
206.762939
 30
0.0
 11
200.227921
 21
231.262939
 31
0.0
  0
LINE
  5
384
100
AcDbEntity
  8
LAY-6
  6
CONTINUOUS
 62
     1
100
AcDbLine
 10
240.227905
 20
206.762939
 30
0.0
 11
240.227905
 21
231.262939
 31
0.0
  0
TEXT
  5
385
100
AcDbEntity
  8
LAY-6
  6
CONTINUOUS
 62
     2
100
AcDbText
 10
216.227913
 20
230.762939
 30
0.0
 40
5.0
  1
４０
 41
0.672
  7
EXCADSTD
 72
     5
 11
223.560713
 21
230.762939
 31
0.0
100
AcDbText
  0
LINE
  5
386
100
AcDbEntity
  8
LAY-6
  6
CONTINUOUS
 62
     1
100
AcDbLine
 10
200.227921
 20
230.262939
 30
0.0
 11
240.227905
 21
230.262939
 31
0.0
  0
LINE
  5
387
100
AcDbEntity
  8
LAY-6
  6
CONTINUOUS
 62
     1
100
AcDbLine
 10
201.727921
 20
230.512939
 30
0.0
 11
200.227921
 21
230.262939
 31
0.0
  0
LINE
  5
388
100
AcDbEntity
  8
LAY-6
  6
CONTINUOUS
 62
     1
100
AcDbLine
 10
200.227921
 20
230.262939
 30
0.0
 11
201.727921
 21
230.012939
 31
0.0
  0
LINE
  5
389
100
AcDbEntity
  8
LAY-6
  6
CONTINUOUS
 62
     1
100
AcDbLine
 10
238.727905
 20
230.012939
 30
0.0
 11
240.227905
 21
230.262939
 31
0.0
  0
LINE
  5
38A
100
AcDbEntity
  8
LAY-6
  6
CONTINUOUS
 62
     1
100
AcDbLine
 10
240.227905
 20
230.262939
 30
0.0
 11
238.727905
 21
230.512939
 31
0.0
  0
LINE
  5
38B
100
AcDbEntity
  8
LAY-6
  6
CONTINUOUS
 62
     1
100
AcDbLine
 10
200.227921
 20
183.233734
 30
0.0
 11
200.227921
 21
180.262924
 31
0.0
  0
LINE
  5
38C
100
AcDbEntity
  8
LAY-6
  6
CONTINUOUS
 62
     1
100
AcDbLine
 10
225.227913
 20
182.791389
 30
0.0
 11
225.227913
 21
180.262924
 31
0.0
  0
TEXT
  5
38D
100
AcDbEntity
  8
LAY-6
  6
CONTINUOUS
 62
     2
100
AcDbText
 10
208.727921
 20
181.762924
 30
0.0
 40
5.0
  1
２５
 41
0.672
  7
EXCADSTD
 72
     5
 11
216.060721
 21
181.762924
 31
0.0
100
AcDbText
  0
LINE
  5
38E
100
AcDbEntity
  8
LAY-6
  6
CONTINUOUS
 62
     1
100
AcDbLine
 10
200.227921
 20
181.262924
 30
0.0
 11
225.227913
 21
181.262924
 31
0.0
  0
LINE
  5
38F
100
AcDbEntity
  8
LAY-6
  6
CONTINUOUS
 62
     1
100
AcDbLine
 10
201.727921
 20
181.512924
 30
0.0
 11
200.227921
 21
181.262924
 31
0.0
  0
LINE
  5
390
100
AcDbEntity
  8
LAY-6
  6
CONTINUOUS
 62
     1
100
AcDbLine
 10
200.227921
 20
181.262924
 30
0.0
 11
201.727921
 21
181.012924
 31
0.0
  0
LINE
  5
391
100
AcDbEntity
  8
LAY-6
  6
CONTINUOUS
 62
     1
100
AcDbLine
 10
223.727913
 20
181.012924
 30
0.0
 11
225.227913
 21
181.262924
 31
0.0
  0
LINE
  5
392
100
AcDbEntity
  8
LAY-6
  6
CONTINUOUS
 62
     1
100
AcDbLine
 10
225.227913
 20
181.262924
 30
0.0
 11
223.727913
 21
181.512924
 31
0.0
  0
LINE
  5
393
100
AcDbEntity
  8
LAY-6
  6
CONTINUOUS
 62
     1
100
AcDbLine
 10
199.227921
 20
429.762939
 30
0.0
 11
199.227921
 21
446.262939
 31
0.0
  0
LINE
  5
394
100
AcDbEntity
  8
LAY-6
  6
CONTINUOUS
 62
     1
100
AcDbLine
 10
224.227913
 20
429.762939
 30
0.0
 11
224.227913
 21
446.262939
 31
0.0
  0
TEXT
  5
395
100
AcDbEntity
  8
LAY-6
  6
CONTINUOUS
 62
     2
100
AcDbText
 10
207.727921
 20
445.762939
 30
0.0
 40
5.0
  1
２５
 41
0.672
  7
EXCADSTD
 72
     5
 11
215.060721
 21
445.762939
 31
0.0
100
AcDbText
  0
LINE
  5
396
100
AcDbEntity
  8
LAY-6
  6
CONTINUOUS
 62
     1
100
AcDbLine
 10
199.227921
 20
445.262939
 30
0.0
 11
224.227913
 21
445.262939
 31
0.0
  0
LINE
  5
397
100
AcDbEntity
  8
LAY-6
  6
CONTINUOUS
 62
     1
100
AcDbLine
 10
200.727921
 20
445.512939
 30
0.0
 11
199.227921
 21
445.262939
 31
0.0
  0
LINE
  5
398
100
AcDbEntity
  8
LAY-6
  6
CONTINUOUS
 62
     1
100
AcDbLine
 10
199.227921
 20
445.262939
 30
0.0
 11
200.727921
 21
445.012939
 31
0.0
  0
LINE
  5
399
100
AcDbEntity
  8
LAY-6
  6
CONTINUOUS
 62
     1
100
AcDbLine
 10
222.727913
 20
445.012939
 30
0.0
 11
224.227913
 21
445.262939
 31
0.0
  0
LINE
  5
39A
100
AcDbEntity
  8
LAY-6
  6
CONTINUOUS
 62
     1
100
AcDbLine
 10
224.227913
 20
445.262939
 30
0.0
 11
222.727913
 21
445.512939
 31
0.0
  0
LINE
  5
39B
100
AcDbEntity
  8
LAY-6
  6
CONTINUOUS
 62
     1
100
AcDbLine
 10
190.227921
 20
440.762939
 30
0.0
 11
190.227921
 21
456.262939
 31
0.0
  0
TEXT
  5
39C
100
AcDbEntity
  8
LAY-6
  6
CONTINUOUS
 62
     2
100
AcDbText
 10
192.727921
 20
455.762939
 30
0.0
 40
5.0
  1
９
 41
0.672
  7
EXCADSTD
 72
     5
 11
195.927921
 21
455.762939
 31
0.0
100
AcDbText
  0
LINE
  5
39D
100
AcDbEntity
  8
LAY-6
  6
CONTINUOUS
 62
     1
100
AcDbLine
 10
190.227921
 20
455.262939
 30
0.0
 11
199.227921
 21
455.262939
 31
0.0
  0
LINE
  5
39E
100
AcDbEntity
  8
LAY-6
  6
CONTINUOUS
 62
     1
100
AcDbLine
 10
191.727921
 20
455.512939
 30
0.0
 11
190.227921
 21
455.262939
 31
0.0
  0
LINE
  5
39F
100
AcDbEntity
  8
LAY-6
  6
CONTINUOUS
 62
     1
100
AcDbLine
 10
190.227921
 20
455.262939
 30
0.0
 11
191.727921
 21
455.012939
 31
0.0
  0
LINE
  5
3A0
100
AcDbEntity
  8
LAY-6
  6
CONTINUOUS
 62
     1
100
AcDbLine
 10
197.727921
 20
455.012939
 30
0.0
 11
199.227921
 21
455.262939
 31
0.0
  0
LINE
  5
3A1
100
AcDbEntity
  8
LAY-6
  6
CONTINUOUS
 62
     1
100
AcDbLine
 10
199.227921
 20
455.262939
 30
0.0
 11
197.727921
 21
455.512939
 31
0.0
  0
LINE
  5
3A2
100
AcDbEntity
  8
LAY-6
  6
CONTINUOUS
 62
     1
100
AcDbLine
 10
199.227921
 20
429.762939
 30
0.0
 11
199.227921
 21
456.26297
 31
0.0
  0
LINE
  5
3A3
100
AcDbEntity
  8
LAY-6
  6
CONTINUOUS
 62
     1
100
AcDbLine
 10
203.227921
 20
442.362976
 30
0.0
 11
203.227921
 21
456.26297
 31
0.0
  0
TEXT
  5
3A4
100
AcDbEntity
  8
LAY-6
  6
CONTINUOUS
 62
     2
100
AcDbText
 10
199.227921
 20
455.76297
 30
0.0
 40
5.0
  1
４
 41
0.672
  7
EXCADSTD
 72
     5
 11
202.427921
 21
455.76297
 31
0.0
100
AcDbText
  0
LINE
  5
3A5
100
AcDbEntity
  8
LAY-6
  6
CONTINUOUS
 62
     1
100
AcDbLine
 10
196.227921
 20
455.26297
 30
0.0
 11
206.227921
 21
455.26297
 31
0.0
  0
LINE
  5
3A6
100
AcDbEntity
  8
LAY-6
  6
CONTINUOUS
 62
     1
100
AcDbLine
 10
197.727921
 20
455.01297
 30
0.0
 11
199.227921
 21
455.26297
 31
0.0
  0
LINE
  5
3A7
100
AcDbEntity
  8
LAY-6
  6
CONTINUOUS
 62
     1
100
AcDbLine
 10
199.227921
 20
455.26297
 30
0.0
 11
197.727921
 21
455.51297
 31
0.0
  0
LINE
  5
3A8
100
AcDbEntity
  8
LAY-6
  6
CONTINUOUS
 62
     1
100
AcDbLine
 10
204.727921
 20
455.51297
 30
0.0
 11
203.227921
 21
455.26297
 31
0.0
  0
LINE
  5
3A9
100
AcDbEntity
  8
LAY-6
  6
CONTINUOUS
 62
     1
100
AcDbLine
 10
203.227921
 20
455.26297
 30
0.0
 11
204.727921
 21
455.01297
 31
0.0
  0
LINE
  5
3AA
100
AcDbEntity
  8
LAY-6
  6
CONTINUOUS
 62
     1
100
AcDbLine
 10
190.227921
 20
440.762939
 30
0.0
 11
190.227921
 21
466.26297
 31
0.0
  0
LINE
  5
3AB
100
AcDbEntity
  8
LAY-6
  6
CONTINUOUS
 62
     1
100
AcDbLine
 10
203.227921
 20
442.362976
 30
0.0
 11
203.227921
 21
466.26297
 31
0.0
  0
TEXT
  5
3AC
100
AcDbEntity
  8
LAY-6
  6
CONTINUOUS
 62
     2
100
AcDbText
 10
192.727921
 20
465.76297
 30
0.0
 40
5.0
  1
１３
 41
0.672
  7
EXCADSTD
 72
     5
 11
200.060721
 21
465.76297
 31
0.0
100
AcDbText
  0
LINE
  5
3AD
100
AcDbEntity
  8
LAY-6
  6
CONTINUOUS
 62
     1
100
AcDbLine
 10
190.227921
 20
465.26297
 30
0.0
 11
203.227921
 21
465.26297
 31
0.0
  0
LINE
  5
3AE
100
AcDbEntity
  8
LAY-6
  6
CONTINUOUS
 62
     1
100
AcDbLine
 10
191.727921
 20
465.51297
 30
0.0
 11
190.227921
 21
465.26297
 31
0.0
  0
LINE
  5
3AF
100
AcDbEntity
  8
LAY-6
  6
CONTINUOUS
 62
     1
100
AcDbLine
 10
190.227921
 20
465.26297
 30
0.0
 11
191.727921
 21
465.01297
 31
0.0
  0
LINE
  5
3B0
100
AcDbEntity
  8
LAY-6
  6
CONTINUOUS
 62
     1
100
AcDbLine
 10
201.727921
 20
465.01297
 30
0.0
 11
203.227921
 21
465.26297
 31
0.0
  0
LINE
  5
3B1
100
AcDbEntity
  8
LAY-6
  6
CONTINUOUS
 62
     1
100
AcDbLine
 10
203.227921
 20
465.26297
 30
0.0
 11
201.727921
 21
465.51297
 31
0.0
  0
LINE
  5
3B2
100
AcDbEntity
  8
LAY-6
  6
CONTINUOUS
 62
     1
100
AcDbLine
 10
415.227966
 20
428.356354
 30
0.0
 11
415.227966
 21
431.262939
 31
0.0
  0
LINE
  5
3B3
100
AcDbEntity
  8
LAY-6
  6
CONTINUOUS
 62
     1
100
AcDbLine
 10
428.227966
 20
428.260071
 30
0.0
 11
428.227966
 21
431.262939
 31
0.0
  0
TEXT
  5
3B4
100
AcDbEntity
  8
LAY-6
  6
CONTINUOUS
 62
     2
100
AcDbText
 10
417.727966
 20
430.762939
 30
0.0
 40
5.0
  1
１３
 41
0.672
  7
EXCADSTD
 72
     5
 11
425.060766
 21
430.762939
 31
0.0
100
AcDbText
  0
LINE
  5
3B5
100
AcDbEntity
  8
LAY-6
  6
CONTINUOUS
 62
     1
100
AcDbLine
 10
415.227966
 20
430.262939
 30
0.0
 11
428.227966
 21
430.262939
 31
0.0
  0
LINE
  5
3B6
100
AcDbEntity
  8
LAY-6
  6
CONTINUOUS
 62
     1
100
AcDbLine
 10
416.727966
 20
430.512939
 30
0.0
 11
415.227966
 21
430.262939
 31
0.0
  0
LINE
  5
3B7
100
AcDbEntity
  8
LAY-6
  6
CONTINUOUS
 62
     1
100
AcDbLine
 10
415.227966
 20
430.262939
 30
0.0
 11
416.727966
 21
430.012939
 31
0.0
  0
LINE
  5
3B8
100
AcDbEntity
  8
LAY-6
  6
CONTINUOUS
 62
     1
100
AcDbLine
 10
426.727966
 20
430.012939
 30
0.0
 11
428.227966
 21
430.262939
 31
0.0
  0
LINE
  5
3B9
100
AcDbEntity
  8
LAY-6
  6
CONTINUOUS
 62
     1
100
AcDbLine
 10
428.227966
 20
430.262939
 30
0.0
 11
426.727966
 21
430.512939
 31
0.0
  0
LINE
  5
3BA
100
AcDbEntity
  8
LAY-6
  6
CONTINUOUS
 62
     1
100
AcDbLine
 10
403.727966
 20
427.762939
 30
0.0
 11
403.727966
 21
456.262939
 31
0.0
  0
LINE
  5
3BB
100
AcDbEntity
  8
LAY-6
  6
CONTINUOUS
 62
     1
100
AcDbLine
 10
408.727966
 20
440.762939
 30
0.0
 11
408.727966
 21
456.262939
 31
0.0
  0
TEXT
  5
3BC
100
AcDbEntity
  8
LAY-6
  6
CONTINUOUS
 62
     2
100
AcDbText
 10
398.227966
 20
455.762939
 30
0.0
 40
5.0
  1
５
 41
0.672
  7
EXCADSTD
 72
     5
 11
401.427966
 21
455.762939
 31
0.0
100
AcDbText
  0
LINE
  5
3BD
100
AcDbEntity
  8
LAY-6
  6
CONTINUOUS
 62
     1
100
AcDbLine
 10
400.727966
 20
455.262939
 30
0.0
 11
411.727966
 21
455.262939
 31
0.0
  0
LINE
  5
3BE
100
AcDbEntity
  8
LAY-6
  6
CONTINUOUS
 62
     1
100
AcDbLine
 10
402.227966
 20
455.012939
 30
0.0
 11
403.727966
 21
455.262939
 31
0.0
  0
LINE
  5
3BF
100
AcDbEntity
  8
LAY-6
  6
CONTINUOUS
 62
     1
100
AcDbLine
 10
403.727966
 20
455.262939
 30
0.0
 11
402.227966
 21
455.512939
 31
0.0
  0
LINE
  5
3C0
100
AcDbEntity
  8
LAY-6
  6
CONTINUOUS
 62
     1
100
AcDbLine
 10
410.227966
 20
455.512939
 30
0.0
 11
408.727966
 21
455.262939
 31
0.0
  0
LINE
  5
3C1
100
AcDbEntity
  8
LAY-6
  6
CONTINUOUS
 62
     1
100
AcDbLine
 10
408.727966
 20
455.262939
 30
0.0
 11
410.227966
 21
455.012939
 31
0.0
  0
LINE
  5
3C2
100
AcDbEntity
  8
LAY-6
  6
CONTINUOUS
 62
     1
100
AcDbLine
 10
408.727966
 20
440.762939
 30
0.0
 11
408.727966
 21
456.262939
 31
0.0
  0
LINE
  5
3C3
100
AcDbEntity
  8
LAY-6
  6
CONTINUOUS
 62
     1
100
AcDbLine
 10
415.227966
 20
440.762939
 30
0.0
 11
415.227966
 21
456.262939
 31
0.0
  0
TEXT
  5
3C4
100
AcDbEntity
  8
LAY-6
  6
CONTINUOUS
 62
     2
100
AcDbText
 10
408.977966
 20
455.762939
 30
0.0
 40
5.0
  1
６.５
 41
0.595556
  7
EXCADSTD
 72
     5
 11
418.977966
 21
455.762939
 31
0.0
100
AcDbText
  0
LINE
  5
3C5
100
AcDbEntity
  8
LAY-6
  6
CONTINUOUS
 62
     1
100
AcDbLine
 10
408.727966
 20
455.262939
 30
0.0
 11
415.227966
 21
455.262939
 31
0.0
  0
LINE
  5
3C6
100
AcDbEntity
  8
LAY-6
  6
CONTINUOUS
 62
     1
100
AcDbLine
 10
410.227966
 20
455.512939
 30
0.0
 11
408.727966
 21
455.262939
 31
0.0
  0
LINE
  5
3C7
100
AcDbEntity
  8
LAY-6
  6
CONTINUOUS
 62
     1
100
AcDbLine
 10
408.727966
 20
455.262939
 30
0.0
 11
410.227966
 21
455.012939
 31
0.0
  0
LINE
  5
3C8
100
AcDbEntity
  8
LAY-6
  6
CONTINUOUS
 62
     1
100
AcDbLine
 10
413.727966
 20
455.012939
 30
0.0
 11
415.227966
 21
455.262939
 31
0.0
  0
LINE
  5
3C9
100
AcDbEntity
  8
LAY-6
  6
CONTINUOUS
 62
     1
100
AcDbLine
 10
415.227966
 20
455.262939
 30
0.0
 11
413.727966
 21
455.512939
 31
0.0
  0
LINE
  5
3CA
100
AcDbEntity
  8
LAY-6
  6
CONTINUOUS
 62
     1
100
AcDbLine
 10
403.227966
 20
427.262939
 30
0.0
 11
379.227936
 21
427.262939
 31
0.0
  0
TEXT
  5
3CB
100
AcDbEntity
  8
LAY-6
  6
CONTINUOUS
 62
     2
100
AcDbText
 10
379.727936
 20
409.262939
 30
0.0
 40
5.0
  1
２８
 50
90.0
 41
0.672
  7
EXCADSTD
 72
     5
 11
379.727936
 21
416.595739
 31
0.0
100
AcDbText
  0
LINE
  5
3CC
100
AcDbEntity
  8
LAY-6
  6
CONTINUOUS
 62
     1
100
AcDbLine
 10
380.227936
 20
427.262939
 30
0.0
 11
380.227936
 21
399.262939
 31
0.0
  0
LINE
  5
3CD
100
AcDbEntity
  8
LAY-6
  6
CONTINUOUS
 62
     1
100
AcDbLine
 10
380.477936
 20
425.762939
 30
0.0
 11
380.227936
 21
427.262939
 31
0.0
  0
LINE
  5
3CE
100
AcDbEntity
  8
LAY-6
  6
CONTINUOUS
 62
     1
100
AcDbLine
 10
380.227936
 20
427.262939
 30
0.0
 11
379.977936
 21
425.762939
 31
0.0
  0
LINE
  5
3CF
100
AcDbEntity
  8
LAY-6
  6
CONTINUOUS
 62
     1
100
AcDbLine
 10
379.977936
 20
400.762939
 30
0.0
 11
380.227936
 21
399.262939
 31
0.0
  0
LINE
  5
3D0
100
AcDbEntity
  8
LAY-6
  6
CONTINUOUS
 62
     1
100
AcDbLine
 10
380.227936
 20
399.262939
 30
0.0
 11
380.477936
 21
400.762939
 31
0.0
  0
LINE
  5
3D1
100
AcDbEntity
  8
LAY-6
  6
CONTINUOUS
 62
     1
100
AcDbLine
 10
391.327942
 20
399.262939
 30
0.0
 11
379.227936
 21
399.262939
 31
0.0
  0
TEXT
  5
3D2
100
AcDbEntity
  8
LAY-6
  6
CONTINUOUS
 62
     2
100
AcDbText
 10
379.727936
 20
387.262939
 30
0.0
 40
5.0
  1
１６
 50
90.0
 41
0.672
  7
EXCADSTD
 72
     5
 11
379.727936
 21
394.595739
 31
0.0
100
AcDbText
  0
LINE
  5
3D3
100
AcDbEntity
  8
LAY-6
  6
CONTINUOUS
 62
     1
100
AcDbLine
 10
380.227936
 20
399.262939
 30
0.0
 11
380.227936
 21
383.262939
 31
0.0
  0
LINE
  5
3D4
100
AcDbEntity
  8
LAY-6
  6
CONTINUOUS
 62
     1
100
AcDbLine
 10
380.477936
 20
397.762939
 30
0.0
 11
380.227936
 21
399.262939
 31
0.0
  0
LINE
  5
3D5
100
AcDbEntity
  8
LAY-6
  6
CONTINUOUS
 62
     1
100
AcDbLine
 10
380.227936
 20
399.262939
 30
0.0
 11
379.977936
 21
397.762939
 31
0.0
  0
LINE
  5
3D6
100
AcDbEntity
  8
LAY-6
  6
CONTINUOUS
 62
     1
100
AcDbLine
 10
379.977936
 20
384.762939
 30
0.0
 11
380.227936
 21
383.262939
 31
0.0
  0
LINE
  5
3D7
100
AcDbEntity
  8
LAY-6
  6
CONTINUOUS
 62
     1
100
AcDbLine
 10
380.227936
 20
383.262939
 30
0.0
 11
380.477936
 21
384.762939
 31
0.0
  0
LINE
  5
3D8
100
AcDbEntity
  8
LAY-6
  6
CONTINUOUS
 62
     1
100
AcDbLine
 10
406.828156
 20
383.262939
 30
0.0
 11
379.227936
 21
383.262939
 31
0.0
  0
LINE
  5
3D9
100
AcDbEntity
  8
LAY-6
  6
CONTINUOUS
 62
     1
100
AcDbLine
 10
401.145737
 20
375.462952
 30
0.0
 11
379.227936
 21
375.462952
 31
0.0
  0
TEXT
  5
3DA
100
AcDbEntity
  8
LAY-6
  6
CONTINUOUS
 62
     2
100
AcDbText
 10
379.727936
 20
374.362946
 30
0.0
 40
5.0
  1
７.８
 50
90.0
 41
0.595556
  7
EXCADSTD
 72
     5
 11
379.727936
 21
384.362946
 31
0.0
100
AcDbText
  0
LINE
  5
3DB
100
AcDbEntity
  8
LAY-6
  6
CONTINUOUS
 62
     1
100
AcDbLine
 10
380.227936
 20
386.262939
 30
0.0
 11
380.227936
 21
372.462952
 31
0.0
  0
LINE
  5
3DC
100
AcDbEntity
  8
LAY-6
  6
CONTINUOUS
 62
     1
100
AcDbLine
 10
379.977936
 20
384.762939
 30
0.0
 11
380.227936
 21
383.262939
 31
0.0
  0
LINE
  5
3DD
100
AcDbEntity
  8
LAY-6
  6
CONTINUOUS
 62
     1
100
AcDbLine
 10
380.227936
 20
383.262939
 30
0.0
 11
380.477936
 21
384.762939
 31
0.0
  0
LINE
  5
3DE
100
AcDbEntity
  8
LAY-6
  6
CONTINUOUS
 62
     1
100
AcDbLine
 10
380.477936
 20
373.962952
 30
0.0
 11
380.227936
 21
375.462952
 31
0.0
  0
LINE
  5
3DF
100
AcDbEntity
  8
LAY-6
  6
CONTINUOUS
 62
     1
100
AcDbLine
 10
380.227936
 20
375.462952
 30
0.0
 11
379.977936
 21
373.962952
 31
0.0
  0
TEXT
  5
3E0
100
AcDbEntity
  8
LAY-6
  6
CONTINUOUS
 62
     2
100
AcDbText
 10
443.718689
 20
388.657745
 30
0.0
 40
5.0
  1
Ｒ
 50
29.999993
 41
0.672
  7
EXCADSTD
 72
     5
 11
446.48997
 21
390.257745
 31
0.0
100
AcDbText
  0
TEXT
  5
3E1
100
AcDbEntity
  8
LAY-6
  6
CONTINUOUS
 62
     2
100
AcDbText
 10
447.182791
 20
390.657745
 30
0.0
 40
5.0
  1
１４
 50
29.999993
 41
0.672
  7
EXCADSTD
 72
     5
 11
453.533182
 21
394.324144
 31
0.0
100
AcDbText
  0
LINE
  5
3E2
100
AcDbEntity
  8
LAY-6
  6
CONTINUOUS
 62
     1
100
AcDbLine
 10
440.352325
 20
390.262939
 30
0.0
 11
428.227966
 21
383.262939
 31
0.0
  0
LINE
  5
3E3
100
AcDbEntity
  8
LAY-6
  6
CONTINUOUS
 62
     1
100
AcDbLine
 10
439.178287
 20
389.296433
 30
0.0
 11
440.352325
 21
390.262939
 31
0.0
  0
LINE
  5
3E4
100
AcDbEntity
  8
LAY-6
  6
CONTINUOUS
 62
     1
100
AcDbLine
 10
440.352325
 20
390.262939
 30
0.0
 11
438.928287
 21
389.729446
 31
0.0
  0
LINE
  5
3E5
100
AcDbEntity
  8
LAY-6
  6
CONTINUOUS
 62
     1
100
AcDbLine
 10
403.727966
 20
398.762939
 30
0.0
 11
403.727966
 21
375.573053
 31
0.0
  0
LINE
  5
3E6
100
AcDbEntity
  8
LAY-6
  6
CONTINUOUS
 62
     1
100
AcDbLine
 10
403.684388
 20
398.764842
 30
0.0
 11
401.706845
 21
376.161297
 31
0.0
  0
TEXT
  5
3E7
100
AcDbEntity
  8
LAY-6
  6
CONTINUOUS
 62
     2
100
AcDbText
 10
393.586901
 20
378.073835
 30
0.0
 40
5.0
  1
５
 50
341.761558
 41
0.672
  7
EXCADSTD
 72
     5
 11
396.62614
 21
377.072324
 31
0.0
100
AcDbText
  0
TEXT
  5
3E8
100
AcDbEntity
  8
LAY-6
  6
CONTINUOUS
 62
     2
100
AcDbText
 10
397.38595
 20
376.821946
 30
0.0
 40
5.0
  1
ﾟ
 50
341.761558
 41
0.4
  7
EXCADSTD
 72
     5
 11
398.620641
 21
376.415082
 31
0.0
100
AcDbText
  0
ARC
  5
3E9
100
AcDbEntity
  8
LAY-6
  6
CONTINUOUS
 62
     1
100
AcDbCircle
 10
403.727961
 20
399.262816
 30
0.0
 40
22.189765
100
AcDbArc
 50
257.253769
 51
277.74626
  0
LINE
  5
3EA
100
AcDbEntity
  8
LAY-6
  6
CONTINUOUS
 62
     1
100
AcDbLine
 10
400.27792
 20
377.039175
 30
0.0
 11
401.794001
 21
377.157491
 31
0.0
  0
LINE
  5
3EB
100
AcDbEntity
  8
LAY-6
  6
CONTINUOUS
 62
     1
100
AcDbLine
 10
401.794001
 20
377.157491
 30
0.0
 11
400.321497
 21
377.537273
 31
0.0
  0
LINE
  5
3EC
100
AcDbEntity
  8
LAY-6
  6
CONTINUOUS
 62
     1
100
AcDbLine
 10
405.227966
 20
377.323053
 30
0.0
 11
403.727966
 21
377.073053
 31
0.0
  0
LINE
  5
3ED
100
AcDbEntity
  8
LAY-6
  6
CONTINUOUS
 62
     1
100
AcDbLine
 10
403.727966
 20
377.073053
 30
0.0
 11
405.227966
 21
376.823053
 31
0.0
  0
LINE
  5
3EE
100
AcDbEntity
  8
LAY-6
  6
CONTINUOUS
 62
     1
100
AcDbLine
 10
400.227966
 20
366.410584
 30
0.0
 11
400.227966
 21
353.262939
 31
0.0
  0
LINE
  5
3EF
100
AcDbEntity
  8
LAY-6
  6
CONTINUOUS
 62
     1
100
AcDbLine
 10
415.227966
 20
371.91806
 30
0.0
 11
415.227966
 21
353.262939
 31
0.0
  0
TEXT
  5
3F0
100
AcDbEntity
  8
LAY-6
  6
CONTINUOUS
 62
     2
100
AcDbText
 10
403.727966
 20
354.762939
 30
0.0
 40
5.0
  1
１５
 41
0.672
  7
EXCADSTD
 72
     5
 11
411.060766
 21
354.762939
 31
0.0
100
AcDbText
  0
LINE
  5
3F1
100
AcDbEntity
  8
LAY-6
  6
CONTINUOUS
 62
     1
100
AcDbLine
 10
400.227966
 20
354.262939
 30
0.0
 11
415.227966
 21
354.262939
 31
0.0
  0
LINE
  5
3F2
100
AcDbEntity
  8
LAY-6
  6
CONTINUOUS
 62
     1
100
AcDbLine
 10
401.727966
 20
354.512939
 30
0.0
 11
400.227966
 21
354.262939
 31
0.0
  0
LINE
  5
3F3
100
AcDbEntity
  8
LAY-6
  6
CONTINUOUS
 62
     1
100
AcDbLine
 10
400.227966
 20
354.262939
 30
0.0
 11
401.727966
 21
354.012939
 31
0.0
  0
LINE
  5
3F4
100
AcDbEntity
  8
LAY-6
  6
CONTINUOUS
 62
     1
100
AcDbLine
 10
413.727966
 20
354.012939
 30
0.0
 11
415.227966
 21
354.262939
 31
0.0
  0
LINE
  5
3F5
100
AcDbEntity
  8
LAY-6
  6
CONTINUOUS
 62
     1
100
AcDbLine
 10
415.227966
 20
354.262939
 30
0.0
 11
413.727966
 21
354.512939
 31
0.0
  0
LINE
  5
3F6
100
AcDbEntity
  8
LAY-6
  6
CONTINUOUS
 62
     1
100
AcDbLine
 10
618.929016
 20
205.08461
 30
0.0
 11
618.929016
 21
248.148972
 31
0.0
  0
TEXT
  5
3F7
100
AcDbEntity
  8
LAY-6
  6
CONTINUOUS
 62
     2
100
AcDbText
 10
622.929016
 20
247.648972
 30
0.0
 40
5.0
  1
１６
 41
0.672
  7
EXCADSTD
 72
     5
 11
630.261816
 21
247.648972
 31
0.0
100
AcDbText
  0
LINE
  5
3F8
100
AcDbEntity
  8
LAY-6
  6
CONTINUOUS
 62
     1
100
AcDbLine
 10
618.929016
 20
247.148972
 30
0.0
 11
634.929016
 21
247.148972
 31
0.0
  0
LINE
  5
3F9
100
AcDbEntity
  8
LAY-6
  6
CONTINUOUS
 62
     1
100
AcDbLine
 10
620.429016
 20
247.398972
 30
0.0
 11
618.929016
 21
247.148972
 31
0.0
  0
LINE
  5
3FA
100
AcDbEntity
  8
LAY-6
  6
CONTINUOUS
 62
     1
100
AcDbLine
 10
618.929016
 20
247.148972
 30
0.0
 11
620.429016
 21
246.898972
 31
0.0
  0
LINE
  5
3FB
100
AcDbEntity
  8
LAY-6
  6
CONTINUOUS
 62
     1
100
AcDbLine
 10
633.429016
 20
246.898972
 30
0.0
 11
634.929016
 21
247.148972
 31
0.0
  0
LINE
  5
3FC
100
AcDbEntity
  8
LAY-6
  6
CONTINUOUS
 62
     1
100
AcDbLine
 10
634.929016
 20
247.148972
 30
0.0
 11
633.429016
 21
247.398972
 31
0.0
  0
LINE
  5
3FD
100
AcDbEntity
  8
LAY-6
  6
CONTINUOUS
 62
     1
100
AcDbLine
 10
634.929016
 20
237.648972
 30
0.0
 11
634.929016
 21
248.148972
 31
0.0
  0
LINE
  5
3FE
100
AcDbEntity
  8
LAY-6
  6
CONTINUOUS
 62
     1
100
AcDbLine
 10
662.929016
 20
227.648972
 30
0.0
 11
662.929016
 21
248.148972
 31
0.0
  0
TEXT
  5
3FF
100
AcDbEntity
  8
LAY-6
  6
CONTINUOUS
 62
     2
100
AcDbText
 10
644.929016
 20
247.648972
 30
0.0
 40
5.0
  1
２８
 41
0.672
  7
EXCADSTD
 72
     5
 11
652.261816
 21
247.648972
 31
0.0
100
AcDbText
  0
LINE
  5
400
100
AcDbEntity
  8
LAY-6
  6
CONTINUOUS
 62
     1
100
AcDbLine
 10
634.929016
 20
247.148972
 30
0.0
 11
662.929016
 21
247.148972
 31
0.0
  0
LINE
  5
401
100
AcDbEntity
  8
LAY-6
  6
CONTINUOUS
 62
     1
100
AcDbLine
 10
636.429016
 20
247.398972
 30
0.0
 11
634.929016
 21
247.148972
 31
0.0
  0
LINE
  5
402
100
AcDbEntity
  8
LAY-6
  6
CONTINUOUS
 62
     1
100
AcDbLine
 10
634.929016
 20
247.148972
 30
0.0
 11
636.429016
 21
246.898972
 31
0.0
  0
LINE
  5
403
100
AcDbEntity
  8
LAY-6
  6
CONTINUOUS
 62
     1
100
AcDbLine
 10
661.429016
 20
246.898972
 30
0.0
 11
662.929016
 21
247.148972
 31
0.0
  0
LINE
  5
404
100
AcDbEntity
  8
LAY-6
  6
CONTINUOUS
 62
     1
100
AcDbLine
 10
662.929016
 20
247.148972
 30
0.0
 11
661.429016
 21
247.398972
 31
0.0
  0
LINE
  5
405
100
AcDbEntity
  8
LAY-6
  6
CONTINUOUS
 62
     1
100
AcDbLine
 10
603.429016
 20
194.148972
 30
0.0
 11
586.929016
 21
194.148972
 31
0.0
  0
TEXT
  5
406
100
AcDbEntity
  8
LAY-6
  6
CONTINUOUS
 62
     2
100
AcDbText
 10
587.429016
 20
183.648972
 30
0.0
 40
5.0
  1
１３
 50
90.0
 41
0.672
  7
EXCADSTD
 72
     5
 11
587.429016
 21
190.981772
 31
0.0
100
AcDbText
  0
LINE
  5
407
100
AcDbEntity
  8
LAY-6
  6
CONTINUOUS
 62
     1
100
AcDbLine
 10
587.929016
 20
194.148972
 30
0.0
 11
587.929016
 21
181.148972
 31
0.0
  0
LINE
  5
408
100
AcDbEntity
  8
LAY-6
  6
CONTINUOUS
 62
     1
100
AcDbLine
 10
588.179016
 20
192.648972
 30
0.0
 11
587.929016
 21
194.148972
 31
0.0
  0
LINE
  5
409
100
AcDbEntity
  8
LAY-6
  6
CONTINUOUS
 62
     1
100
AcDbLine
 10
587.929016
 20
194.148972
 30
0.0
 11
587.679016
 21
192.648972
 31
0.0
  0
LINE
  5
40A
100
AcDbEntity
  8
LAY-6
  6
CONTINUOUS
 62
     1
100
AcDbLine
 10
587.679016
 20
182.648972
 30
0.0
 11
587.929016
 21
181.148972
 31
0.0
  0
LINE
  5
40B
100
AcDbEntity
  8
LAY-6
  6
CONTINUOUS
 62
     1
100
AcDbLine
 10
587.929016
 20
181.148972
 30
0.0
 11
588.179016
 21
182.648972
 31
0.0
  0
LINE
  5
40C
100
AcDbEntity
  8
LAY-6
  6
CONTINUOUS
 62
     1
100
AcDbLine
 10
602.429016
 20
181.148972
 30
0.0
 11
586.929016
 21
181.148972
 31
0.0
  0
TEXT
  5
40D
100
AcDbEntity
  8
LAY-6
  6
CONTINUOUS
 62
     2
100
AcDbText
 10
587.429016
 20
174.648972
 30
0.0
 40
5.0
  1
９
 50
90.0
 41
0.672
  7
EXCADSTD
 72
     5
 11
587.429016
 21
177.848972
 31
0.0
100
AcDbText
  0
LINE
  5
40E
100
AcDbEntity
  8
LAY-6
  6
CONTINUOUS
 62
     1
100
AcDbLine
 10
587.929016
 20
181.148972
 30
0.0
 11
587.929016
 21
172.148972
 31
0.0
  0
LINE
  5
40F
100
AcDbEntity
  8
LAY-6
  6
CONTINUOUS
 62
     1
100
AcDbLine
 10
588.179016
 20
179.648972
 30
0.0
 11
587.929016
 21
181.148972
 31
0.0
  0
LINE
  5
410
100
AcDbEntity
  8
LAY-6
  6
CONTINUOUS
 62
     1
100
AcDbLine
 10
587.929016
 20
181.148972
 30
0.0
 11
587.679016
 21
179.648972
 31
0.0
  0
LINE
  5
411
100
AcDbEntity
  8
LAY-6
  6
CONTINUOUS
 62
     1
100
AcDbLine
 10
587.679016
 20
173.648972
 30
0.0
 11
587.929016
 21
172.148972
 31
0.0
  0
LINE
  5
412
100
AcDbEntity
  8
LAY-6
  6
CONTINUOUS
 62
     1
100
AcDbLine
 10
587.929016
 20
172.148972
 30
0.0
 11
588.179016
 21
173.648972
 31
0.0
  0
LINE
  5
413
100
AcDbEntity
  8
LAY-6
  6
CONTINUOUS
 62
     1
100
AcDbLine
 10
604.429016
 20
177.148972
 30
0.0
 11
596.929016
 21
177.148972
 31
0.0
  0
TEXT
  5
414
100
AcDbEntity
  8
LAY-6
  6
CONTINUOUS
 62
     2
100
AcDbText
 10
597.429016
 20
172.648972
 30
0.0
 40
5.0
  1
５
 50
90.0
 41
0.672
  7
EXCADSTD
 72
     5
 11
597.429016
 21
175.848972
 31
0.0
100
AcDbText
  0
LINE
  5
415
100
AcDbEntity
  8
LAY-6
  6
CONTINUOUS
 62
     1
100
AcDbLine
 10
597.929016
 20
180.148972
 30
0.0
 11
597.929016
 21
169.148972
 31
0.0
  0
LINE
  5
416
100
AcDbEntity
  8
LAY-6
  6
CONTINUOUS
 62
     1
100
AcDbLine
 10
597.679016
 20
178.648972
 30
0.0
 11
597.929016
 21
177.148972
 31
0.0
  0
LINE
  5
417
100
AcDbEntity
  8
LAY-6
  6
CONTINUOUS
 62
     1
100
AcDbLine
 10
597.929016
 20
177.148972
 30
0.0
 11
598.179016
 21
178.648972
 31
0.0
  0
LINE
  5
418
100
AcDbEntity
  8
LAY-6
  6
CONTINUOUS
 62
     1
100
AcDbLine
 10
598.179016
 20
170.648972
 30
0.0
 11
597.929016
 21
172.148972
 31
0.0
  0
LINE
  5
419
100
AcDbEntity
  8
LAY-6
  6
CONTINUOUS
 62
     1
100
AcDbLine
 10
597.929016
 20
172.148972
 30
0.0
 11
597.679016
 21
170.648972
 31
0.0
  0
LINE
  5
41A
100
AcDbEntity
  8
LAY-6
  6
CONTINUOUS
 62
     1
100
AcDbLine
 10
627.398987
 20
237.148972
 30
0.0
 11
571.929016
 21
237.148972
 31
0.0
  0
TEXT
  5
41B
100
AcDbEntity
  8
LAY-6
  6
CONTINUOUS
 62
     2
100
AcDbText
 10
572.429016
 20
200.648972
 30
0.0
 40
5.0
  1
６５
 50
90.0
 41
0.672
  7
EXCADSTD
 72
     5
 11
572.429016
 21
207.981772
 31
0.0
100
AcDbText
  0
LINE
  5
41C
100
AcDbEntity
  8
LAY-6
  6
CONTINUOUS
 62
     1
100
AcDbLine
 10
572.929016
 20
237.148972
 30
0.0
 11
572.929016
 21
172.148972
 31
0.0
  0
LINE
  5
41D
100
AcDbEntity
  8
LAY-6
  6
CONTINUOUS
 62
     1
100
AcDbLine
 10
573.179016
 20
235.648972
 30
0.0
 11
572.929016
 21
237.148972
 31
0.0
  0
LINE
  5
41E
100
AcDbEntity
  8
LAY-6
  6
CONTINUOUS
 62
     1
100
AcDbLine
 10
572.929016
 20
237.148972
 30
0.0
 11
572.679016
 21
235.648972
 31
0.0
  0
LINE
  5
41F
100
AcDbEntity
  8
LAY-6
  6
CONTINUOUS
 62
     1
100
AcDbLine
 10
572.679016
 20
173.648972
 30
0.0
 11
572.929016
 21
172.148972
 31
0.0
  0
LINE
  5
420
100
AcDbEntity
  8
LAY-6
  6
CONTINUOUS
 62
     1
100
AcDbLine
 10
572.929016
 20
172.148972
 30
0.0
 11
573.179016
 21
173.648972
 31
0.0
  0
LINE
  5
421
100
AcDbEntity
  8
LAY-6
  6
CONTINUOUS
 62
     1
100
AcDbLine
 10
676.429016
 20
172.148972
 30
0.0
 11
696.929016
 21
172.148972
 31
0.0
  0
TEXT
  5
422
100
AcDbEntity
  8
LAY-6
  6
CONTINUOUS
 62
     2
100
AcDbText
 10
695.429016
 20
173.148972
 30
0.0
 40
5.0
  1
１０
 50
90.0
 41
0.672
  7
EXCADSTD
 72
     5
 11
695.429016
 21
180.481772
 31
0.0
100
AcDbText
  0
LINE
  5
423
100
AcDbEntity
  8
LAY-6
  6
CONTINUOUS
 62
     1
100
AcDbLine
 10
695.929016
 20
172.148972
 30
0.0
 11
695.929016
 21
182.148972
 31
0.0
  0
LINE
  5
424
100
AcDbEntity
  8
LAY-6
  6
CONTINUOUS
 62
     1
100
AcDbLine
 10
695.679016
 20
173.648972
 30
0.0
 11
695.929016
 21
172.148972
 31
0.0
  0
LINE
  5
425
100
AcDbEntity
  8
LAY-6
  6
CONTINUOUS
 62
     1
100
AcDbLine
 10
695.929016
 20
172.148972
 30
0.0
 11
696.179016
 21
173.648972
 31
0.0
  0
LINE
  5
426
100
AcDbEntity
  8
LAY-6
  6
CONTINUOUS
 62
     1
100
AcDbLine
 10
696.179016
 20
180.648972
 30
0.0
 11
695.929016
 21
182.148972
 31
0.0
  0
LINE
  5
427
100
AcDbEntity
  8
LAY-6
  6
CONTINUOUS
 62
     1
100
AcDbLine
 10
695.929016
 20
182.148972
 30
0.0
 11
695.679016
 21
180.648972
 31
0.0
  0
LINE
  5
428
100
AcDbEntity
  8
LAY-6
  6
CONTINUOUS
 62
     1
100
AcDbLine
 10
658.429016
 20
182.148972
 30
0.0
 11
696.929016
 21
182.148972
 31
0.0
  0
LINE
  5
429
100
AcDbEntity
  8
LAY-6
  6
CONTINUOUS
 62
     1
100
AcDbLine
 10
658.429016
 20
232.148972
 30
0.0
 11
696.929016
 21
232.148972
 31
0.0
  0
TEXT
  5
42A
100
AcDbEntity
  8
LAY-6
  6
CONTINUOUS
 62
     2
100
AcDbText
 10
695.429016
 20
203.148972
 30
0.0
 40
5.0
  1
５０
 50
90.0
 41
0.672
  7
EXCADSTD
 72
     5
 11
695.429016
 21
210.481772
 31
0.0
100
AcDbText
  0
LINE
  5
42B
100
AcDbEntity
  8
LAY-6
  6
CONTINUOUS
 62
     1
100
AcDbLine
 10
695.929016
 20
182.148972
 30
0.0
 11
695.929016
 21
232.148972
 31
0.0
  0
LINE
  5
42C
100
AcDbEntity
  8
LAY-6
  6
CONTINUOUS
 62
     1
100
AcDbLine
 10
695.679016
 20
183.648972
 30
0.0
 11
695.929016
 21
182.148972
 31
0.0
  0
LINE
  5
42D
100
AcDbEntity
  8
LAY-6
  6
CONTINUOUS
 62
     1
100
AcDbLine
 10
695.929016
 20
182.148972
 30
0.0
 11
696.179016
 21
183.648972
 31
0.0
  0
LINE
  5
42E
100
AcDbEntity
  8
LAY-6
  6
CONTINUOUS
 62
     1
100
AcDbLine
 10
696.179016
 20
230.648972
 30
0.0
 11
695.929016
 21
232.148972
 31
0.0
  0
LINE
  5
42F
100
AcDbEntity
  8
LAY-6
  6
CONTINUOUS
 62
     1
100
AcDbLine
 10
695.929016
 20
232.148972
 30
0.0
 11
695.679016
 21
230.648972
 31
0.0
  0
TEXT
  5
430
100
AcDbEntity
  8
LAY-6
  6
CONTINUOUS
 62
     2
100
AcDbText
 10
368.244141
 20
457.262939
 30
0.0
 40
6.0
  1
床面軸座
 41
0.672
  7
EXCADSTD
 72
     5
 11
387.444142
 21
457.262939
 31
0.0
100
AcDbText
  0
TEXT
  5
431
100
AcDbEntity
  8
LAY-6
  6
CONTINUOUS
 62
     2
100
AcDbText
 10
429.872113
 20
471.177704
 30
0.0
 40
5.0
  1
裏板（別途）
 41
0.672
  7
EXCADSTD
 72
     5
 11
453.872113
 21
471.177704
 31
0.0
100
AcDbText
  0
LINE
  5
432
100
AcDbEntity
  8
LAY-6
  6
CONTINUOUS
 62
     1
100
AcDbLine
 10
411.090302
 20
440.262939
 30
0.0
 11
411.47853
 21
441.711828
 31
0.0
  0
LINE
  5
433
100
AcDbEntity
  8
LAY-6
  6
CONTINUOUS
 62
     1
100
AcDbLine
 10
411.090302
 20
440.262939
 30
0.0
 11
412.150962
 21
441.323599
 31
0.0
  0
POLYLINE
  5
434
100
AcDbEntity
  8
LAY-6
  6
CONTINUOUS
 62
     1
100
AcDb2dPolyline
 66
     1
 10
0.0
 20
0.0
 30
0.0
 70
   128
  0
VERTEX
  5
435
100
AcDbEntity
  8
LAY-6
  6
CONTINUOUS
 62
     1
100
AcDbVertex
100
AcDb2dVertex
 10
411.090302
 20
440.262939
 30
0.0
  0
VERTEX
  5
436
100
AcDbEntity
  8
LAY-6
  6
CONTINUOUS
 62
     1
100
AcDbVertex
100
AcDb2dVertex
 10
428.904388
 20
471.117859
 30
0.0
  0
VERTEX
  5
437
100
AcDbEntity
  8
LAY-6
  6
CONTINUOUS
 62
     1
100
AcDbVertex
100
AcDb2dVertex
 10
452.6
 20
471.117859
 30
0.0
  0
SEQEND
  5
438
100
AcDbEntity
  8
LAY-6
  6
CONTINUOUS
 62
     1
  0
CIRCLE
  5
439
100
AcDbEntity
  8
LAY-6
  6
CONTINUOUS
 62
     2
100
AcDbCircle
 10
362.0
 20
461.4
 30
0.0
 40
4.0
  0
TEXT
  5
43A
100
AcDbEntity
  8
LAY-6
  6
CONTINUOUS
 62
     2
100
AcDbText
 10
360.2
 20
458.9
 30
0.0
 40
5.0
  1
４
 41
0.672
  7
EXCADSTD
 72
     5
 11
363.4
 21
458.9
 31
0.0
100
AcDbText
  0
TEXT
  5
43B
100
AcDbEntity
  8
LAY-6
  6
CONTINUOUS
 62
     2
100
AcDbText
 10
228.86173
 20
446.577476
 30
0.0
 40
5.0
  1
（タップ穴加工付はオプション）
 41
0.672
  7
EXCADSTD
 72
     5
 11
288.86173
 21
446.577476
 31
0.0
100
AcDbText
  0
TEXT
  5
43C
100
AcDbEntity
  8
LAY-6
  6
CONTINUOUS
 62
     2
100
AcDbText
 10
436.633809
 20
421.014537
 30
0.0
 40
5.0
  1
（タップ穴加工付はオプション）
 41
0.672
  7
EXCADSTD
 72
     5
 11
496.633809
 21
421.014537
 31
0.0
100
AcDbText
  0
ARC
  5
43D
100
AcDbEntity
  8
LAY-6
  6
CONTINUOUS
 62
     4
100
AcDbCircle
 10
756.999999
 20
101.0
 30
0.0
 40
18.0
100
AcDbArc
 50
180.0
 51
225.487766
  0
ARC
  5
43E
100
AcDbEntity
  8
LAY-6
  6
CONTINUOUS
 62
     4
100
AcDbCircle
 10
721.0
 20
101.0
 30
0.0
 40
18.0
100
AcDbArc
 50
314.424746
 51
0.0
  0
LINE
  5
43F
100
AcDbEntity
  8
LAY-6
  6
CONTINUOUS
 62
     4
100
AcDbLine
 10
742.658807
 20
90.122032
 30
0.0
 11
761.5
 21
101.0
 31
0.0
  0
LINE
  5
440
100
AcDbEntity
  8
LAY-6
  6
CONTINUOUS
 62
     4
100
AcDbLine
 10
735.341193
 20
90.122032
 30
0.0
 11
716.499999
 21
101.0
 31
0.0
  0
LINE
  5
441
100
AcDbEntity
  8
LAY-6
  6
CONTINUOUS
 62
     4
100
AcDbLine
 10
716.5
 20
101.0
 30
0.0
 11
761.5
 21
101.0
 31
0.0
  0
LINE
  5
442
100
AcDbEntity
  8
LAY-6
  6
CONTINUOUS
 62
     4
100
AcDbLine
 10
761.5
 20
104.75
 30
0.0
 11
769.0
 21
104.75
 31
0.0
  0
LINE
  5
443
100
AcDbEntity
  8
LAY-6
  6
CONTINUOUS
 62
     4
100
AcDbLine
 10
716.5
 20
104.75
 30
0.0
 11
709.0
 21
104.75
 31
0.0
  0
LINE
  5
444
100
AcDbEntity
  8
LAY-6
  6
CONTINUOUS
 62
     4
100
AcDbLine
 10
716.5
 20
97.25
 30
0.0
 11
709.0
 21
97.25
 31
0.0
  0
LINE
  5
445
100
AcDbEntity
  8
LAY-6
  6
CONTINUOUS
 62
     4
100
AcDbLine
 10
716.5
 20
97.25
 30
0.0
 11
716.5
 21
104.75
 31
0.0
  0
LINE
  5
446
100
AcDbEntity
  8
LAY-6
  6
CONTINUOUS
 62
     4
100
AcDbLine
 10
709.0
 20
97.25
 30
0.0
 11
709.0
 21
104.75
 31
0.0
  0
LINE
  5
447
100
AcDbEntity
  8
LAY-6
  6
CONTINUOUS
 62
     4
100
AcDbLine
 10
761.5
 20
97.25
 30
0.0
 11
769.0
 21
97.25
 31
0.0
  0
LINE
  5
448
100
AcDbEntity
  8
LAY-6
  6
CONTINUOUS
 62
     4
100
AcDbLine
 10
761.5
 20
97.25
 30
0.0
 11
761.5
 21
104.75
 31
0.0
  0
LINE
  5
449
100
AcDbEntity
  8
LAY-6
  6
CONTINUOUS
 62
     4
100
AcDbLine
 10
769.0
 20
97.25
 30
0.0
 11
769.0
 21
104.75
 31
0.0
  0
LINE
  5
44A
100
AcDbEntity
  8
LAY-6
  6
CONTINUOUS
 62
     2
100
AcDbLine
 10
745.000003
 20
113.765001
 30
0.0
 11
739.0
 21
107.764998
 31
0.0
  0
LINE
  5
44B
100
AcDbEntity
  8
LAY-6
  6
CONTINUOUS
 62
     2
100
AcDbLine
 10
742.0
 20
113.765
 30
0.0
 11
745.000003
 21
113.765001
 31
0.0
  0
LINE
  5
44C
100
AcDbEntity
  8
LAY-6
  6
CONTINUOUS
 62
     2
100
AcDbLine
 10
733.000003
 20
113.764995
 30
0.0
 11
739.0
 21
107.764998
 31
0.0
  0
LINE
  5
44D
100
AcDbEntity
  8
LAY-6
  6
CONTINUOUS
 62
     2
100
AcDbLine
 10
733.000003
 20
113.764995
 30
0.0
 11
736.0
 21
113.764996
 31
0.0
  0
LINE
  5
44E
100
AcDbEntity
  8
LAY-6
  6
CONTINUOUS
 62
     2
100
AcDbLine
 10
742.0
 20
113.765
 30
0.0
 11
742.0
 21
119.765
 31
0.0
  0
LINE
  5
44F
100
AcDbEntity
  8
LAY-6
  6
CONTINUOUS
 62
     2
100
AcDbLine
 10
742.0
 20
119.765
 30
0.0
 11
739.0
 21
119.765
 31
0.0
  0
LINE
  5
450
100
AcDbEntity
  8
LAY-6
  6
CONTINUOUS
 62
     2
100
AcDbLine
 10
739.0
 20
119.765
 30
0.0
 11
736.0
 21
119.765
 31
0.0
  0
LINE
  5
451
100
AcDbEntity
  8
LAY-6
  6
CONTINUOUS
 62
     2
100
AcDbLine
 10
736.0
 20
113.764996
 30
0.0
 11
736.0
 21
119.764999
 31
0.0
  0
TEXT
  5
452
100
AcDbEntity
  8
LAY-6
  6
CONTINUOUS
 62
     2
100
AcDbText
 10
705.322841
 20
126.108318
 30
0.0
 40
9.0
  1
ドアの開き勝手基準
 41
0.672
  7
EXCADSTD
 72
     5
 11
770.122844
 21
126.108318
 31
0.0
100
AcDbText
  0
LINE
  5
453
100
AcDbEntity
  8
LAY-6
  6
CONTINUOUS
 62
     2
100
AcDbLine
 10
704.113457
 20
124.279497
 30
0.0
 11
773.263457
 21
124.279497
 31
0.0
  0
TEXT
  5
454
100
AcDbEntity
  8
LAY-6
  6
CONTINUOUS
 62
     2
100
AcDbText
 10
701.244428
 20
71.110529
 30
0.0
 40
9.0
  1
本図は右開きを示します
 41
0.672
  7
EXCADSTD
 72
     5
 11
780.444431
 21
71.110529
 31
0.0
100
AcDbText
  0
LINE
  5
455
100
AcDbEntity
  8
LAY-6
  6
CONTINUOUS
 62
     1
100
AcDbLine
 10
637.929016
 20
323.648987
 30
0.0
 11
637.929016
 21
321.3
 31
0.0
  0
LINE
  5
456
100
AcDbEntity
  8
LAY-6
  6
CONTINUOUS
 62
     1
100
AcDbLine
 10
673.929016
 20
311.6
 30
0.0
 11
673.929016
 21
324.3
 31
0.0
  0
TEXT
  5
457
100
AcDbEntity
  8
LAY-6
  6
CONTINUOUS
 62
     2
100
AcDbText
 10
647.929016
 20
323.3
 30
0.0
 40
5.0
  1
３６以上
 41
0.672
  7
EXCADSTD
 72
     5
 11
663.929016
 21
323.3
 31
0.0
100
AcDbText
  0
LINE
  5
458
100
AcDbEntity
  8
LAY-6
  6
CONTINUOUS
 62
     1
100
AcDbLine
 10
637.929016
 20
322.8
 30
0.0
 11
673.929016
 21
322.8
 31
0.0
  0
LINE
  5
459
100
AcDbEntity
  8
LAY-6
  6
CONTINUOUS
 62
     1
100
AcDbLine
 10
639.929016
 20
323.133333
 30
0.0
 11
637.929016
 21
322.8
 31
0.0
  0
LINE
  5
45A
100
AcDbEntity
  8
LAY-6
  6
CONTINUOUS
 62
     1
100
AcDbLine
 10
637.929016
 20
322.8
 30
0.0
 11
639.929016
 21
322.466667
 31
0.0
  0
LINE
  5
45B
100
AcDbEntity
  8
LAY-6
  6
CONTINUOUS
 62
     1
100
AcDbLine
 10
671.929016
 20
322.466667
 30
0.0
 11
673.929016
 21
322.8
 31
0.0
  0
LINE
  5
45C
100
AcDbEntity
  8
LAY-6
  6
CONTINUOUS
 62
     1
100
AcDbLine
 10
673.929016
 20
322.8
 30
0.0
 11
671.929016
 21
323.133333
 31
0.0
  0
TEXT
  5
45D
100
AcDbEntity
  8
LAY-6
  6
CONTINUOUS
 62
     2
100
AcDbText
 10
378.472054
 20
438.525878
 30
0.0
 40
6.0
  1
竪枠
 41
0.672
  7
EXCADSTD
 72
     5
 11
387.271414
 21
438.525878
 31
0.0
100
AcDbText
  0
LINE
  5
45E
100
AcDbEntity
  8
LAY-6
  6
CONTINUOUS
 62
     1
100
AcDbLine
 10
609.529016
 20
395.648987
 30
0.0
 11
609.529016
 21
410.2
 31
0.0
  0
LINE
  5
45F
100
AcDbEntity
  8
LAY-6
  6
CONTINUOUS
 62
     1
100
AcDbLine
 10
628.329016
 20
395.648987
 30
0.0
 11
628.329016
 21
410.2
 31
0.0
  0
TEXT
  5
460
100
AcDbEntity
  8
LAY-6
  6
CONTINUOUS
 62
     2
100
AcDbText
 10
610.429016
 20
409.2
 30
0.0
 40
5.0
  1
φ
 41
0.672
  7
EXCADSTD
 72
     5
 11
613.629016
 21
409.2
 31
0.0
100
AcDbText
  0
TEXT
  5
461
100
AcDbEntity
  8
LAY-6
  6
CONTINUOUS
 62
     2
100
AcDbText
 10
614.429016
 20
409.2
 30
0.0
 40
5.0
  1
１８.８
 41
0.616
  7
EXCADSTD
 72
     5
 11
628.429016
 21
409.2
 31
0.0
100
AcDbText
  0
LINE
  5
462
100
AcDbEntity
  8
LAY-6
  6
CONTINUOUS
 62
     1
100
AcDbLine
 10
609.529016
 20
408.7
 30
0.0
 11
628.329016
 21
408.7
 31
0.0
  0
LINE
  5
463
100
AcDbEntity
  8
LAY-6
  6
CONTINUOUS
 62
     1
100
AcDbLine
 10
612.529016
 20
409.2
 30
0.0
 11
609.529016
 21
408.7
 31
0.0
  0
LINE
  5
464
100
AcDbEntity
  8
LAY-6
  6
CONTINUOUS
 62
     1
100
AcDbLine
 10
609.529016
 20
408.7
 30
0.0
 11
612.529016
 21
408.2
 31
0.0
  0
LINE
  5
465
100
AcDbEntity
  8
LAY-6
  6
CONTINUOUS
 62
     1
100
AcDbLine
 10
625.329016
 20
408.2
 30
0.0
 11
628.329016
 21
408.7
 31
0.0
  0
LINE
  5
466
100
AcDbEntity
  8
LAY-6
  6
CONTINUOUS
 62
     1
100
AcDbLine
 10
628.329016
 20
408.7
 30
0.0
 11
625.329016
 21
409.2
 31
0.0
  0
LINE
  5
467
100
AcDbEntity
  8
LAY-6
  6
CONTINUOUS
 62
     1
100
AcDbLine
 10
612.029016
 20
398.148987
 30
0.0
 11
586.4
 21
398.148987
 31
0.0
  0
LINE
  5
468
100
AcDbEntity
  8
LAY-6
  6
CONTINUOUS
 62
     1
100
AcDbLine
 10
601.429016
 20
394.148987
 30
0.0
 11
586.4
 21
394.148987
 31
0.0
  0
TEXT
  5
469
100
AcDbEntity
  8
LAY-6
  6
CONTINUOUS
 62
     2
100
AcDbText
 10
587.4
 20
394.118987
 30
0.0
 40
5.0
  1
４
 50
90.0
 41
0.672
  7
EXCADSTD
 72
     5
 11
587.4
 21
397.318987
 31
0.0
100
AcDbText
  0
TEXT
  5
46A
100
AcDbEntity
  8
LAY-6
  6
CONTINUOUS
 62
     2
100
AcDbText
 10
154.4165
 20
284.889208
 30
0.0
 40
5.0
  1
セットネジ
 41
0.672
  7
EXCADSTD
 72
     5
 11
174.4165
 21
284.889208
 31
0.0
100
AcDbText
  0
POLYLINE
  5
46B
100
AcDbEntity
  8
LAY-6
  6
CONTINUOUS
 62
     1
100
AcDb2dPolyline
 66
     1
 10
0.0
 20
0.0
 30
0.0
 70
   128
  0
VERTEX
  5
46C
100
AcDbEntity
  8
LAY-6
  6
CONTINUOUS
 62
     1
100
AcDbVertex
100
AcDb2dVertex
 10
190.08646
 20
276.390908
 30
0.0
  0
VERTEX
  5
46D
100
AcDbEntity
  8
LAY-6
  6
CONTINUOUS
 62
     1
100
AcDbVertex
100
AcDb2dVertex
 10
176.233
 20
284.389208
 30
0.0
  0
VERTEX
  5
46E
100
AcDbEntity
  8
LAY-6
  6
CONTINUOUS
 62
     1
100
AcDbVertex
100
AcDb2dVertex
 10
152.6
 20
284.389208
 30
0.0
  0
SEQEND
  5
46F
100
AcDbEntity
  8
LAY-6
  6
CONTINUOUS
 62
     1
  0
LINE
  5
470
100
AcDbEntity
  8
LAY-6
  6
CONTINUOUS
 62
     1
100
AcDbLine
 10
188.187743
 20
277.102233
 30
0.0
 11
190.08646
 21
276.390908
 31
0.0
  0
LINE
  5
471
100
AcDbEntity
  8
LAY-6
  6
CONTINUOUS
 62
     1
100
AcDbLine
 10
190.08646
 20
276.390908
 30
0.0
 11
188.521076
 21
277.679584
 31
0.0
  0
TEXT
  5
472
100
AcDbEntity
  8
LAY-6
  6
CONTINUOUS
 62
     2
100
AcDbText
 10
152.860542
 20
337.204651
 30
0.0
 40
6.0
  1
（ドア側）
 41
0.672
  7
EXCADSTD
 72
     5
 11
176.860543
 21
337.204651
 31
0.0
100
AcDbText
  0
TEXT
  5
473
100
AcDbEntity
  8
LAY-6
  6
CONTINUOUS
 62
     2
100
AcDbText
 10
152.860527
 20
450.204651
 30
0.0
 40
6.0
  1
（上枠側）
 41
0.672
  7
EXCADSTD
 72
     5
 11
176.860528
 21
450.204651
 31
0.0
100
AcDbText
  0
TEXT
  5
474
100
AcDbEntity
  8
LAY-6
  6
CONTINUOUS
 62
     2
100
AcDbText
 10
143.244118
 20
457.262939
 30
0.0
 40
6.0
  1
トップピボット
 41
0.672
  7
EXCADSTD
 72
     5
 11
176.844119
 21
457.262939
 31
0.0
100
AcDbText
  0
TEXT
  5
475
100
AcDbEntity
  8
LAY-6
  6
CONTINUOUS
 62
     2
100
AcDbText
 10
143.244133
 20
344.262939
 30
0.0
 40
6.0
  1
トップピボット
 41
0.672
  7
EXCADSTD
 72
     5
 11
176.844134
 21
344.262939
 31
0.0
100
AcDbText
  0
TEXT
  5
476
100
AcDbEntity
  8
LAY-6
  6
CONTINUOUS
 62
     2
100
AcDbText
 10
143.244133
 20
234.262939
 30
0.0
 40
6.0
  1
ア　ー　ム
 41
0.672
  7
EXCADSTD
 72
     5
 11
167.244134
 21
234.262939
 31
0.0
100
AcDbText
  0
CIRCLE
  5
477
100
AcDbEntity
  8
LAY-6
  6
CONTINUOUS
 62
     2
100
AcDbCircle
 10
138.2
 20
348.3
 30
0.0
 40
4.0
  0
CIRCLE
  5
478
100
AcDbEntity
  8
LAY-6
  6
CONTINUOUS
 62
     2
100
AcDbCircle
 10
138.2
 20
238.3
 30
0.0
 40
4.0
  0
CIRCLE
  5
479
100
AcDbEntity
  8
LAY-6
  6
CONTINUOUS
 62
     2
100
AcDbCircle
 10
138.2
 20
460.7
 30
0.0
 40
4.0
  0
TEXT
  5
47A
100
AcDbEntity
  8
LAY-6
  6
CONTINUOUS
 62
     2
100
AcDbText
 10
136.4
 20
458.2
 30
0.0
 40
5.0
  1
１
 41
0.672
  7
EXCADSTD
 72
     5
 11
139.6
 21
458.2
 31
0.0
100
AcDbText
  0
TEXT
  5
47B
100
AcDbEntity
  8
LAY-6
  6
CONTINUOUS
 62
     2
100
AcDbText
 10
136.4
 20
345.8
 30
0.0
 40
5.0
  1
２
 41
0.672
  7
EXCADSTD
 72
     5
 11
139.6
 21
345.8
 31
0.0
100
AcDbText
  0
TEXT
  5
47C
100
AcDbEntity
  8
LAY-6
  6
CONTINUOUS
 62
     2
100
AcDbText
 10
136.4
 20
235.8
 30
0.0
 40
5.0
  1
３
 41
0.672
  7
EXCADSTD
 72
     5
 11
139.6
 21
235.8
 31
0.0
100
AcDbText
  0
TEXT
  5
47D
100
AcDbEntity
  8
LAY-6
  6
CONTINUOUS
 62
     2
100
AcDbText
 10
252.151831
 20
349.84718
 30
0.0
 40
5.0
  1
４－Ｍ５×１２皿小ネジ
 41
0.672
  7
EXCADSTD
 72
     5
 11
296.151831
 21
349.84718
 31
0.0
100
AcDbText
  0
LINE
  5
47E
100
AcDbEntity
  8
LAY-6
  6
CONTINUOUS
 62
     1
100
AcDbLine
 10
233.727913
 20
317.593063
 30
0.0
 11
234.116141
 21
319.041952
 31
0.0
  0
LINE
  5
47F
100
AcDbEntity
  8
LAY-6
  6
CONTINUOUS
 62
     1
100
AcDbLine
 10
233.727913
 20
317.593063
 30
0.0
 11
234.788573
 21
318.653723
 31
0.0
  0
POLYLINE
  5
480
100
AcDbEntity
  8
LAY-6
  6
CONTINUOUS
 62
     1
100
AcDb2dPolyline
 66
     1
 10
0.0
 20
0.0
 30
0.0
 70
   128
  0
VERTEX
  5
481
100
AcDbEntity
  8
LAY-6
  6
CONTINUOUS
 62
     1
100
AcDbVertex
100
AcDb2dVertex
 10
233.727913
 20
317.593063
 30
0.0
  0
VERTEX
  5
482
100
AcDbEntity
  8
LAY-6
  6
CONTINUOUS
 62
     1
100
AcDbVertex
100
AcDb2dVertex
 10
252.012512
 20
349.262939
 30
0.0
  0
VERTEX
  5
483
100
AcDbEntity
  8
LAY-6
  6
CONTINUOUS
 62
     1
100
AcDbVertex
100
AcDb2dVertex
 10
297.1
 20
349.262939
 30
0.0
  0
SEQEND
  5
484
100
AcDbEntity
  8
LAY-6
  6
CONTINUOUS
 62
     1
  0
TEXT
  5
485
100
AcDbEntity
  8
LAY-6
  6
CONTINUOUS
 62
     2
100
AcDbText
 10
252.251831
 20
239.54718
 30
0.0
 40
5.0
  1
４－Ｍ５×１２皿小ネジ
 41
0.672
  7
EXCADSTD
 72
     5
 11
296.251831
 21
239.54718
 31
0.0
100
AcDbText
  0
LINE
  5
486
100
AcDbEntity
  8
LAY-6
  6
CONTINUOUS
 62
     1
100
AcDbLine
 10
233.727913
 20
207.593048
 30
0.0
 11
234.116141
 21
209.041937
 31
0.0
  0
LINE
  5
487
100
AcDbEntity
  8
LAY-6
  6
CONTINUOUS
 62
     1
100
AcDbLine
 10
233.727913
 20
207.593048
 30
0.0
 11
234.788573
 21
208.653709
 31
0.0
  0
POLYLINE
  5
488
100
AcDbEntity
  8
LAY-6
  6
CONTINUOUS
 62
     1
100
AcDb2dPolyline
 66
     1
 10
0.0
 20
0.0
 30
0.0
 70
   128
  0
VERTEX
  5
489
100
AcDbEntity
  8
LAY-6
  6
CONTINUOUS
 62
     1
100
AcDbVertex
100
AcDb2dVertex
 10
233.727913
 20
207.593048
 30
0.0
  0
VERTEX
  5
48A
100
AcDbEntity
  8
LAY-6
  6
CONTINUOUS
 62
     1
100
AcDbVertex
100
AcDb2dVertex
 10
252.012512
 20
239.262939
 30
0.0
  0
VERTEX
  5
48B
100
AcDbEntity
  8
LAY-6
  6
CONTINUOUS
 62
     1
100
AcDbVertex
100
AcDb2dVertex
 10
296.9
 20
239.262939
 30
0.0
  0
SEQEND
  5
48C
100
AcDbEntity
  8
LAY-6
  6
CONTINUOUS
 62
     1
  0
TEXT
  5
48D
100
AcDbEntity
  8
LAY-6
  6
CONTINUOUS
 62
     2
100
AcDbText
 10
274.472054
 20
301.525878
 30
0.0
 40
6.0
  1
ドア
 41
0.672
  7
EXCADSTD
 72
     5
 11
283.271414
 21
301.525878
 31
0.0
100
AcDbText
  0
TEXT
  5
48E
100
AcDbEntity
  8
LAY-6
  6
CONTINUOUS
 62
     2
100
AcDbText
 10
277.472054
 20
190.525878
 30
0.0
 40
6.0
  1
ドア
 41
0.672
  7
EXCADSTD
 72
     5
 11
286.271414
 21
190.525878
 31
0.0
100
AcDbText
  0
TEXT
  5
48F
100
AcDbEntity
  8
LAY-6
  6
CONTINUOUS
 62
     2
100
AcDbText
 10
269.472054
 20
413.525878
 30
0.0
 40
6.0
  1
上枠
 41
0.672
  7
EXCADSTD
 72
     5
 11
278.271414
 21
413.525878
 31
0.0
100
AcDbText
  0
TEXT
  5
490
100
AcDbEntity
  8
LAY-6
  6
CONTINUOUS
 62
     2
100
AcDbText
 10
152.472054
 20
429.525878
 30
0.0
 40
6.0
  1
竪枠
 41
0.672
  7
EXCADSTD
 72
     5
 11
161.271414
 21
429.525878
 31
0.0
100
AcDbText
  0
LINE
  5
491
100
AcDbEntity
  8
LAY-6
  6
CONTINUOUS
 62
     1
100
AcDbLine
 10
705.929016
 20
378.148987
 30
0.0
 11
705.929016
 21
178.148972
 31
0.0
  0
TEXT
  5
492
100
AcDbEntity
  8
LAY-6
  6
CONTINUOUS
 62
     2
100
AcDbText
 10
705.390686
 20
274.29567
 30
0.0
 40
5.0
  1
ＤＨ
 50
89.999981
 41
0.672
  7
EXCADSTD
 72
     5
 11
705.390688
 21
281.62847
 31
0.0
100
AcDbText
  0
TEXT
  5
493
100
AcDbEntity
  8
LAY-6
  6
CONTINUOUS
 62
     2
100
AcDbText
 10
681.850171
 20
409.022821
 30
0.0
 40
5.0
  1
裏板（別途）
 41
0.672
  7
EXCADSTD
 72
     5
 11
705.850171
 21
409.022821
 31
0.0
100
AcDbText
  0
POLYLINE
  5
494
100
AcDbEntity
  8
LAY-6
  6
CONTINUOUS
 62
     1
100
AcDb2dPolyline
 66
     1
 10
0.0
 20
0.0
 30
0.0
 70
   128
  0
VERTEX
  5
495
100
AcDbEntity
  8
LAY-6
  6
CONTINUOUS
 62
     1
100
AcDbVertex
100
AcDb2dVertex
 10
671.9
 20
385.6
 30
0.0
  0
VERTEX
  5
496
100
AcDbEntity
  8
LAY-6
  6
CONTINUOUS
 62
     1
100
AcDbVertex
100
AcDb2dVertex
 10
679.9
 20
408.8
 30
0.0
  0
VERTEX
  5
497
100
AcDbEntity
  8
LAY-6
  6
CONTINUOUS
 62
     1
100
AcDbVertex
100
AcDb2dVertex
 10
704.2
 20
408.7
 30
0.0
  0
SEQEND
  5
498
100
AcDbEntity
  8
LAY-6
  6
CONTINUOUS
 62
     1
  0
LINE
  5
499
100
AcDbEntity
  8
LAY-6
  6
CONTINUOUS
 62
     1
100
AcDbLine
 10
672.405286
 20
388.599114
 30
0.0
 11
671.9
 21
385.6
 31
0.0
  0
LINE
  5
49A
100
AcDbEntity
  8
LAY-6
  6
CONTINUOUS
 62
     1
100
AcDbLine
 10
671.9
 20
385.6
 30
0.0
 11
673.350659
 21
388.273124
 31
0.0
  0
POLYLINE
  5
49B
100
AcDbEntity
  8
LAY-6
  6
CONTINUOUS
 62
     1
100
AcDb2dPolyline
 66
     1
 10
0.0
 20
0.0
 30
0.0
 70
   128
  0
VERTEX
  5
49C
100
AcDbEntity
  8
LAY-6
  6
CONTINUOUS
 62
     1
100
AcDbVertex
100
AcDb2dVertex
 10
669.0
 20
367.6
 30
0.0
  0
VERTEX
  5
49D
100
AcDbEntity
  8
LAY-6
  6
CONTINUOUS
 62
     1
100
AcDbVertex
100
AcDb2dVertex
 10
711.1
 20
339.4
 30
0.0
  0
VERTEX
  5
49E
100
AcDbEntity
  8
LAY-6
  6
CONTINUOUS
 62
     1
100
AcDbVertex
100
AcDb2dVertex
 10
761.3
 20
339.4
 30
0.0
  0
SEQEND
  5
49F
100
AcDbEntity
  8
LAY-6
  6
CONTINUOUS
 62
     1
  0
LINE
  5
4A0
100
AcDbEntity
  8
LAY-6
  6
CONTINUOUS
 62
     1
100
AcDbLine
 10
671.770762
 20
366.345855
 30
0.0
 11
669.0
 21
367.6
 31
0.0
  0
LINE
  5
4A1
100
AcDbEntity
  8
LAY-6
  6
CONTINUOUS
 62
     1
100
AcDbLine
 10
669.0
 20
367.6
 30
0.0
 11
671.214241
 21
365.515021
 31
0.0
  0
TEXT
  5
4A2
100
AcDbEntity
  8
LAY-6
  6
CONTINUOUS
 62
     2
100
AcDbText
 10
711.603296
 20
339.833136
 30
0.0
 40
5.0
  1
裏板３．２ｔ以上（別途）
 41
0.672
  7
EXCADSTD
 72
     5
 11
759.603296
 21
339.833136
 31
0.0
100
AcDbText
  0
CIRCLE
  5
4A3
100
AcDbEntity
  8
LAY-6
  6
CONTINUOUS
 62
     2
100
AcDbCircle
 10
588.0
 20
408.7
 30
0.0
 40
4.0
  0
TEXT
  5
4A4
100
AcDbEntity
  8
LAY-6
  6
CONTINUOUS
 62
     2
100
AcDbText
 10
586.2
 20
406.2
 30
0.0
 40
5.0
  1
１
 41
0.672
  7
EXCADSTD
 72
     5
 11
589.4
 21
406.2
 31
0.0
100
AcDbText
  0
CIRCLE
  5
4A5
100
AcDbEntity
  8
LAY-6
  6
CONTINUOUS
 62
     2
100
AcDbCircle
 10
588.0
 20
346.9
 30
0.0
 40
4.0
  0
TEXT
  5
4A6
100
AcDbEntity
  8
LAY-6
  6
CONTINUOUS
 62
     2
100
AcDbText
 10
586.2
 20
344.4
 30
0.0
 40
5.0
  1
２
 41
0.672
  7
EXCADSTD
 72
     5
 11
589.4
 21
344.4
 31
0.0
100
AcDbText
  0
POLYLINE
  5
4A7
100
AcDbEntity
  8
LAY-6
  6
CONTINUOUS
 62
     1
100
AcDb2dPolyline
 66
     1
 10
0.0
 20
0.0
 30
0.0
 70
   128
  0
VERTEX
  5
4A8
100
AcDbEntity
  8
LAY-6
  6
CONTINUOUS
 62
     1
100
AcDbVertex
100
AcDb2dVertex
 10
606.6
 20
392.0
 30
0.0
  0
VERTEX
  5
4A9
100
AcDbEntity
  8
LAY-6
  6
CONTINUOUS
 62
     1
100
AcDbVertex
100
AcDb2dVertex
 10
591.081577
 20
406.149729
 30
0.0
  0
SEQEND
  5
4AA
100
AcDbEntity
  8
LAY-6
  6
CONTINUOUS
 62
     1
  0
LINE
  5
4AB
100
AcDbEntity
  8
LAY-6
  6
CONTINUOUS
 62
     1
100
AcDbLine
 10
604.046289
 20
393.651836
 30
0.0
 11
606.6
 21
392.0
 31
0.0
  0
LINE
  5
4AC
100
AcDbEntity
  8
LAY-6
  6
CONTINUOUS
 62
     1
100
AcDbLine
 10
606.6
 20
392.0
 30
0.0
 11
604.720058
 21
394.390778
 31
0.0
  0
POLYLINE
  5
4AD
100
AcDbEntity
  8
LAY-6
  6
CONTINUOUS
 62
     1
100
AcDb2dPolyline
 66
     1
 10
0.0
 20
0.0
 30
0.0
 70
   128
  0
VERTEX
  5
4AE
100
AcDbEntity
  8
LAY-6
  6
CONTINUOUS
 62
     1
100
AcDbVertex
100
AcDb2dVertex
 10
607.9
 20
368.5
 30
0.0
  0
VERTEX
  5
4AF
100
AcDbEntity
  8
LAY-6
  6
CONTINUOUS
 62
     1
100
AcDbVertex
100
AcDb2dVertex
 10
591.478744
 20
348.874422
 30
0.0
  0
SEQEND
  5
4B0
100
AcDbEntity
  8
LAY-6
  6
CONTINUOUS
 62
     1
  0
LINE
  5
4B1
100
AcDbEntity
  8
LAY-6
  6
CONTINUOUS
 62
     1
100
AcDbLine
 10
606.358312
 20
365.878322
 30
0.0
 11
607.9
 21
368.5
 31
0.0
  0
LINE
  5
4B2
100
AcDbEntity
  8
LAY-6
  6
CONTINUOUS
 62
     1
100
AcDbLine
 10
607.9
 20
368.5
 30
0.0
 11
605.591372
 21
366.520041
 31
0.0
  0
CIRCLE
  5
4B3
100
AcDbEntity
  8
LAY-6
  6
CONTINUOUS
 62
     2
100
AcDbCircle
 10
587.6
 20
212.3
 30
0.0
 40
4.0
  0
TEXT
  5
4B4
100
AcDbEntity
  8
LAY-6
  6
CONTINUOUS
 62
     2
100
AcDbText
 10
585.8
 20
209.8
 30
0.0
 40
5.0
  1
３
 41
0.672
  7
EXCADSTD
 72
     5
 11
589.0
 21
209.8
 31
0.0
100
AcDbText
  0
LINE
  5
4B5
100
AcDbEntity
  8
LAY-6
  6
CONTINUOUS
 62
     1
100
AcDbLine
 10
600.9
 20
172.148972
 30
0.0
 11
586.929016
 21
172.148972
 31
0.0
  0
LINE
  5
4B6
100
AcDbEntity
  8
LAY-6
  6
CONTINUOUS
 62
     1
100
AcDbLine
 10
600.9
 20
172.148972
 30
0.0
 11
596.929016
 21
172.148972
 31
0.0
  0
LINE
  5
4B7
100
AcDbEntity
  8
LAY-6
  6
CONTINUOUS
 62
     1
100
AcDbLine
 10
600.9
 20
172.148972
 30
0.0
 11
571.929016
 21
172.148972
 31
0.0
  0
POLYLINE
  5
4B8
100
AcDbEntity
  8
LAY-6
  6
CONTINUOUS
 62
     1
100
AcDb2dPolyline
 66
     1
 10
0.0
 20
0.0
 30
0.0
 70
   128
  0
VERTEX
  5
4B9
100
AcDbEntity
  8
LAY-6
  6
CONTINUOUS
 62
     1
100
AcDbVertex
100
AcDb2dVertex
 10
607.4
 20
191.5
 30
0.0
  0
VERTEX
  5
4BA
100
AcDbEntity
  8
LAY-6
  6
CONTINUOUS
 62
     1
100
AcDbVertex
100
AcDb2dVertex
 10
590.335765
 20
209.381851
 30
0.0
  0
SEQEND
  5
4BB
100
AcDbEntity
  8
LAY-6
  6
CONTINUOUS
 62
     1
  0
LINE
  5
4BC
100
AcDbEntity
  8
LAY-6
  6
CONTINUOUS
 62
     1
100
AcDbLine
 10
604.967152
 20
193.325171
 30
0.0
 11
607.4
 21
191.5
 31
0.0
  0
LINE
  5
4BD
100
AcDbEntity
  8
LAY-6
  6
CONTINUOUS
 62
     1
100
AcDbLine
 10
607.4
 20
191.5
 30
0.0
 11
605.690604
 21
194.015545
 31
0.0
  0
POLYLINE
  5
4BE
100
AcDbEntity
  8
LAY-6
  6
CONTINUOUS
 62
     1
100
AcDb2dPolyline
 66
     1
 10
0.0
 20
0.0
 30
0.0
 70
   128
  0
VERTEX
  5
4BF
100
AcDbEntity
  8
LAY-6
  6
CONTINUOUS
 62
     1
100
AcDbVertex
100
AcDb2dVertex
 10
668.8
 20
191.7
 30
0.0
  0
VERTEX
  5
4C0
100
AcDbEntity
  8
LAY-6
  6
CONTINUOUS
 62
     1
100
AcDbVertex
100
AcDb2dVertex
 10
710.2
 20
229.8
 30
0.0
  0
VERTEX
  5
4C1
100
AcDbEntity
  8
LAY-6
  6
CONTINUOUS
 62
     1
100
AcDbVertex
100
AcDb2dVertex
 10
759.5
 20
229.8
 30
0.0
  0
SEQEND
  5
4C2
100
AcDbEntity
  8
LAY-6
  6
CONTINUOUS
 62
     1
  0
LINE
  5
4C3
100
AcDbEntity
  8
LAY-6
  6
CONTINUOUS
 62
     1
100
AcDbLine
 10
670.668888
 20
194.099428
 30
0.0
 11
668.8
 21
191.7
 31
0.0
  0
LINE
  5
4C4
100
AcDbEntity
  8
LAY-6
  6
CONTINUOUS
 62
     1
100
AcDbLine
 10
668.8
 20
191.7
 30
0.0
 11
671.34606
 21
193.363604
 31
0.0
  0
TEXT
  5
4C5
100
AcDbEntity
  8
LAY-6
  6
CONTINUOUS
 62
     2
100
AcDbText
 10
710.803296
 20
229.964838
 30
0.0
 40
5.0
  1
裏板３．２ｔ以上（別途）
 41
0.672
  7
EXCADSTD
 72
     5
 11
758.803296
 21
229.964838
 31
0.0
100
AcDbText
  0
TEXT
  5
4C6
100
AcDbEntity
  8
LAY-6
  6
CONTINUOUS
 62
     2
100
AcDbText
 10
567.472054
 20
153.525878
 30
0.0
 40
6.0
  1
床面
 41
0.672
  7
EXCADSTD
 72
     5
 11
576.271414
 21
153.525878
 31
0.0
100
AcDbText
  0
TEXT
  5
4C7
100
AcDbEntity
  8
LAY-6
  6
CONTINUOUS
 62
     2
100
AcDbText
 10
653.801064
 20
258.525878
 30
0.0
 40
6.0
  1
ドア
 41
0.672
  7
EXCADSTD
 72
     5
 11
662.600424
 21
258.525878
 31
0.0
100
AcDbText
  0
TEXT
  5
4C8
100
AcDbEntity
  8
LAY-6
  6
CONTINUOUS
 62
     2
100
AcDbText
 10
708.472054
 20
397.525878
 30
0.0
 40
6.0
  1
上枠
 41
0.672
  7
EXCADSTD
 72
     5
 11
717.271414
 21
397.525878
 31
0.0
100
AcDbText
  0
LINE
  5
4C9
100
AcDbEntity
  8
LAY-6
  6
CONTINUOUS
 62
     1
100
AcDbLine
 10
587.929016
 20
394.148987
 30
0.0
 11
587.929016
 21
381.148987
 31
0.0
  0
LINE
  5
4CA
100
AcDbEntity
  8
LAY-6
  6
CONTINUOUS
 62
     1
100
AcDbLine
 10
587.929016
 20
394.148987
 30
0.0
 11
588.317245
 21
392.700098
 31
0.0
  0
LINE
  5
4CB
100
AcDbEntity
  8
LAY-6
  6
CONTINUOUS
 62
     1
100
AcDbLine
 10
587.929016
 20
394.148987
 30
0.0
 11
587.540787
 21
392.700098
 31
0.0
  0
LINE
  5
4CC
100
AcDbEntity
  8
LAY-6
  6
CONTINUOUS
 62
     1
100
AcDbLine
 10
587.929016
 20
381.148987
 30
0.0
 11
587.540787
 21
382.597876
 31
0.0
  0
LINE
  5
4CD
100
AcDbEntity
  8
LAY-6
  6
CONTINUOUS
 62
     1
100
AcDbLine
 10
587.929016
 20
381.148987
 30
0.0
 11
588.317245
 21
382.597876
 31
0.0
  0
LINE
  5
4CE
100
AcDbEntity
  8
LAY-6
  6
CONTINUOUS
 62
     1
100
AcDbLine
 10
602.429016
 20
394.148987
 30
0.0
 11
586.929016
 21
394.148987
 31
0.0
  0
LINE
  5
4CF
100
AcDbEntity
  8
LAY-6
  6
CONTINUOUS
 62
     1
100
AcDbLine
 10
603.429016
 20
381.148987
 30
0.0
 11
586.929016
 21
381.148987
 31
0.0
  0
TEXT
  5
4D0
100
AcDbEntity
  8
LAY-6
  6
CONTINUOUS
 62
     2
100
AcDbText
 10
587.429016
 20
383.648987
 30
0.0
 40
5.0
  1
１３
 50
90.0
 41
0.672
  7
EXCADSTD
 72
     5
 11
587.429016
 21
390.981787
 31
0.0
100
AcDbText
  0
LINE
  5
4D1
100
AcDbEntity
  8
LAY-6
  6
CONTINUOUS
 62
     1
100
AcDbLine
 10
587.92
 20
402.01
 30
0.0
 11
587.92
 21
389.148987
 31
0.0
  0
LINE
  5
4D2
100
AcDbEntity
  8
LAY-6
  6
CONTINUOUS
 62
     1
100
AcDbLine
 10
587.929016
 20
398.148987
 30
0.0
 11
588.317245
 21
399.597876
 31
0.0
  0
LINE
  5
4D3
100
AcDbEntity
  8
LAY-6
  6
CONTINUOUS
 62
     1
100
AcDbLine
 10
587.929016
 20
398.148987
 30
0.0
 11
587.540787
 21
399.597876
 31
0.0
  0
TEXT
  5
4D4
100
AcDbEntity
  8
LAY-6
  6
CONTINUOUS
 62
     2
100
AcDbText
 10
524.555724
 20
266.952135
 30
0.0
 40
5.0
  1
軸座ネジ
 50
0.164643
 41
0.672
  7
EXCADSTD
 72
     5
 11
540.555658
 21
266.998112
 31
0.0
100
AcDbText
  0
TEXT
  5
4D5
100
AcDbEntity
  8
LAY-6
  6
CONTINUOUS
 62
     2
100
AcDbText
 10
524.571528
 20
261.452158
 30
0.0
 40
5.0
  1
Ｍ６×２０十字穴付き止めネジ
 50
0.164643
 41
0.672
  7
EXCADSTD
 72
     5
 11
580.571297
 21
261.613077
 31
0.0
100
AcDbText
  0
POLYLINE
  5
4D6
100
AcDbEntity
  8
LAY-6
  6
CONTINUOUS
 62
     1
100
AcDb2dPolyline
 66
     1
 10
0.0
 20
0.0
 30
0.0
 70
   128
  0
VERTEX
  5
4D7
100
AcDbEntity
  8
LAY-6
  6
CONTINUOUS
 62
     1
100
AcDbVertex
100
AcDb2dVertex
 10
623.2
 20
173.6
 30
0.0
  0
VERTEX
  5
4D8
100
AcDbEntity
  8
LAY-6
  6
CONTINUOUS
 62
     1
100
AcDbVertex
100
AcDb2dVertex
 10
632.615444
 20
153.572973
 30
0.0
  0
SEQEND
  5
4D9
100
AcDbEntity
  8
LAY-6
  6
CONTINUOUS
 62
     1
  0
LINE
  5
4DA
100
AcDbEntity
  8
LAY-6
  6
CONTINUOUS
 62
     1
100
AcDbLine
 10
624.928876
 20
171.097803
 30
0.0
 11
623.2
 21
173.6
 31
0.0
  0
LINE
  5
4DB
100
AcDbEntity
  8
LAY-6
  6
CONTINUOUS
 62
     1
100
AcDbLine
 10
623.2
 20
173.6
 30
0.0
 11
624.0239
 21
170.672341
 31
0.0
  0
CIRCLE
  5
4DC
100
AcDbEntity
  8
LAY-6
  6
CONTINUOUS
 62
     2
100
AcDbCircle
 10
634.6
 20
150.1
 30
0.0
 40
4.0
  0
TEXT
  5
4DD
100
AcDbEntity
  8
LAY-6
  6
CONTINUOUS
 62
     2
100
AcDbText
 10
632.8
 20
147.6
 30
0.0
 40
5.0
  1
４
 41
0.672
  7
EXCADSTD
 72
     5
 11
636.0
 21
147.6
 31
0.0
100
AcDbText
  0
TEXT
  5
4DE
100
AcDbEntity
  8
LAY-6
  6
CONTINUOUS
 62
     2
100
AcDbText
 10
730.813134
 20
92.896519
 30
0.0
 40
7.5
  1
右
 41
0.672
  7
EXCADSTD
 72
     5
 11
735.613134
 21
92.896519
 31
0.0
100
AcDbText
  0
TEXT
  5
4DF
100
AcDbEntity
  8
LAY-6
  6
CONTINUOUS
 62
     2
100
AcDbText
 10
741.528085
 20
92.885
 30
0.0
 40
7.5
  1
左
 41
0.672
  7
EXCADSTD
 72
     5
 11
746.328085
 21
92.885
 31
0.0
100
AcDbText
  0
LINE
  5
4E0
100
AcDbEntity
  8
LAY-6
  6
CONTINUOUS
 62
     1
100
AcDbLine
 10
205.227921
 20
432.762939
 30
0.0
 11
205.227921
 21
435.7
 31
0.0
  0
TEXT
  5
4E1
100
AcDbEntity
  8
LAY-6
  6
CONTINUOUS
 62
     2
100
AcDbText
 10
191.427921
 20
434.7
 30
0.0
 40
5.0
  1
(
 41
0.4
  7
EXCADSTD
 72
     5
 11
192.727921
 21
434.7
 31
0.0
100
AcDbText
  0
TEXT
  5
4E2
100
AcDbEntity
  8
LAY-6
  6
CONTINUOUS
 62
     2
100
AcDbText
 10
193.427921
 20
434.7
 30
0.0
 40
5.0
  1
６
 41
0.672
  7
EXCADSTD
 72
     5
 11
196.627921
 21
434.7
 31
0.0
100
AcDbText
  0
TEXT
  5
4E3
100
AcDbEntity
  8
LAY-6
  6
CONTINUOUS
 62
     2
100
AcDbText
 10
197.427921
 20
434.7
 30
0.0
 40
5.0
  1
)
 41
0.4
  7
EXCADSTD
 72
     5
 11
198.727921
 21
434.7
 31
0.0
100
AcDbText
  0
LINE
  5
4E4
100
AcDbEntity
  8
LAY-6
  6
CONTINUOUS
 62
     1
100
AcDbLine
 10
191.7
 20
434.2
 30
0.0
 11
205.227921
 21
434.2
 31
0.0
  0
LINE
  5
4E5
100
AcDbEntity
  8
LAY-6
  6
CONTINUOUS
 62
     1
100
AcDbLine
 10
197.227921
 20
433.866667
 30
0.0
 11
199.227921
 21
434.2
 31
0.0
  0
LINE
  5
4E6
100
AcDbEntity
  8
LAY-6
  6
CONTINUOUS
 62
     1
100
AcDbLine
 10
199.227921
 20
434.2
 30
0.0
 11
197.227921
 21
434.533333
 31
0.0
  0
TEXT
  5
4E7
100
AcDbEntity
  8
LAY-6
  6
CONTINUOUS
 62
     2
100
AcDbText
 10
205.727921
 20
434.7
 30
0.0
 40
5.0
  1
(
 41
0.4
  7
EXCADSTD
 72
     5
 11
207.027921
 21
434.7
 31
0.0
100
AcDbText
  0
TEXT
  5
4E8
100
AcDbEntity
  8
LAY-6
  6
CONTINUOUS
 62
     2
100
AcDbText
 10
207.727921
 20
434.7
 30
0.0
 40
5.0
  1
１３
 41
0.672
  7
EXCADSTD
 72
     5
 11
215.060721
 21
434.7
 31
0.0
100
AcDbText
  0
TEXT
  5
4E9
100
AcDbEntity
  8
LAY-6
  6
CONTINUOUS
 62
     2
100
AcDbText
 10
215.727921
 20
434.7
 30
0.0
 40
5.0
  1
)
 41
0.4
  7
EXCADSTD
 72
     5
 11
217.027921
 21
434.7
 31
0.0
100
AcDbText
  0
LINE
  5
4EA
100
AcDbEntity
  8
LAY-6
  6
CONTINUOUS
 62
     1
100
AcDbLine
 10
218.227921
 20
432.762939
 30
0.0
 11
218.227921
 21
435.7
 31
0.0
  0
LINE
  5
4EB
100
AcDbEntity
  8
LAY-6
  6
CONTINUOUS
 62
     1
100
AcDbLine
 10
205.227921
 20
434.2
 30
0.0
 11
218.227921
 21
434.2
 31
0.0
  0
LINE
  5
4EC
100
AcDbEntity
  8
LAY-6
  6
CONTINUOUS
 62
     1
100
AcDbLine
 10
207.227921
 20
434.533333
 30
0.0
 11
205.227921
 21
434.2
 31
0.0
  0
LINE
  5
4ED
100
AcDbEntity
  8
LAY-6
  6
CONTINUOUS
 62
     1
100
AcDbLine
 10
205.227921
 20
434.2
 30
0.0
 11
207.227921
 21
433.866667
 31
0.0
  0
LINE
  5
4EE
100
AcDbEntity
  8
LAY-6
  6
CONTINUOUS
 62
     1
100
AcDbLine
 10
216.227921
 20
433.866667
 30
0.0
 11
218.227921
 21
434.2
 31
0.0
  0
LINE
  5
4EF
100
AcDbEntity
  8
LAY-6
  6
CONTINUOUS
 62
     1
100
AcDbLine
 10
218.227921
 20
434.2
 30
0.0
 11
216.227921
 21
434.533333
 31
0.0
  0
TEXT
  5
4F0
100
AcDbEntity
  8
LAY-6
  6
CONTINUOUS
 62
     2
100
AcDbText
 10
241.3
 20
398.862939
 30
0.0
 40
5.0
  1
(
 50
90.0
 41
0.36
  7
EXCADSTD
 72
     5
 11
241.3
 21
400.032939
 31
0.0
100
AcDbText
  0
TEXT
  5
4F1
100
AcDbEntity
  8
LAY-6
  6
CONTINUOUS
 62
     2
100
AcDbText
 10
241.3
 20
400.662939
 30
0.0
 40
5.0
  1
１０
 50
90.0
 41
0.6048
  7
EXCADSTD
 72
     5
 11
241.3
 21
407.262459
 31
0.0
100
AcDbText
  0
TEXT
  5
4F2
100
AcDbEntity
  8
LAY-6
  6
CONTINUOUS
 62
     2
100
AcDbText
 10
241.3
 20
407.862939
 30
0.0
 40
5.0
  1
)
 50
90.0
 41
0.36
  7
EXCADSTD
 72
     5
 11
241.3
 21
409.032939
 31
0.0
100
AcDbText
  0
LINE
  5
4F3
100
AcDbEntity
  8
LAY-6
  6
CONTINUOUS
 62
     1
100
AcDbLine
 10
223.727921
 20
409.262939
 30
0.0
 11
243.3
 21
409.262939
 31
0.0
  0
LINE
  5
4F4
100
AcDbEntity
  8
LAY-6
  6
CONTINUOUS
 62
     1
100
AcDbLine
 10
241.8
 20
399.262939
 30
0.0
 11
241.8
 21
409.262939
 31
0.0
  0
LINE
  5
4F5
100
AcDbEntity
  8
LAY-6
  6
CONTINUOUS
 62
     1
100
AcDbLine
 10
241.466667
 20
401.262939
 30
0.0
 11
241.8
 21
399.262939
 31
0.0
  0
LINE
  5
4F6
100
AcDbEntity
  8
LAY-6
  6
CONTINUOUS
 62
     1
100
AcDbLine
 10
241.8
 20
399.262939
 30
0.0
 11
242.133333
 21
401.262939
 31
0.0
  0
LINE
  5
4F7
100
AcDbEntity
  8
LAY-6
  6
CONTINUOUS
 62
     1
100
AcDbLine
 10
242.133333
 20
407.262939
 30
0.0
 11
241.8
 21
409.262939
 31
0.0
  0
LINE
  5
4F8
100
AcDbEntity
  8
LAY-6
  6
CONTINUOUS
 62
     1
100
AcDbLine
 10
241.8
 20
409.262939
 30
0.0
 11
241.466667
 21
407.262939
 31
0.0
  0
TEXT
  5
4F9
100
AcDbEntity
  8
LAY-6
  6
CONTINUOUS
 62
     2
100
AcDbText
 10
241.3
 20
410.262939
 30
0.0
 40
5.0
  1
（
 50
90.0
 41
0.672
  7
EXCADSTD
 72
     5
 11
241.3
 21
413.462939
 31
0.0
100
AcDbText
  0
TEXT
  5
4FA
100
AcDbEntity
  8
LAY-6
  6
CONTINUOUS
 62
     2
100
AcDbText
 10
241.3
 20
414.262939
 30
0.0
 40
5.0
  1
１８
 50
90.0
 41
0.672
  7
EXCADSTD
 72
     5
 11
241.3
 21
421.595739
 31
0.0
100
AcDbText
  0
TEXT
  5
4FB
100
AcDbEntity
  8
LAY-6
  6
CONTINUOUS
 62
     2
100
AcDbText
 10
241.3
 20
422.262939
 30
0.0
 40
5.0
  1
）
 50
90.0
 41
0.672
  7
EXCADSTD
 72
     5
 11
241.3
 21
425.462939
 31
0.0
100
AcDbText
  0
LINE
  5
4FC
100
AcDbEntity
  8
LAY-6
  6
CONTINUOUS
 62
     1
100
AcDbLine
 10
223.727921
 20
427.262939
 30
0.0
 11
243.3
 21
427.262939
 31
0.0
  0
LINE
  5
4FD
100
AcDbEntity
  8
LAY-6
  6
CONTINUOUS
 62
     1
100
AcDbLine
 10
241.8
 20
409.262939
 30
0.0
 11
241.8
 21
427.262939
 31
0.0
  0
LINE
  5
4FE
100
AcDbEntity
  8
LAY-6
  6
CONTINUOUS
 62
     1
100
AcDbLine
 10
241.466667
 20
411.262939
 30
0.0
 11
241.8
 21
409.262939
 31
0.0
  0
LINE
  5
4FF
100
AcDbEntity
  8
LAY-6
  6
CONTINUOUS
 62
     1
100
AcDbLine
 10
241.8
 20
409.262939
 30
0.0
 11
242.133333
 21
411.262939
 31
0.0
  0
LINE
  5
500
100
AcDbEntity
  8
LAY-6
  6
CONTINUOUS
 62
     1
100
AcDbLine
 10
242.133333
 20
425.262939
 30
0.0
 11
241.8
 21
427.262939
 31
0.0
  0
LINE
  5
501
100
AcDbEntity
  8
LAY-6
  6
CONTINUOUS
 62
     1
100
AcDbLine
 10
241.8
 20
427.262939
 30
0.0
 11
241.466667
 21
425.262939
 31
0.0
  0
TEXT
  5
502
100
AcDbEntity
  8
LAY-6
  6
CONTINUOUS
 62
     2
100
AcDbText
 10
229.15
 20
452.3
 30
0.0
 40
5.0
  1
４－Ｍ５×１６皿小ネジ(P=0.8)(別途)
 41
0.576198
  7
EXCADSTD
 72
     5
 11
299.15
 21
452.3
 31
0.0
100
AcDbText
  0
POLYLINE
  5
503
100
AcDbEntity
  8
LAY-6
  6
CONTINUOUS
 62
     1
100
AcDb2dPolyline
 66
     1
 10
0.0
 20
0.0
 30
0.0
 70
   128
  0
VERTEX
  5
504
100
AcDbEntity
  8
LAY-6
  6
CONTINUOUS
 62
     1
100
AcDbVertex
100
AcDb2dVertex
 10
219.248447
 20
429.545159
 30
0.0
  0
VERTEX
  5
505
100
AcDbEntity
  8
LAY-6
  6
CONTINUOUS
 62
     1
100
AcDbVertex
100
AcDb2dVertex
 10
229.2
 20
451.8
 30
0.0
  0
VERTEX
  5
506
100
AcDbEntity
  8
LAY-6
  6
CONTINUOUS
 62
     1
100
AcDbVertex
100
AcDb2dVertex
 10
299.1
 20
451.8
 30
0.0
  0
SEQEND
  5
507
100
AcDbEntity
  8
LAY-6
  6
CONTINUOUS
 62
     1
  0
LINE
  5
508
100
AcDbEntity
  8
LAY-6
  6
CONTINUOUS
 62
     1
100
AcDbLine
 10
219.760571
 20
431.507005
 30
0.0
 11
219.248447
 21
429.545159
 31
0.0
  0
LINE
  5
509
100
AcDbEntity
  8
LAY-6
  6
CONTINUOUS
 62
     1
100
AcDbLine
 10
219.248447
 20
429.545159
 30
0.0
 11
220.369163
 21
431.234865
 31
0.0
  0
TEXT
  5
50A
100
AcDbEntity
  8
LAY-6
  6
CONTINUOUS
 62
     2
100
AcDbText
 10
436.85
 20
427.5
 30
0.0
 40
5.0
  1
４－Ｍ５×１６皿小ネジ(P=0.8)(別途)
 41
0.576198
  7
EXCADSTD
 72
     5
 11
506.85
 21
427.5
 31
0.0
100
AcDbText
  0
POLYLINE
  5
50B
100
AcDbEntity
  8
LAY-6
  6
CONTINUOUS
 62
     1
100
AcDb2dPolyline
 66
     1
 10
0.0
 20
0.0
 30
0.0
 70
   128
  0
VERTEX
  5
50C
100
AcDbEntity
  8
LAY-6
  6
CONTINUOUS
 62
     1
100
AcDbVertex
100
AcDb2dVertex
 10
414.677966
 20
409.262939
 30
0.0
  0
VERTEX
  5
50D
100
AcDbEntity
  8
LAY-6
  6
CONTINUOUS
 62
     1
100
AcDbVertex
100
AcDb2dVertex
 10
437.1
 20
427.0
 30
0.0
  0
VERTEX
  5
50E
100
AcDbEntity
  8
LAY-6
  6
CONTINUOUS
 62
     1
100
AcDbVertex
100
AcDb2dVertex
 10
506.6
 20
427.0
 30
0.0
  0
SEQEND
  5
50F
100
AcDbEntity
  8
LAY-6
  6
CONTINUOUS
 62
     1
  0
LINE
  5
510
100
AcDbEntity
  8
LAY-6
  6
CONTINUOUS
 62
     1
100
AcDbLine
 10
416.039722
 20
410.765181
 30
0.0
 11
414.677966
 21
409.262939
 31
0.0
  0
LINE
  5
511
100
AcDbEntity
  8
LAY-6
  6
CONTINUOUS
 62
     1
100
AcDbLine
 10
414.677966
 20
409.262939
 30
0.0
 11
416.453327
 21
410.242329
 31
0.0
  0
LINE
  5
512
100
AcDbEntity
  8
LAY-6
  6
CONTINUOUS
 62
     1
100
AcDbLine
 10
429.929016
 20
205.08461
 30
0.0
 11
429.929016
 21
248.148972
 31
0.0
  0
TEXT
  5
513
100
AcDbEntity
  8
LAY-6
  6
CONTINUOUS
 62
     2
100
AcDbText
 10
433.929016
 20
247.648972
 30
0.0
 40
5.0
  1
１６
 41
0.672
  7
EXCADSTD
 72
     5
 11
441.261816
 21
247.648972
 31
0.0
100
AcDbText
  0
LINE
  5
514
100
AcDbEntity
  8
LAY-6
  6
CONTINUOUS
 62
     1
100
AcDbLine
 10
429.929016
 20
247.148972
 30
0.0
 11
445.929016
 21
247.148972
 31
0.0
  0
LINE
  5
515
100
AcDbEntity
  8
LAY-6
  6
CONTINUOUS
 62
     1
100
AcDbLine
 10
431.429016
 20
247.398972
 30
0.0
 11
429.929016
 21
247.148972
 31
0.0
  0
LINE
  5
516
100
AcDbEntity
  8
LAY-6
  6
CONTINUOUS
 62
     1
100
AcDbLine
 10
429.929016
 20
247.148972
 30
0.0
 11
431.429016
 21
246.898972
 31
0.0
  0
LINE
  5
517
100
AcDbEntity
  8
LAY-6
  6
CONTINUOUS
 62
     1
100
AcDbLine
 10
444.429016
 20
246.898972
 30
0.0
 11
445.929016
 21
247.148972
 31
0.0
  0
LINE
  5
518
100
AcDbEntity
  8
LAY-6
  6
CONTINUOUS
 62
     1
100
AcDbLine
 10
445.929016
 20
247.148972
 30
0.0
 11
444.429016
 21
247.398972
 31
0.0
  0
LINE
  5
519
100
AcDbEntity
  8
LAY-6
  6
CONTINUOUS
 62
     1
100
AcDbLine
 10
445.929016
 20
237.648972
 30
0.0
 11
445.929016
 21
248.148972
 31
0.0
  0
LINE
  5
51A
100
AcDbEntity
  8
LAY-6
  6
CONTINUOUS
 62
     1
100
AcDbLine
 10
473.929016
 20
227.648972
 30
0.0
 11
473.929016
 21
248.148972
 31
0.0
  0
TEXT
  5
51B
100
AcDbEntity
  8
LAY-6
  6
CONTINUOUS
 62
     2
100
AcDbText
 10
455.929016
 20
247.648972
 30
0.0
 40
5.0
  1
２８
 41
0.672
  7
EXCADSTD
 72
     5
 11
463.261816
 21
247.648972
 31
0.0
100
AcDbText
  0
LINE
  5
51C
100
AcDbEntity
  8
LAY-6
  6
CONTINUOUS
 62
     1
100
AcDbLine
 10
445.929016
 20
247.148972
 30
0.0
 11
473.929016
 21
247.148972
 31
0.0
  0
LINE
  5
51D
100
AcDbEntity
  8
LAY-6
  6
CONTINUOUS
 62
     1
100
AcDbLine
 10
447.429016
 20
247.398972
 30
0.0
 11
445.929016
 21
247.148972
 31
0.0
  0
LINE
  5
51E
100
AcDbEntity
  8
LAY-6
  6
CONTINUOUS
 62
     1
100
AcDbLine
 10
445.929016
 20
247.148972
 30
0.0
 11
447.429016
 21
246.898972
 31
0.0
  0
LINE
  5
51F
100
AcDbEntity
  8
LAY-6
  6
CONTINUOUS
 62
     1
100
AcDbLine
 10
472.429016
 20
246.898972
 30
0.0
 11
473.929016
 21
247.148972
 31
0.0
  0
LINE
  5
520
100
AcDbEntity
  8
LAY-6
  6
CONTINUOUS
 62
     1
100
AcDbLine
 10
473.929016
 20
247.148972
 30
0.0
 11
472.429016
 21
247.398972
 31
0.0
  0
LINE
  5
521
100
AcDbEntity
  8
LAY-6
  6
CONTINUOUS
 62
     1
100
AcDbLine
 10
438.398987
 20
237.148972
 30
0.0
 11
382.929016
 21
237.148972
 31
0.0
  0
TEXT
  5
522
100
AcDbEntity
  8
LAY-6
  6
CONTINUOUS
 62
     2
100
AcDbText
 10
383.429016
 20
200.648972
 30
0.0
 40
5.0
  1
６５
 50
90.0
 41
0.672
  7
EXCADSTD
 72
     5
 11
383.429016
 21
207.981772
 31
0.0
100
AcDbText
  0
LINE
  5
523
100
AcDbEntity
  8
LAY-6
  6
CONTINUOUS
 62
     1
100
AcDbLine
 10
383.929016
 20
237.148972
 30
0.0
 11
383.929016
 21
172.148972
 31
0.0
  0
LINE
  5
524
100
AcDbEntity
  8
LAY-6
  6
CONTINUOUS
 62
     1
100
AcDbLine
 10
384.179016
 20
235.648972
 30
0.0
 11
383.929016
 21
237.148972
 31
0.0
  0
LINE
  5
525
100
AcDbEntity
  8
LAY-6
  6
CONTINUOUS
 62
     1
100
AcDbLine
 10
383.929016
 20
237.148972
 30
0.0
 11
383.679016
 21
235.648972
 31
0.0
  0
LINE
  5
526
100
AcDbEntity
  8
LAY-6
  6
CONTINUOUS
 62
     1
100
AcDbLine
 10
383.679016
 20
173.648972
 30
0.0
 11
383.929016
 21
172.148972
 31
0.0
  0
LINE
  5
527
100
AcDbEntity
  8
LAY-6
  6
CONTINUOUS
 62
     1
100
AcDbLine
 10
383.929016
 20
172.148972
 30
0.0
 11
384.179016
 21
173.648972
 31
0.0
  0
LINE
  5
528
100
AcDbEntity
  8
LAY-6
  6
CONTINUOUS
 62
     1
100
AcDbLine
 10
411.9
 20
172.148972
 30
0.0
 11
397.929016
 21
172.148972
 31
0.0
  0
LINE
  5
529
100
AcDbEntity
  8
LAY-6
  6
CONTINUOUS
 62
     1
100
AcDbLine
 10
411.9
 20
172.148972
 30
0.0
 11
407.929016
 21
172.148972
 31
0.0
  0
LINE
  5
52A
100
AcDbEntity
  8
LAY-6
  6
CONTINUOUS
 62
     1
100
AcDbLine
 10
411.9
 20
172.148972
 30
0.0
 11
382.929016
 21
172.148972
 31
0.0
  0
TEXT
  5
52B
100
AcDbEntity
  8
LAY-6
  6
CONTINUOUS
 62
     2
100
AcDbText
 10
378.472054
 20
153.525878
 30
0.0
 40
6.0
  1
床面
 41
0.672
  7
EXCADSTD
 72
     5
 11
387.271414
 21
153.525878
 31
0.0
100
AcDbText
  0
POLYLINE
  5
52C
100
AcDbEntity
  8
LAY-6
  6
CONTINUOUS
 62
     1
100
AcDb2dPolyline
 66
     1
 10
0.0
 20
0.0
 30
0.0
 70
   128
  0
VERTEX
  5
52D
100
AcDbEntity
  8
LAY-6
  6
CONTINUOUS
 62
     1
100
AcDbVertex
100
AcDb2dVertex
 10
434.2
 20
173.6
 30
0.0
  0
VERTEX
  5
52E
100
AcDbEntity
  8
LAY-6
  6
CONTINUOUS
 62
     1
100
AcDbVertex
100
AcDb2dVertex
 10
443.615444
 20
153.572973
 30
0.0
  0
SEQEND
  5
52F
100
AcDbEntity
  8
LAY-6
  6
CONTINUOUS
 62
     1
  0
LINE
  5
530
100
AcDbEntity
  8
LAY-6
  6
CONTINUOUS
 62
     1
100
AcDbLine
 10
435.928876
 20
171.097803
 30
0.0
 11
434.2
 21
173.6
 31
0.0
  0
LINE
  5
531
100
AcDbEntity
  8
LAY-6
  6
CONTINUOUS
 62
     1
100
AcDbLine
 10
434.2
 20
173.6
 30
0.0
 11
435.0239
 21
170.672341
 31
0.0
  0
CIRCLE
  5
532
100
AcDbEntity
  8
LAY-6
  6
CONTINUOUS
 62
     2
100
AcDbCircle
 10
445.6
 20
150.1
 30
0.0
 40
4.0
  0
TEXT
  5
533
100
AcDbEntity
  8
LAY-6
  6
CONTINUOUS
 62
     2
100
AcDbText
 10
443.8
 20
147.6
 30
0.0
 40
5.0
  1
４
 41
0.672
  7
EXCADSTD
 72
     5
 11
447.0
 21
147.6
 31
0.0
100
AcDbText
  0
TEXT
  5
534
100
AcDbEntity
  8
LAY-6
  6
CONTINUOUS
 62
     2
100
AcDbText
 10
497.0
 20
173.148972
 30
0.0
 40
5.0
  1
１０
 50
90.0
 41
0.672
  7
EXCADSTD
 72
     5
 11
497.0
 21
180.481772
 31
0.0
100
AcDbText
  0
LINE
  5
535
100
AcDbEntity
  8
LAY-6
  6
CONTINUOUS
 62
     1
100
AcDbLine
 10
469.429016
 20
182.148972
 30
0.0
 11
499.0
 21
182.148972
 31
0.0
  0
LINE
  5
536
100
AcDbEntity
  8
LAY-6
  6
CONTINUOUS
 62
     1
100
AcDbLine
 10
497.5
 20
172.148972
 30
0.0
 11
497.5
 21
182.148972
 31
0.0
  0
LINE
  5
537
100
AcDbEntity
  8
LAY-6
  6
CONTINUOUS
 62
     1
100
AcDbLine
 10
497.166667
 20
174.148972
 30
0.0
 11
497.5
 21
172.148972
 31
0.0
  0
LINE
  5
538
100
AcDbEntity
  8
LAY-6
  6
CONTINUOUS
 62
     1
100
AcDbLine
 10
497.5
 20
172.148972
 30
0.0
 11
497.833333
 21
174.148972
 31
0.0
  0
LINE
  5
539
100
AcDbEntity
  8
LAY-6
  6
CONTINUOUS
 62
     1
100
AcDbLine
 10
497.833333
 20
180.148972
 30
0.0
 11
497.5
 21
182.148972
 31
0.0
  0
LINE
  5
53A
100
AcDbEntity
  8
LAY-6
  6
CONTINUOUS
 62
     1
100
AcDbLine
 10
497.5
 20
182.148972
 30
0.0
 11
497.166667
 21
180.148972
 31
0.0
  0
LINE
  5
53B
100
AcDbEntity
  8
LAY-6
  6
CONTINUOUS
 62
     1
100
AcDbLine
 10
469.429016
 20
232.148972
 30
0.0
 11
499.0
 21
232.148972
 31
0.0
  0
LINE
  5
53C
100
AcDbEntity
  8
LAY-6
  6
CONTINUOUS
 62
     1
100
AcDbLine
 10
497.5
 20
182.148972
 30
0.0
 11
497.5
 21
232.148972
 31
0.0
  0
LINE
  5
53D
100
AcDbEntity
  8
LAY-6
  6
CONTINUOUS
 62
     1
100
AcDbLine
 10
497.166667
 20
184.148972
 30
0.0
 11
497.5
 21
182.148972
 31
0.0
  0
LINE
  5
53E
100
AcDbEntity
  8
LAY-6
  6
CONTINUOUS
 62
     1
100
AcDbLine
 10
497.5
 20
182.148972
 30
0.0
 11
497.833333
 21
184.148972
 31
0.0
  0
LINE
  5
53F
100
AcDbEntity
  8
LAY-6
  6
CONTINUOUS
 62
     1
100
AcDbLine
 10
497.833333
 20
230.148972
 30
0.0
 11
497.5
 21
232.148972
 31
0.0
  0
LINE
  5
540
100
AcDbEntity
  8
LAY-6
  6
CONTINUOUS
 62
     1
100
AcDbLine
 10
497.5
 20
232.148972
 30
0.0
 11
497.166667
 21
230.148972
 31
0.0
  0
TEXT
  5
541
100
AcDbEntity
  8
LAY-6
  6
CONTINUOUS
 62
     2
100
AcDbText
 10
497.0
 20
203.148972
 30
0.0
 40
5.0
  1
５０
 50
90.0
 41
0.672
  7
EXCADSTD
 72
     5
 11
497.0
 21
210.481772
 31
0.0
100
AcDbText
  0
TEXT
  5
542
100
AcDbEntity
  8
LAY-6
  6
CONTINUOUS
 62
     2
100
AcDbText
 10
483.9
 20
181.748972
 30
0.0
 40
5.0
  1
(
 50
90.0
 41
0.36
  7
EXCADSTD
 72
     5
 11
483.9
 21
182.918972
 31
0.0
100
AcDbText
  0
TEXT
  5
543
100
AcDbEntity
  8
LAY-6
  6
CONTINUOUS
 62
     2
100
AcDbText
 10
483.9
 20
183.548972
 30
0.0
 40
5.0
  1
１０
 50
90.0
 41
0.6048
  7
EXCADSTD
 72
     5
 11
483.9
 21
190.148492
 31
0.0
100
AcDbText
  0
TEXT
  5
544
100
AcDbEntity
  8
LAY-6
  6
CONTINUOUS
 62
     2
100
AcDbText
 10
483.9
 20
190.748972
 30
0.0
 40
5.0
  1
)
 50
90.0
 41
0.36
  7
EXCADSTD
 72
     5
 11
483.9
 21
191.918972
 31
0.0
100
AcDbText
  0
LINE
  5
545
100
AcDbEntity
  8
LAY-6
  6
CONTINUOUS
 62
     1
100
AcDbLine
 10
469.429016
 20
182.148972
 30
0.0
 11
485.9
 21
182.148972
 31
0.0
  0
LINE
  5
546
100
AcDbEntity
  8
LAY-6
  6
CONTINUOUS
 62
     1
100
AcDbLine
 10
474.429016
 20
192.148972
 30
0.0
 11
485.9
 21
192.148972
 31
0.0
  0
LINE
  5
547
100
AcDbEntity
  8
LAY-6
  6
CONTINUOUS
 62
     1
100
AcDbLine
 10
484.4
 20
182.148972
 30
0.0
 11
484.4
 21
192.148972
 31
0.0
  0
LINE
  5
548
100
AcDbEntity
  8
LAY-6
  6
CONTINUOUS
 62
     1
100
AcDbLine
 10
484.066667
 20
184.148972
 30
0.0
 11
484.4
 21
182.148972
 31
0.0
  0
LINE
  5
549
100
AcDbEntity
  8
LAY-6
  6
CONTINUOUS
 62
     1
100
AcDbLine
 10
484.4
 20
182.148972
 30
0.0
 11
484.733333
 21
184.148972
 31
0.0
  0
LINE
  5
54A
100
AcDbEntity
  8
LAY-6
  6
CONTINUOUS
 62
     1
100
AcDbLine
 10
484.733333
 20
190.148972
 30
0.0
 11
484.4
 21
192.148972
 31
0.0
  0
LINE
  5
54B
100
AcDbEntity
  8
LAY-6
  6
CONTINUOUS
 62
     1
100
AcDbLine
 10
484.4
 20
192.148972
 30
0.0
 11
484.066667
 21
190.148972
 31
0.0
  0
TEXT
  5
54C
100
AcDbEntity
  8
LAY-6
  6
CONTINUOUS
 62
     2
100
AcDbText
 10
483.9
 20
199.148972
 30
0.0
 40
5.0
  1
（
 50
90.0
 41
0.672
  7
EXCADSTD
 72
     5
 11
483.9
 21
202.348972
 31
0.0
100
AcDbText
  0
TEXT
  5
54D
100
AcDbEntity
  8
LAY-6
  6
CONTINUOUS
 62
     2
100
AcDbText
 10
483.9
 20
203.148972
 30
0.0
 40
5.0
  1
３０
 50
90.0
 41
0.672
  7
EXCADSTD
 72
     5
 11
483.9
 21
210.481772
 31
0.0
100
AcDbText
  0
TEXT
  5
54E
100
AcDbEntity
  8
LAY-6
  6
CONTINUOUS
 62
     2
100
AcDbText
 10
483.9
 20
211.148972
 30
0.0
 40
5.0
  1
）
 50
90.0
 41
0.672
  7
EXCADSTD
 72
     5
 11
483.9
 21
214.348972
 31
0.0
100
AcDbText
  0
LINE
  5
54F
100
AcDbEntity
  8
LAY-6
  6
CONTINUOUS
 62
     1
100
AcDbLine
 10
474.429016
 20
222.148972
 30
0.0
 11
485.9
 21
222.148972
 31
0.0
  0
LINE
  5
550
100
AcDbEntity
  8
LAY-6
  6
CONTINUOUS
 62
     1
100
AcDbLine
 10
484.4
 20
192.148972
 30
0.0
 11
484.4
 21
222.148972
 31
0.0
  0
LINE
  5
551
100
AcDbEntity
  8
LAY-6
  6
CONTINUOUS
 62
     1
100
AcDbLine
 10
484.066667
 20
194.148972
 30
0.0
 11
484.4
 21
192.148972
 31
0.0
  0
LINE
  5
552
100
AcDbEntity
  8
LAY-6
  6
CONTINUOUS
 62
     1
100
AcDbLine
 10
484.4
 20
192.148972
 30
0.0
 11
484.733333
 21
194.148972
 31
0.0
  0
LINE
  5
553
100
AcDbEntity
  8
LAY-6
  6
CONTINUOUS
 62
     1
100
AcDbLine
 10
484.733333
 20
220.148972
 30
0.0
 11
484.4
 21
222.148972
 31
0.0
  0
LINE
  5
554
100
AcDbEntity
  8
LAY-6
  6
CONTINUOUS
 62
     1
100
AcDbLine
 10
484.4
 20
222.148972
 30
0.0
 11
484.066667
 21
220.148972
 31
0.0
  0
TEXT
  5
555
100
AcDbEntity
  8
LAY-6
  6
CONTINUOUS
 62
     2
100
AcDbText
 10
445.529016
 20
239.5
 30
0.0
 40
5.0
  1
(
 41
0.36
  7
EXCADSTD
 72
     5
 11
446.699016
 21
239.5
 31
0.0
100
AcDbText
  0
TEXT
  5
556
100
AcDbEntity
  8
LAY-6
  6
CONTINUOUS
 62
     2
100
AcDbText
 10
447.329016
 20
239.5
 30
0.0
 40
5.0
  1
１０
 41
0.6048
  7
EXCADSTD
 72
     5
 11
453.928536
 21
239.5
 31
0.0
100
AcDbText
  0
TEXT
  5
557
100
AcDbEntity
  8
LAY-6
  6
CONTINUOUS
 62
     2
100
AcDbText
 10
454.529016
 20
239.5
 30
0.0
 40
5.0
  1
)
 41
0.36
  7
EXCADSTD
 72
     5
 11
455.699016
 21
239.5
 31
0.0
100
AcDbText
  0
LINE
  5
558
100
AcDbEntity
  8
LAY-6
  6
CONTINUOUS
 62
     1
100
AcDbLine
 10
445.929016
 20
232.648972
 30
0.0
 11
445.929016
 21
240.5
 31
0.0
  0
LINE
  5
559
100
AcDbEntity
  8
LAY-6
  6
CONTINUOUS
 62
     1
100
AcDbLine
 10
455.929016
 20
227.648972
 30
0.0
 11
455.929016
 21
240.5
 31
0.0
  0
LINE
  5
55A
100
AcDbEntity
  8
LAY-6
  6
CONTINUOUS
 62
     1
100
AcDbLine
 10
445.929016
 20
239.0
 30
0.0
 11
455.929016
 21
239.0
 31
0.0
  0
LINE
  5
55B
100
AcDbEntity
  8
LAY-6
  6
CONTINUOUS
 62
     1
100
AcDbLine
 10
447.929016
 20
239.333333
 30
0.0
 11
445.929016
 21
239.0
 31
0.0
  0
LINE
  5
55C
100
AcDbEntity
  8
LAY-6
  6
CONTINUOUS
 62
     1
100
AcDbLine
 10
445.929016
 20
239.0
 30
0.0
 11
447.929016
 21
238.666667
 31
0.0
  0
LINE
  5
55D
100
AcDbEntity
  8
LAY-6
  6
CONTINUOUS
 62
     1
100
AcDbLine
 10
453.929016
 20
238.666667
 30
0.0
 11
455.929016
 21
239.0
 31
0.0
  0
LINE
  5
55E
100
AcDbEntity
  8
LAY-6
  6
CONTINUOUS
 62
     1
100
AcDbLine
 10
455.929016
 20
239.0
 30
0.0
 11
453.929016
 21
239.333333
 31
0.0
  0
TEXT
  5
55F
100
AcDbEntity
  8
LAY-6
  6
CONTINUOUS
 62
     2
100
AcDbText
 10
456.429016
 20
239.5
 30
0.0
 40
5.0
  1
(
 41
0.4
  7
EXCADSTD
 72
     5
 11
457.729016
 21
239.5
 31
0.0
100
AcDbText
  0
TEXT
  5
560
100
AcDbEntity
  8
LAY-6
  6
CONTINUOUS
 62
     2
100
AcDbText
 10
458.429016
 20
239.5
 30
0.0
 40
5.0
  1
１３
 41
0.672
  7
EXCADSTD
 72
     5
 11
465.761816
 21
239.5
 31
0.0
100
AcDbText
  0
TEXT
  5
561
100
AcDbEntity
  8
LAY-6
  6
CONTINUOUS
 62
     2
100
AcDbText
 10
466.429016
 20
239.5
 30
0.0
 40
5.0
  1
)
 41
0.4
  7
EXCADSTD
 72
     5
 11
467.729016
 21
239.5
 31
0.0
100
AcDbText
  0
LINE
  5
562
100
AcDbEntity
  8
LAY-6
  6
CONTINUOUS
 62
     1
100
AcDbLine
 10
468.929016
 20
227.648972
 30
0.0
 11
468.929016
 21
240.5
 31
0.0
  0
LINE
  5
563
100
AcDbEntity
  8
LAY-6
  6
CONTINUOUS
 62
     1
100
AcDbLine
 10
455.929016
 20
239.0
 30
0.0
 11
468.929016
 21
239.0
 31
0.0
  0
LINE
  5
564
100
AcDbEntity
  8
LAY-6
  6
CONTINUOUS
 62
     1
100
AcDbLine
 10
457.929016
 20
239.333333
 30
0.0
 11
455.929016
 21
239.0
 31
0.0
  0
LINE
  5
565
100
AcDbEntity
  8
LAY-6
  6
CONTINUOUS
 62
     1
100
AcDbLine
 10
455.929016
 20
239.0
 30
0.0
 11
457.929016
 21
238.666667
 31
0.0
  0
LINE
  5
566
100
AcDbEntity
  8
LAY-6
  6
CONTINUOUS
 62
     1
100
AcDbLine
 10
466.929016
 20
238.666667
 30
0.0
 11
468.929016
 21
239.0
 31
0.0
  0
LINE
  5
567
100
AcDbEntity
  8
LAY-6
  6
CONTINUOUS
 62
     1
100
AcDbLine
 10
468.929016
 20
239.0
 30
0.0
 11
466.929016
 21
239.333333
 31
0.0
  0
TEXT
  5
568
100
AcDbEntity
  8
LAY-6
  6
CONTINUOUS
 62
     2
100
AcDbText
 10
321.0
 20
92.0
 30
0.0
 40
9.0
  1
■タップ型(①④タ ップ穴加工付)は品番の後にＴＡＰを付けて下さい。(オプション)　発注例：１Ｃ－５ ＴＡＰ
 41
0.651808
  7
EXCADSTD
 72
     5
 11
684.59999
 21
92.0
 31
0.0
100
AcDbText
  0
TEXT
  5
569
100
AcDbEntity
  8
LAY-6
  6
CONTINUOUS
 62
     2
100
AcDbText
 10
321.0
 20
83.0
 30
0.0
 40
9.0
  1
　タップ穴は（　）内寸法をご参照下さい。
 41
0.672
  7
EXCADSTD
 72
     5
 11
464.999996
 21
83.0
 31
0.0
100
AcDbText
  0
TEXT
  5
56A
100
AcDbEntity
  8
LAY-6
  6
CONTINUOUS
 62
     2
100
AcDbText
 10
321.0
 20
74.0
 30
0.0
 40
9.0
  1
■①カバー３㎜伸ばしは品番の後に①Ｔを付けて下さい。(オプション)　発注例：１Ｃ－５①Ｔ
 41
0.662413
  7
EXCADSTD
 72
     5
 11
630.599992
 21
74.0
 31
0.0
100
AcDbText
  0
TEXT
  5
56B
100
AcDbEntity
  8
LAY-6
  6
CONTINUOUS
 62
     2
100
AcDbText
 10
581.289374
 20
416.735565
 30
0.0
 40
5.0
  1
キャップ
 41
0.672
  7
EXCADSTD
 72
     5
 11
597.289374
 21
416.735565
 31
0.0
100
AcDbText
  0
POLYLINE
  5
56C
100
AcDbEntity
  8
LAY-6
  6
CONTINUOUS
 62
     1
100
AcDb2dPolyline
 66
     1
 10
0.0
 20
0.0
 30
0.0
 70
   128
  0
VERTEX
  5
56D
100
AcDbEntity
  8
LAY-6
  6
CONTINUOUS
 62
     1
100
AcDbVertex
100
AcDb2dVertex
 10
614.5
 20
398.148987
 30
0.0
  0
VERTEX
  5
56E
100
AcDbEntity
  8
LAY-6
  6
CONTINUOUS
 62
     1
100
AcDbVertex
100
AcDb2dVertex
 10
597.3
 20
416.4
 30
0.0
  0
VERTEX
  5
56F
100
AcDbEntity
  8
LAY-6
  6
CONTINUOUS
 62
     1
100
AcDbVertex
100
AcDb2dVertex
 10
580.3
 20
416.4
 30
0.0
  0
SEQEND
  5
570
100
AcDbEntity
  8
LAY-6
  6
CONTINUOUS
 62
     1
  0
LINE
  5
571
100
AcDbEntity
  8
LAY-6
  6
CONTINUOUS
 62
     1
100
AcDbLine
 10
612.885733
 20
399.375874
 30
0.0
 11
614.5
 21
398.148987
 31
0.0
  0
LINE
  5
572
100
AcDbEntity
  8
LAY-6
  6
CONTINUOUS
 62
     1
100
AcDbLine
 10
614.5
 20
398.148987
 30
0.0
 11
613.3709
 21
399.833102
 31
0.0
  0
POLYLINE
  5
573
100
AcDbEntity
  8
LAY-6
  6
CONTINUOUS
 62
     1
100
AcDb2dPolyline
 66
     1
 10
0.0
 20
0.0
 30
0.0
 70
   128
  0
VERTEX
  5
574
100
AcDbEntity
  8
LAY-6
  6
CONTINUOUS
 62
     1
100
AcDbVertex
100
AcDb2dVertex
 10
618.929016
 20
192.148972
 30
0.0
  0
VERTEX
  5
575
100
AcDbEntity
  8
LAY-6
  6
CONTINUOUS
 62
     1
100
AcDbVertex
100
AcDb2dVertex
 10
580.8
 20
260.9
 30
0.0
  0
VERTEX
  5
576
100
AcDbEntity
  8
LAY-6
  6
CONTINUOUS
 62
     1
100
AcDbVertex
100
AcDb2dVertex
 10
523.7
 20
260.9
 30
0.0
  0
SEQEND
  5
577
100
AcDbEntity
  8
LAY-6
  6
CONTINUOUS
 62
     1
  0
LINE
  5
578
100
AcDbEntity
  8
LAY-6
  6
CONTINUOUS
 62
     1
100
AcDbLine
 10
617.036755
 20
194.530012
 30
0.0
 11
618.929016
 21
192.148972
 31
0.0
  0
LINE
  5
579
100
AcDbEntity
  8
LAY-6
  6
CONTINUOUS
 62
     1
100
AcDbLine
 10
618.929016
 20
192.148972
 30
0.0
 11
617.911269
 21
195.015013
 31
0.0
  0
TEXT
  5
57A
100
AcDbEntity
  8
LAY-6
  6
CONTINUOUS
 62
     2
100
AcDbText
 10
521.172967
 20
254.850723
 30
0.0
 40
5.0
  1
軸座ネジは床面にあたるまで軽く
 41
0.672
  7
EXCADSTD
 72
     5
 11
581.172967
 21
254.850723
 31
0.0
100
AcDbText
  0
TEXT
  5
57B
100
AcDbEntity
  8
LAY-6
  6
CONTINUOUS
 62
     2
100
AcDbText
 10
521.172967
 20
249.350723
 30
0.0
 40
5.0
  1
締め込んで下さい。
 41
0.672
  7
EXCADSTD
 72
     5
 11
557.172967
 21
249.350723
 31
0.0
100
AcDbText
  0
LINE
  5
57C
100
AcDbEntity
  8
LAY-9
  6
CONTINUOUS
 62
     1
100
AcDbLine
 10
390.227936
 20
414.262939
 30
0.0
 11
390.227936
 21
400.862946
 31
0.0
  0
LINE
  5
57D
100
AcDbEntity
  8
LAY-9
  6
CONTINUOUS
 62
     1
100
AcDbLine
 10
391.827942
 20
414.262939
 30
0.0
 11
391.827942
 21
400.862946
 31
0.0
  0
ARC
  5
57E
100
AcDbEntity
  8
LAY-9
  6
CONTINUOUS
 62
     1
100
AcDbCircle
 10
391.827942
 20
400.862946
 30
0.0
 40
1.6
100
AcDbArc
 50
180.00002
 51
270.0
  0
ARC
  5
57F
100
AcDbEntity
  8
LAY-9
  6
CONTINUOUS
 62
     1
100
AcDbCircle
 10
413.62796
 20
400.862946
 30
0.0
 40
1.6
100
AcDbArc
 50
270.0
 51
359.999982
  0
LINE
  5
580
100
AcDbEntity
  8
LAY-9
  6
CONTINUOUS
 62
     1
100
AcDbLine
 10
391.827942
 20
414.262939
 30
0.0
 11
390.227936
 21
414.262939
 31
0.0
  0
LINE
  5
581
100
AcDbEntity
  8
LAY-9
  6
CONTINUOUS
 62
     1
100
AcDbLine
 10
430.227966
 20
460.262939
 30
0.0
 11
430.227966
 21
441.862946
 31
0.0
  0
LINE
  5
582
100
AcDbEntity
  8
LAY-9
  6
CONTINUOUS
 62
     1
100
AcDbLine
 10
415.227966
 20
441.862946
 30
0.0
 11
428.62793
 21
441.862946
 31
0.0
  0
LINE
  5
583
100
AcDbEntity
  8
LAY-9
  6
CONTINUOUS
 62
     1
100
AcDbLine
 10
428.62793
 20
460.262939
 30
0.0
 11
428.62793
 21
441.862946
 31
0.0
  0
ARC
  5
584
100
AcDbEntity
  8
LAY-9
  6
CONTINUOUS
 62
     1
100
AcDbCircle
 10
415.227966
 20
440.262939
 30
0.0
 40
1.6
100
AcDbArc
 50
89.999981
 51
180.00002
  0
ARC
  5
585
100
AcDbEntity
  8
LAY-9
  6
CONTINUOUS
 62
     1
100
AcDbCircle
 10
428.62793
 20
441.862946
 30
0.0
 40
1.6
100
AcDbArc
 50
270.0
 51
359.999982
  0
LINE
  5
586
100
AcDbEntity
  8
LAY-9
  6
CONTINUOUS
 62
     1
100
AcDbLine
 10
415.227966
 20
440.262939
 30
0.0
 11
415.227966
 21
400.862946
 31
0.0
  0
LINE
  5
587
100
AcDbEntity
  8
LAY-9
  6
CONTINUOUS
 62
     1
100
AcDbLine
 10
413.62796
 20
400.862946
 30
0.0
 11
413.62796
 21
440.262939
 31
0.0
  0
LINE
  5
588
100
AcDbEntity
  8
LAY-9
  6
CONTINUOUS
 62
     1
100
AcDbLine
 10
403.727966
 20
400.862946
 30
0.0
 11
391.827942
 21
400.862946
 31
0.0
  0
LINE
  5
589
100
AcDbEntity
  8
LAY-9
  6
CONTINUOUS
 62
     1
100
AcDbLine
 10
408.727966
 20
400.862946
 30
0.0
 11
413.62796
 21
400.862946
 31
0.0
  0
LINE
  5
58A
100
AcDbEntity
  8
LAY-9
  6
CONTINUOUS
 62
     1
100
AcDbLine
 10
403.727966
 20
399.262939
 30
0.0
 11
391.827942
 21
399.262939
 31
0.0
  0
LINE
  5
58B
100
AcDbEntity
  8
LAY-9
  6
CONTINUOUS
 62
     1
100
AcDbLine
 10
408.727966
 20
400.862946
 30
0.0
 11
408.727966
 21
440.262939
 31
0.0
  0
LINE
  5
58C
100
AcDbEntity
  8
LAY-9
  6
CONTINUOUS
 62
     1
100
AcDbLine
 10
408.727966
 20
440.262939
 30
0.0
 11
413.62796
 21
440.262939
 31
0.0
  0
LINE
  5
58D
100
AcDbEntity
  8
LAY-9
  6
CONTINUOUS
 62
     1
100
AcDbLine
 10
408.727966
 20
440.262939
 30
0.0
 11
413.62796
 21
400.862946
 31
0.0
  0
LINE
  5
58E
100
AcDbEntity
  8
LAY-9
  6
CONTINUOUS
 62
     1
100
AcDbLine
 10
413.62796
 20
440.262939
 30
0.0
 11
408.727966
 21
400.862946
 31
0.0
  0
LINE
  5
58F
100
AcDbEntity
  8
LAY-9
  6
CONTINUOUS
 62
     1
100
AcDbLine
 10
400.227966
 20
368.262939
 30
0.0
 11
400.227966
 21
399.262939
 31
0.0
  0
ARC
  5
590
100
AcDbEntity
  8
LAY-9
  6
DIVIDE
 62
     1
100
AcDbCircle
 10
436.62796
 20
362.662933
 30
0.0
 40
1.6
100
AcDbArc
 50
359.999982
 51
90.000021
  0
ARC
  5
591
100
AcDbEntity
  8
LAY-9
  6
DIVIDE
 62
     1
100
AcDbCircle
 10
436.62796
 20
329.86293
 30
0.0
 40
1.6
100
AcDbArc
 50
270.0
 51
359.999982
  0
LINE
  5
592
100
AcDbEntity
  8
LAY-9
  6
DIVIDE
 62
     1
100
AcDbLine
 10
438.227966
 20
329.86293
 30
0.0
 11
438.227966
 21
362.662933
 31
0.0
  0
POLYLINE
  5
593
100
AcDbEntity
  8
LAY-9
  6
CONTINUOUS
 62
     1
100
AcDb2dPolyline
 66
     1
 10
0.0
 20
0.0
 30
0.0
 70
   128
  0
VERTEX
  5
594
100
AcDbEntity
  8
LAY-9
  6
CONTINUOUS
 62
     1
100
AcDbVertex
100
AcDb2dVertex
 10
400.227966
 20
368.262939
 30
0.0
  0
VERTEX
  5
595
100
AcDbEntity
  8
LAY-9
  6
CONTINUOUS
 62
     1
100
AcDbVertex
100
AcDb2dVertex
 10
400.177255
 20
368.303296
 30
0.0
  0
VERTEX
  5
596
100
AcDbEntity
  8
LAY-9
  6
CONTINUOUS
 62
     1
100
AcDbVertex
100
AcDb2dVertex
 10
400.033987
 20
368.413797
 30
0.0
  0
VERTEX
  5
597
100
AcDbEntity
  8
LAY-9
  6
CONTINUOUS
 62
     1
100
AcDbVertex
100
AcDb2dVertex
 10
399.81146
 20
368.578585
 30
0.0
  0
VERTEX
  5
598
100
AcDbEntity
  8
LAY-9
  6
CONTINUOUS
 62
     1
100
AcDbVertex
100
AcDb2dVertex
 10
399.522971
 20
368.781804
 30
0.0
  0
VERTEX
  5
599
100
AcDbEntity
  8
LAY-9
  6
CONTINUOUS
 62
     1
100
AcDbVertex
100
AcDb2dVertex
 10
399.181817
 20
369.007597
 30
0.0
  0
VERTEX
  5
59A
100
AcDbEntity
  8
LAY-9
  6
CONTINUOUS
 62
     1
100
AcDbVertex
100
AcDb2dVertex
 10
398.801297
 20
369.24011
 30
0.0
  0
VERTEX
  5
59B
100
AcDbEntity
  8
LAY-9
  6
CONTINUOUS
 62
     1
100
AcDbVertex
100
AcDb2dVertex
 10
398.394707
 20
369.463485
 30
0.0
  0
VERTEX
  5
59C
100
AcDbEntity
  8
LAY-9
  6
CONTINUOUS
 62
     1
100
AcDbVertex
100
AcDb2dVertex
 10
397.975345
 20
369.661866
 30
0.0
  0
VERTEX
  5
59D
100
AcDbEntity
  8
LAY-9
  6
CONTINUOUS
 62
     1
100
AcDbVertex
100
AcDb2dVertex
 10
397.556509
 20
369.819398
 30
0.0
  0
VERTEX
  5
59E
100
AcDbEntity
  8
LAY-9
  6
CONTINUOUS
 62
     1
100
AcDbVertex
100
AcDb2dVertex
 10
397.151497
 20
369.920223
 30
0.0
  0
VERTEX
  5
59F
100
AcDbEntity
  8
LAY-9
  6
CONTINUOUS
 62
     1
100
AcDbVertex
100
AcDb2dVertex
 10
396.773605
 20
369.948486
 30
0.0
  0
VERTEX
  5
5A0
100
AcDbEntity
  8
LAY-9
  6
CONTINUOUS
 62
     1
100
AcDbVertex
100
AcDb2dVertex
 10
396.403644
 20
369.884585
 30
0.0
  0
VERTEX
  5
5A1
100
AcDbEntity
  8
LAY-9
  6
CONTINUOUS
 62
     1
100
AcDbVertex
100
AcDb2dVertex
 10
396.072321
 20
369.734546
 30
0.0
  0
VERTEX
  5
5A2
100
AcDbEntity
  8
LAY-9
  6
CONTINUOUS
 62
     1
100
AcDbVertex
100
AcDb2dVertex
 10
395.770223
 20
369.517351
 30
0.0
  0
VERTEX
  5
5A3
100
AcDbEntity
  8
LAY-9
  6
CONTINUOUS
 62
     1
100
AcDbVertex
100
AcDb2dVertex
 10
395.487934
 20
369.251981
 30
0.0
  0
VERTEX
  5
5A4
100
AcDbEntity
  8
LAY-9
  6
CONTINUOUS
 62
     1
100
AcDbVertex
100
AcDb2dVertex
 10
395.216041
 20
368.957418
 30
0.0
  0
VERTEX
  5
5A5
100
AcDbEntity
  8
LAY-9
  6
CONTINUOUS
 62
     1
100
AcDbVertex
100
AcDb2dVertex
 10
394.94513
 20
368.652642
 30
0.0
  0
VERTEX
  5
5A6
100
AcDbEntity
  8
LAY-9
  6
CONTINUOUS
 62
     1
100
AcDbVertex
100
AcDb2dVertex
 10
394.665786
 20
368.356635
 30
0.0
  0
VERTEX
  5
5A7
100
AcDbEntity
  8
LAY-9
  6
CONTINUOUS
 62
     1
100
AcDbVertex
100
AcDb2dVertex
 10
394.368595
 20
368.088379
 30
0.0
  0
VERTEX
  5
5A8
100
AcDbEntity
  8
LAY-9
  6
CONTINUOUS
 62
     1
100
AcDbVertex
100
AcDb2dVertex
 10
394.044144
 20
367.866854
 30
0.0
  0
VERTEX
  5
5A9
100
AcDbEntity
  8
LAY-9
  6
CONTINUOUS
 62
     1
100
AcDbVertex
100
AcDb2dVertex
 10
393.683018
 20
367.711041
 30
0.0
  0
VERTEX
  5
5AA
100
AcDbEntity
  8
LAY-9
  6
CONTINUOUS
 62
     1
100
AcDbVertex
100
AcDb2dVertex
 10
393.275803
 20
367.639923
 30
0.0
  0
VERTEX
  5
5AB
100
AcDbEntity
  8
LAY-9
  6
CONTINUOUS
 62
     1
100
AcDbVertex
100
AcDb2dVertex
 10
392.954574
 20
367.648701
 30
0.0
  0
VERTEX
  5
5AC
100
AcDbEntity
  8
LAY-9
  6
CONTINUOUS
 62
     1
100
AcDbVertex
100
AcDb2dVertex
 10
392.615388
 20
367.700819
 30
0.0
  0
VERTEX
  5
5AD
100
AcDbEntity
  8
LAY-9
  6
CONTINUOUS
 62
     1
100
AcDbVertex
100
AcDb2dVertex
 10
392.268477
 20
367.786968
 30
0.0
  0
VERTEX
  5
5AE
100
AcDbEntity
  8
LAY-9
  6
CONTINUOUS
 62
     1
100
AcDbVertex
100
AcDb2dVertex
 10
391.924069
 20
367.897841
 30
0.0
  0
VERTEX
  5
5AF
100
AcDbEntity
  8
LAY-9
  6
CONTINUOUS
 62
     1
100
AcDbVertex
100
AcDb2dVertex
 10
391.592393
 20
368.024129
 30
0.0
  0
VERTEX
  5
5B0
100
AcDbEntity
  8
LAY-9
  6
CONTINUOUS
 62
     1
100
AcDbVertex
100
AcDb2dVertex
 10
391.28368
 20
368.156525
 30
0.0
  0
VERTEX
  5
5B1
100
AcDbEntity
  8
LAY-9
  6
CONTINUOUS
 62
     1
100
AcDbVertex
100
AcDb2dVertex
 10
391.008157
 20
368.285722
 30
0.0
  0
VERTEX
  5
5B2
100
AcDbEntity
  8
LAY-9
  6
CONTINUOUS
 62
     1
100
AcDbVertex
100
AcDb2dVertex
 10
390.776055
 20
368.40241
 30
0.0
  0
VERTEX
  5
5B3
100
AcDbEntity
  8
LAY-9
  6
CONTINUOUS
 62
     1
100
AcDbVertex
100
AcDb2dVertex
 10
390.597603
 20
368.497283
 30
0.0
  0
VERTEX
  5
5B4
100
AcDbEntity
  8
LAY-9
  6
CONTINUOUS
 62
     1
100
AcDbVertex
100
AcDb2dVertex
 10
390.48303
 20
368.561033
 30
0.0
  0
VERTEX
  5
5B5
100
AcDbEntity
  8
LAY-9
  6
CONTINUOUS
 62
     1
100
AcDbVertex
100
AcDb2dVertex
 10
390.442566
 20
368.584351
 30
0.0
  0
SEQEND
  5
5B6
100
AcDbEntity
  8
LAY-9
  6
CONTINUOUS
 62
     1
  0
LINE
  5
5B7
100
AcDbEntity
  8
LAY-9
  6
CONTINUOUS
 62
     1
100
AcDbLine
 10
400.227966
 20
399.262939
 30
0.0
 11
396.692429
 21
395.727417
 31
0.0
  0
LINE
  5
5B8
100
AcDbEntity
  8
LAY-9
  6
CONTINUOUS
 62
     1
100
AcDbLine
 10
400.227966
 20
397.848724
 30
0.0
 11
396.692429
 21
394.313202
 31
0.0
  0
LINE
  5
5B9
100
AcDbEntity
  8
LAY-9
  6
CONTINUOUS
 62
     1
100
AcDbLine
 10
400.227966
 20
396.434509
 30
0.0
 11
396.692429
 21
392.898987
 31
0.0
  0
LINE
  5
5BA
100
AcDbEntity
  8
LAY-9
  6
CONTINUOUS
 62
     1
100
AcDbLine
 10
400.227966
 20
395.020294
 30
0.0
 11
396.692429
 21
391.484772
 31
0.0
  0
LINE
  5
5BB
100
AcDbEntity
  8
LAY-9
  6
CONTINUOUS
 62
     1
100
AcDbLine
 10
400.227966
 20
393.606079
 30
0.0
 11
396.692429
 21
390.070557
 31
0.0
  0
LINE
  5
5BC
100
AcDbEntity
  8
LAY-9
  6
CONTINUOUS
 62
     1
100
AcDbLine
 10
400.227966
 20
392.191864
 30
0.0
 11
396.692429
 21
388.656342
 31
0.0
  0
LINE
  5
5BD
100
AcDbEntity
  8
LAY-9
  6
CONTINUOUS
 62
     1
100
AcDbLine
 10
400.227966
 20
390.777649
 30
0.0
 11
396.692429
 21
387.242126
 31
0.0
  0
LINE
  5
5BE
100
AcDbEntity
  8
LAY-9
  6
CONTINUOUS
 62
     1
100
AcDbLine
 10
400.227966
 20
389.363464
 30
0.0
 11
396.692429
 21
385.827911
 31
0.0
  0
LINE
  5
5BF
100
AcDbEntity
  8
LAY-9
  6
CONTINUOUS
 62
     1
100
AcDbLine
 10
400.227966
 20
387.949219
 30
0.0
 11
396.692429
 21
384.413696
 31
0.0
  0
LINE
  5
5C0
100
AcDbEntity
  8
LAY-9
  6
CONTINUOUS
 62
     1
100
AcDbLine
 10
400.227966
 20
386.535034
 30
0.0
 11
396.692429
 21
382.999481
 31
0.0
  0
LINE
  5
5C1
100
AcDbEntity
  8
LAY-9
  6
CONTINUOUS
 62
     1
100
AcDbLine
 10
397.802109
 20
382.694946
 30
0.0
 11
400.227966
 21
385.120789
 31
0.0
  0
LINE
  5
5C2
100
AcDbEntity
  8
LAY-9
  6
CONTINUOUS
 62
     1
100
AcDbLine
 10
398.509216
 20
381.987854
 30
0.0
 11
400.227966
 21
383.706573
 31
0.0
  0
LINE
  5
5C3
100
AcDbEntity
  8
LAY-9
  6
CONTINUOUS
 62
     1
100
AcDbLine
 10
398.604736
 20
380.669128
 30
0.0
 11
400.227966
 21
382.292358
 31
0.0
  0
LINE
  5
5C4
100
AcDbEntity
  8
LAY-9
  6
CONTINUOUS
 62
     1
100
AcDbLine
 10
398.559097
 20
379.20929
 30
0.0
 11
400.227966
 21
380.878174
 31
0.0
  0
LINE
  5
5C5
100
AcDbEntity
  8
LAY-9
  6
CONTINUOUS
 62
     1
100
AcDbLine
 10
398.664017
 20
377.899994
 30
0.0
 11
400.227966
 21
379.463928
 31
0.0
  0
LINE
  5
5C6
100
AcDbEntity
  8
LAY-9
  6
CONTINUOUS
 62
     1
100
AcDbLine
 10
398.392563
 20
376.214355
 30
0.0
 11
400.227966
 21
378.049744
 31
0.0
  0
LINE
  5
5C7
100
AcDbEntity
  8
LAY-9
  6
CONTINUOUS
 62
     1
100
AcDbLine
 10
400.227966
 20
376.635529
 30
0.0
 11
396.692429
 21
373.100006
 31
0.0
  0
LINE
  5
5C8
100
AcDbEntity
  8
LAY-9
  6
CONTINUOUS
 62
     1
100
AcDbLine
 10
400.227966
 20
375.221313
 30
0.0
 11
396.692429
 21
371.685791
 31
0.0
  0
LINE
  5
5C9
100
AcDbEntity
  8
LAY-9
  6
CONTINUOUS
 62
     1
100
AcDbLine
 10
400.227966
 20
373.807098
 30
0.0
 11
396.692429
 21
370.271576
 31
0.0
  0
LINE
  5
5CA
100
AcDbEntity
  8
LAY-9
  6
CONTINUOUS
 62
     1
100
AcDbLine
 10
397.73494
 20
369.899902
 30
0.0
 11
400.227966
 21
372.392914
 31
0.0
  0
LINE
  5
5CB
100
AcDbEntity
  8
LAY-9
  6
CONTINUOUS
 62
     1
100
AcDbLine
 10
398.689285
 20
369.440002
 30
0.0
 11
400.227966
 21
370.978699
 31
0.0
  0
LINE
  5
5CC
100
AcDbEntity
  8
LAY-9
  6
CONTINUOUS
 62
     1
100
AcDbLine
 10
399.480133
 20
368.81665
 30
0.0
 11
400.227966
 21
369.564484
 31
0.0
  0
LINE
  5
5CD
100
AcDbEntity
  8
LAY-9
  6
CONTINUOUS
 62
     1
100
AcDbLine
 10
398.813751
 20
399.262939
 30
0.0
 11
396.692429
 21
397.141632
 31
0.0
  0
LINE
  5
5CE
100
AcDbEntity
  8
LAY-9
  6
CONTINUOUS
 62
     1
100
AcDbLine
 10
397.399536
 20
399.262939
 30
0.0
 11
396.692429
 21
398.555847
 31
0.0
  0
POLYLINE
  5
5CF
100
AcDbEntity
  8
LAY-9
  6
DIVIDE
 62
     1
100
AcDb2dPolyline
 66
     1
 10
0.0
 20
0.0
 30
0.0
 70
   128
  0
VERTEX
  5
5D0
100
AcDbEntity
  8
LAY-9
  6
DIVIDE
 62
     1
100
AcDbVertex
100
AcDb2dVertex
 10
369.473679
 20
364.262909
 30
0.0
  0
VERTEX
  5
5D1
100
AcDbEntity
  8
LAY-9
  6
DIVIDE
 62
     1
100
AcDbVertex
100
AcDb2dVertex
 10
369.409607
 20
364.103705
 30
0.0
  0
VERTEX
  5
5D2
100
AcDbEntity
  8
LAY-9
  6
DIVIDE
 62
     1
100
AcDbVertex
100
AcDb2dVertex
 10
369.233962
 20
363.652316
 30
0.0
  0
VERTEX
  5
5D3
100
AcDbEntity
  8
LAY-9
  6
DIVIDE
 62
     1
100
AcDbVertex
100
AcDb2dVertex
 10
368.971597
 20
362.948078
 30
0.0
  0
VERTEX
  5
5D4
100
AcDbEntity
  8
LAY-9
  6
DIVIDE
 62
     1
100
AcDbVertex
100
AcDb2dVertex
 10
368.647365
 20
362.030328
 30
0.0
  0
VERTEX
  5
5D5
100
AcDbEntity
  8
LAY-9
  6
DIVIDE
 62
     1
100
AcDbVertex
100
AcDb2dVertex
 10
368.286122
 20
360.9384
 30
0.0
  0
VERTEX
  5
5D6
100
AcDbEntity
  8
LAY-9
  6
DIVIDE
 62
     1
100
AcDbVertex
100
AcDb2dVertex
 10
367.912719
 20
359.71163
 30
0.0
  0
VERTEX
  5
5D7
100
AcDbEntity
  8
LAY-9
  6
DIVIDE
 62
     1
100
AcDbVertex
100
AcDb2dVertex
 10
367.552013
 20
358.389355
 30
0.0
  0
VERTEX
  5
5D8
100
AcDbEntity
  8
LAY-9
  6
DIVIDE
 62
     1
100
AcDbVertex
100
AcDb2dVertex
 10
367.228855
 20
357.010911
 30
0.0
  0
VERTEX
  5
5D9
100
AcDbEntity
  8
LAY-9
  6
DIVIDE
 62
     1
100
AcDbVertex
100
AcDb2dVertex
 10
366.9681
 20
355.615632
 30
0.0
  0
VERTEX
  5
5DA
100
AcDbEntity
  8
LAY-9
  6
DIVIDE
 62
     1
100
AcDbVertex
100
AcDb2dVertex
 10
366.794602
 20
354.242855
 30
0.0
  0
VERTEX
  5
5DB
100
AcDbEntity
  8
LAY-9
  6
DIVIDE
 62
     1
100
AcDbVertex
100
AcDb2dVertex
 10
366.733215
 20
352.931915
 30
0.0
  0
VERTEX
  5
5DC
100
AcDbEntity
  8
LAY-9
  6
DIVIDE
 62
     1
100
AcDbVertex
100
AcDb2dVertex
 10
366.874273
 20
351.182481
 30
0.0
  0
VERTEX
  5
5DD
100
AcDbEntity
  8
LAY-9
  6
DIVIDE
 62
     1
100
AcDbVertex
100
AcDb2dVertex
 10
367.251261
 20
349.608776
 30
0.0
  0
VERTEX
  5
5DE
100
AcDbEntity
  8
LAY-9
  6
DIVIDE
 62
     1
100
AcDbVertex
100
AcDb2dVertex
 10
367.80784
 20
348.170637
 30
0.0
  0
VERTEX
  5
5DF
100
AcDbEntity
  8
LAY-9
  6
DIVIDE
 62
     1
100
AcDbVertex
100
AcDb2dVertex
 10
368.48767
 20
346.827897
 30
0.0
  0
VERTEX
  5
5E0
100
AcDbEntity
  8
LAY-9
  6
DIVIDE
 62
     1
100
AcDbVertex
100
AcDb2dVertex
 10
369.234413
 20
345.540392
 30
0.0
  0
VERTEX
  5
5E1
100
AcDbEntity
  8
LAY-9
  6
DIVIDE
 62
     1
100
AcDbVertex
100
AcDb2dVertex
 10
369.991728
 20
344.267958
 30
0.0
  0
VERTEX
  5
5E2
100
AcDbEntity
  8
LAY-9
  6
DIVIDE
 62
     1
100
AcDbVertex
100
AcDb2dVertex
 10
370.703278
 20
342.970429
 30
0.0
  0
VERTEX
  5
5E3
100
AcDbEntity
  8
LAY-9
  6
DIVIDE
 62
     1
100
AcDbVertex
100
AcDb2dVertex
 10
371.312722
 20
341.607641
 30
0.0
  0
VERTEX
  5
5E4
100
AcDbEntity
  8
LAY-9
  6
DIVIDE
 62
     1
100
AcDbVertex
100
AcDb2dVertex
 10
371.763721
 20
340.139429
 30
0.0
  0
VERTEX
  5
5E5
100
AcDbEntity
  8
LAY-9
  6
DIVIDE
 62
     1
100
AcDbVertex
100
AcDb2dVertex
 10
371.999935
 20
338.525628
 30
0.0
  0
VERTEX
  5
5E6
100
AcDbEntity
  8
LAY-9
  6
DIVIDE
 62
     1
100
AcDbVertex
100
AcDb2dVertex
 10
371.965027
 20
336.726074
 30
0.0
  0
VERTEX
  5
5E7
100
AcDbEntity
  8
LAY-9
  6
DIVIDE
 62
     1
100
AcDbVertex
100
AcDb2dVertex
 10
371.825975
 20
335.712988
 30
0.0
  0
VERTEX
  5
5E8
100
AcDbEntity
  8
LAY-9
  6
DIVIDE
 62
     1
100
AcDbVertex
100
AcDb2dVertex
 10
371.616636
 20
334.666612
 30
0.0
  0
VERTEX
  5
5E9
100
AcDbEntity
  8
LAY-9
  6
DIVIDE
 62
     1
100
AcDbVertex
100
AcDb2dVertex
 10
371.354611
 20
333.614291
 30
0.0
  0
VERTEX
  5
5EA
100
AcDbEntity
  8
LAY-9
  6
DIVIDE
 62
     1
100
AcDbVertex
100
AcDb2dVertex
 10
371.0575
 20
332.583367
 30
0.0
  0
VERTEX
  5
5EB
100
AcDbEntity
  8
LAY-9
  6
DIVIDE
 62
     1
100
AcDbVertex
100
AcDb2dVertex
 10
370.742901
 20
331.601185
 30
0.0
  0
VERTEX
  5
5EC
100
AcDbEntity
  8
LAY-9
  6
DIVIDE
 62
     1
100
AcDbVertex
100
AcDb2dVertex
 10
370.428416
 20
330.695088
 30
0.0
  0
VERTEX
  5
5ED
100
AcDbEntity
  8
LAY-9
  6
DIVIDE
 62
     1
100
AcDbVertex
100
AcDb2dVertex
 10
370.131643
 20
329.89242
 30
0.0
  0
VERTEX
  5
5EE
100
AcDbEntity
  8
LAY-9
  6
DIVIDE
 62
     1
100
AcDbVertex
100
AcDb2dVertex
 10
369.870184
 20
329.220525
 30
0.0
  0
VERTEX
  5
5EF
100
AcDbEntity
  8
LAY-9
  6
DIVIDE
 62
     1
100
AcDbVertex
100
AcDb2dVertex
 10
369.661637
 20
328.706745
 30
0.0
  0
VERTEX
  5
5F0
100
AcDbEntity
  8
LAY-9
  6
DIVIDE
 62
     1
100
AcDbVertex
100
AcDb2dVertex
 10
369.523602
 20
328.378425
 30
0.0
  0
VERTEX
  5
5F1
100
AcDbEntity
  8
LAY-9
  6
DIVIDE
 62
     1
100
AcDbVertex
100
AcDb2dVertex
 10
369.473679
 20
328.262909
 30
0.0
  0
SEQEND
  5
5F2
100
AcDbEntity
  8
LAY-9
  6
DIVIDE
 62
     1
  0
LINE
  5
5F3
100
AcDbEntity
  8
LAY-9
  6
DIVIDE
 62
     1
100
AcDbLine
 10
436.62796
 20
364.262939
 30
0.0
 11
369.473679
 21
364.262909
 31
0.0
  0
LINE
  5
5F4
100
AcDbEntity
  8
LAY-9
  6
DIVIDE
 62
     1
100
AcDbLine
 10
436.62796
 20
328.262924
 30
0.0
 11
369.473679
 21
328.262909
 31
0.0
  0
LINE
  5
5F5
100
AcDbEntity
  8
LAY-9
  6
CONTINUOUS
 62
     1
100
AcDbLine
 10
165.227928
 20
414.262939
 30
0.0
 11
165.227928
 21
400.862976
 31
0.0
  0
LINE
  5
5F6
100
AcDbEntity
  8
LAY-9
  6
CONTINUOUS
 62
     1
100
AcDbLine
 10
166.827927
 20
414.262939
 30
0.0
 11
166.827927
 21
400.862976
 31
0.0
  0
LINE
  5
5F7
100
AcDbEntity
  8
LAY-9
  6
CONTINUOUS
 62
     1
100
AcDbLine
 10
166.827927
 20
400.862976
 30
0.0
 11
188.62793
 21
400.862976
 31
0.0
  0
ARC
  5
5F8
100
AcDbEntity
  8
LAY-9
  6
CONTINUOUS
 62
     1
100
AcDbCircle
 10
166.827927
 20
400.862976
 30
0.0
 40
1.6
100
AcDbArc
 50
180.00002
 51
270.0
  0
ARC
  5
5F9
100
AcDbEntity
  8
LAY-9
  6
CONTINUOUS
 62
     1
100
AcDbCircle
 10
188.62793
 20
400.862976
 30
0.0
 40
1.6
100
AcDbArc
 50
270.0
 51
359.999982
  0
LINE
  5
5FA
100
AcDbEntity
  8
LAY-9
  6
CONTINUOUS
 62
     1
100
AcDbLine
 10
166.827927
 20
414.262939
 30
0.0
 11
165.227928
 21
414.262939
 31
0.0
  0
LINE
  5
5FB
100
AcDbEntity
  8
LAY-9
  6
CONTINUOUS
 62
     1
100
AcDbLine
 10
193.034798
 20
399.262939
 30
0.0
 11
166.827927
 21
399.262939
 31
0.0
  0
ARC
  5
5FC
100
AcDbEntity
  8
LAY-9
  6
CONTINUOUS
 62
     1
100
AcDbCircle
 10
194.827927
 20
290.862946
 30
0.0
 40
1.6
100
AcDbArc
 50
180.00002
 51
270.0
  0
ARC
  5
5FD
100
AcDbEntity
  8
LAY-9
  6
CONTINUOUS
 62
     1
100
AcDbCircle
 10
194.827927
 20
180.862938
 30
0.0
 40
1.6
100
AcDbArc
 50
180.00002
 51
270.0
  0
ARC
  5
5FE
100
AcDbEntity
  8
LAY-9
  6
CONTINUOUS
 62
     1
100
AcDbCircle
 10
194.827927
 20
323.662933
 30
0.0
 40
1.6
100
AcDbArc
 50
89.999981
 51
180.00002
  0
LINE
  5
5FF
100
AcDbEntity
  8
LAY-9
  6
CONTINUOUS
 62
     1
100
AcDbLine
 10
193.227928
 20
323.662933
 30
0.0
 11
193.227928
 21
290.862946
 31
0.0
  0
ARC
  5
600
100
AcDbEntity
  8
LAY-9
  6
CONTINUOUS
 62
     1
100
AcDbCircle
 10
194.827927
 20
213.662933
 30
0.0
 40
1.6
100
AcDbArc
 50
89.999981
 51
180.00002
  0
LINE
  5
601
100
AcDbEntity
  8
LAY-9
  6
CONTINUOUS
 62
     1
100
AcDbLine
 10
193.227928
 20
213.662933
 30
0.0
 11
193.227928
 21
180.862938
 31
0.0
  0
LINE
  5
602
100
AcDbEntity
  8
LAY-9
  6
CONTINUOUS
 62
     1
100
AcDbLine
 10
205.227921
 20
460.262939
 30
0.0
 11
205.227921
 21
441.862976
 31
0.0
  0
LINE
  5
603
100
AcDbEntity
  8
LAY-9
  6
CONTINUOUS
 62
     1
100
AcDbLine
 10
190.227928
 20
441.862976
 30
0.0
 11
203.627914
 21
441.862976
 31
0.0
  0
LINE
  5
604
100
AcDbEntity
  8
LAY-9
  6
CONTINUOUS
 62
     1
100
AcDbLine
 10
203.627914
 20
460.262939
 30
0.0
 11
203.627914
 21
441.862976
 31
0.0
  0
ARC
  5
605
100
AcDbEntity
  8
LAY-9
  6
CONTINUOUS
 62
     1
100
AcDbCircle
 10
190.227928
 20
440.262939
 30
0.0
 40
1.6
100
AcDbArc
 50
89.999981
 51
180.00002
  0
ARC
  5
606
100
AcDbEntity
  8
LAY-9
  6
CONTINUOUS
 62
     1
100
AcDbCircle
 10
203.627914
 20
441.862976
 30
0.0
 40
1.6
100
AcDbArc
 50
270.0
 51
359.999982
  0
LINE
  5
607
100
AcDbEntity
  8
LAY-9
  6
CONTINUOUS
 62
     1
100
AcDbLine
 10
190.227928
 20
440.262939
 30
0.0
 11
190.227928
 21
400.862976
 31
0.0
  0
LINE
  5
608
100
AcDbEntity
  8
LAY-9
  6
CONTINUOUS
 62
     1
100
AcDbLine
 10
188.62793
 20
400.862976
 30
0.0
 11
188.62793
 21
440.262939
 31
0.0
  0
LINE
  5
609
100
AcDbEntity
  8
LAY-9
  6
CONTINUOUS
 62
     1
100
AcDbLine
 10
190.227928
 20
440.262939
 30
0.0
 11
273.227921
 21
440.262939
 31
0.0
  0
LINE
  5
60A
100
AcDbEntity
  8
LAY-9
  6
CONTINUOUS
 62
     1
100
AcDbLine
 10
228.342873
 20
399.262939
 30
0.0
 11
273.227921
 21
399.262939
 31
0.0
  0
LINE
  5
60B
100
AcDbEntity
  8
LAY-9
  6
CONTINUOUS
 62
     1
100
AcDbLine
 10
194.827927
 20
325.262939
 30
0.0
 11
273.227921
 21
325.262939
 31
0.0
  0
LINE
  5
60C
100
AcDbEntity
  8
LAY-9
  6
CONTINUOUS
 62
     1
100
AcDbLine
 10
229.741798
 20
289.262939
 30
0.0
 11
273.227921
 21
289.262939
 31
0.0
  0
LINE
  5
60D
100
AcDbEntity
  8
LAY-9
  6
CONTINUOUS
 62
     1
100
AcDbLine
 10
194.827927
 20
215.262939
 30
0.0
 11
273.227921
 21
215.262939
 31
0.0
  0
LINE
  5
60E
100
AcDbEntity
  8
LAY-9
  6
CONTINUOUS
 62
     1
100
AcDbLine
 10
229.741798
 20
179.262932
 30
0.0
 11
273.227921
 21
179.262932
 31
0.0
  0
ARC
  5
60F
100
AcDbEntity
  8
LAY-9
  6
CONTINUOUS
 62
     1
100
AcDbCircle
 10
636.529022
 20
404.54895
 30
0.0
 40
1.6
100
AcDbArc
 50
89.999981
 51
180.00002
  0
ARC
  5
610
100
AcDbEntity
  8
LAY-9
  6
CONTINUOUS
 62
     1
100
AcDbCircle
 10
636.529022
 20
382.748962
 30
0.0
 40
1.6
100
AcDbArc
 50
180.00002
 51
270.0
  0
LINE
  5
611
100
AcDbEntity
  8
LAY-9
  6
CONTINUOUS
 62
     1
100
AcDbLine
 10
641.82901
 20
361.54895
 30
0.0
 11
641.82901
 21
369.148987
 31
0.0
  0
LINE
  5
612
100
AcDbEntity
  8
LAY-9
  6
CONTINUOUS
 62
     1
100
AcDbLine
 10
636.529022
 20
387.648987
 30
0.0
 11
636.529022
 21
382.748962
 31
0.0
  0
LINE
  5
613
100
AcDbEntity
  8
LAY-9
  6
CONTINUOUS
 62
     1
100
AcDbLine
 10
636.529022
 20
394.148987
 30
0.0
 11
636.529022
 21
404.54895
 31
0.0
  0
LINE
  5
614
100
AcDbEntity
  8
LAY-9
  6
CONTINUOUS
 62
     1
100
AcDbLine
 10
634.929016
 20
394.148987
 30
0.0
 11
634.929016
 21
404.54895
 31
0.0
  0
LINE
  5
615
100
AcDbEntity
  8
LAY-9
  6
CONTINUOUS
 62
     1
100
AcDbLine
 10
639.529022
 20
181.148972
 30
0.0
 11
639.529022
 21
178.148972
 31
0.0
  0
LINE
  5
616
100
AcDbEntity
  8
LAY-9
  6
CONTINUOUS
 62
     1
100
AcDbLine
 10
637.929016
 20
181.148972
 30
0.0
 11
637.929016
 21
178.148972
 31
0.0
  0
ARC
  5
617
100
AcDbEntity
  8
LAY-9
  6
CONTINUOUS
 62
     1
100
AcDbCircle
 10
641.82901
 20
193.348969
 30
0.0
 40
2.3
100
AcDbArc
 50
89.999981
 51
180.00002
  0
LINE
  5
618
100
AcDbEntity
  8
LAY-9
  6
CONTINUOUS
 62
     1
100
AcDbLine
 10
641.82901
 20
190.148972
 30
0.0
 11
641.82901
 21
193.348969
 31
0.0
  0
LINE
  5
619
100
AcDbEntity
  8
LAY-9
  6
CONTINUOUS
 62
     1
100
AcDbLine
 10
641.82901
 20
361.54895
 30
0.0
 11
639.529022
 21
361.54895
 31
0.0
  0
LINE
  5
61A
100
AcDbEntity
  8
LAY-9
  6
CONTINUOUS
 62
     1
100
AcDbLine
 10
649.929016
 20
404.54895
 30
0.0
 11
649.929016
 21
406.148987
 31
0.0
  0
LINE
  5
61B
100
AcDbEntity
  8
LAY-9
  6
CONTINUOUS
 62
     1
100
AcDbLine
 10
636.529022
 20
406.148987
 30
0.0
 11
649.929016
 21
406.148987
 31
0.0
  0
LINE
  5
61C
100
AcDbEntity
  8
LAY-9
  6
CONTINUOUS
 62
     1
100
AcDbLine
 10
636.529022
 20
404.54895
 30
0.0
 11
649.929016
 21
404.54895
 31
0.0
  0
LINE
  5
61D
100
AcDbEntity
  8
LAY-9
  6
CONTINUOUS
 62
     1
100
AcDbLine
 10
639.529022
 20
283.148987
 30
0.0
 11
639.529022
 21
369.148987
 31
0.0
  0
LINE
  5
61E
100
AcDbEntity
  8
LAY-9
  6
CONTINUOUS
 62
     1
100
AcDbLine
 10
639.529022
 20
273.148987
 30
0.0
 11
639.529022
 21
190.148972
 31
0.0
  0
LINE
  5
61F
100
AcDbEntity
  8
LAY-9
  6
CONTINUOUS
 62
     1
100
AcDbLine
 10
637.929016
 20
283.148987
 30
0.0
 11
637.929016
 21
365.148987
 31
0.0
  0
LINE
  5
620
100
AcDbEntity
  8
LAY-9
  6
CONTINUOUS
 62
     1
100
AcDbLine
 10
637.929016
 20
273.148987
 30
0.0
 11
637.929016
 21
194.148972
 31
0.0
  0
LINE
  5
621
100
AcDbEntity
  8
LAY-9
  6
CONTINUOUS
 62
     1
100
AcDbLine
 10
675.929016
 20
283.148987
 30
0.0
 11
675.929016
 21
381.148987
 31
0.0
  0
LINE
  5
622
100
AcDbEntity
  8
LAY-9
  6
CONTINUOUS
 62
     1
100
AcDbLine
 10
677.529022
 20
381.148987
 30
0.0
 11
677.529022
 21
367.748962
 31
0.0
  0
ARC
  5
623
100
AcDbEntity
  8
LAY-9
  6
CONTINUOUS
 62
     1
100
AcDbCircle
 10
675.929016
 20
381.148987
 30
0.0
 40
1.6
100
AcDbArc
 50
0.0
 51
89.999981
  0
ARC
  5
624
100
AcDbEntity
  8
LAY-9
  6
CONTINUOUS
 62
     1
100
AcDbCircle
 10
677.529022
 20
367.748962
 30
0.0
 40
1.6
100
AcDbArc
 50
180.00002
 51
270.0
  0
ARC
  5
625
100
AcDbEntity
  8
LAY-9
  6
CONTINUOUS
 62
     1
100
AcDbCircle
 10
672.32901
 20
376.54895
 30
0.0
 40
1.6
100
AcDbArc
 50
0.0
 51
89.999981
  0
LINE
  5
626
100
AcDbEntity
  8
LAY-9
  6
CONTINUOUS
 62
     1
100
AcDbLine
 10
670.029022
 20
361.54895
 30
0.0
 11
670.029022
 21
374.248962
 31
0.0
  0
ARC
  5
627
100
AcDbEntity
  8
LAY-9
  6
CONTINUOUS
 62
     1
100
AcDbCircle
 10
670.029022
 20
374.248962
 30
0.0
 40
2.3
100
AcDbArc
 50
0.0
 51
89.999981
  0
LINE
  5
628
100
AcDbEntity
  8
LAY-9
  6
CONTINUOUS
 62
     1
100
AcDbLine
 10
675.929016
 20
382.748962
 30
0.0
 11
675.929016
 21
387.648987
 31
0.0
  0
LINE
  5
629
100
AcDbEntity
  8
LAY-9
  6
CONTINUOUS
 62
     1
100
AcDbLine
 10
670.029022
 20
361.54895
 30
0.0
 11
672.32901
 21
361.54895
 31
0.0
  0
LINE
  5
62A
100
AcDbEntity
  8
LAY-9
  6
CONTINUOUS
 62
     1
100
AcDbLine
 10
673.929016
 20
283.148987
 30
0.0
 11
673.929016
 21
376.54895
 31
0.0
  0
LINE
  5
62B
100
AcDbEntity
  8
LAY-9
  6
CONTINUOUS
 62
     1
100
AcDbLine
 10
672.32901
 20
283.148987
 30
0.0
 11
672.32901
 21
376.54895
 31
0.0
  0
LINE
  5
62C
100
AcDbEntity
  8
LAY-9
  6
CONTINUOUS
 62
     1
100
AcDbLine
 10
666.929016
 20
378.148987
 30
0.0
 11
672.32901
 21
378.148987
 31
0.0
  0
LINE
  5
62D
100
AcDbEntity
  8
LAY-9
  6
CONTINUOUS
 62
     1
100
AcDbLine
 10
636.529022
 20
381.148987
 30
0.0
 11
675.929016
 21
381.148987
 31
0.0
  0
LINE
  5
62E
100
AcDbEntity
  8
LAY-9
  6
CONTINUOUS
 62
     1
100
AcDbLine
 10
636.529022
 20
382.748962
 30
0.0
 11
675.929016
 21
382.748962
 31
0.0
  0
LINE
  5
62F
100
AcDbEntity
  8
LAY-9
  6
CONTINUOUS
 62
     1
100
AcDbLine
 10
667.929016
 20
376.54895
 30
0.0
 11
672.32901
 21
376.54895
 31
0.0
  0
LINE
  5
630
100
AcDbEntity
  8
LAY-9
  6
CONTINUOUS
 62
     1
100
AcDbLine
 10
667.929016
 20
374.248962
 30
0.0
 11
670.029022
 21
374.248962
 31
0.0
  0
LINE
  5
631
100
AcDbEntity
  8
LAY-9
  6
CONTINUOUS
 62
     1
100
AcDbLine
 10
636.529022
 20
387.648987
 30
0.0
 11
675.929016
 21
387.648987
 31
0.0
  0
LINE
  5
632
100
AcDbEntity
  8
LAY-9
  6
CONTINUOUS
 62
     1
100
AcDbLine
 10
641.82901
 20
369.148987
 30
0.0
 11
670.029022
 21
369.148987
 31
0.0
  0
LINE
  5
633
100
AcDbEntity
  8
LAY-9
  6
CONTINUOUS
 62
     1
100
AcDbLine
 10
670.029022
 20
365.948975
 30
0.0
 11
641.82901
 21
365.948975
 31
0.0
  0
LINE
  5
634
100
AcDbEntity
  8
LAY-9
  6
CONTINUOUS
 62
     1
100
AcDbLine
 10
636.529022
 20
382.748962
 30
0.0
 11
675.929016
 21
387.648987
 31
0.0
  0
LINE
  5
635
100
AcDbEntity
  8
LAY-9
  6
CONTINUOUS
 62
     1
100
AcDbLine
 10
636.529022
 20
387.648987
 30
0.0
 11
675.929016
 21
382.748962
 31
0.0
  0
LINE
  5
636
100
AcDbEntity
  8
LAY-9
  6
CONTINUOUS
 62
     1
100
AcDbLine
 10
641.82901
 20
369.148987
 30
0.0
 11
670.029022
 21
365.948975
 31
0.0
  0
LINE
  5
637
100
AcDbEntity
  8
LAY-9
  6
CONTINUOUS
 62
     1
100
AcDbLine
 10
641.82901
 20
365.948975
 30
0.0
 11
670.029022
 21
369.148987
 31
0.0
  0
LINE
  5
638
100
AcDbEntity
  8
LAY-9
  6
CONTINUOUS
 62
     1
100
AcDbLine
 10
695.929016
 20
366.148987
 30
0.0
 11
677.529022
 21
366.148987
 31
0.0
  0
LINE
  5
639
100
AcDbEntity
  8
LAY-9
  6
CONTINUOUS
 62
     1
100
AcDbLine
 10
695.929016
 20
367.748962
 30
0.0
 11
677.529022
 21
367.748962
 31
0.0
  0
ARC
  5
63A
100
AcDbEntity
  8
LAY-9
  6
CONTINUOUS
 62
     1
100
AcDbCircle
 10
670.029022
 20
193.348969
 30
0.0
 40
2.3
100
AcDbArc
 50
0.0
 51
89.999981
  0
LINE
  5
63B
100
AcDbEntity
  8
LAY-9
  6
CONTINUOUS
 62
     1
100
AcDbLine
 10
673.929016
 20
273.148987
 30
0.0
 11
673.929016
 21
178.148972
 31
0.0
  0
LINE
  5
63C
100
AcDbEntity
  8
LAY-9
  6
CONTINUOUS
 62
     1
100
AcDbLine
 10
672.32901
 20
273.148987
 30
0.0
 11
672.32901
 21
178.148972
 31
0.0
  0
LINE
  5
63D
100
AcDbEntity
  8
LAY-9
  6
CONTINUOUS
 62
     1
100
AcDbLine
 10
670.029022
 20
195.648972
 30
0.0
 11
641.82901
 21
195.648972
 31
0.0
  0
LINE
  5
63E
100
AcDbEntity
  8
LAY-9
  6
CONTINUOUS
 62
     1
100
AcDbLine
 10
670.029022
 20
193.348969
 30
0.0
 11
641.82901
 21
193.348969
 31
0.0
  0
LINE
  5
63F
100
AcDbEntity
  8
LAY-9
  6
CONTINUOUS
 62
     1
100
AcDbLine
 10
641.82901
 20
190.148972
 30
0.0
 11
670.029022
 21
190.148972
 31
0.0
  0
LINE
  5
640
100
AcDbEntity
  8
LAY-9
  6
CONTINUOUS
 62
     1
100
AcDbLine
 10
670.029022
 20
193.348969
 30
0.0
 11
641.82901
 21
190.148972
 31
0.0
  0
LINE
  5
641
100
AcDbEntity
  8
LAY-9
  6
CONTINUOUS
 62
     1
100
AcDbLine
 10
641.82901
 20
193.348969
 30
0.0
 11
670.029022
 21
190.148972
 31
0.0
  0
LINE
  5
642
100
AcDbEntity
  8
LAY-9
  6
DIVIDE
 62
     1
100
AcDbLine
 10
683.929016
 20
283.148987
 30
0.0
 11
627.929016
 21
283.148987
 31
0.0
  0
LINE
  5
643
100
AcDbEntity
  8
LAY-9
  6
DIVIDE
 62
     1
100
AcDbLine
 10
683.929016
 20
273.148987
 30
0.0
 11
627.929016
 21
273.148987
 31
0.0
  0
LINE
  5
644
100
AcDbEntity
  8
LAY-9
  6
CONTINUOUS
 62
     1
100
AcDbLine
 10
634.929016
 20
378.148987
 30
0.0
 11
634.929016
 21
387.648987
 31
0.0
  0
LINE
  5
645
100
AcDbEntity
  8
LAY-9
  6
CONTINUOUS
 62
     1
100
AcDbLine
 10
634.929016
 20
283.148987
 30
0.0
 11
634.929016
 21
365.148987
 31
0.0
  0
LINE
  5
646
100
AcDbEntity
  8
LAY-9
  6
CONTINUOUS
 62
     1
100
AcDbLine
 10
675.929016
 20
273.148987
 30
0.0
 11
675.929016
 21
172.148972
 31
0.0
  0
LINE
  5
647
100
AcDbEntity
  8
LAY-9
  6
CONTINUOUS
 62
     1
100
AcDbLine
 10
634.929016
 20
172.148972
 30
0.0
 11
634.929016
 21
181.148972
 31
0.0
  0
LINE
  5
648
100
AcDbEntity
  8
LAY-9
  6
CONTINUOUS
 62
     1
100
AcDbLine
 10
634.929016
 20
194.148972
 30
0.0
 11
634.929016
 21
273.148987
 31
0.0
  0
LINE
  5
649
100
AcDbEntity
  8
LAY-9
  6
DASHED2
 62
     1
100
AcDbLine
 10
634.929016
 20
172.148972
 30
0.0
 11
634.929016
 21
157.148972
 31
0.0
  0
LINE
  5
64A
100
AcDbEntity
  8
LAY-9
  6
DASHED2
 62
     1
100
AcDbLine
 10
634.929016
 20
157.148972
 30
0.0
 11
675.929016
 21
157.148972
 31
0.0
  0
LINE
  5
64B
100
AcDbEntity
  8
LAY-9
  6
DASHED2
 62
     1
100
AcDbLine
 10
675.929016
 20
172.148972
 30
0.0
 11
675.929016
 21
157.148972
 31
0.0
  0
LINE
  5
64C
100
AcDbEntity
  8
LAY-9
  6
CONTINUOUS
 62
     1
100
AcDbLine
 10
560.756622
 20
172.148972
 30
0.0
 11
600.9
 21
172.148972
 31
0.0
  0
LINE
  5
64D
100
AcDbEntity
  8
LAY-9
  6
CONTINUOUS
 62
     1
100
AcDbLine
 10
560.8
 20
172.148972
 30
0.0
 11
604.9
 21
172.148972
 31
0.0
  0
LINE
  5
64E
100
AcDbEntity
  8
LAY-9
  6
CONTINUOUS
 62
     1
100
AcDbLine
 10
632.9
 20
172.148972
 30
0.0
 11
721.7
 21
172.148972
 31
0.0
  0
LINE
  5
64F
100
AcDbEntity
  8
LAY-9
  6
CONTINUOUS
 62
     1
100
AcDbLine
 10
670.029022
 20
193.348969
 30
0.0
 11
670.029022
 21
180.148972
 31
0.0
  0
LINE
  5
650
100
AcDbEntity
  8
LAY-9
  6
CONTINUOUS
 62
     1
100
AcDbLine
 10
672.32901
 20
178.148972
 30
0.0
 11
673.929016
 21
178.148972
 31
0.0
  0
LINE
  5
651
100
AcDbEntity
  8
LAY-9
  6
CONTINUOUS
 62
     1
100
AcDbLine
 10
670.029022
 20
180.148972
 30
0.0
 11
672.32901
 21
180.148972
 31
0.0
  0
LINE
  5
652
100
AcDbEntity
  8
LAY-9
  6
CONTINUOUS
 62
     1
100
AcDbLine
 10
639.529022
 20
180.148972
 30
0.0
 11
641.82901
 21
180.148972
 31
0.0
  0
LINE
  5
653
100
AcDbEntity
  8
LAY-9
  6
CONTINUOUS
 62
     1
100
AcDbLine
 10
641.82901
 20
181.148972
 30
0.0
 11
641.82901
 21
180.148972
 31
0.0
  0
LINE
  5
654
100
AcDbEntity
  8
LAY-9
  6
CONTINUOUS
 62
     1
100
AcDbLine
 10
639.529022
 20
178.148972
 30
0.0
 11
637.929016
 21
178.148972
 31
0.0
  0
LINE
  5
655
100
AcDbEntity
  8
LAY-9
  6
CONTINUOUS
 62
     1
100
AcDbLine
 10
413.62796
 20
399.262939
 30
0.0
 11
408.727966
 21
399.262939
 31
0.0
  0
LINE
  5
656
100
AcDbEntity
  8
LAY-9
  6
CONTINUOUS
 62
     1
100
AcDbLine
 10
428.62793
 20
440.262939
 30
0.0
 11
415.227966
 21
440.262939
 31
0.0
  0
LINE
  5
657
100
AcDbEntity
  8
LAY-9
  6
DIVIDE
 62
     1
100
AcDbLine
 10
494.929016
 20
273.148987
 30
0.0
 11
438.929016
 21
273.148987
 31
0.0
  0
LINE
  5
658
100
AcDbEntity
  8
LAY-9
  6
CONTINUOUS
 62
     1
100
AcDbLine
 10
486.929016
 20
273.148987
 30
0.0
 11
486.929016
 21
172.148972
 31
0.0
  0
LINE
  5
659
100
AcDbEntity
  8
LAY-9
  6
CONTINUOUS
 62
     1
100
AcDbLine
 10
371.756622
 20
172.148972
 30
0.0
 11
411.9
 21
172.148972
 31
0.0
  0
LINE
  5
65A
100
AcDbEntity
  8
LAY-9
  6
CONTINUOUS
 62
     1
100
AcDbLine
 10
371.8
 20
172.148972
 30
0.0
 11
415.9
 21
172.148972
 31
0.0
  0
LINE
  5
65B
100
AcDbEntity
  8
LAY-9
  6
CONTINUOUS
 62
     1
100
AcDbLine
 10
443.9
 20
172.148972
 30
0.0
 11
532.7
 21
172.148972
 31
0.0
  0
LINE
  5
65C
100
AcDbEntity
  8
LAY-9
  6
CONTINUOUS
 62
     1
100
AcDbLine
 10
445.929016
 20
237.148972
 30
0.0
 11
445.929016
 21
273.148987
 31
0.0
  0
LINE
  5
65D
100
AcDbEntity
  8
LAY-9
  6
CONTINUOUS
 62
     1
100
AcDbLine
 10
445.929016
 20
172.148972
 30
0.0
 11
445.929016
 21
182.148972
 31
0.0
  0
LINE
  5
65E
100
AcDbEntity
  8
LAY-10
  6
CONTINUOUS
 62
     5
100
AcDbLine
 10
15.0
 20
15.0
 30
0.0
 11
826.0
 21
15.0
 31
0.0
  0
LINE
  5
65F
100
AcDbEntity
  8
LAY-10
  6
CONTINUOUS
 62
     5
100
AcDbLine
 10
826.0
 20
15.0
 30
0.0
 11
826.0
 21
579.0
 31
0.0
  0
LINE
  5
660
100
AcDbEntity
  8
LAY-10
  6
CONTINUOUS
 62
     5
100
AcDbLine
 10
15.0
 20
15.0
 30
0.0
 11
15.0
 21
579.0
 31
0.0
  0
LINE
  5
661
100
AcDbEntity
  8
LAY-10
  6
CONTINUOUS
 62
     5
100
AcDbLine
 10
15.0
 20
579.0
 30
0.0
 11
826.0
 21
579.0
 31
0.0
  0
LINE
  5
662
100
AcDbEntity
  8
LAY-10
  6
CONTINUOUS
 62
     5
100
AcDbLine
 10
15.0
 20
40.0
 30
0.0
 11
826.0
 21
40.0
 31
0.0
  0
LINE
  5
663
100
AcDbEntity
  8
LAY-10
  6
CONTINUOUS
 62
     1
100
AcDbLine
 10
224.0
 20
40.0
 30
0.0
 11
224.0
 21
15.0
 31
0.0
  0
LINE
  5
664
100
AcDbEntity
  8
LAY-10
  6
CONTINUOUS
 62
     1
100
AcDbLine
 10
249.5
 20
40.0
 30
0.0
 11
249.5
 21
15.0
 31
0.0
  0
LINE
  5
665
100
AcDbEntity
  8
LAY-10
  6
CONTINUOUS
 62
     1
100
AcDbLine
 10
275.0
 20
40.0
 30
0.0
 11
275.0
 21
15.0
 31
0.0
  0
LINE
  5
666
100
AcDbEntity
  8
LAY-10
  6
CONTINUOUS
 62
     1
100
AcDbLine
 10
300.5
 20
40.0
 30
0.0
 11
300.5
 21
15.0
 31
0.0
  0
LINE
  5
667
100
AcDbEntity
  8
LAY-10
  6
CONTINUOUS
 62
     1
100
AcDbLine
 10
326.0
 20
40.0
 30
0.0
 11
326.0
 21
15.0
 31
0.0
  0
LINE
  5
668
100
AcDbEntity
  8
LAY-10
  6
CONTINUOUS
 62
     1
100
AcDbLine
 10
377.0
 20
40.0
 30
0.0
 11
377.0
 21
15.0
 31
0.0
  0
LINE
  5
669
100
AcDbEntity
  8
LAY-10
  6
CONTINUOUS
 62
     1
100
AcDbLine
 10
738.0
 20
40.0
 30
0.0
 11
738.0
 21
15.0
 31
0.0
  0
LINE
  5
66A
100
AcDbEntity
  8
LAY-10
  6
CONTINUOUS
 62
     1
100
AcDbLine
 10
224.0
 20
32.0
 30
0.0
 11
377.0
 21
32.0
 31
0.0
  0
TEXT
  5
66B
100
AcDbEntity
  8
LAY-10
  6
CONTINUOUS
 62
     4
100
AcDbText
 10
227.5
 20
33.0
 30
0.0
 40
6.0
  1
検　  図
 41
0.57856
  7
EXCADSTD
 72
     5
 11
246.700001
 21
33.0
 31
0.0
100
AcDbText
  0
TEXT
  5
66C
100
AcDbEntity
  8
LAY-10
  6
CONTINUOUS
 62
     4
100
AcDbText
 10
253.2
 20
33.0
 30
0.0
 40
6.0
  1
担　　当
 41
0.672
  7
EXCADSTD
 72
     5
 11
272.400001
 21
33.0
 31
0.0
100
AcDbText
  0
TEXT
  5
66D
100
AcDbEntity
  8
LAY-10
  6
CONTINUOUS
 62
     4
100
AcDbText
 10
278.4
 20
33.0
 30
0.0
 40
6.0
  1
製　　図
 41
0.672
  7
EXCADSTD
 72
     5
 11
297.600001
 21
33.0
 31
0.0
100
AcDbText
  0
TEXT
  5
66E
100
AcDbEntity
  8
LAY-10
  6
CONTINUOUS
 62
     4
100
AcDbText
 10
303.9
 20
33.0
 30
0.0
 40
6.0
  1
尺　　度
 41
0.672
  7
EXCADSTD
 72
     5
 11
323.100001
 21
33.0
 31
0.0
100
AcDbText
  0
TEXT
  5
66F
100
AcDbEntity
  8
LAY-10
  6
CONTINUOUS
 62
     4
100
AcDbText
 10
339.5
 20
33.0
 30
0.0
 40
6.0
  1
作成年月日
 41
0.672
  7
EXCADSTD
 72
     5
 11
363.500001
 21
33.0
 31
0.0
100
AcDbText
  0
TEXT
  5
670
100
AcDbEntity
  8
LAY-10
  6
CONTINUOUS
 62
   134
100
AcDbText
 10
42.98
 20
20.91
 30
0.0
 40
13.0
  1
日本ドアーチエック製造株式会社
 41
0.653908
  7
EXCADSTD
 72
     5
 11
194.779994
 21
20.91
 31
0.0
100
AcDbText
  0
LINE
  5
671
100
AcDbEntity
  8
LAY-10
  6
CONTINUOUS
 62
     1
100
AcDbLine
 10
841.0
 20
0.0
 30
0.0
 11
841.0
 21
2.0
 31
0.0
  0
LINE
  5
672
100
AcDbEntity
  8
LAY-10
  6
CONTINUOUS
 62
     1
100
AcDbLine
 10
841.0
 20
592.0
 30
0.0
 11
841.0
 21
594.0
 31
0.0
  0
LINE
  5
673
100
AcDbEntity
  8
LAY-10
  6
CONTINUOUS
 62
     1
100
AcDbLine
 10
841.0
 20
594.0
 30
0.0
 11
839.0
 21
594.0
 31
0.0
  0
LINE
  5
674
100
AcDbEntity
  8
LAY-10
  6
CONTINUOUS
 62
     1
100
AcDbLine
 10
2.0
 20
594.0
 30
0.0
 11
0.0
 21
594.0
 31
0.0
  0
LINE
  5
675
100
AcDbEntity
  8
LAY-10
  6
CONTINUOUS
 62
     1
100
AcDbLine
 10
0.0
 20
594.0
 30
0.0
 11
0.0
 21
592.0
 31
0.0
  0
LINE
  5
676
100
AcDbEntity
  8
LAY-10
  6
CONTINUOUS
 62
     1
100
AcDbLine
 10
0.0
 20
2.0
 30
0.0
 11
0.0
 21
0.0
 31
0.0
  0
LINE
  5
677
100
AcDbEntity
  8
LAY-10
  6
CONTINUOUS
 62
     1
100
AcDbLine
 10
0.0
 20
0.0
 30
0.0
 11
2.0
 21
0.0
 31
0.0
  0
LINE
  5
678
100
AcDbEntity
  8
LAY-10
  6
CONTINUOUS
 62
     1
100
AcDbLine
 10
839.0
 20
0.0
 30
0.0
 11
841.0
 21
0.0
 31
0.0
  0
TEXT
  5
679
100
AcDbEntity
  8
LAY-10
  6
CONTINUOUS
 62
     4
100
AcDbText
 10
383.0
 20
33.0
 30
0.0
 40
6.0
  1
図 面 名
 41
0.57856
  7
EXCADSTD
 72
     5
 11
402.200001
 21
33.0
 31
0.0
100
AcDbText
  0
TEXT
  5
67A
100
AcDbEntity
  8
LAY-10
  6
CONTINUOUS
 62
     4
100
AcDbText
 10
744.0
 20
33.0
 30
0.0
 40
6.0
  1
図面番号
 41
0.672
  7
EXCADSTD
 72
     5
 11
763.200001
 21
33.0
 31
0.0
100
AcDbText
  0
TEXT
  5
67B
100
AcDbEntity
  8
LAY-10
  6
CONTINUOUS
 62
     2
100
AcDbText
 10
306.5
 20
20.2
 30
0.0
 40
6.0
  1
１／１
 41
0.672
  7
EXCADSTD
 72
     5
 11
320.900001
 21
20.2
 31
0.0
100
AcDbText
  0
TEXT
  5
67C
100
AcDbEntity
  8
LAY-10
  6
CONTINUOUS
 62
     2
100
AcDbText
 10
332.6
 20
20.2
 30
0.0
 40
6.0
  1
Ｈ１３.　７.　２
 41
0.622617
  7
EXCADSTD
 72
     5
 11
371.000002
 21
20.2
 31
0.0
100
AcDbText
  0
TEXT
  5
67D
100
AcDbEntity
  8
LAY-10
  6
CONTINUOUS
 62
     2
100
AcDbText
 10
406.828367
 20
19.274519
 30
0.0
 40
10.0
  1
ピボットヒンジ　１Ｃ－５(竪枠取付型 )　納まり図
 41
0.654222
  7
EXCADSTD
 72
     5
 11
590.828367
 21
19.274519
 31
0.0
100
AcDbText
  0
ENDSEC
  0
SECTION
  2
OBJECTS
  0
DICTIONARY
  5
19
100
AcDbDictionary
  3
ACAD_GROUP
350
1A
  3
ACAD_MLINESTYLE
350
1B
  0
DICTIONARY
  5
1A
102
{ACAD_REACTORS
330
19
102
}
100
AcDbDictionary
  0
DICTIONARY
  5
1B
102
{ACAD_REACTORS
330
19
102
}
100
AcDbDictionary
  3
STANDARD
350
1C
  0
MLINESTYLE
  5
1C
102
{ACAD_REACTORS
330
1B
102
}
100
AcDbMlineStyle
  2
Standard
 70
     0
  3

 62
     0
 51
90.0
 52
90.0
 71
     2
 49
0.5
 62
   256
  6
ByLayer
 49
-0.5
 62
   256
  6
ByLayer
  0
ENDSEC
  0
EOF
