  0
SECTION
  2
HEADER
  9
$ACADVER
  1
AC1014
  9
$ACADMAINTVER
 70
     0
  9
$DWGCODEPAGE
  3
ANSI_932
  9
$INSBASE
 10
0.0
 20
0.0
 30
0.0
  9
$EXTMIN
 10
0.0
 20
0.0
 30
0.0
  9
$EXTMAX
 10
841.0
 20
594.0
 30
0.0
  9
$LIMMIN
 10
0.0
 20
0.0
  9
$LIMMAX
 10
841.0
 20
594.0
  9
$ORTHOMODE
 70
     0
  9
$REGENMODE
 70
     1
  9
$FILLMODE
 70
     1
  9
$QTEXTMODE
 70
     0
  9
$MIRRTEXT
 70
     1
  9
$DRAGMODE
 70
     2
  9
$LTSCALE
 40
1.0
  9
$OSMODE
 70
     0
  9
$ATTMODE
 70
     1
  9
$TEXTSIZE
 40
0.2
  9
$TRACEWID
 40
0.05
  9
$TEXTSTYLE
  7
STANDARD
  9
$CLAYER
  8
LAY-1
  9
$CELTYPE
  6
CONTINUOUS
  9
$CECOLOR
 62
   256
  9
$CELTSCALE
 40
1.0
  9
$DELOBJ
 70
     1
  9
$DISPSILH
 70
     0
  9
$DIMSCALE
 40
1.0
  9
$DIMASZ
 40
0.18
  9
$DIMEXO
 40
0.0625
  9
$DIMDLI
 40
0.38
  9
$DIMRND
 40
0.0
  9
$DIMDLE
 40
0.0
  9
$DIMEXE
 40
0.18
  9
$DIMTP
 40
0.0
  9
$DIMTM
 40
0.0
  9
$DIMTXT
 40
0.18
  9
$DIMCEN
 40
0.09
  9
$DIMTSZ
 40
0.0
  9
$DIMTOL
 70
     0
  9
$DIMLIM
 70
     0
  9
$DIMTIH
 70
     1
  9
$DIMTOH
 70
     1
  9
$DIMSE1
 70
     0
  9
$DIMSE2
 70
     0
  9
$DIMTAD
 70
     0
  9
$DIMZIN
 70
     0
  9
$DIMBLK
  1

  9
$DIMASO
 70
     1
  9
$DIMSHO
 70
     1
  9
$DIMPOST
  1

  9
$DIMAPOST
  1

  9
$DIMALT
 70
     0
  9
$DIMALTD
 70
     2
  9
$DIMALTF
 40
25.4
  9
$DIMLFAC
 40
1.0
  9
$DIMTOFL
 70
     0
  9
$DIMTVP
 40
0.0
  9
$DIMTIX
 70
     0
  9
$DIMSOXD
 70
     0
  9
$DIMSAH
 70
     0
  9
$DIMBLK1
  1

  9
$DIMBLK2
  1

  9
$DIMSTYLE
  2
STANDARD
  9
$DIMCLRD
 70
     0
  9
$DIMCLRE
 70
     0
  9
$DIMCLRT
 70
     0
  9
$DIMTFAC
 40
1.0
  9
$DIMGAP
 40
0.09
  9
$DIMJUST
 70
     0
  9
$DIMSD1
 70
     0
  9
$DIMSD2
 70
     0
  9
$DIMTOLJ
 70
     1
  9
$DIMTZIN
 70
     0
  9
$DIMALTZ
 70
     0
  9
$DIMALTTZ
 70
     0
  9
$DIMFIT
 70
     3
  9
$DIMUPT
 70
     0
  9
$DIMUNIT
 70
     2
  9
$DIMDEC
 70
     4
  9
$DIMTDEC
 70
     4
  9
$DIMALTU
 70
     2
  9
$DIMALTTD
 70
     2
  9
$DIMTXSTY
  7
STANDARD
  9
$DIMAUNIT
 70
     0
  9
$LUNITS
 70
     2
  9
$LUPREC
 70
     4
  9
$SKETCHINC
 40
0.1
  9
$FILLETRAD
 40
0.0
  9
$AUNITS
 70
     0
  9
$AUPREC
 70
     0
  9
$MENU
  1
acad
  9
$ELEVATION
 40
0.0
  9
$PELEVATION
 40
0.0
  9
$THICKNESS
 40
0.0
  9
$LIMCHECK
 70
     0
  9
$BLIPMODE
 70
     1
  9
$CHAMFERA
 40
0.0
  9
$CHAMFERB
 40
0.0
  9
$CHAMFERC
 40
0.0
  9
$CHAMFERD
 40
0.0
  9
$SKPOLY
 70
     0
  9
$TDCREATE
 40
2455606.813234109
  9
$TDUPDATE
 40
2455606.813234109
  9
$TDINDWG
 40
0.0000000000
  9
$TDUSRTIMER
 40
0.0000000000
  9
$USRTIMER
 70
     1
  9
$ANGBASE
 50
0.0
  9
$ANGDIR
 70
     0
  9
$PDMODE
 70
     0
  9
$PDSIZE
 40
0.0
  9
$PLINEWID
 40
0.0
  9
$COORDS
 70
     1
  9
$SPLFRAME
 70
     0
  9
$SPLINETYPE
 70
     6
  9
$SPLINESEGS
 70
     8
  9
$ATTDIA
 70
     0
  9
$ATTREQ
 70
     1
  9
$HANDLING
 70
     1
  9
$HANDSEED
  5
636
  9
$SURFTAB1
 70
     6
  9
$SURFTAB2
 70
     6
  9
$SURFTYPE
 70
     6
  9
$SURFU
 70
     6
  9
$SURFV
 70
     6
  9
$UCSNAME
  2

  9
$UCSORG
 10
0.0
 20
0.0
 30
0.0
  9
$UCSXDIR
 10
1.0
 20
0.0
 30
0.0
  9
$UCSYDIR
 10
0.0
 20
1.0
 30
0.0
  9
$PUCSNAME
  2

  9
$PUCSORG
 10
0.0
 20
0.0
 30
0.0
  9
$PUCSXDIR
 10
1.0
 20
0.0
 30
0.0
  9
$PUCSYDIR
 10
0.0
 20
1.0
 30
0.0
  9
$USERI1
 70
     0
  9
$USERI2
 70
     0
  9
$USERI3
 70
     0
  9
$USERI4
 70
     0
  9
$USERI5
 70
     0
  9
$USERR1
 40
0.0
  9
$USERR2
 40
0.0
  9
$USERR3
 40
0.0
  9
$USERR4
 40
0.0
  9
$USERR5
 40
0.0
  9
$WORLDVIEW
 70
     1
  9
$SHADEDGE
 70
     3
  9
$SHADEDIF
 70
    70
  9
$TILEMODE
 70
     1
  9
$MAXACTVP
 70
    16
  9
$PINSBASE
 10
0.0
 20
0.0
 30
0.0
  9
$PLIMCHECK
 70
     0
  9
$PEXTMIN
 10
1.000000E+20
 20
1.000000E+20
 30
1.000000E+20
  9
$PEXTMAX
 10
-1.000000E+20
 20
-1.000000E+20
 30
-1.000000E+20
  9
$PLIMMIN
 10
0.0
 20
0.0
  9
$PLIMMAX
 10
12.0
 20
9.0
  9
$UNITMODE
 70
     0
  9
$VISRETAIN
 70
     0
  9
$PLINEGEN
 70
     1
  9
$PSLTSCALE
 70
     0
  9
$TREEDEPTH
 70
  3020
  9
$PICKSTYLE
 70
     1
  9
$CMLSTYLE
  2
Standard
  9
$CMLJUST
 70
     0
  9
$CMLSCALE
 40
1.0
  9
$PROXYGRAPHICS
 70
     0
  9
$MEASUREMENT
 70
     0
  0
ENDSEC
  0
SECTION
  2
CLASSES
  0
CLASS
  1
LWPOLYLINE
  2
AcDbPolyline
  3
"AutoCAD"
 90
        0
280
     0
281
     1
  0
CLASS
  1
IMAGE
  2
AcDbRasterImage
  3
ISM
 90
      127
280
     0
281
     1
  0
CLASS
  1
OLE2FRAME
  2
AcDbOle2Frame
  3
""
 90
        0
280
     0
281
     1
  0
CLASS
  1
HATCH
  2
AcDbHatch
  3
"ACAD_SEDONA"
 90
        0
280
     0
281
     1
  0
CLASS
  1
DICTIONARYVAR
  2
AcDbDictionaryVar
  3
"AutoCAD"
 90
        0
280
     0
281
     0
  0
CLASS
  1
RASTERVARIABLES
  2
AcDbRasterVariables
  3
ISM
 90
        0
280
     0
281
     0
  0
CLASS
  1
IMAGEDEF
  2
AcDbRasterImageDef
  3
ISM
 90
        0
280
     0
281
     0
  0
CLASS
  1
IMAGEDEF_REACTOR
  2
AcDbRasterImageDefReactor
  3
ISM
 90
        1
280
     0
281
     0
  0
CLASS
  1
IDBUFFER
  2
AcDbIdBuffer
  3
"Acad"
 90
        0
280
     0
281
     0
  0
CLASS
  1
SPATIAL_FILTER
  2
AcDbSpatialFilter
  3
"Acad"
 90
        0
280
     0
281
     0
  0
CLASS
  1
XRECORD
  2
AcDbXrecord
  3
"<Built In>"
 90
        0
280
     0
281
     0
  0
CLASS
  1
SORTENTSTABLE
  2
AcDbSortentsTable
  3
"AutoCAD"
 90
        0
280
     0
281
     0
  0
CLASS
  1
LAYER_INDEX
  2
AcDbLayerIndex
  3
"Acad"
 90
        0
280
     0
281
     0
  0
CLASS
  1
SPATIAL_INDEX
  2
AcDbSpatialIndex
  3
"Acad"
 90
        0
280
     0
281
     0
  0
CLASS
  1
OBJECT_PTR
  2
CAseDLPNTableRecord
  3
"ASE-LPNTableRecord"
 90
        1
280
     0
281
     0
  0
CLASS
  1
LAYOUT
  2
AcDbLayout
  3
"AutoCAD 2000"
 90
        0
280
     0
281
     0
  0
CLASS
  1
PLOTSETTINGS
  2
AcDbPlotSettings
  3
"AutoCAD 2000"
 90
        0
280
     0
281
     0
  0
CLASS
  1
ACDBDICTIONARYWDFLT
  2
AcDbDictionaryWithDefault
  3
"AutoCAD 2000"
 90
        0
280
     0
281
     0
  0
CLASS
  1
ACDBPLACEHOLDER
  2
AcDbPlaceHolder
  3
"AutoCAD 2000"
 90
        0
280
     0
281
     0
  0
CLASS
  1
VBA_PROJECT
  2
AcDbVbaProject
  3
"acadvba"
 90
        0
280
     0
281
     0
  0
CLASS
  1
WIPEOUT
  2
AcDbWipeout
  3
WipeOut|AutoCAD Express Tool|expresstools@autodesk.com
 90
      127
280
     0
281
     1
  0
CLASS
  1
WIPEOUTVARIABLES
  2
AcDbWipeoutVariables
  3
WipeOut|AutoCAD Express Tool|expresstools@autodesk.com
 90
        0
280
     0
281
     0
  0
CLASS
  1
RTEXT
  2
RText
  3
RText|AutoCAD Express Tool|expresstools@autodesk.com
 90
        0
280
     0
281
     1
  0
CLASS
  1
ARCALIGNEDTEXT
  2
AcDbArcAlignedText
  3
ATEXT|AutoCAD Express Tool|expresstools@autodesk.com
 90
        0
280
     0
281
     1
  0
ENDSEC
  0
SECTION
  2
TABLES
  0
TABLE
  2
VPORT
  5
7
100
AcDbSymbolTable
 70
     1
  0
VPORT
  5
15
100
AcDbSymbolTableRecord
100
AcDbViewportTableRecord
  2
*ACTIVE
 70
     0
 10
0.0
 20
0.0
 11
1.0
 21
1.0
 12
420.5
 22
297.0
 13
0.0
 23
0.0
 14
1.0
 24
1.0
 15
0.0
 25
0.0
 16
0.0
 26
0.0
 36
1.0
 17
0.0
 27
0.0
 37
0.0
 40
594.0
 41
1.722533
 42
50.0
 43
0.0
 44
0.0
 50
0.0
 51
0.0
 71
     0
 72
   100
 73
     1
 74
     1
 75
     0
 76
     0
 77
     0
 78
     0
  0
ENDTAB
  0
TABLE
  2
LTYPE
  5
4
100
AcDbSymbolTable
 70
     9
  0
LTYPE
  5
11
100
AcDbSymbolTableRecord
100
AcDbLinetypeTableRecord
  2
BYBLOCK
 70
    64
  3

 72
    65
 73
     0
 40
0.0
  0
LTYPE
  5
12
100
AcDbSymbolTableRecord
100
AcDbLinetypeTableRecord
  2
BYLAYER
 70
    64
  3

 72
    65
 73
     0
 40
0.0
  0
LTYPE
  5
13
100
AcDbSymbolTableRecord
100
AcDbLinetypeTableRecord
  2
CONTINUOUS
 70
    64
  3
実線
 72
    65
 73
     0
 40
0.0
  0
LTYPE
  5
1D
100
AcDbSymbolTableRecord
100
AcDbLinetypeTableRecord
  2
DASHED
 70
    64
  3
Dashed __ __ __ __ __ __ __ __ __ __ __ __ __ _
 72
    65
 73
     2
 40
19.05
 49
12.7
 74
     0
 49
-6.35
 74
     0
  0
LTYPE
  5
1E
100
AcDbSymbolTableRecord
100
AcDbLinetypeTableRecord
  2
DASHED2
 70
    64
  3
Dashed (.5x) _ _ _ _ _ _ _ _ _ _ _ _ _ _ _ _ _ 
 72
    65
 73
     2
 40
9.525
 49
6.35
 74
     0
 49
-3.175
 74
     0
  0
LTYPE
  5
1F
100
AcDbSymbolTableRecord
100
AcDbLinetypeTableRecord
  2
DASHDOT
 70
    64
  3
Dash dot __ . __ . __ . __ . __ . __ . __ . __
 72
    65
 73
     4
 40
25.4
 49
12.7
 74
     0
 49
-6.35
 74
     0
 49
0.0
 74
     0
 49
-6.35
 74
     0
  0
LTYPE
  5
20
100
AcDbSymbolTableRecord
100
AcDbLinetypeTableRecord
  2
DIVIDE
 70
    64
  3
Divide ____ . . ____ . . ____ . . ____ . . ____
 72
    65
 73
     6
 40
31.75
 49
12.7
 74
     0
 49
-6.35
 74
     0
 49
0.0
 74
     0
 49
-6.35
 74
     0
 49
0.0
 74
     0
 49
-6.35
 74
     0
  0
LTYPE
  5
21
100
AcDbSymbolTableRecord
100
AcDbLinetypeTableRecord
  2
ACAD_ISO06W100
 70
    64
  3
ISO long-dash triple-dot ____ ... ____ ... ____
 72
    65
 73
     8
 40
36.0
 49
24.0
 74
     0
 49
-3.0
 74
     0
 49
0.0
 74
     0
 49
-3.0
 74
     0
 49
0.0
 74
     0
 49
-3.0
 74
     0
 49
0.0
 74
     0
 49
-3.0
 74
     0
  0
LTYPE
  5
22
100
AcDbSymbolTableRecord
100
AcDbLinetypeTableRecord
  2
ACAD_ISO15W100
 70
    64
  3
ISO double-dash triple-dot __ __ . . . __ __ . .
 72
    65
 73
    10
 40
39.0
 49
12.0
 74
     0
 49
-3.0
 74
     0
 49
12.0
 74
     0
 49
-3.0
 74
     0
 49
0.0
 74
     0
 49
-3.0
 74
     0
 49
0.0
 74
     0
 49
-3.0
 74
     0
 49
0.0
 74
     0
 49
-3.0
 74
     0
  0
ENDTAB
  0
TABLE
  2
LAYER
  5
2
100
AcDbSymbolTable
 70
     9
  0
LAYER
  5
14
100
AcDbSymbolTableRecord
100
AcDbLayerTableRecord
  2
0
 70
     0
 62
     7
  6
CONTINUOUS
  0
LAYER
  5
25
100
AcDbSymbolTableRecord
100
AcDbLayerTableRecord
  2
LAY-1
 70
    64
 62
     3
  6
CONTINUOUS
  0
LAYER
  5
26
100
AcDbSymbolTableRecord
100
AcDbLayerTableRecord
  2
LAY-2
 70
    64
 62
     3
  6
CONTINUOUS
  0
LAYER
  5
27
100
AcDbSymbolTableRecord
100
AcDbLayerTableRecord
  2
LAY-3
 70
    64
 62
     3
  6
CONTINUOUS
  0
LAYER
  5
28
100
AcDbSymbolTableRecord
100
AcDbLayerTableRecord
  2
LAY-4
 70
    64
 62
     3
  6
CONTINUOUS
  0
LAYER
  5
29
100
AcDbSymbolTableRecord
100
AcDbLayerTableRecord
  2
LAY-5
 70
    64
 62
     1
  6
CONTINUOUS
  0
LAYER
  5
2A
100
AcDbSymbolTableRecord
100
AcDbLayerTableRecord
  2
LAY-6
 70
    64
 62
     2
  6
CONTINUOUS
  0
LAYER
  5
2B
100
AcDbSymbolTableRecord
100
AcDbLayerTableRecord
  2
LAY-9
 70
    64
 62
     1
  6
CONTINUOUS
  0
LAYER
  5
2C
100
AcDbSymbolTableRecord
100
AcDbLayerTableRecord
  2
LAY-10
 70
    64
 62
     5
  6
CONTINUOUS
  0
ENDTAB
  0
TABLE
  2
STYLE
  5
3
100
AcDbSymbolTable
 70
     3
  0
STYLE
  5
17
100
AcDbSymbolTableRecord
100
AcDbTextStyleTableRecord
  2
STANDARD
 70
     0
 40
0.0
 41
1.0
 50
0.0
 71
     0
 42
0.0
  3
monotxt
  4
extfont
  0
STYLE
  5
23
100
AcDbSymbolTableRecord
100
AcDbTextStyleTableRecord
  2
EXCADSTD
 70
    64
 40
0.0
 41
1.0
 50
0.0
 71
     0
 42
0.2
  3
monotxt
  4
extfont
  0
STYLE
  5
24
100
AcDbSymbolTableRecord
100
AcDbTextStyleTableRecord
  2
EXCADVERT
 70
    68
 40
0.0
 41
1.0
 50
0.0
 71
     0
 42
0.286885
  3
monotxt
  4
extfont
  0
ENDTAB
  0
TABLE
  2
VIEW
  5
5
100
AcDbSymbolTable
 70
     0
  0
ENDTAB
  0
TABLE
  2
UCS
  5
6
100
AcDbSymbolTable
 70
     0
  0
ENDTAB
  0
TABLE
  2
APPID
  5
8
100
AcDbSymbolTable
 70
     1
  0
APPID
  5
16
100
AcDbSymbolTableRecord
100
AcDbRegAppTableRecord
  2
ACAD
 70
     0
  0
ENDTAB
  0
TABLE
  2
DIMSTYLE
  5
9
100
AcDbSymbolTable
 70
     1
  0
DIMSTYLE
105
18
100
AcDbSymbolTableRecord
100
AcDbDimStyleTableRecord
  2
STANDARD
 70
     0
  3

  4

  5

  6

  7

 40
1.0
 41
0.18
 42
0.0625
 43
0.38
 44
0.18
 45
0.0
 46
0.0
 47
0.0
 48
0.0
 71
     0
 72
     0
 73
     1
 74
     1
 75
     0
 76
     0
 77
     0
 78
     0
140
0.18
141
0.09
142
0.0
143
25.4
144
1.0
145
0.0
146
1.0
147
0.09
170
     0
171
     2
172
     1
173
     0
174
     0
175
     0
176
     0
177
     0
178
     0
270
     2
271
     4
272
     4
273
     2
274
     2
275
     0
280
     0
281
     0
282
     0
283
     1
284
     0
285
     0
286
     0
287
     3
288
     0
340
17
  0
ENDTAB
  0
TABLE
  2
BLOCK_RECORD
  5
1
100
AcDbSymbolTable
 70
    14
  0
BLOCK_RECORD
  5
A
100
AcDbSymbolTableRecord
100
AcDbBlockTableRecord
  2
*MODEL_SPACE
  0
BLOCK_RECORD
  5
B
100
AcDbSymbolTableRecord
100
AcDbBlockTableRecord
  2
*PAPER_SPACE
  0
BLOCK_RECORD
  5
2D
100
AcDbSymbolTableRecord
100
AcDbBlockTableRecord
  2
_EX_NORM
  0
BLOCK_RECORD
  5
2E
100
AcDbSymbolTableRecord
100
AcDbBlockTableRecord
  2
_EX_BNORM
  0
BLOCK_RECORD
  5
2F
100
AcDbSymbolTableRecord
100
AcDbBlockTableRecord
  2
_EX_BCIR
  0
BLOCK_RECORD
  5
30
100
AcDbSymbolTableRecord
100
AcDbBlockTableRecord
  2
_EX_RCIVIL
  0
BLOCK_RECORD
  5
31
100
AcDbSymbolTableRecord
100
AcDbBlockTableRecord
  2
_EX_SLANT
  0
BLOCK_RECORD
  5
32
100
AcDbSymbolTableRecord
100
AcDbBlockTableRecord
  2
_EX_NONE
  0
BLOCK_RECORD
  5
33
100
AcDbSymbolTableRecord
100
AcDbBlockTableRecord
  2
_EX_CIVIL
  0
BLOCK_RECORD
  5
34
100
AcDbSymbolTableRecord
100
AcDbBlockTableRecord
  2
_EX_WCIR
  0
BLOCK_RECORD
  5
35
100
AcDbSymbolTableRecord
100
AcDbBlockTableRecord
  2
_EX_WCIR2
  0
BLOCK_RECORD
  5
36
100
AcDbSymbolTableRecord
100
AcDbBlockTableRecord
  2
_EX_WNORM
  0
BLOCK_RECORD
  5
37
100
AcDbSymbolTableRecord
100
AcDbBlockTableRecord
  2
_EX_NNORM
  0
BLOCK_RECORD
  5
38
100
AcDbSymbolTableRecord
100
AcDbBlockTableRecord
  2
_EX_BBOX
  0
BLOCK_RECORD
  5
39
100
AcDbSymbolTableRecord
100
AcDbBlockTableRecord
  2
_EX_WBOX
  0
BLOCK_RECORD
  5
3A
100
AcDbSymbolTableRecord
100
AcDbBlockTableRecord
  2
_EX_INTEGRAL
  0
ENDTAB
  0
ENDSEC
  0
SECTION
  2
BLOCKS
  0
BLOCK
  5
D
100
AcDbEntity
  8
0
100
AcDbBlockBegin
  2
*MODEL_SPACE
 70
     0
 10
0.0
 20
0.0
 30
0.0
  3
*MODEL_SPACE
  1

  0
ENDBLK
  5
E
100
AcDbEntity
  8
0
100
AcDbBlockEnd
  0
BLOCK
  5
F
100
AcDbEntity
 67
     1
  8
0
100
AcDbBlockBegin
  2
*PAPER_SPACE
 70
     0
 10
0.0
 20
0.0
 30
0.0
  3
*PAPER_SPACE
  1

  0
ENDBLK
  5
10
100
AcDbEntity
 67
     1
  8
0
100
AcDbBlockEnd
  0
BLOCK
  5
3B
100
AcDbEntity
  8
0
100
AcDbBlockBegin
  2
_EX_NORM
 70
     0
 10
0.0
 20
0.0
 30
0.0
  3
_EX_NORM
  1

  0
LINE
  5
3C
100
AcDbEntity
  8
0
  6
CONTINUOUS
 62
     0
100
AcDbLine
 10
0.0
 20
0.0
 30
0.0
 11
-1.0
 21
0.0
 31
0.0
  0
LINE
  5
3D
100
AcDbEntity
  8
0
  6
CONTINUOUS
 62
     0
100
AcDbLine
 10
0.0
 20
0.0
 30
0.0
 11
-1.0
 21
0.166667
 31
0.0
  0
LINE
  5
3E
100
AcDbEntity
  8
0
  6
CONTINUOUS
 62
     0
100
AcDbLine
 10
0.0
 20
0.0
 30
0.0
 11
-1.0
 21
-0.166667
 31
0.0
  0
ENDBLK
  5
3F
100
AcDbEntity
  8
0
100
AcDbBlockEnd
  0
BLOCK
  5
40
100
AcDbEntity
  8
0
100
AcDbBlockBegin
  2
_EX_BNORM
 70
     0
 10
0.0
 20
0.0
 30
0.0
  3
_EX_BNORM
  1

  0
LINE
  5
41
100
AcDbEntity
  8
0
  6
CONTINUOUS
 62
     0
100
AcDbLine
 10
0.0
 20
0.0
 30
0.0
 11
-1.0
 21
0.0
 31
0.0
  0
LINE
  5
42
100
AcDbEntity
  8
0
  6
CONTINUOUS
 62
     0
100
AcDbLine
 10
0.0
 20
0.0
 30
0.0
 11
-1.0
 21
0.166667
 31
0.0
  0
LINE
  5
43
100
AcDbEntity
  8
0
  6
CONTINUOUS
 62
     0
100
AcDbLine
 10
0.0
 20
0.0
 30
0.0
 11
-1.0
 21
-0.166667
 31
0.0
  0
LINE
  5
44
100
AcDbEntity
  8
0
  6
CONTINUOUS
 62
     0
100
AcDbLine
 10
0.0
 20
0.0
 30
0.0
 11
-1.0
 21
0.083333
 31
0.0
  0
LINE
  5
45
100
AcDbEntity
  8
0
  6
CONTINUOUS
 62
     0
100
AcDbLine
 10
0.0
 20
0.0
 30
0.0
 11
-1.0
 21
-0.083333
 31
0.0
  0
LINE
  5
46
100
AcDbEntity
  8
0
  6
CONTINUOUS
 62
     0
100
AcDbLine
 10
-1.0
 20
0.166667
 30
0.0
 11
-1.0
 21
-0.166667
 31
0.0
  0
ENDBLK
  5
47
100
AcDbEntity
  8
0
100
AcDbBlockEnd
  0
BLOCK
  5
48
100
AcDbEntity
  8
0
100
AcDbBlockBegin
  2
_EX_BCIR
 70
     0
 10
0.0
 20
0.0
 30
0.0
  3
_EX_BCIR
  1

  0
LINE
  5
49
100
AcDbEntity
  8
0
  6
CONTINUOUS
 62
     0
100
AcDbLine
 10
0.0
 20
0.0
 30
0.0
 11
-1.0
 21
0.0
 31
0.0
  0
CIRCLE
  5
4A
100
AcDbEntity
  8
0
  6
CONTINUOUS
 62
     0
100
AcDbCircle
 10
0.0
 20
0.0
 30
0.0
 40
0.5
  0
CIRCLE
  5
4B
100
AcDbEntity
  8
0
  6
CONTINUOUS
 62
     0
100
AcDbCircle
 10
0.0
 20
0.0
 30
0.0
 40
0.25
  0
ENDBLK
  5
4C
100
AcDbEntity
  8
0
100
AcDbBlockEnd
  0
BLOCK
  5
4D
100
AcDbEntity
  8
0
100
AcDbBlockBegin
  2
_EX_RCIVIL
 70
     0
 10
0.0
 20
0.0
 30
0.0
  3
_EX_RCIVIL
  1

  0
LINE
  5
4E
100
AcDbEntity
  8
0
  6
CONTINUOUS
 62
     0
100
AcDbLine
 10
0.0
 20
0.0
 30
0.0
 11
-1.0
 21
0.0
 31
0.0
  0
LINE
  5
4F
100
AcDbEntity
  8
0
  6
CONTINUOUS
 62
     0
100
AcDbLine
 10
-1.0
 20
-0.25
 30
0.0
 11
0.0
 21
-0.25
 31
0.0
  0
LINE
  5
50
100
AcDbEntity
  8
0
  6
CONTINUOUS
 62
     0
100
AcDbLine
 10
-1.0
 20
-0.125
 30
0.0
 11
0.0
 21
-0.125
 31
0.0
  0
ENDBLK
  5
51
100
AcDbEntity
  8
0
100
AcDbBlockEnd
  0
BLOCK
  5
52
100
AcDbEntity
  8
0
100
AcDbBlockBegin
  2
_EX_SLANT
 70
     0
 10
0.0
 20
0.0
 30
0.0
  3
_EX_SLANT
  1

  0
LINE
  5
53
100
AcDbEntity
  8
0
  6
CONTINUOUS
 62
     0
100
AcDbLine
 10
0.0
 20
0.0
 30
0.0
 11
-1.0
 21
0.0
 31
0.0
  0
LINE
  5
54
100
AcDbEntity
  8
0
  6
CONTINUOUS
 62
     0
100
AcDbLine
 10
0.707107
 20
0.707107
 30
0.0
 11
-0.707107
 21
-0.707107
 31
0.0
  0
ENDBLK
  5
55
100
AcDbEntity
  8
0
100
AcDbBlockEnd
  0
BLOCK
  5
56
100
AcDbEntity
  8
0
100
AcDbBlockBegin
  2
_EX_NONE
 70
     0
 10
0.0
 20
0.0
 30
0.0
  3
_EX_NONE
  1

  0
LINE
  5
57
100
AcDbEntity
  8
0
  6
CONTINUOUS
 62
     0
100
AcDbLine
 10
0.0
 20
0.0
 30
0.0
 11
-1.0
 21
0.0
 31
0.0
  0
ENDBLK
  5
58
100
AcDbEntity
  8
0
100
AcDbBlockEnd
  0
BLOCK
  5
59
100
AcDbEntity
  8
0
100
AcDbBlockBegin
  2
_EX_CIVIL
 70
     0
 10
0.0
 20
0.0
 30
0.0
  3
_EX_CIVIL
  1

  0
LINE
  5
5A
100
AcDbEntity
  8
0
  6
CONTINUOUS
 62
     0
100
AcDbLine
 10
0.0
 20
0.0
 30
0.0
 11
-1.0
 21
0.0
 31
0.0
  0
LINE
  5
5B
100
AcDbEntity
  8
0
  6
CONTINUOUS
 62
     0
100
AcDbLine
 10
-1.0
 20
0.25
 30
0.0
 11
0.0
 21
0.25
 31
0.0
  0
LINE
  5
5C
100
AcDbEntity
  8
0
  6
CONTINUOUS
 62
     0
100
AcDbLine
 10
-1.0
 20
0.125
 30
0.0
 11
0.0
 21
0.125
 31
0.0
  0
ENDBLK
  5
5D
100
AcDbEntity
  8
0
100
AcDbBlockEnd
  0
BLOCK
  5
5E
100
AcDbEntity
  8
0
100
AcDbBlockBegin
  2
_EX_WCIR
 70
     0
 10
0.0
 20
0.0
 30
0.0
  3
_EX_WCIR
  1

  0
LINE
  5
5F
100
AcDbEntity
  8
0
  6
CONTINUOUS
 62
     0
100
AcDbLine
 10
0.0
 20
0.0
 30
0.0
 11
-1.0
 21
0.0
 31
0.0
  0
CIRCLE
  5
60
100
AcDbEntity
  8
0
  6
CONTINUOUS
 62
     0
100
AcDbCircle
 10
0.0
 20
0.0
 30
0.0
 40
0.5
  0
ENDBLK
  5
61
100
AcDbEntity
  8
0
100
AcDbBlockEnd
  0
BLOCK
  5
62
100
AcDbEntity
  8
0
100
AcDbBlockBegin
  2
_EX_WCIR2
 70
     0
 10
0.0
 20
0.0
 30
0.0
  3
_EX_WCIR2
  1

  0
LINE
  5
63
100
AcDbEntity
  8
0
  6
CONTINUOUS
 62
     0
100
AcDbLine
 10
-0.5
 20
0.0
 30
0.0
 11
-1.0
 21
0.0
 31
0.0
  0
CIRCLE
  5
64
100
AcDbEntity
  8
0
  6
CONTINUOUS
 62
     0
100
AcDbCircle
 10
0.0
 20
0.0
 30
0.0
 40
0.5
  0
ENDBLK
  5
65
100
AcDbEntity
  8
0
100
AcDbBlockEnd
  0
BLOCK
  5
66
100
AcDbEntity
  8
0
100
AcDbBlockBegin
  2
_EX_WNORM
 70
     0
 10
0.0
 20
0.0
 30
0.0
  3
_EX_WNORM
  1

  0
LINE
  5
67
100
AcDbEntity
  8
0
  6
CONTINUOUS
 62
     0
100
AcDbLine
 10
-1.0
 20
0.0
 30
0.0
 11
-1.0
 21
0.0
 31
0.0
  0
LINE
  5
68
100
AcDbEntity
  8
0
  6
CONTINUOUS
 62
     0
100
AcDbLine
 10
0.0
 20
0.0
 30
0.0
 11
-1.0
 21
0.166667
 31
0.0
  0
LINE
  5
69
100
AcDbEntity
  8
0
  6
CONTINUOUS
 62
     0
100
AcDbLine
 10
0.0
 20
0.0
 30
0.0
 11
-1.0
 21
-0.166667
 31
0.0
  0
LINE
  5
6A
100
AcDbEntity
  8
0
  6
CONTINUOUS
 62
     0
100
AcDbLine
 10
-1.0
 20
0.166667
 30
0.0
 11
-1.0
 21
-0.166667
 31
0.0
  0
ENDBLK
  5
6B
100
AcDbEntity
  8
0
100
AcDbBlockEnd
  0
BLOCK
  5
6C
100
AcDbEntity
  8
0
100
AcDbBlockBegin
  2
_EX_NNORM
 70
     0
 10
0.0
 20
0.0
 30
0.0
  3
_EX_NNORM
  1

  0
LINE
  5
6D
100
AcDbEntity
  8
0
  6
CONTINUOUS
 62
     0
100
AcDbLine
 10
0.0
 20
0.0
 30
0.0
 11
-1.0
 21
0.0
 31
0.0
  0
LINE
  5
6E
100
AcDbEntity
  8
0
  6
CONTINUOUS
 62
     0
100
AcDbLine
 10
0.0
 20
0.0
 30
0.0
 11
-1.0
 21
0.166667
 31
0.0
  0
LINE
  5
6F
100
AcDbEntity
  8
0
  6
CONTINUOUS
 62
     0
100
AcDbLine
 10
0.0
 20
0.0
 30
0.0
 11
-1.0
 21
-0.166667
 31
0.0
  0
LINE
  5
70
100
AcDbEntity
  8
0
  6
CONTINUOUS
 62
     0
100
AcDbLine
 10
-1.0
 20
0.166667
 30
0.0
 11
-1.0
 21
-0.166667
 31
0.0
  0
ENDBLK
  5
71
100
AcDbEntity
  8
0
100
AcDbBlockEnd
  0
BLOCK
  5
72
100
AcDbEntity
  8
0
100
AcDbBlockBegin
  2
_EX_BBOX
 70
     0
 10
0.0
 20
0.0
 30
0.0
  3
_EX_BBOX
  1

  0
LINE
  5
73
100
AcDbEntity
  8
0
  6
CONTINUOUS
 62
     0
100
AcDbLine
 10
0.0
 20
0.0
 30
0.0
 11
-1.0
 21
0.0
 31
0.0
  0
LINE
  5
74
100
AcDbEntity
  8
0
  6
CONTINUOUS
 62
     0
100
AcDbLine
 10
-0.5
 20
0.5
 30
0.0
 11
0.5
 21
0.5
 31
0.0
  0
LINE
  5
75
100
AcDbEntity
  8
0
  6
CONTINUOUS
 62
     0
100
AcDbLine
 10
0.5
 20
0.5
 30
0.0
 11
0.5
 21
-0.5
 31
0.0
  0
LINE
  5
76
100
AcDbEntity
  8
0
  6
CONTINUOUS
 62
     0
100
AcDbLine
 10
0.5
 20
-0.5
 30
0.0
 11
-0.5
 21
-0.5
 31
0.0
  0
LINE
  5
77
100
AcDbEntity
  8
0
  6
CONTINUOUS
 62
     0
100
AcDbLine
 10
-0.5
 20
-0.5
 30
0.0
 11
-0.5
 21
0.5
 31
0.0
  0
LINE
  5
78
100
AcDbEntity
  8
0
  6
CONTINUOUS
 62
     0
100
AcDbLine
 10
-0.25
 20
0.25
 30
0.0
 11
0.25
 21
0.25
 31
0.0
  0
LINE
  5
79
100
AcDbEntity
  8
0
  6
CONTINUOUS
 62
     0
100
AcDbLine
 10
0.25
 20
0.25
 30
0.0
 11
0.25
 21
-0.25
 31
0.0
  0
LINE
  5
7A
100
AcDbEntity
  8
0
  6
CONTINUOUS
 62
     0
100
AcDbLine
 10
0.25
 20
-0.25
 30
0.0
 11
-0.25
 21
-0.25
 31
0.0
  0
LINE
  5
7B
100
AcDbEntity
  8
0
  6
CONTINUOUS
 62
     0
100
AcDbLine
 10
-0.25
 20
-0.25
 30
0.0
 11
-0.25
 21
0.25
 31
0.0
  0
ENDBLK
  5
7C
100
AcDbEntity
  8
0
100
AcDbBlockEnd
  0
BLOCK
  5
7D
100
AcDbEntity
  8
0
100
AcDbBlockBegin
  2
_EX_WBOX
 70
     0
 10
0.0
 20
0.0
 30
0.0
  3
_EX_WBOX
  1

  0
LINE
  5
7E
100
AcDbEntity
  8
0
  6
CONTINUOUS
 62
     0
100
AcDbLine
 10
-0.5
 20
0.0
 30
0.0
 11
-1.0
 21
0.0
 31
0.0
  0
LINE
  5
7F
100
AcDbEntity
  8
0
  6
CONTINUOUS
 62
     0
100
AcDbLine
 10
-0.5
 20
0.5
 30
0.0
 11
0.5
 21
0.5
 31
0.0
  0
LINE
  5
80
100
AcDbEntity
  8
0
  6
CONTINUOUS
 62
     0
100
AcDbLine
 10
0.5
 20
0.5
 30
0.0
 11
0.5
 21
-0.5
 31
0.0
  0
LINE
  5
81
100
AcDbEntity
  8
0
  6
CONTINUOUS
 62
     0
100
AcDbLine
 10
0.5
 20
-0.5
 30
0.0
 11
-0.5
 21
-0.5
 31
0.0
  0
LINE
  5
82
100
AcDbEntity
  8
0
  6
CONTINUOUS
 62
     0
100
AcDbLine
 10
-0.5
 20
-0.5
 30
0.0
 11
-0.5
 21
0.5
 31
0.0
  0
ENDBLK
  5
83
100
AcDbEntity
  8
0
100
AcDbBlockEnd
  0
BLOCK
  5
84
100
AcDbEntity
  8
0
100
AcDbBlockBegin
  2
_EX_INTEGRAL
 70
     0
 10
0.0
 20
0.0
 30
0.0
  3
_EX_INTEGRAL
  1

  0
LINE
  5
85
100
AcDbEntity
  8
0
  6
CONTINUOUS
 62
     0
100
AcDbLine
 10
0.0
 20
0.0
 30
0.0
 11
-1.0
 21
0.0
 31
0.0
  0
ARC
  5
86
100
AcDbEntity
  8
0
  6
CONTINUOUS
 62
     0
100
AcDbCircle
 10
0.542115
 20
0.164992
 30
0.0
 40
0.56667
100
AcDbArc
 50
73.07249
 51
196.927513
  0
ARC
  5
87
100
AcDbEntity
  8
0
  6
CONTINUOUS
 62
     0
100
AcDbCircle
 10
-0.542115
 20
-0.164992
 30
0.0
 40
0.56667
100
AcDbArc
 50
253.072487
 51
16.927513
  0
ENDBLK
  5
88
100
AcDbEntity
  8
0
100
AcDbBlockEnd
  0
ENDSEC
  0
SECTION
  2
ENTITIES
  0
LINE
  5
89
100
AcDbEntity
  8
LAY-1
  6
DASHED2
 62
     3
100
AcDbLine
 10
664.429016
 20
417.848987
 30
0.0
 11
659.429016
 21
417.848987
 31
0.0
  0
LINE
  5
8A
100
AcDbEntity
  8
LAY-1
  6
DASHED2
 62
     3
100
AcDbLine
 10
659.429016
 20
417.848987
 30
0.0
 11
657.279016
 21
415.698987
 31
0.0
  0
LINE
  5
8B
100
AcDbEntity
  8
LAY-1
  6
DASHED2
 62
     3
100
AcDbLine
 10
664.429016
 20
417.848987
 30
0.0
 11
666.579016
 21
415.698987
 31
0.0
  0
LINE
  5
8C
100
AcDbEntity
  8
LAY-1
  6
DASHED2
 62
     3
100
AcDbLine
 10
657.279016
 20
415.698987
 30
0.0
 11
666.579016
 21
415.698987
 31
0.0
  0
LINE
  5
8D
100
AcDbEntity
  8
LAY-1
  6
DASHED2
 62
     3
100
AcDbLine
 10
657.279016
 20
415.698987
 30
0.0
 11
657.279016
 21
415.148987
 31
0.0
  0
LINE
  5
8E
100
AcDbEntity
  8
LAY-1
  6
DASHED2
 62
     3
100
AcDbLine
 10
666.579016
 20
415.698987
 30
0.0
 11
666.579016
 21
415.148987
 31
0.0
  0
LINE
  5
8F
100
AcDbEntity
  8
LAY-1
  6
DASHED2
 62
     3
100
AcDbLine
 10
659.429016
 20
430.148987
 30
0.0
 11
659.429016
 21
417.848987
 31
0.0
  0
LINE
  5
90
100
AcDbEntity
  8
LAY-1
  6
DASHED2
 62
     1
100
AcDbLine
 10
659.929016
 20
430.148987
 30
0.0
 11
659.929016
 21
417.848987
 31
0.0
  0
LINE
  5
91
100
AcDbEntity
  8
LAY-1
  6
DASHED2
 62
     1
100
AcDbLine
 10
663.929016
 20
430.148987
 30
0.0
 11
663.929016
 21
417.848987
 31
0.0
  0
LINE
  5
92
100
AcDbEntity
  8
LAY-1
  6
DASHED2
 62
     3
100
AcDbLine
 10
664.429016
 20
430.148987
 30
0.0
 11
664.429016
 21
417.848987
 31
0.0
  0
LINE
  5
93
100
AcDbEntity
  8
LAY-1
  6
CONTINUOUS
 62
     3
100
AcDbLine
 10
664.429016
 20
435.698987
 30
0.0
 11
659.429016
 21
435.698987
 31
0.0
  0
LINE
  5
94
100
AcDbEntity
  8
LAY-1
  6
CONTINUOUS
 62
     3
100
AcDbLine
 10
659.429016
 20
435.698987
 30
0.0
 11
659.429016
 21
430.148987
 31
0.0
  0
LINE
  5
95
100
AcDbEntity
  8
LAY-1
  6
CONTINUOUS
 62
     1
100
AcDbLine
 10
659.929016
 20
435.698987
 30
0.0
 11
659.929016
 21
430.148987
 31
0.0
  0
LINE
  5
96
100
AcDbEntity
  8
LAY-1
  6
CONTINUOUS
 62
     1
100
AcDbLine
 10
663.929016
 20
435.698987
 30
0.0
 11
663.929016
 21
430.148987
 31
0.0
  0
LINE
  5
97
100
AcDbEntity
  8
LAY-1
  6
CONTINUOUS
 62
     3
100
AcDbLine
 10
664.429016
 20
435.698987
 30
0.0
 11
664.429016
 21
430.148987
 31
0.0
  0
LINE
  5
98
100
AcDbEntity
  8
LAY-1
  6
DASHED2
 62
     3
100
AcDbLine
 10
646.429016
 20
417.848987
 30
0.0
 11
641.429016
 21
417.848987
 31
0.0
  0
LINE
  5
99
100
AcDbEntity
  8
LAY-1
  6
DASHED2
 62
     3
100
AcDbLine
 10
641.429016
 20
417.848987
 30
0.0
 11
639.279016
 21
415.698987
 31
0.0
  0
LINE
  5
9A
100
AcDbEntity
  8
LAY-1
  6
DASHED2
 62
     3
100
AcDbLine
 10
646.429016
 20
417.848987
 30
0.0
 11
648.579016
 21
415.698987
 31
0.0
  0
LINE
  5
9B
100
AcDbEntity
  8
LAY-1
  6
DASHED2
 62
     3
100
AcDbLine
 10
639.279016
 20
415.698987
 30
0.0
 11
648.579016
 21
415.698987
 31
0.0
  0
LINE
  5
9C
100
AcDbEntity
  8
LAY-1
  6
DASHED2
 62
     3
100
AcDbLine
 10
639.279016
 20
415.698987
 30
0.0
 11
639.279016
 21
415.148987
 31
0.0
  0
LINE
  5
9D
100
AcDbEntity
  8
LAY-1
  6
DASHED2
 62
     3
100
AcDbLine
 10
648.579016
 20
415.698987
 30
0.0
 11
648.579016
 21
415.148987
 31
0.0
  0
LINE
  5
9E
100
AcDbEntity
  8
LAY-1
  6
DASHED2
 62
     3
100
AcDbLine
 10
641.429016
 20
430.148987
 30
0.0
 11
641.429016
 21
417.848987
 31
0.0
  0
LINE
  5
9F
100
AcDbEntity
  8
LAY-1
  6
DASHED2
 62
     1
100
AcDbLine
 10
641.929016
 20
430.148987
 30
0.0
 11
641.929016
 21
417.848987
 31
0.0
  0
LINE
  5
A0
100
AcDbEntity
  8
LAY-1
  6
DASHED2
 62
     1
100
AcDbLine
 10
645.929016
 20
430.148987
 30
0.0
 11
645.929016
 21
417.848987
 31
0.0
  0
LINE
  5
A1
100
AcDbEntity
  8
LAY-1
  6
DASHED2
 62
     3
100
AcDbLine
 10
646.429016
 20
430.148987
 30
0.0
 11
646.429016
 21
417.848987
 31
0.0
  0
LINE
  5
A2
100
AcDbEntity
  8
LAY-1
  6
CONTINUOUS
 62
     3
100
AcDbLine
 10
646.429016
 20
435.698987
 30
0.0
 11
641.429016
 21
435.698987
 31
0.0
  0
LINE
  5
A3
100
AcDbEntity
  8
LAY-1
  6
CONTINUOUS
 62
     3
100
AcDbLine
 10
641.429016
 20
435.698987
 30
0.0
 11
641.429016
 21
430.148987
 31
0.0
  0
LINE
  5
A4
100
AcDbEntity
  8
LAY-1
  6
CONTINUOUS
 62
     1
100
AcDbLine
 10
641.929016
 20
435.698987
 30
0.0
 11
641.929016
 21
430.148987
 31
0.0
  0
LINE
  5
A5
100
AcDbEntity
  8
LAY-1
  6
CONTINUOUS
 62
     1
100
AcDbLine
 10
645.929016
 20
435.698987
 30
0.0
 11
645.929016
 21
430.148987
 31
0.0
  0
LINE
  5
A6
100
AcDbEntity
  8
LAY-1
  6
CONTINUOUS
 62
     3
100
AcDbLine
 10
646.429016
 20
435.698987
 30
0.0
 11
646.429016
 21
430.148987
 31
0.0
  0
ARC
  5
A7
100
AcDbEntity
  8
LAY-1
  6
CONTINUOUS
 62
     3
100
AcDbCircle
 10
176.227921
 20
384.262939
 30
0.0
 40
16.0
100
AcDbArc
 50
154.99998
 51
334.999943
  0
ARC
  5
A8
100
AcDbEntity
  8
LAY-1
  6
CONTINUOUS
 62
     3
100
AcDbCircle
 10
176.227921
 20
384.262939
 30
0.0
 40
15.0
100
AcDbArc
 50
154.999923
 51
335.0
  0
LINE
  5
A9
100
AcDbEntity
  8
LAY-1
  6
CONTINUOUS
 62
     3
100
AcDbLine
 10
189.822525
 20
377.923676
 30
0.0
 11
200.239487
 21
400.262939
 31
0.0
  0
LINE
  5
AA
100
AcDbEntity
  8
LAY-1
  6
CONTINUOUS
 62
     3
100
AcDbLine
 10
190.728836
 20
377.501038
 30
0.0
 11
201.34288
 21
400.262939
 31
0.0
  0
LINE
  5
AB
100
AcDbEntity
  8
LAY-1
  6
CONTINUOUS
 62
     3
100
AcDbLine
 10
166.034798
 20
400.262939
 30
0.0
 11
161.726997
 21
391.024841
 31
0.0
  0
LINE
  5
AC
100
AcDbEntity
  8
LAY-1
  6
CONTINUOUS
 62
     3
100
AcDbLine
 10
167.138168
 20
400.262939
 30
0.0
 11
162.633308
 21
390.602234
 31
0.0
  0
LINE
  5
AD
100
AcDbEntity
  8
LAY-1
  6
CONTINUOUS
 62
     3
100
AcDbLine
 10
171.741135
 20
399.817017
 30
0.0
 11
166.433495
 21
394.954956
 31
0.0
  0
LINE
  5
AE
100
AcDbEntity
  8
LAY-1
  6
CONTINUOUS
 62
     3
100
AcDbLine
 10
197.227921
 20
400.262939
 30
0.0
 11
189.906158
 21
379.450867
 31
0.0
  0
ARC
  5
AF
100
AcDbEntity
  8
LAY-1
  6
CONTINUOUS
 62
     3
100
AcDbCircle
 10
176.227921
 20
384.262939
 30
0.0
 40
14.5
100
AcDbArc
 50
132.491276
 51
340.617852
  0
LINE
  5
B0
100
AcDbEntity
  8
LAY-1
  6
CONTINUOUS
 62
     3
100
AcDbLine
 10
197.227921
 20
400.262939
 30
0.0
 11
201.34288
 21
400.262939
 31
0.0
  0
LINE
  5
B1
100
AcDbEntity
  8
LAY-1
  6
CONTINUOUS
 62
     3
100
AcDbLine
 10
172.227921
 20
400.923096
 30
0.0
 11
172.227921
 21
430.262939
 31
0.0
  0
LINE
  5
B2
100
AcDbEntity
  8
LAY-1
  6
CONTINUOUS
 62
     3
100
AcDbLine
 10
197.227921
 20
400.262939
 30
0.0
 11
197.227921
 21
430.262939
 31
0.0
  0
LINE
  5
B3
100
AcDbEntity
  8
LAY-1
  6
CONTINUOUS
 62
     3
100
AcDbLine
 10
175.227921
 20
433.262939
 30
0.0
 11
194.227921
 21
433.262939
 31
0.0
  0
ARC
  5
B4
100
AcDbEntity
  8
LAY-1
  6
CONTINUOUS
 62
     3
100
AcDbCircle
 10
175.227921
 20
430.262939
 30
0.0
 40
3.0
100
AcDbArc
 50
89.999981
 51
180.00002
  0
ARC
  5
B5
100
AcDbEntity
  8
LAY-1
  6
CONTINUOUS
 62
     3
100
AcDbCircle
 10
194.227921
 20
430.262939
 30
0.0
 40
3.0
100
AcDbArc
 50
0.0
 51
89.999981
  0
CIRCLE
  5
B6
100
AcDbEntity
  8
LAY-1
  6
DASHED2
 62
     3
100
AcDbCircle
 10
176.227921
 20
384.262939
 30
0.0
 40
6.25
  0
ARC
  5
B7
100
AcDbEntity
  8
LAY-1
  6
CONTINUOUS
 62
     3
100
AcDbCircle
 10
170.727921
 20
400.923096
 30
0.0
 40
1.5
100
AcDbArc
 50
312.491239
 51
359.999982
  0
LINE
  5
B8
100
AcDbEntity
  8
LAY-1
  6
CONTINUOUS
 62
     3
100
AcDbLine
 10
166.034798
 20
400.262939
 30
0.0
 11
172.074844
 21
400.262939
 31
0.0
  0
LINE
  5
B9
100
AcDbEntity
  8
LAY-1
  6
DASHED2
 62
     3
100
AcDbLine
 10
197.227921
 20
400.262939
 30
0.0
 11
172.074837
 21
400.262939
 31
0.0
  0
CIRCLE
  5
BA
100
AcDbEntity
  8
LAY-1
  6
CONTINUOUS
 62
     1
100
AcDbCircle
 10
178.227921
 20
428.262939
 30
0.0
 40
2.5
  0
CIRCLE
  5
BB
100
AcDbEntity
  8
LAY-1
  6
CONTINUOUS
 62
     3
100
AcDbCircle
 10
178.227921
 20
428.262939
 30
0.0
 40
2.0
  0
CIRCLE
  5
BC
100
AcDbEntity
  8
LAY-1
  6
CONTINUOUS
 62
     1
100
AcDbCircle
 10
178.227921
 20
410.262939
 30
0.0
 40
2.5
  0
CIRCLE
  5
BD
100
AcDbEntity
  8
LAY-1
  6
CONTINUOUS
 62
     3
100
AcDbCircle
 10
178.227921
 20
410.262939
 30
0.0
 40
2.0
  0
CIRCLE
  5
BE
100
AcDbEntity
  8
LAY-1
  6
CONTINUOUS
 62
     1
100
AcDbCircle
 10
191.227921
 20
410.262939
 30
0.0
 40
2.5
  0
CIRCLE
  5
BF
100
AcDbEntity
  8
LAY-1
  6
CONTINUOUS
 62
     3
100
AcDbCircle
 10
191.227921
 20
410.262939
 30
0.0
 40
2.0
  0
CIRCLE
  5
C0
100
AcDbEntity
  8
LAY-1
  6
CONTINUOUS
 62
     1
100
AcDbCircle
 10
191.227921
 20
428.262939
 30
0.0
 40
2.5
  0
CIRCLE
  5
C1
100
AcDbEntity
  8
LAY-1
  6
CONTINUOUS
 62
     3
100
AcDbCircle
 10
191.227921
 20
428.262939
 30
0.0
 40
2.0
  0
CIRCLE
  5
C2
100
AcDbEntity
  8
LAY-1
  6
CONTINUOUS
 62
     3
100
AcDbCircle
 10
176.227921
 20
384.262939
 30
0.0
 40
9.4
  0
LINE
  5
C3
100
AcDbEntity
  8
LAY-1
  6
DASHED2
 62
     3
100
AcDbLine
 10
602.929016
 20
416.148987
 30
0.0
 11
602.929016
 21
428.148987
 31
0.0
  0
LINE
  5
C4
100
AcDbEntity
  8
LAY-1
  6
CONTINUOUS
 62
     3
100
AcDbLine
 10
601.929016
 20
428.148987
 30
0.0
 11
601.929016
 21
416.148987
 31
0.0
  0
LINE
  5
C5
100
AcDbEntity
  8
LAY-1
  6
CONTINUOUS
 62
     3
100
AcDbLine
 10
602.929016
 20
415.148987
 30
0.0
 11
633.929016
 21
415.148987
 31
0.0
  0
LINE
  5
C6
100
AcDbEntity
  8
LAY-1
  6
DASHED2
 62
     3
100
AcDbLine
 10
602.929016
 20
416.148987
 30
0.0
 11
633.929016
 21
416.148987
 31
0.0
  0
LINE
  5
C7
100
AcDbEntity
  8
LAY-1
  6
CONTINUOUS
 62
     3
100
AcDbLine
 10
601.929016
 20
428.148987
 30
0.0
 11
665.929016
 21
428.148987
 31
0.0
  0
LINE
  5
C8
100
AcDbEntity
  8
LAY-1
  6
CONTINUOUS
 62
     3
100
AcDbLine
 10
665.929016
 20
421.648987
 30
0.0
 11
633.929016
 21
421.648987
 31
0.0
  0
LINE
  5
C9
100
AcDbEntity
  8
LAY-1
  6
CONTINUOUS
 62
     3
100
AcDbLine
 10
633.929016
 20
428.148987
 30
0.0
 11
633.929016
 21
415.148987
 31
0.0
  0
LINE
  5
CA
100
AcDbEntity
  8
LAY-1
  6
CONTINUOUS
 62
     3
100
AcDbLine
 10
666.929016
 20
427.148987
 30
0.0
 11
666.929016
 21
422.648987
 31
0.0
  0
ARC
  5
CB
100
AcDbEntity
  8
LAY-1
  6
CONTINUOUS
 62
     3
100
AcDbCircle
 10
665.929016
 20
427.148987
 30
0.0
 40
1.0
100
AcDbArc
 50
0.0
 51
89.999981
  0
ARC
  5
CC
100
AcDbEntity
  8
LAY-1
  6
CONTINUOUS
 62
     3
100
AcDbCircle
 10
665.929016
 20
422.648987
 30
0.0
 40
1.0
100
AcDbArc
 50
270.0
 51
359.999982
  0
ARC
  5
CD
100
AcDbEntity
  8
LAY-1
  6
CONTINUOUS
 62
     3
100
AcDbCircle
 10
602.929016
 20
416.148987
 30
0.0
 40
1.0
100
AcDbArc
 50
180.00002
 51
270.0
  0
LINE
  5
CE
100
AcDbEntity
  8
LAY-1
  6
CONTINUOUS
 62
     3
100
AcDbLine
 10
617.929016
 20
432.148987
 30
0.0
 11
623.329016
 21
432.148987
 31
0.0
  0
ARC
  5
CF
100
AcDbEntity
  8
LAY-1
  6
CONTINUOUS
 62
     3
100
AcDbCircle
 10
623.329016
 20
428.148987
 30
0.0
 40
4.0
100
AcDbArc
 50
0.0
 51
90.0
  0
LINE
  5
D0
100
AcDbEntity
  8
LAY-1
  6
CONTINUOUS
 62
     3
100
AcDbLine
 10
617.929016
 20
432.148987
 30
0.0
 11
612.529016
 21
432.148987
 31
0.0
  0
ARC
  5
D1
100
AcDbEntity
  8
LAY-1
  6
CONTINUOUS
 62
     3
100
AcDbCircle
 10
612.529016
 20
428.148987
 30
0.0
 40
4.0
100
AcDbArc
 50
90.0
 51
180.0
  0
LINE
  5
D2
100
AcDbEntity
  8
LAY-1
  6
DASHED2
 62
     3
100
AcDbLine
 10
611.429016
 20
430.948987
 30
0.0
 11
617.929016
 21
430.948987
 31
0.0
  0
LINE
  5
D3
100
AcDbEntity
  8
LAY-1
  6
DASHED2
 62
     3
100
AcDbLine
 10
611.129016
 20
430.648987
 30
0.0
 11
611.129016
 21
428.148987
 31
0.0
  0
ARC
  5
D4
100
AcDbEntity
  8
LAY-1
  6
DASHED2
 62
     3
100
AcDbCircle
 10
611.429016
 20
430.648987
 30
0.0
 40
0.3
100
AcDbArc
 50
90.0
 51
180.0
  0
LINE
  5
D5
100
AcDbEntity
  8
LAY-1
  6
DASHED2
 62
     3
100
AcDbLine
 10
624.429016
 20
430.948987
 30
0.0
 11
617.929016
 21
430.948987
 31
0.0
  0
LINE
  5
D6
100
AcDbEntity
  8
LAY-1
  6
DASHED2
 62
     3
100
AcDbLine
 10
624.729016
 20
430.648987
 30
0.0
 11
624.729016
 21
428.148987
 31
0.0
  0
ARC
  5
D7
100
AcDbEntity
  8
LAY-1
  6
DASHED2
 62
     3
100
AcDbCircle
 10
624.429016
 20
430.648987
 30
0.0
 40
0.3
100
AcDbArc
 50
0.0
 51
90.0
  0
ARC
  5
D8
100
AcDbEntity
  8
LAY-2
  6
CONTINUOUS
 62
     3
100
AcDbCircle
 10
176.227921
 20
271.262939
 30
0.0
 40
15.0
100
AcDbArc
 50
154.99998
 51
335.0
  0
ARC
  5
D9
100
AcDbEntity
  8
LAY-2
  6
CONTINUOUS
 62
     3
100
AcDbCircle
 10
176.227921
 20
271.262939
 30
0.0
 40
16.0
100
AcDbArc
 50
155.000038
 51
334.999943
  0
LINE
  5
DA
100
AcDbEntity
  8
LAY-2
  6
CONTINUOUS
 62
     3
100
AcDbLine
 10
167.433723
 20
290.262939
 30
0.0
 11
161.726997
 21
278.024826
 31
0.0
  0
LINE
  5
DB
100
AcDbEntity
  8
LAY-2
  6
CONTINUOUS
 62
     3
100
AcDbLine
 10
168.537086
 20
290.262939
 30
0.0
 11
162.633301
 21
277.602219
 31
0.0
  0
LINE
  5
DC
100
AcDbEntity
  8
LAY-2
  6
CONTINUOUS
 62
     3
100
AcDbLine
 10
201.638428
 20
290.262939
 30
0.0
 11
189.82254
 21
264.92366
 31
0.0
  0
LINE
  5
DD
100
AcDbEntity
  8
LAY-2
  6
CONTINUOUS
 62
     3
100
AcDbLine
 10
202.741806
 20
290.262939
 30
0.0
 11
190.728836
 21
264.501038
 31
0.0
  0
CIRCLE
  5
DE
100
AcDbEntity
  8
LAY-2
  6
CONTINUOUS
 62
     3
100
AcDbCircle
 10
176.227921
 20
271.262939
 30
0.0
 40
6.25
  0
CIRCLE
  5
DF
100
AcDbEntity
  8
LAY-2
  6
CONTINUOUS
 62
     1
100
AcDbCircle
 10
176.227921
 20
271.262939
 30
0.0
 40
7.5
  0
LINE
  5
E0
100
AcDbEntity
  8
LAY-2
  6
CONTINUOUS
 62
     3
100
AcDbLine
 10
198.227921
 20
290.262939
 30
0.0
 11
189.916107
 21
266.479248
 31
0.0
  0
LINE
  5
E1
100
AcDbEntity
  8
LAY-2
  6
CONTINUOUS
 62
     3
100
AcDbLine
 10
173.227921
 20
290.262939
 30
0.0
 11
165.112091
 21
280.573593
 31
0.0
  0
ARC
  5
E2
100
AcDbEntity
  8
LAY-2
  6
CONTINUOUS
 62
     3
100
AcDbCircle
 10
176.227921
 20
271.262939
 30
0.0
 40
14.5
100
AcDbArc
 50
140.050366
 51
340.73674
  0
LINE
  5
E3
100
AcDbEntity
  8
LAY-2
  6
CONTINUOUS
 62
     3
100
AcDbLine
 10
198.227921
 20
290.262939
 30
0.0
 11
202.741806
 21
290.262939
 31
0.0
  0
LINE
  5
E4
100
AcDbEntity
  8
LAY-2
  6
CONTINUOUS
 62
     3
100
AcDbLine
 10
173.227921
 20
290.262939
 30
0.0
 11
167.433723
 21
290.262939
 31
0.0
  0
LINE
  5
E5
100
AcDbEntity
  8
LAY-2
  6
DASHED2
 62
     3
100
AcDbLine
 10
173.227921
 20
290.262939
 30
0.0
 11
198.227921
 21
290.262939
 31
0.0
  0
LINE
  5
E6
100
AcDbEntity
  8
LAY-2
  6
CONTINUOUS
 62
     3
100
AcDbLine
 10
173.227921
 20
290.262939
 30
0.0
 11
173.227921
 21
317.262939
 31
0.0
  0
LINE
  5
E7
100
AcDbEntity
  8
LAY-2
  6
CONTINUOUS
 62
     3
100
AcDbLine
 10
198.227921
 20
290.262939
 30
0.0
 11
198.227921
 21
295.762939
 31
0.0
  0
LINE
  5
E8
100
AcDbEntity
  8
LAY-2
  6
CONTINUOUS
 62
     3
100
AcDbLine
 10
176.227921
 20
320.262939
 30
0.0
 11
210.227921
 21
320.262939
 31
0.0
  0
LINE
  5
E9
100
AcDbEntity
  8
LAY-2
  6
CONTINUOUS
 62
     3
100
AcDbLine
 10
198.727921
 20
296.262939
 30
0.0
 11
210.227921
 21
296.262939
 31
0.0
  0
LINE
  5
EA
100
AcDbEntity
  8
LAY-2
  6
CONTINUOUS
 62
     3
100
AcDbLine
 10
213.227921
 20
299.262939
 30
0.0
 11
213.227921
 21
317.262939
 31
0.0
  0
ARC
  5
EB
100
AcDbEntity
  8
LAY-2
  6
CONTINUOUS
 62
     3
100
AcDbCircle
 10
176.227921
 20
317.262939
 30
0.0
 40
3.0
100
AcDbArc
 50
89.999981
 51
180.00002
  0
ARC
  5
EC
100
AcDbEntity
  8
LAY-2
  6
CONTINUOUS
 62
     3
100
AcDbCircle
 10
210.227921
 20
317.262939
 30
0.0
 40
3.0
100
AcDbArc
 50
0.0
 51
89.999981
  0
ARC
  5
ED
100
AcDbEntity
  8
LAY-2
  6
CONTINUOUS
 62
     3
100
AcDbCircle
 10
210.227921
 20
299.262939
 30
0.0
 40
3.0
100
AcDbArc
 50
270.0
 51
359.999982
  0
ARC
  5
EE
100
AcDbEntity
  8
LAY-2
  6
CONTINUOUS
 62
     3
100
AcDbCircle
 10
198.727921
 20
295.762939
 30
0.0
 40
0.5
100
AcDbArc
 50
89.999981
 51
180.00002
  0
LINE
  5
EF
100
AcDbEntity
  8
LAY-2
  6
DASHED2
 62
     3
100
AcDbLine
 10
164.638657
 20
279.977234
 30
0.0
 11
172.526543
 21
276.299042
 31
0.0
  0
LINE
  5
F0
100
AcDbEntity
  8
LAY-2
  6
DASHED2
 62
     3
100
AcDbLine
 10
169.990845
 20
270.861206
 30
0.0
 11
162.102951
 21
274.539398
 31
0.0
  0
LINE
  5
F1
100
AcDbEntity
  8
LAY-2
  6
DASHED2
 62
     1
100
AcDbLine
 10
164.224854
 20
279.397827
 30
0.0
 11
172.230713
 21
275.664627
 31
0.0
  0
LINE
  5
F2
100
AcDbEntity
  8
LAY-2
  6
DASHED2
 62
     1
100
AcDbLine
 10
162.280815
 20
275.228821
 30
0.0
 11
170.286675
 21
271.495621
 31
0.0
  0
CIRCLE
  5
F3
100
AcDbEntity
  8
LAY-2
  6
CONTINUOUS
 62
     3
100
AcDbCircle
 10
180.227921
 20
302.262939
 30
0.0
 40
2.75
  0
CIRCLE
  5
F4
100
AcDbEntity
  8
LAY-2
  6
CONTINUOUS
 62
     3
100
AcDbCircle
 10
180.227921
 20
302.262939
 30
0.0
 40
5.0
  0
CIRCLE
  5
F5
100
AcDbEntity
  8
LAY-2
  6
CONTINUOUS
 62
     3
100
AcDbCircle
 10
180.227921
 20
314.262939
 30
0.0
 40
2.75
  0
CIRCLE
  5
F6
100
AcDbEntity
  8
LAY-2
  6
CONTINUOUS
 62
     3
100
AcDbCircle
 10
180.227921
 20
314.262939
 30
0.0
 40
5.0
  0
CIRCLE
  5
F7
100
AcDbEntity
  8
LAY-2
  6
CONTINUOUS
 62
     3
100
AcDbCircle
 10
204.227921
 20
302.262939
 30
0.0
 40
2.75
  0
CIRCLE
  5
F8
100
AcDbEntity
  8
LAY-2
  6
CONTINUOUS
 62
     3
100
AcDbCircle
 10
204.227921
 20
302.262939
 30
0.0
 40
5.0
  0
CIRCLE
  5
F9
100
AcDbEntity
  8
LAY-2
  6
CONTINUOUS
 62
     3
100
AcDbCircle
 10
204.227921
 20
314.262939
 30
0.0
 40
2.75
  0
CIRCLE
  5
FA
100
AcDbEntity
  8
LAY-2
  6
CONTINUOUS
 62
     3
100
AcDbCircle
 10
204.227921
 20
314.262939
 30
0.0
 40
5.0
  0
LINE
  5
FB
100
AcDbEntity
  8
LAY-2
  6
CONTINUOUS
 62
     3
100
AcDbLine
 10
601.929016
 20
412.148987
 30
0.0
 11
665.929016
 21
412.148987
 31
0.0
  0
LINE
  5
FC
100
AcDbEntity
  8
LAY-2
  6
CONTINUOUS
 62
     3
100
AcDbLine
 10
666.929016
 20
411.148987
 30
0.0
 11
666.929016
 21
404.148987
 31
0.0
  0
LINE
  5
FD
100
AcDbEntity
  8
LAY-2
  6
CONTINUOUS
 62
     3
100
AcDbLine
 10
665.929016
 20
403.148987
 30
0.0
 11
636.929016
 21
403.148987
 31
0.0
  0
LINE
  5
FE
100
AcDbEntity
  8
LAY-2
  6
CONTINUOUS
 62
     3
100
AcDbLine
 10
636.929016
 20
399.148987
 30
0.0
 11
636.929016
 21
412.148987
 31
0.0
  0
LINE
  5
FF
100
AcDbEntity
  8
LAY-2
  6
CONTINUOUS
 62
     3
100
AcDbLine
 10
636.929016
 20
399.148987
 30
0.0
 11
602.929016
 21
399.148987
 31
0.0
  0
LINE
  5
100
100
AcDbEntity
  8
LAY-2
  6
CONTINUOUS
 62
     3
100
AcDbLine
 10
601.929016
 20
400.148987
 30
0.0
 11
601.929016
 21
412.148987
 31
0.0
  0
LINE
  5
101
100
AcDbEntity
  8
LAY-2
  6
DASHED2
 62
     3
100
AcDbLine
 10
602.929016
 20
400.148987
 30
0.0
 11
602.929016
 21
412.148987
 31
0.0
  0
LINE
  5
102
100
AcDbEntity
  8
LAY-2
  6
DASHED2
 62
     3
100
AcDbLine
 10
602.929016
 20
400.148987
 30
0.0
 11
636.929016
 21
400.148987
 31
0.0
  0
ARC
  5
103
100
AcDbEntity
  8
LAY-2
  6
CONTINUOUS
 62
     3
100
AcDbCircle
 10
665.929016
 20
411.148987
 30
0.0
 40
1.0
100
AcDbArc
 50
0.0
 51
89.999981
  0
ARC
  5
104
100
AcDbEntity
  8
LAY-2
  6
CONTINUOUS
 62
     3
100
AcDbCircle
 10
665.929016
 20
404.148987
 30
0.0
 40
1.0
100
AcDbArc
 50
270.0
 51
359.999982
  0
ARC
  5
105
100
AcDbEntity
  8
LAY-2
  6
CONTINUOUS
 62
     3
100
AcDbCircle
 10
602.929016
 20
400.148987
 30
0.0
 40
1.0
100
AcDbArc
 50
180.00002
 51
270.0
  0
LINE
  5
106
100
AcDbEntity
  8
LAY-2
  6
CONTINUOUS
 62
     3
100
AcDbLine
 10
611.679016
 20
412.148987
 30
0.0
 11
611.679016
 21
415.148987
 31
0.0
  0
LINE
  5
107
100
AcDbEntity
  8
LAY-2
  6
CONTINUOUS
 62
     3
100
AcDbLine
 10
624.179016
 20
412.148987
 30
0.0
 11
624.179016
 21
415.148987
 31
0.0
  0
LINE
  5
108
100
AcDbEntity
  8
LAY-2
  6
DASHED2
 62
     3
100
AcDbLine
 10
646.429016
 20
406.648987
 30
0.0
 11
651.429016
 21
406.648987
 31
0.0
  0
LINE
  5
109
100
AcDbEntity
  8
LAY-2
  6
DASHED2
 62
     3
100
AcDbLine
 10
646.429016
 20
406.648987
 30
0.0
 11
643.929016
 21
409.148987
 31
0.0
  0
LINE
  5
10A
100
AcDbEntity
  8
LAY-2
  6
DASHED2
 62
     3
100
AcDbLine
 10
651.429016
 20
406.648987
 30
0.0
 11
653.929016
 21
409.148987
 31
0.0
  0
LINE
  5
10B
100
AcDbEntity
  8
LAY-2
  6
DASHED2
 62
     3
100
AcDbLine
 10
643.929016
 20
409.148987
 30
0.0
 11
653.929016
 21
409.148987
 31
0.0
  0
LINE
  5
10C
100
AcDbEntity
  8
LAY-2
  6
DASHED2
 62
     3
100
AcDbLine
 10
653.929016
 20
409.148987
 30
0.0
 11
653.929016
 21
412.148987
 31
0.0
  0
LINE
  5
10D
100
AcDbEntity
  8
LAY-2
  6
DASHED2
 62
     3
100
AcDbLine
 10
643.929016
 20
409.148987
 30
0.0
 11
643.929016
 21
412.148987
 31
0.0
  0
LINE
  5
10E
100
AcDbEntity
  8
LAY-2
  6
CONTINUOUS
 62
     3
100
AcDbLine
 10
646.429016
 20
397.148987
 30
0.0
 11
651.429016
 21
397.148987
 31
0.0
  0
LINE
  5
10F
100
AcDbEntity
  8
LAY-2
  6
CONTINUOUS
 62
     3
100
AcDbLine
 10
651.429016
 20
397.148987
 30
0.0
 11
651.429016
 21
399.948975
 31
0.0
  0
LINE
  5
110
100
AcDbEntity
  8
LAY-2
  6
DASHED2
 62
     3
100
AcDbLine
 10
651.429016
 20
399.948975
 30
0.0
 11
651.429016
 21
406.648987
 31
0.0
  0
LINE
  5
111
100
AcDbEntity
  8
LAY-2
  6
CONTINUOUS
 62
     1
100
AcDbLine
 10
650.929016
 20
399.948975
 30
0.0
 11
650.929016
 21
397.148987
 31
0.0
  0
LINE
  5
112
100
AcDbEntity
  8
LAY-2
  6
DASHED2
 62
     1
100
AcDbLine
 10
650.929016
 20
399.948975
 30
0.0
 11
650.929016
 21
406.648987
 31
0.0
  0
LINE
  5
113
100
AcDbEntity
  8
LAY-2
  6
CONTINUOUS
 62
     3
100
AcDbLine
 10
646.429016
 20
397.148987
 30
0.0
 11
646.429016
 21
399.948975
 31
0.0
  0
LINE
  5
114
100
AcDbEntity
  8
LAY-2
  6
CONTINUOUS
 62
     1
100
AcDbLine
 10
646.929016
 20
399.948975
 30
0.0
 11
646.929016
 21
397.148987
 31
0.0
  0
LINE
  5
115
100
AcDbEntity
  8
LAY-2
  6
DASHED2
 62
     3
100
AcDbLine
 10
646.429016
 20
399.948975
 30
0.0
 11
646.429016
 21
406.648987
 31
0.0
  0
LINE
  5
116
100
AcDbEntity
  8
LAY-2
  6
DASHED2
 62
     1
100
AcDbLine
 10
646.929016
 20
399.948975
 30
0.0
 11
646.929016
 21
406.648987
 31
0.0
  0
LINE
  5
117
100
AcDbEntity
  8
LAY-2
  6
DASHED2
 62
     3
100
AcDbLine
 10
658.429016
 20
406.648987
 30
0.0
 11
663.429016
 21
406.649017
 31
0.0
  0
LINE
  5
118
100
AcDbEntity
  8
LAY-2
  6
DASHED2
 62
     3
100
AcDbLine
 10
655.929016
 20
409.148987
 30
0.0
 11
665.929016
 21
409.149017
 31
0.0
  0
LINE
  5
119
100
AcDbEntity
  8
LAY-2
  6
DASHED2
 62
     3
100
AcDbLine
 10
655.929016
 20
409.148987
 30
0.0
 11
658.429016
 21
406.648987
 31
0.0
  0
LINE
  5
11A
100
AcDbEntity
  8
LAY-2
  6
DASHED2
 62
     3
100
AcDbLine
 10
665.929016
 20
409.149017
 30
0.0
 11
663.429016
 21
406.649017
 31
0.0
  0
LINE
  5
11B
100
AcDbEntity
  8
LAY-2
  6
DASHED2
 62
     3
100
AcDbLine
 10
655.929016
 20
409.148987
 30
0.0
 11
655.929016
 21
412.148987
 31
0.0
  0
LINE
  5
11C
100
AcDbEntity
  8
LAY-2
  6
DASHED2
 62
     3
100
AcDbLine
 10
665.929016
 20
409.149017
 30
0.0
 11
665.929016
 21
412.149017
 31
0.0
  0
LINE
  5
11D
100
AcDbEntity
  8
LAY-2
  6
CONTINUOUS
 62
     3
100
AcDbLine
 10
658.429016
 20
397.148987
 30
0.0
 11
663.429016
 21
397.149017
 31
0.0
  0
LINE
  5
11E
100
AcDbEntity
  8
LAY-2
  6
CONTINUOUS
 62
     3
100
AcDbLine
 10
663.429016
 20
397.149017
 30
0.0
 11
663.429016
 21
399.949005
 31
0.0
  0
LINE
  5
11F
100
AcDbEntity
  8
LAY-2
  6
CONTINUOUS
 62
     1
100
AcDbLine
 10
662.929016
 20
399.949005
 30
0.0
 11
662.929016
 21
397.149017
 31
0.0
  0
LINE
  5
120
100
AcDbEntity
  8
LAY-2
  6
CONTINUOUS
 62
     3
100
AcDbLine
 10
658.429016
 20
397.148987
 30
0.0
 11
658.429016
 21
399.948975
 31
0.0
  0
LINE
  5
121
100
AcDbEntity
  8
LAY-2
  6
CONTINUOUS
 62
     1
100
AcDbLine
 10
658.929016
 20
399.948975
 30
0.0
 11
658.929016
 21
397.148987
 31
0.0
  0
LINE
  5
122
100
AcDbEntity
  8
LAY-2
  6
DASHED2
 62
     3
100
AcDbLine
 10
658.429016
 20
399.948975
 30
0.0
 11
658.429016
 21
406.648987
 31
0.0
  0
LINE
  5
123
100
AcDbEntity
  8
LAY-2
  6
DASHED2
 62
     1
100
AcDbLine
 10
658.929016
 20
399.948975
 30
0.0
 11
658.929016
 21
406.648987
 31
0.0
  0
LINE
  5
124
100
AcDbEntity
  8
LAY-2
  6
DASHED2
 62
     3
100
AcDbLine
 10
663.429016
 20
399.949005
 30
0.0
 11
663.429016
 21
406.649017
 31
0.0
  0
LINE
  5
125
100
AcDbEntity
  8
LAY-2
  6
DASHED2
 62
     1
100
AcDbLine
 10
662.929016
 20
399.949005
 30
0.0
 11
662.929016
 21
406.649017
 31
0.0
  0
ARC
  5
126
100
AcDbEntity
  8
LAY-3
  6
DASHED2
 62
     3
100
AcDbCircle
 10
176.227921
 20
161.262924
 30
0.0
 40
15.0
100
AcDbArc
 50
154.99998
 51
335.0
  0
ARC
  5
127
100
AcDbEntity
  8
LAY-3
  6
CONTINUOUS
 62
     3
100
AcDbCircle
 10
176.227921
 20
161.262924
 30
0.0
 40
16.0
100
AcDbArc
 50
155.000038
 51
334.999943
  0
LINE
  5
128
100
AcDbEntity
  8
LAY-3
  6
CONTINUOUS
 62
     3
100
AcDbLine
 10
167.433723
 20
180.262924
 30
0.0
 11
161.726997
 21
168.024811
 31
0.0
  0
LINE
  5
129
100
AcDbEntity
  8
LAY-3
  6
DASHED2
 62
     3
100
AcDbLine
 10
168.537086
 20
180.262924
 30
0.0
 11
162.633301
 21
167.602203
 31
0.0
  0
LINE
  5
12A
100
AcDbEntity
  8
LAY-3
  6
DASHED2
 62
     3
100
AcDbLine
 10
201.638428
 20
180.262924
 30
0.0
 11
189.82254
 21
154.923645
 31
0.0
  0
LINE
  5
12B
100
AcDbEntity
  8
LAY-3
  6
CONTINUOUS
 62
     3
100
AcDbLine
 10
202.741806
 20
180.262924
 30
0.0
 11
190.728836
 21
154.501022
 31
0.0
  0
LINE
  5
12C
100
AcDbEntity
  8
LAY-3
  6
DASHED2
 62
     3
100
AcDbLine
 10
198.227921
 20
180.262924
 30
0.0
 11
189.916107
 21
156.479233
 31
0.0
  0
LINE
  5
12D
100
AcDbEntity
  8
LAY-3
  6
DASHED2
 62
     3
100
AcDbLine
 10
173.227921
 20
180.262924
 30
0.0
 11
165.112091
 21
170.573578
 31
0.0
  0
ARC
  5
12E
100
AcDbEntity
  8
LAY-3
  6
DASHED2
 62
     3
100
AcDbCircle
 10
176.227921
 20
161.262924
 30
0.0
 40
14.5
100
AcDbArc
 50
140.050366
 51
340.73674
  0
LINE
  5
12F
100
AcDbEntity
  8
LAY-3
  6
CONTINUOUS
 62
     3
100
AcDbLine
 10
202.741806
 20
180.262924
 30
0.0
 11
167.433723
 21
180.262924
 31
0.0
  0
LINE
  5
130
100
AcDbEntity
  8
LAY-3
  6
CONTINUOUS
 62
     3
100
AcDbLine
 10
173.227921
 20
180.262924
 30
0.0
 11
173.227921
 21
207.262924
 31
0.0
  0
LINE
  5
131
100
AcDbEntity
  8
LAY-3
  6
CONTINUOUS
 62
     3
100
AcDbLine
 10
198.227921
 20
180.262924
 30
0.0
 11
198.227921
 21
185.762924
 31
0.0
  0
LINE
  5
132
100
AcDbEntity
  8
LAY-3
  6
CONTINUOUS
 62
     3
100
AcDbLine
 10
176.227921
 20
210.262924
 30
0.0
 11
210.227921
 21
210.262924
 31
0.0
  0
LINE
  5
133
100
AcDbEntity
  8
LAY-3
  6
CONTINUOUS
 62
     3
100
AcDbLine
 10
198.727921
 20
186.262924
 30
0.0
 11
210.227921
 21
186.262924
 31
0.0
  0
LINE
  5
134
100
AcDbEntity
  8
LAY-3
  6
CONTINUOUS
 62
     3
100
AcDbLine
 10
213.227921
 20
189.262924
 30
0.0
 11
213.227921
 21
207.262924
 31
0.0
  0
ARC
  5
135
100
AcDbEntity
  8
LAY-3
  6
CONTINUOUS
 62
     3
100
AcDbCircle
 10
176.227921
 20
207.262924
 30
0.0
 40
3.0
100
AcDbArc
 50
89.999981
 51
180.00002
  0
ARC
  5
136
100
AcDbEntity
  8
LAY-3
  6
CONTINUOUS
 62
     3
100
AcDbCircle
 10
210.227921
 20
207.262924
 30
0.0
 40
3.0
100
AcDbArc
 50
0.0
 51
89.999981
  0
ARC
  5
137
100
AcDbEntity
  8
LAY-3
  6
CONTINUOUS
 62
     3
100
AcDbCircle
 10
210.227921
 20
189.262924
 30
0.0
 40
3.0
100
AcDbArc
 50
270.0
 51
359.999982
  0
ARC
  5
138
100
AcDbEntity
  8
LAY-3
  6
CONTINUOUS
 62
     3
100
AcDbCircle
 10
198.727921
 20
185.762924
 30
0.0
 40
0.5
100
AcDbArc
 50
89.999981
 51
180.00002
  0
CIRCLE
  5
139
100
AcDbEntity
  8
LAY-3
  6
CONTINUOUS
 62
     3
100
AcDbCircle
 10
180.227921
 20
192.262924
 30
0.0
 40
2.75
  0
CIRCLE
  5
13A
100
AcDbEntity
  8
LAY-3
  6
DASHED2
 62
     3
100
AcDbCircle
 10
180.227921
 20
192.262924
 30
0.0
 40
5.0
  0
CIRCLE
  5
13B
100
AcDbEntity
  8
LAY-3
  6
CONTINUOUS
 62
     3
100
AcDbCircle
 10
180.227921
 20
204.262924
 30
0.0
 40
2.75
  0
CIRCLE
  5
13C
100
AcDbEntity
  8
LAY-3
  6
DASHED2
 62
     3
100
AcDbCircle
 10
180.227921
 20
204.262924
 30
0.0
 40
5.0
  0
CIRCLE
  5
13D
100
AcDbEntity
  8
LAY-3
  6
CONTINUOUS
 62
     3
100
AcDbCircle
 10
204.227921
 20
192.262924
 30
0.0
 40
2.75
  0
CIRCLE
  5
13E
100
AcDbEntity
  8
LAY-3
  6
DASHED2
 62
     3
100
AcDbCircle
 10
204.227921
 20
192.262924
 30
0.0
 40
5.0
  0
CIRCLE
  5
13F
100
AcDbEntity
  8
LAY-3
  6
CONTINUOUS
 62
     3
100
AcDbCircle
 10
204.227921
 20
204.262924
 30
0.0
 40
2.75
  0
CIRCLE
  5
140
100
AcDbEntity
  8
LAY-3
  6
DASHED2
 62
     3
100
AcDbCircle
 10
204.227921
 20
204.262924
 30
0.0
 40
5.0
  0
CIRCLE
  5
141
100
AcDbEntity
  8
LAY-3
  6
DASHED2
 62
     3
100
AcDbCircle
 10
176.227921
 20
161.262924
 30
0.0
 40
12.0
  0
CIRCLE
  5
142
100
AcDbEntity
  8
LAY-3
  6
DASHED2
 62
     3
100
AcDbCircle
 10
176.227921
 20
161.262924
 30
0.0
 40
6.0
  0
LINE
  5
143
100
AcDbEntity
  8
LAY-3
  6
CONTINUOUS
 62
     3
100
AcDbLine
 10
602.929016
 20
228.148972
 30
0.0
 11
636.929016
 21
228.148972
 31
0.0
  0
LINE
  5
144
100
AcDbEntity
  8
LAY-3
  6
CONTINUOUS
 62
     3
100
AcDbLine
 10
601.929016
 20
215.148972
 30
0.0
 11
601.929016
 21
227.148972
 31
0.0
  0
LINE
  5
145
100
AcDbEntity
  8
LAY-3
  6
CONTINUOUS
 62
     3
100
AcDbLine
 10
601.929016
 20
215.148972
 30
0.0
 11
665.929016
 21
215.148972
 31
0.0
  0
LINE
  5
146
100
AcDbEntity
  8
LAY-3
  6
DASHED2
 62
     3
100
AcDbLine
 10
602.929016
 20
227.148972
 30
0.0
 11
636.929016
 21
227.148972
 31
0.0
  0
LINE
  5
147
100
AcDbEntity
  8
LAY-3
  6
DASHED2
 62
     3
100
AcDbLine
 10
602.929016
 20
227.148972
 30
0.0
 11
602.929016
 21
215.148972
 31
0.0
  0
LINE
  5
148
100
AcDbEntity
  8
LAY-3
  6
CONTINUOUS
 62
     3
100
AcDbLine
 10
636.929016
 20
228.148972
 30
0.0
 11
636.929016
 21
215.148972
 31
0.0
  0
LINE
  5
149
100
AcDbEntity
  8
LAY-3
  6
CONTINUOUS
 62
     3
100
AcDbLine
 10
636.929016
 20
224.148972
 30
0.0
 11
665.929016
 21
224.148972
 31
0.0
  0
LINE
  5
14A
100
AcDbEntity
  8
LAY-3
  6
CONTINUOUS
 62
     3
100
AcDbLine
 10
666.929016
 20
216.148972
 30
0.0
 11
666.929016
 21
223.148972
 31
0.0
  0
ARC
  5
14B
100
AcDbEntity
  8
LAY-3
  6
CONTINUOUS
 62
     3
100
AcDbCircle
 10
602.929016
 20
227.148972
 30
0.0
 40
1.0
100
AcDbArc
 50
89.999981
 51
180.00002
  0
ARC
  5
14C
100
AcDbEntity
  8
LAY-3
  6
CONTINUOUS
 62
     3
100
AcDbCircle
 10
665.929016
 20
223.148972
 30
0.0
 40
1.0
100
AcDbArc
 50
0.0
 51
89.999981
  0
ARC
  5
14D
100
AcDbEntity
  8
LAY-3
  6
CONTINUOUS
 62
     3
100
AcDbCircle
 10
665.929016
 20
216.148972
 30
0.0
 40
1.0
100
AcDbArc
 50
270.0
 51
359.999982
  0
LINE
  5
14E
100
AcDbEntity
  8
LAY-3
  6
DASHED2
 62
     3
100
AcDbLine
 10
663.429016
 20
220.648972
 30
0.0
 11
658.429016
 21
220.648972
 31
0.0
  0
LINE
  5
14F
100
AcDbEntity
  8
LAY-3
  6
DASHED2
 62
     3
100
AcDbLine
 10
665.929016
 20
218.148972
 30
0.0
 11
655.929016
 21
218.148972
 31
0.0
  0
LINE
  5
150
100
AcDbEntity
  8
LAY-3
  6
DASHED2
 62
     3
100
AcDbLine
 10
665.929016
 20
218.148972
 30
0.0
 11
663.429016
 21
220.648972
 31
0.0
  0
LINE
  5
151
100
AcDbEntity
  8
LAY-3
  6
DASHED2
 62
     3
100
AcDbLine
 10
655.929016
 20
218.148972
 30
0.0
 11
658.429016
 21
220.648972
 31
0.0
  0
LINE
  5
152
100
AcDbEntity
  8
LAY-3
  6
DASHED2
 62
     3
100
AcDbLine
 10
665.929016
 20
218.148972
 30
0.0
 11
665.929016
 21
215.148972
 31
0.0
  0
LINE
  5
153
100
AcDbEntity
  8
LAY-3
  6
DASHED2
 62
     3
100
AcDbLine
 10
655.929016
 20
218.148972
 30
0.0
 11
655.929016
 21
215.148972
 31
0.0
  0
LINE
  5
154
100
AcDbEntity
  8
LAY-3
  6
CONTINUOUS
 62
     3
100
AcDbLine
 10
663.429016
 20
230.148972
 30
0.0
 11
658.429016
 21
230.148972
 31
0.0
  0
LINE
  5
155
100
AcDbEntity
  8
LAY-3
  6
CONTINUOUS
 62
     3
100
AcDbLine
 10
663.429016
 20
229.648972
 30
0.0
 11
663.429016
 21
230.148972
 31
0.0
  0
LINE
  5
156
100
AcDbEntity
  8
LAY-3
  6
CONTINUOUS
 62
     1
100
AcDbLine
 10
662.929016
 20
229.648972
 30
0.0
 11
662.929016
 21
230.148972
 31
0.0
  0
LINE
  5
157
100
AcDbEntity
  8
LAY-3
  6
DASHED2
 62
     3
100
AcDbLine
 10
663.429016
 20
229.648972
 30
0.0
 11
663.429016
 21
220.648972
 31
0.0
  0
LINE
  5
158
100
AcDbEntity
  8
LAY-3
  6
DASHED2
 62
     1
100
AcDbLine
 10
662.929016
 20
229.648972
 30
0.0
 11
662.929016
 21
220.648972
 31
0.0
  0
LINE
  5
159
100
AcDbEntity
  8
LAY-3
  6
DASHED2
 62
     3
100
AcDbLine
 10
658.429016
 20
229.648972
 30
0.0
 11
658.429016
 21
220.648972
 31
0.0
  0
LINE
  5
15A
100
AcDbEntity
  8
LAY-3
  6
DASHED2
 62
     1
100
AcDbLine
 10
658.929016
 20
229.648972
 30
0.0
 11
658.929016
 21
220.648972
 31
0.0
  0
LINE
  5
15B
100
AcDbEntity
  8
LAY-3
  6
DASHED2
 62
     3
100
AcDbLine
 10
651.429016
 20
220.648972
 30
0.0
 11
646.429016
 21
220.648972
 31
0.0
  0
LINE
  5
15C
100
AcDbEntity
  8
LAY-3
  6
DASHED2
 62
     3
100
AcDbLine
 10
653.929016
 20
218.148972
 30
0.0
 11
643.929016
 21
218.148972
 31
0.0
  0
LINE
  5
15D
100
AcDbEntity
  8
LAY-3
  6
DASHED2
 62
     3
100
AcDbLine
 10
653.929016
 20
218.148972
 30
0.0
 11
651.429016
 21
220.648972
 31
0.0
  0
LINE
  5
15E
100
AcDbEntity
  8
LAY-3
  6
DASHED2
 62
     3
100
AcDbLine
 10
643.929016
 20
218.148972
 30
0.0
 11
646.429016
 21
220.648972
 31
0.0
  0
LINE
  5
15F
100
AcDbEntity
  8
LAY-3
  6
DASHED2
 62
     3
100
AcDbLine
 10
653.929016
 20
218.148972
 30
0.0
 11
653.929016
 21
215.148972
 31
0.0
  0
LINE
  5
160
100
AcDbEntity
  8
LAY-3
  6
DASHED2
 62
     3
100
AcDbLine
 10
643.929016
 20
218.148972
 30
0.0
 11
643.929016
 21
215.148972
 31
0.0
  0
LINE
  5
161
100
AcDbEntity
  8
LAY-3
  6
CONTINUOUS
 62
     3
100
AcDbLine
 10
651.429016
 20
230.148972
 30
0.0
 11
646.429016
 21
230.148972
 31
0.0
  0
LINE
  5
162
100
AcDbEntity
  8
LAY-3
  6
CONTINUOUS
 62
     3
100
AcDbLine
 10
651.429016
 20
229.648972
 30
0.0
 11
651.429016
 21
230.148972
 31
0.0
  0
LINE
  5
163
100
AcDbEntity
  8
LAY-3
  6
CONTINUOUS
 62
     1
100
AcDbLine
 10
650.929016
 20
229.648972
 30
0.0
 11
650.929016
 21
230.148972
 31
0.0
  0
LINE
  5
164
100
AcDbEntity
  8
LAY-3
  6
DASHED2
 62
     3
100
AcDbLine
 10
651.429016
 20
229.648972
 30
0.0
 11
651.429016
 21
220.648972
 31
0.0
  0
LINE
  5
165
100
AcDbEntity
  8
LAY-3
  6
DASHED2
 62
     1
100
AcDbLine
 10
650.929016
 20
229.648972
 30
0.0
 11
650.929016
 21
220.648972
 31
0.0
  0
LINE
  5
166
100
AcDbEntity
  8
LAY-3
  6
DASHED2
 62
     3
100
AcDbLine
 10
646.429016
 20
229.648972
 30
0.0
 11
646.429016
 21
220.648972
 31
0.0
  0
LINE
  5
167
100
AcDbEntity
  8
LAY-3
  6
DASHED2
 62
     1
100
AcDbLine
 10
646.929016
 20
229.648972
 30
0.0
 11
646.929016
 21
220.648972
 31
0.0
  0
LINE
  5
168
100
AcDbEntity
  8
LAY-3
  6
CONTINUOUS
 62
     3
100
AcDbLine
 10
658.429016
 20
229.648972
 30
0.0
 11
658.429016
 21
230.148972
 31
0.0
  0
LINE
  5
169
100
AcDbEntity
  8
LAY-3
  6
CONTINUOUS
 62
     1
100
AcDbLine
 10
658.929016
 20
229.648972
 30
0.0
 11
658.929016
 21
230.148972
 31
0.0
  0
LINE
  5
16A
100
AcDbEntity
  8
LAY-3
  6
CONTINUOUS
 62
     3
100
AcDbLine
 10
646.429016
 20
229.648972
 30
0.0
 11
646.429016
 21
230.148972
 31
0.0
  0
LINE
  5
16B
100
AcDbEntity
  8
LAY-3
  6
CONTINUOUS
 62
     1
100
AcDbLine
 10
646.929016
 20
229.648972
 30
0.0
 11
646.929016
 21
230.148972
 31
0.0
  0
ARC
  5
16C
100
AcDbEntity
  8
LAY-4
  6
CONTINUOUS
 62
     3
100
AcDbCircle
 10
381.227966
 20
384.262939
 30
0.0
 40
16.0
100
AcDbArc
 50
154.99998
 51
334.999943
  0
ARC
  5
16D
100
AcDbEntity
  8
LAY-4
  6
DASHED2
 62
     3
100
AcDbCircle
 10
381.227966
 20
384.262939
 30
0.0
 40
15.0
100
AcDbArc
 50
154.999923
 51
335.0
  0
LINE
  5
16E
100
AcDbEntity
  8
LAY-4
  6
DASHED2
 62
     3
100
AcDbLine
 10
394.822571
 20
377.923676
 30
0.0
 11
405.239502
 21
400.262939
 31
0.0
  0
LINE
  5
16F
100
AcDbEntity
  8
LAY-4
  6
CONTINUOUS
 62
     3
100
AcDbLine
 10
395.728882
 20
377.501038
 30
0.0
 11
406.342896
 21
400.262939
 31
0.0
  0
LINE
  5
170
100
AcDbEntity
  8
LAY-4
  6
CONTINUOUS
 62
     3
100
AcDbLine
 10
371.034821
 20
400.262939
 30
0.0
 11
366.72702
 21
391.024841
 31
0.0
  0
LINE
  5
171
100
AcDbEntity
  8
LAY-4
  6
DASHED2
 62
     3
100
AcDbLine
 10
372.138184
 20
400.262939
 30
0.0
 11
367.633331
 21
390.602234
 31
0.0
  0
LINE
  5
172
100
AcDbEntity
  8
LAY-4
  6
DASHED2
 62
     3
100
AcDbLine
 10
376.74115
 20
399.817017
 30
0.0
 11
371.433533
 21
394.954956
 31
0.0
  0
LINE
  5
173
100
AcDbEntity
  8
LAY-4
  6
DASHED2
 62
     3
100
AcDbLine
 10
402.227966
 20
400.262939
 30
0.0
 11
394.906189
 21
379.450867
 31
0.0
  0
ARC
  5
174
100
AcDbEntity
  8
LAY-4
  6
DASHED2
 62
     3
100
AcDbCircle
 10
381.227966
 20
384.262939
 30
0.0
 40
14.5
100
AcDbArc
 50
132.491276
 51
340.617852
  0
LINE
  5
175
100
AcDbEntity
  8
LAY-4
  6
CONTINUOUS
 62
     3
100
AcDbLine
 10
377.227966
 20
400.923096
 30
0.0
 11
377.227966
 21
430.262939
 31
0.0
  0
LINE
  5
176
100
AcDbEntity
  8
LAY-4
  6
CONTINUOUS
 62
     3
100
AcDbLine
 10
402.227966
 20
400.262939
 30
0.0
 11
402.227966
 21
430.262939
 31
0.0
  0
LINE
  5
177
100
AcDbEntity
  8
LAY-4
  6
CONTINUOUS
 62
     3
100
AcDbLine
 10
380.227966
 20
433.262939
 30
0.0
 11
399.227966
 21
433.262939
 31
0.0
  0
ARC
  5
178
100
AcDbEntity
  8
LAY-4
  6
CONTINUOUS
 62
     3
100
AcDbCircle
 10
380.227966
 20
430.262939
 30
0.0
 40
3.0
100
AcDbArc
 50
89.999981
 51
180.00002
  0
ARC
  5
179
100
AcDbEntity
  8
LAY-4
  6
CONTINUOUS
 62
     3
100
AcDbCircle
 10
399.227966
 20
430.262939
 30
0.0
 40
3.0
100
AcDbArc
 50
0.0
 51
89.999981
  0
ARC
  5
17A
100
AcDbEntity
  8
LAY-4
  6
CONTINUOUS
 62
     3
100
AcDbCircle
 10
375.727966
 20
400.923096
 30
0.0
 40
1.5
100
AcDbArc
 50
312.491239
 51
359.999982
  0
LINE
  5
17B
100
AcDbEntity
  8
LAY-4
  6
CONTINUOUS
 62
     3
100
AcDbLine
 10
371.034821
 20
400.262939
 30
0.0
 11
406.342896
 21
400.262939
 31
0.0
  0
CIRCLE
  5
17C
100
AcDbEntity
  8
LAY-4
  6
CONTINUOUS
 62
     3
100
AcDbCircle
 10
381.227966
 20
384.262939
 30
0.0
 40
11.0
  0
CIRCLE
  5
17D
100
AcDbEntity
  8
LAY-4
  6
CONTINUOUS
 62
     3
100
AcDbCircle
 10
381.227966
 20
384.262939
 30
0.0
 40
6.0
  0
CIRCLE
  5
17E
100
AcDbEntity
  8
LAY-4
  6
CONTINUOUS
 62
     3
100
AcDbCircle
 10
381.227966
 20
384.262939
 30
0.0
 40
5.0
  0
CIRCLE
  5
17F
100
AcDbEntity
  8
LAY-4
  6
CONTINUOUS
 62
     1
100
AcDbCircle
 10
383.227966
 20
428.262939
 30
0.0
 40
2.5
  0
CIRCLE
  5
180
100
AcDbEntity
  8
LAY-4
  6
CONTINUOUS
 62
     3
100
AcDbCircle
 10
383.227966
 20
428.262939
 30
0.0
 40
2.0
  0
CIRCLE
  5
181
100
AcDbEntity
  8
LAY-4
  6
CONTINUOUS
 62
     1
100
AcDbCircle
 10
383.227966
 20
410.262939
 30
0.0
 40
2.5
  0
CIRCLE
  5
182
100
AcDbEntity
  8
LAY-4
  6
CONTINUOUS
 62
     3
100
AcDbCircle
 10
383.227966
 20
410.262939
 30
0.0
 40
2.0
  0
CIRCLE
  5
183
100
AcDbEntity
  8
LAY-4
  6
CONTINUOUS
 62
     1
100
AcDbCircle
 10
396.227966
 20
410.262939
 30
0.0
 40
2.5
  0
CIRCLE
  5
184
100
AcDbEntity
  8
LAY-4
  6
CONTINUOUS
 62
     3
100
AcDbCircle
 10
396.227966
 20
410.262939
 30
0.0
 40
2.0
  0
CIRCLE
  5
185
100
AcDbEntity
  8
LAY-4
  6
CONTINUOUS
 62
     3
100
AcDbCircle
 10
396.227966
 20
428.262939
 30
0.0
 40
2.0
  0
CIRCLE
  5
186
100
AcDbEntity
  8
LAY-4
  6
CONTINUOUS
 62
     1
100
AcDbCircle
 10
396.227966
 20
428.262939
 30
0.0
 40
2.5
  0
LINE
  5
187
100
AcDbEntity
  8
LAY-4
  6
DASHED2
 62
     3
100
AcDbLine
 10
641.429016
 20
203.448972
 30
0.0
 11
646.429016
 21
203.448972
 31
0.0
  0
LINE
  5
188
100
AcDbEntity
  8
LAY-4
  6
DASHED2
 62
     3
100
AcDbLine
 10
646.429016
 20
203.448972
 30
0.0
 11
648.579016
 21
205.598972
 31
0.0
  0
LINE
  5
189
100
AcDbEntity
  8
LAY-4
  6
DASHED2
 62
     3
100
AcDbLine
 10
641.429016
 20
203.448972
 30
0.0
 11
639.279016
 21
205.598972
 31
0.0
  0
LINE
  5
18A
100
AcDbEntity
  8
LAY-4
  6
DASHED2
 62
     3
100
AcDbLine
 10
648.579016
 20
205.598972
 30
0.0
 11
639.279016
 21
205.598972
 31
0.0
  0
LINE
  5
18B
100
AcDbEntity
  8
LAY-4
  6
DASHED2
 62
     3
100
AcDbLine
 10
648.579016
 20
205.598972
 30
0.0
 11
648.579016
 21
206.148972
 31
0.0
  0
LINE
  5
18C
100
AcDbEntity
  8
LAY-4
  6
DASHED2
 62
     3
100
AcDbLine
 10
639.279016
 20
205.598972
 30
0.0
 11
639.279016
 21
206.148972
 31
0.0
  0
LINE
  5
18D
100
AcDbEntity
  8
LAY-4
  6
DASHED2
 62
     3
100
AcDbLine
 10
646.429016
 20
191.148972
 30
0.0
 11
646.429016
 21
203.448972
 31
0.0
  0
LINE
  5
18E
100
AcDbEntity
  8
LAY-4
  6
DASHED2
 62
     1
100
AcDbLine
 10
645.929016
 20
191.148972
 30
0.0
 11
645.929016
 21
203.448972
 31
0.0
  0
LINE
  5
18F
100
AcDbEntity
  8
LAY-4
  6
DASHED2
 62
     1
100
AcDbLine
 10
641.929016
 20
191.148972
 30
0.0
 11
641.929016
 21
203.448972
 31
0.0
  0
LINE
  5
190
100
AcDbEntity
  8
LAY-4
  6
DASHED2
 62
     3
100
AcDbLine
 10
641.429016
 20
191.148972
 30
0.0
 11
641.429016
 21
203.448972
 31
0.0
  0
LINE
  5
191
100
AcDbEntity
  8
LAY-4
  6
CONTINUOUS
 62
     3
100
AcDbLine
 10
641.429016
 20
185.598972
 30
0.0
 11
646.429016
 21
185.598972
 31
0.0
  0
LINE
  5
192
100
AcDbEntity
  8
LAY-4
  6
CONTINUOUS
 62
     3
100
AcDbLine
 10
646.429016
 20
185.598972
 30
0.0
 11
646.429016
 21
191.148972
 31
0.0
  0
LINE
  5
193
100
AcDbEntity
  8
LAY-4
  6
CONTINUOUS
 62
     1
100
AcDbLine
 10
645.929016
 20
185.598972
 30
0.0
 11
645.929016
 21
191.148972
 31
0.0
  0
LINE
  5
194
100
AcDbEntity
  8
LAY-4
  6
CONTINUOUS
 62
     1
100
AcDbLine
 10
641.929016
 20
185.598972
 30
0.0
 11
641.929016
 21
191.148972
 31
0.0
  0
LINE
  5
195
100
AcDbEntity
  8
LAY-4
  6
CONTINUOUS
 62
     3
100
AcDbLine
 10
641.429016
 20
185.598972
 30
0.0
 11
641.429016
 21
191.148972
 31
0.0
  0
LINE
  5
196
100
AcDbEntity
  8
LAY-4
  6
DASHED2
 62
     3
100
AcDbLine
 10
659.429016
 20
203.448972
 30
0.0
 11
664.429016
 21
203.448972
 31
0.0
  0
LINE
  5
197
100
AcDbEntity
  8
LAY-4
  6
DASHED2
 62
     3
100
AcDbLine
 10
664.429016
 20
203.448972
 30
0.0
 11
666.579016
 21
205.598972
 31
0.0
  0
LINE
  5
198
100
AcDbEntity
  8
LAY-4
  6
DASHED2
 62
     3
100
AcDbLine
 10
659.429016
 20
203.448972
 30
0.0
 11
657.279016
 21
205.598972
 31
0.0
  0
LINE
  5
199
100
AcDbEntity
  8
LAY-4
  6
DASHED2
 62
     3
100
AcDbLine
 10
666.579016
 20
205.598972
 30
0.0
 11
657.279016
 21
205.598972
 31
0.0
  0
LINE
  5
19A
100
AcDbEntity
  8
LAY-4
  6
DASHED2
 62
     3
100
AcDbLine
 10
666.579016
 20
205.598972
 30
0.0
 11
666.579016
 21
206.148972
 31
0.0
  0
LINE
  5
19B
100
AcDbEntity
  8
LAY-4
  6
DASHED2
 62
     3
100
AcDbLine
 10
657.279016
 20
205.598972
 30
0.0
 11
657.279016
 21
206.148972
 31
0.0
  0
LINE
  5
19C
100
AcDbEntity
  8
LAY-4
  6
DASHED2
 62
     3
100
AcDbLine
 10
664.429016
 20
191.148972
 30
0.0
 11
664.429016
 21
203.448972
 31
0.0
  0
LINE
  5
19D
100
AcDbEntity
  8
LAY-4
  6
DASHED2
 62
     1
100
AcDbLine
 10
663.929016
 20
191.148972
 30
0.0
 11
663.929016
 21
203.448972
 31
0.0
  0
LINE
  5
19E
100
AcDbEntity
  8
LAY-4
  6
DASHED2
 62
     1
100
AcDbLine
 10
659.929016
 20
191.148972
 30
0.0
 11
659.929016
 21
203.448972
 31
0.0
  0
LINE
  5
19F
100
AcDbEntity
  8
LAY-4
  6
DASHED2
 62
     3
100
AcDbLine
 10
659.429016
 20
191.148972
 30
0.0
 11
659.429016
 21
203.448972
 31
0.0
  0
LINE
  5
1A0
100
AcDbEntity
  8
LAY-4
  6
CONTINUOUS
 62
     3
100
AcDbLine
 10
659.429016
 20
185.598972
 30
0.0
 11
664.429016
 21
185.598972
 31
0.0
  0
LINE
  5
1A1
100
AcDbEntity
  8
LAY-4
  6
CONTINUOUS
 62
     3
100
AcDbLine
 10
664.429016
 20
185.598972
 30
0.0
 11
664.429016
 21
191.148972
 31
0.0
  0
LINE
  5
1A2
100
AcDbEntity
  8
LAY-4
  6
CONTINUOUS
 62
     1
100
AcDbLine
 10
663.929016
 20
185.598972
 30
0.0
 11
663.929016
 21
191.148972
 31
0.0
  0
LINE
  5
1A3
100
AcDbEntity
  8
LAY-4
  6
CONTINUOUS
 62
     1
100
AcDbLine
 10
659.929016
 20
185.598972
 30
0.0
 11
659.929016
 21
191.148972
 31
0.0
  0
LINE
  5
1A4
100
AcDbEntity
  8
LAY-4
  6
CONTINUOUS
 62
     3
100
AcDbLine
 10
659.429016
 20
185.598972
 30
0.0
 11
659.429016
 21
191.148972
 31
0.0
  0
LINE
  5
1A5
100
AcDbEntity
  8
LAY-4
  6
CONTINUOUS
 62
     3
100
AcDbLine
 10
633.929016
 20
190.648972
 30
0.0
 11
633.929016
 21
203.648972
 31
0.0
  0
LINE
  5
1A6
100
AcDbEntity
  8
LAY-4
  6
CONTINUOUS
 62
     3
100
AcDbLine
 10
633.929016
 20
203.648972
 30
0.0
 11
602.929016
 21
203.648972
 31
0.0
  0
LINE
  5
1A7
100
AcDbEntity
  8
LAY-4
  6
CONTINUOUS
 62
     3
100
AcDbLine
 10
633.929016
 20
199.648972
 30
0.0
 11
665.929016
 21
199.648972
 31
0.0
  0
LINE
  5
1A8
100
AcDbEntity
  8
LAY-4
  6
CONTINUOUS
 62
     3
100
AcDbLine
 10
666.929016
 20
198.648972
 30
0.0
 11
666.929016
 21
191.648972
 31
0.0
  0
LINE
  5
1A9
100
AcDbEntity
  8
LAY-4
  6
CONTINUOUS
 62
     3
100
AcDbLine
 10
601.929016
 20
202.648972
 30
0.0
 11
601.929016
 21
190.648972
 31
0.0
  0
LINE
  5
1AA
100
AcDbEntity
  8
LAY-4
  6
DASHED2
 62
     3
100
AcDbLine
 10
602.929016
 20
202.648972
 30
0.0
 11
633.929016
 21
202.648972
 31
0.0
  0
LINE
  5
1AB
100
AcDbEntity
  8
LAY-4
  6
DASHED2
 62
     3
100
AcDbLine
 10
602.929016
 20
190.648972
 30
0.0
 11
602.929016
 21
202.648972
 31
0.0
  0
ARC
  5
1AC
100
AcDbEntity
  8
LAY-4
  6
CONTINUOUS
 62
     3
100
AcDbCircle
 10
602.929016
 20
202.648972
 30
0.0
 40
1.0
100
AcDbArc
 50
89.999981
 51
180.00002
  0
ARC
  5
1AD
100
AcDbEntity
  8
LAY-4
  6
CONTINUOUS
 62
     3
100
AcDbCircle
 10
665.929016
 20
198.648972
 30
0.0
 40
1.0
100
AcDbArc
 50
0.0
 51
89.999981
  0
LINE
  5
1AE
100
AcDbEntity
  8
LAY-4
  6
CONTINUOUS
 62
     3
100
AcDbLine
 10
665.929016
 20
190.648972
 30
0.0
 11
601.929016
 21
190.648972
 31
0.0
  0
ARC
  5
1AF
100
AcDbEntity
  8
LAY-4
  6
CONTINUOUS
 62
     3
100
AcDbCircle
 10
665.929016
 20
191.648972
 30
0.0
 40
1.0
100
AcDbArc
 50
270.0
 51
359.999982
  0
LINE
  5
1B0
100
AcDbEntity
  8
LAY-4
  6
CONTINUOUS
 62
     3
100
AcDbLine
 10
606.929016
 20
203.648972
 30
0.0
 11
606.929016
 21
215.148972
 31
0.0
  0
LINE
  5
1B1
100
AcDbEntity
  8
LAY-4
  6
CONTINUOUS
 62
     3
100
AcDbLine
 10
628.929016
 20
203.648972
 30
0.0
 11
628.929016
 21
215.148972
 31
0.0
  0
LINE
  5
1B2
100
AcDbEntity
  8
LAY-5
  6
DASHDOT
 62
     1
100
AcDbLine
 10
381.227966
 20
364.4
 30
0.0
 11
381.227966
 21
454.22757
 31
0.0
  0
LINE
  5
1B3
100
AcDbEntity
  8
LAY-5
  6
DASHDOT
 62
     1
100
AcDbLine
 10
360.3
 20
384.262939
 30
0.0
 11
418.227966
 21
384.262939
 31
0.0
  0
LINE
  5
1B4
100
AcDbEntity
  8
LAY-5
  6
DASHDOT
 62
     1
100
AcDbLine
 10
378.227966
 20
428.262939
 30
0.0
 11
388.227966
 21
428.262939
 31
0.0
  0
LINE
  5
1B5
100
AcDbEntity
  8
LAY-5
  6
DASHDOT
 62
     1
100
AcDbLine
 10
383.227966
 20
433.262939
 30
0.0
 11
383.227966
 21
420.762939
 31
0.0
  0
LINE
  5
1B6
100
AcDbEntity
  8
LAY-5
  6
DASHDOT
 62
     1
100
AcDbLine
 10
378.227966
 20
410.262939
 30
0.0
 11
388.227966
 21
410.262939
 31
0.0
  0
LINE
  5
1B7
100
AcDbEntity
  8
LAY-5
  6
DASHDOT
 62
     1
100
AcDbLine
 10
383.227966
 20
415.262939
 30
0.0
 11
383.227966
 21
405.262939
 31
0.0
  0
LINE
  5
1B8
100
AcDbEntity
  8
LAY-5
  6
DASHDOT
 62
     1
100
AcDbLine
 10
391.227966
 20
410.262939
 30
0.0
 11
401.227966
 21
410.262939
 31
0.0
  0
LINE
  5
1B9
100
AcDbEntity
  8
LAY-5
  6
DASHDOT
 62
     1
100
AcDbLine
 10
391.227966
 20
428.262939
 30
0.0
 11
401.227966
 21
428.262939
 31
0.0
  0
LINE
  5
1BA
100
AcDbEntity
  8
LAY-5
  6
DASHDOT
 62
     1
100
AcDbLine
 10
396.227966
 20
433.262939
 30
0.0
 11
396.227966
 21
420.762939
 31
0.0
  0
LINE
  5
1BB
100
AcDbEntity
  8
LAY-5
  6
DASHDOT
 62
     1
100
AcDbLine
 10
396.227966
 20
415.262939
 30
0.0
 11
396.227966
 21
405.262939
 31
0.0
  0
LINE
  5
1BC
100
AcDbEntity
  8
LAY-5
  6
DASHDOT
 62
     1
100
AcDbLine
 10
180.227921
 20
211.262924
 30
0.0
 11
180.227921
 21
185.262924
 31
0.0
  0
LINE
  5
1BD
100
AcDbEntity
  8
LAY-5
  6
DASHDOT
 62
     1
100
AcDbLine
 10
204.227921
 20
211.262924
 30
0.0
 11
204.227921
 21
185.262924
 31
0.0
  0
LINE
  5
1BE
100
AcDbEntity
  8
LAY-5
  6
DASHDOT
 62
     1
100
AcDbLine
 10
197.227921
 20
204.262924
 30
0.0
 11
211.227921
 21
204.262924
 31
0.0
  0
LINE
  5
1BF
100
AcDbEntity
  8
LAY-5
  6
DASHDOT
 62
     1
100
AcDbLine
 10
197.227921
 20
192.262924
 30
0.0
 11
211.227921
 21
192.262924
 31
0.0
  0
LINE
  5
1C0
100
AcDbEntity
  8
LAY-5
  6
DASHDOT
 62
     1
100
AcDbLine
 10
173.227921
 20
192.262924
 30
0.0
 11
187.227921
 21
192.262924
 31
0.0
  0
LINE
  5
1C1
100
AcDbEntity
  8
LAY-5
  6
DASHDOT
 62
     1
100
AcDbLine
 10
173.227921
 20
204.262924
 30
0.0
 11
187.227921
 21
204.262924
 31
0.0
  0
LINE
  5
1C2
100
AcDbEntity
  8
LAY-5
  6
DASHDOT
 62
     1
100
AcDbLine
 10
173.559341
 20
272.507324
 30
0.0
 11
160.265564
 21
278.706314
 31
0.0
  0
LINE
  5
1C3
100
AcDbEntity
  8
LAY-5
  6
DASHDOT
 62
     1
100
AcDbLine
 10
180.227921
 20
321.262939
 30
0.0
 11
180.227921
 21
295.262939
 31
0.0
  0
LINE
  5
1C4
100
AcDbEntity
  8
LAY-5
  6
DASHDOT
 62
     1
100
AcDbLine
 10
204.227921
 20
321.262939
 30
0.0
 11
204.227921
 21
295.262939
 31
0.0
  0
LINE
  5
1C5
100
AcDbEntity
  8
LAY-5
  6
DASHDOT
 62
     1
100
AcDbLine
 10
197.227921
 20
302.262939
 30
0.0
 11
211.227921
 21
302.262939
 31
0.0
  0
LINE
  5
1C6
100
AcDbEntity
  8
LAY-5
  6
DASHDOT
 62
     1
100
AcDbLine
 10
173.227921
 20
302.262939
 30
0.0
 11
187.227921
 21
302.262939
 31
0.0
  0
LINE
  5
1C7
100
AcDbEntity
  8
LAY-5
  6
DASHDOT
 62
     1
100
AcDbLine
 10
173.227921
 20
314.262939
 30
0.0
 11
187.227921
 21
314.262939
 31
0.0
  0
LINE
  5
1C8
100
AcDbEntity
  8
LAY-5
  6
DASHDOT
 62
     1
100
AcDbLine
 10
197.227921
 20
314.262939
 30
0.0
 11
211.227921
 21
314.262939
 31
0.0
  0
LINE
  5
1C9
100
AcDbEntity
  8
LAY-5
  6
DASHDOT
 62
     1
100
AcDbLine
 10
155.3
 20
384.262939
 30
0.0
 11
213.227921
 21
384.262939
 31
0.0
  0
LINE
  5
1CA
100
AcDbEntity
  8
LAY-5
  6
DASHDOT
 62
     1
100
AcDbLine
 10
176.227921
 20
364.0
 30
0.0
 11
176.227921
 21
449.22757
 31
0.0
  0
LINE
  5
1CB
100
AcDbEntity
  8
LAY-5
  6
DASHDOT
 62
     1
100
AcDbLine
 10
176.227921
 20
250.5
 30
0.0
 11
176.227921
 21
327.7
 31
0.0
  0
LINE
  5
1CC
100
AcDbEntity
  8
LAY-5
  6
DASHDOT
 62
     1
100
AcDbLine
 10
155.2
 20
271.262939
 30
0.0
 11
213.227921
 21
271.262939
 31
0.0
  0
LINE
  5
1CD
100
AcDbEntity
  8
LAY-5
  6
DASHDOT
 62
     1
100
AcDbLine
 10
155.4
 20
161.262924
 30
0.0
 11
213.227921
 21
161.262924
 31
0.0
  0
LINE
  5
1CE
100
AcDbEntity
  8
LAY-5
  6
DASHDOT
 62
     1
100
AcDbLine
 10
176.227921
 20
140.5
 30
0.0
 11
176.227921
 21
217.9
 31
0.0
  0
LINE
  5
1CF
100
AcDbEntity
  8
LAY-5
  6
DASHDOT
 62
     1
100
AcDbLine
 10
173.227921
 20
428.262939
 30
0.0
 11
183.227921
 21
428.262939
 31
0.0
  0
LINE
  5
1D0
100
AcDbEntity
  8
LAY-5
  6
DASHDOT
 62
     1
100
AcDbLine
 10
178.227921
 20
433.262939
 30
0.0
 11
178.227921
 21
420.762939
 31
0.0
  0
LINE
  5
1D1
100
AcDbEntity
  8
LAY-5
  6
DASHDOT
 62
     1
100
AcDbLine
 10
178.227921
 20
415.262939
 30
0.0
 11
178.227921
 21
405.262939
 31
0.0
  0
LINE
  5
1D2
100
AcDbEntity
  8
LAY-5
  6
DASHDOT
 62
     1
100
AcDbLine
 10
173.227921
 20
410.262939
 30
0.0
 11
183.227921
 21
410.262939
 31
0.0
  0
LINE
  5
1D3
100
AcDbEntity
  8
LAY-5
  6
DASHDOT
 62
     1
100
AcDbLine
 10
186.227921
 20
410.262939
 30
0.0
 11
196.227921
 21
410.262939
 31
0.0
  0
LINE
  5
1D4
100
AcDbEntity
  8
LAY-5
  6
DASHDOT
 62
     1
100
AcDbLine
 10
191.227921
 20
415.262939
 30
0.0
 11
191.227921
 21
405.262939
 31
0.0
  0
LINE
  5
1D5
100
AcDbEntity
  8
LAY-5
  6
DASHDOT
 62
     1
100
AcDbLine
 10
191.227921
 20
433.262939
 30
0.0
 11
191.227921
 21
420.762939
 31
0.0
  0
LINE
  5
1D6
100
AcDbEntity
  8
LAY-5
  6
DASHDOT
 62
     1
100
AcDbLine
 10
186.227921
 20
428.262939
 30
0.0
 11
196.227921
 21
428.262939
 31
0.0
  0
LINE
  5
1D7
100
AcDbEntity
  8
LAY-5
  6
DASHDOT
 62
     1
100
AcDbLine
 10
617.929016
 20
449.080292
 30
0.0
 11
617.929016
 21
380.112183
 31
0.0
  0
LINE
  5
1D8
100
AcDbEntity
  8
LAY-5
  6
DASHDOT
 62
     1
100
AcDbLine
 10
648.929016
 20
393.071655
 30
0.0
 11
648.929016
 21
414.354889
 31
0.0
  0
LINE
  5
1D9
100
AcDbEntity
  8
LAY-5
  6
DASHDOT
 62
     1
100
AcDbLine
 10
660.929016
 20
393.071686
 30
0.0
 11
660.929016
 21
414.354919
 31
0.0
  0
LINE
  5
1DA
100
AcDbEntity
  8
LAY-5
  6
DASHDOT
 62
     1
100
AcDbLine
 10
617.929016
 20
242.092987
 30
0.0
 11
617.929016
 21
172.125687
 31
0.0
  0
LINE
  5
1DB
100
AcDbEntity
  8
LAY-5
  6
DASHDOT
 62
     1
100
AcDbLine
 10
648.929016
 20
234.226303
 30
0.0
 11
648.929016
 21
212.943069
 31
0.0
  0
LINE
  5
1DC
100
AcDbEntity
  8
LAY-5
  6
DASHDOT
 62
     1
100
AcDbLine
 10
660.929016
 20
234.226303
 30
0.0
 11
660.929016
 21
212.943069
 31
0.0
  0
LINE
  5
1DD
100
AcDbEntity
  8
LAY-5
  6
CONTINUOUS
 62
     1
100
AcDbLine
 10
643.929016
 20
437.2
 30
0.0
 11
643.929016
 21
413.8
 31
0.0
  0
LINE
  5
1DE
100
AcDbEntity
  8
LAY-5
  6
CONTINUOUS
 62
     1
100
AcDbLine
 10
661.929016
 20
437.2
 30
0.0
 11
661.929016
 21
413.7
 31
0.0
  0
LINE
  5
1DF
100
AcDbEntity
  8
LAY-5
  6
CONTINUOUS
 62
     1
100
AcDbLine
 10
643.929016
 20
207.1
 30
0.0
 11
643.929016
 21
184.7
 31
0.0
  0
LINE
  5
1E0
100
AcDbEntity
  8
LAY-5
  6
CONTINUOUS
 62
     1
100
AcDbLine
 10
661.929016
 20
207.1
 30
0.0
 11
661.929016
 21
184.7
 31
0.0
  0
LINE
  5
1E1
100
AcDbEntity
  8
LAY-6
  6
CONTINUOUS
 62
     1
100
AcDbLine
 10
601.429016
 20
428.148987
 30
0.0
 11
585.929016
 21
428.148987
 31
0.0
  0
LINE
  5
1E2
100
AcDbEntity
  8
LAY-6
  6
CONTINUOUS
 62
     1
100
AcDbLine
 10
602.429016
 20
415.148987
 30
0.0
 11
585.929016
 21
415.148987
 31
0.0
  0
TEXT
  5
1E3
100
AcDbEntity
  8
LAY-6
  6
CONTINUOUS
 62
     2
100
AcDbText
 10
586.429016
 20
417.648987
 30
0.0
 40
5.0
  1
１３
 50
90.0
 41
0.672
  7
EXCADSTD
 72
     5
 11
586.429016
 21
424.981787
 31
0.0
100
AcDbText
  0
LINE
  5
1E4
100
AcDbEntity
  8
LAY-6
  6
CONTINUOUS
 62
     1
100
AcDbLine
 10
601.429016
 20
412.148987
 30
0.0
 11
585.929016
 21
412.148987
 31
0.0
  0
LINE
  5
1E5
100
AcDbEntity
  8
LAY-6
  6
CONTINUOUS
 62
     1
100
AcDbLine
 10
602.429016
 20
399.148987
 30
0.0
 11
585.929016
 21
399.148987
 31
0.0
  0
TEXT
  5
1E6
100
AcDbEntity
  8
LAY-6
  6
CONTINUOUS
 62
     2
100
AcDbText
 10
586.429016
 20
401.648987
 30
0.0
 40
5.0
  1
１３
 50
90.0
 41
0.672
  7
EXCADSTD
 72
     5
 11
586.429016
 21
408.981787
 31
0.0
100
AcDbText
  0
LINE
  5
1E7
100
AcDbEntity
  8
LAY-6
  6
CONTINUOUS
 62
     1
100
AcDbLine
 10
586.929016
 20
412.148987
 30
0.0
 11
586.929016
 21
399.148987
 31
0.0
  0
LINE
  5
1E8
100
AcDbEntity
  8
LAY-6
  6
CONTINUOUS
 62
     1
100
AcDbLine
 10
587.179016
 20
410.648987
 30
0.0
 11
586.929016
 21
412.148987
 31
0.0
  0
LINE
  5
1E9
100
AcDbEntity
  8
LAY-6
  6
CONTINUOUS
 62
     1
100
AcDbLine
 10
586.929016
 20
412.148987
 30
0.0
 11
586.679016
 21
410.648987
 31
0.0
  0
LINE
  5
1EA
100
AcDbEntity
  8
LAY-6
  6
CONTINUOUS
 62
     1
100
AcDbLine
 10
586.679016
 20
400.648987
 30
0.0
 11
586.929016
 21
399.148987
 31
0.0
  0
LINE
  5
1EB
100
AcDbEntity
  8
LAY-6
  6
CONTINUOUS
 62
     1
100
AcDbLine
 10
586.929016
 20
399.148987
 30
0.0
 11
587.179016
 21
400.648987
 31
0.0
  0
LINE
  5
1EC
100
AcDbEntity
  8
LAY-6
  6
CONTINUOUS
 62
     1
100
AcDbLine
 10
617.929016
 20
390.299408
 30
0.0
 11
617.929016
 21
378.148987
 31
0.0
  0
TEXT
  5
1ED
100
AcDbEntity
  8
LAY-6
  6
CONTINUOUS
 62
     2
100
AcDbText
 10
623.429016
 20
379.648987
 30
0.0
 40
5.0
  1
１９
 41
0.672
  7
EXCADSTD
 72
     5
 11
630.761816
 21
379.648987
 31
0.0
100
AcDbText
  0
LINE
  5
1EE
100
AcDbEntity
  8
LAY-6
  6
CONTINUOUS
 62
     1
100
AcDbLine
 10
617.929016
 20
379.148987
 30
0.0
 11
636.929016
 21
379.148987
 31
0.0
  0
LINE
  5
1EF
100
AcDbEntity
  8
LAY-6
  6
CONTINUOUS
 62
     1
100
AcDbLine
 10
619.429016
 20
379.398987
 30
0.0
 11
617.929016
 21
379.148987
 31
0.0
  0
LINE
  5
1F0
100
AcDbEntity
  8
LAY-6
  6
CONTINUOUS
 62
     1
100
AcDbLine
 10
617.929016
 20
379.148987
 30
0.0
 11
619.429016
 21
378.898987
 31
0.0
  0
LINE
  5
1F1
100
AcDbEntity
  8
LAY-6
  6
CONTINUOUS
 62
     1
100
AcDbLine
 10
635.429016
 20
378.898987
 30
0.0
 11
636.929016
 21
379.148987
 31
0.0
  0
LINE
  5
1F2
100
AcDbEntity
  8
LAY-6
  6
CONTINUOUS
 62
     1
100
AcDbLine
 10
636.929016
 20
379.148987
 30
0.0
 11
635.429016
 21
379.398987
 31
0.0
  0
LINE
  5
1F3
100
AcDbEntity
  8
LAY-6
  6
CONTINUOUS
 62
     1
100
AcDbLine
 10
636.929016
 20
387.686584
 30
0.0
 11
636.929016
 21
378.148987
 31
0.0
  0
LINE
  5
1F4
100
AcDbEntity
  8
LAY-6
  6
CONTINUOUS
 62
     1
100
AcDbLine
 10
666.929016
 20
403.648987
 30
0.0
 11
666.929016
 21
378.148987
 31
0.0
  0
TEXT
  5
1F5
100
AcDbEntity
  8
LAY-6
  6
CONTINUOUS
 62
     2
100
AcDbText
 10
647.929016
 20
379.648987
 30
0.0
 40
5.0
  1
３０
 41
0.672
  7
EXCADSTD
 72
     5
 11
655.261816
 21
379.648987
 31
0.0
100
AcDbText
  0
LINE
  5
1F6
100
AcDbEntity
  8
LAY-6
  6
CONTINUOUS
 62
     1
100
AcDbLine
 10
636.929016
 20
379.148987
 30
0.0
 11
666.929016
 21
379.148987
 31
0.0
  0
LINE
  5
1F7
100
AcDbEntity
  8
LAY-6
  6
CONTINUOUS
 62
     1
100
AcDbLine
 10
638.429016
 20
379.398987
 30
0.0
 11
636.929016
 21
379.148987
 31
0.0
  0
LINE
  5
1F8
100
AcDbEntity
  8
LAY-6
  6
CONTINUOUS
 62
     1
100
AcDbLine
 10
636.929016
 20
379.148987
 30
0.0
 11
638.429016
 21
378.898987
 31
0.0
  0
LINE
  5
1F9
100
AcDbEntity
  8
LAY-6
  6
CONTINUOUS
 62
     1
100
AcDbLine
 10
665.429016
 20
378.898987
 30
0.0
 11
666.929016
 21
379.148987
 31
0.0
  0
LINE
  5
1FA
100
AcDbEntity
  8
LAY-6
  6
CONTINUOUS
 62
     1
100
AcDbLine
 10
666.929016
 20
379.148987
 30
0.0
 11
665.429016
 21
379.398987
 31
0.0
  0
LINE
  5
1FB
100
AcDbEntity
  8
LAY-6
  6
CONTINUOUS
 62
     1
100
AcDbLine
 10
617.929016
 20
440.942963
 30
0.0
 11
617.929016
 21
451.148987
 31
0.0
  0
TEXT
  5
1FC
100
AcDbEntity
  8
LAY-6
  6
CONTINUOUS
 62
     2
100
AcDbText
 10
621.929016
 20
450.648987
 30
0.0
 40
5.0
  1
１６
 41
0.672
  7
EXCADSTD
 72
     5
 11
629.261816
 21
450.648987
 31
0.0
100
AcDbText
  0
LINE
  5
1FD
100
AcDbEntity
  8
LAY-6
  6
CONTINUOUS
 62
     1
100
AcDbLine
 10
617.929016
 20
450.148987
 30
0.0
 11
633.929016
 21
450.148987
 31
0.0
  0
LINE
  5
1FE
100
AcDbEntity
  8
LAY-6
  6
CONTINUOUS
 62
     1
100
AcDbLine
 10
619.429016
 20
450.398987
 30
0.0
 11
617.929016
 21
450.148987
 31
0.0
  0
LINE
  5
1FF
100
AcDbEntity
  8
LAY-6
  6
CONTINUOUS
 62
     1
100
AcDbLine
 10
617.929016
 20
450.148987
 30
0.0
 11
619.429016
 21
449.898987
 31
0.0
  0
LINE
  5
200
100
AcDbEntity
  8
LAY-6
  6
CONTINUOUS
 62
     1
100
AcDbLine
 10
632.429016
 20
449.898987
 30
0.0
 11
633.929016
 21
450.148987
 31
0.0
  0
LINE
  5
201
100
AcDbEntity
  8
LAY-6
  6
CONTINUOUS
 62
     1
100
AcDbLine
 10
633.929016
 20
450.148987
 30
0.0
 11
632.429016
 21
450.398987
 31
0.0
  0
LINE
  5
202
100
AcDbEntity
  8
LAY-6
  6
CONTINUOUS
 62
     1
100
AcDbLine
 10
633.929016
 20
439.04895
 30
0.0
 11
633.929016
 21
451.148987
 31
0.0
  0
LINE
  5
203
100
AcDbEntity
  8
LAY-6
  6
CONTINUOUS
 62
     1
100
AcDbLine
 10
666.929016
 20
427.648987
 30
0.0
 11
666.929016
 21
451.148987
 31
0.0
  0
TEXT
  5
204
100
AcDbEntity
  8
LAY-6
  6
CONTINUOUS
 62
     2
100
AcDbText
 10
646.429016
 20
450.648987
 30
0.0
 40
5.0
  1
３３
 41
0.672
  7
EXCADSTD
 72
     5
 11
653.761816
 21
450.648987
 31
0.0
100
AcDbText
  0
LINE
  5
205
100
AcDbEntity
  8
LAY-6
  6
CONTINUOUS
 62
     1
100
AcDbLine
 10
633.929016
 20
450.148987
 30
0.0
 11
666.929016
 21
450.148987
 31
0.0
  0
LINE
  5
206
100
AcDbEntity
  8
LAY-6
  6
CONTINUOUS
 62
     1
100
AcDbLine
 10
635.429016
 20
450.398987
 30
0.0
 11
633.929016
 21
450.148987
 31
0.0
  0
LINE
  5
207
100
AcDbEntity
  8
LAY-6
  6
CONTINUOUS
 62
     1
100
AcDbLine
 10
633.929016
 20
450.148987
 30
0.0
 11
635.429016
 21
449.898987
 31
0.0
  0
LINE
  5
208
100
AcDbEntity
  8
LAY-6
  6
CONTINUOUS
 62
     1
100
AcDbLine
 10
665.429016
 20
449.898987
 30
0.0
 11
666.929016
 21
450.148987
 31
0.0
  0
LINE
  5
209
100
AcDbEntity
  8
LAY-6
  6
CONTINUOUS
 62
     1
100
AcDbLine
 10
666.929016
 20
450.148987
 30
0.0
 11
665.429016
 21
450.398987
 31
0.0
  0
LINE
  5
20A
100
AcDbEntity
  8
LAY-6
  6
CONTINUOUS
 62
     1
100
AcDbLine
 10
602.429016
 20
228.148972
 30
0.0
 11
585.929016
 21
228.148972
 31
0.0
  0
TEXT
  5
20B
100
AcDbEntity
  8
LAY-6
  6
CONTINUOUS
 62
     2
100
AcDbText
 10
589.129016
 20
217.548972
 30
0.0
 40
5.0
  1
１３
 50
90.0
 41
0.672
  7
EXCADSTD
 72
     5
 11
589.129016
 21
224.881772
 31
0.0
100
AcDbText
  0
LINE
  5
20C
100
AcDbEntity
  8
LAY-6
  6
CONTINUOUS
 62
     1
100
AcDbLine
 10
601.429016
 20
215.148972
 30
0.0
 11
585.929016
 21
215.148972
 31
0.0
  0
TEXT
  5
20D
100
AcDbEntity
  8
LAY-6
  6
CONTINUOUS
 62
     2
100
AcDbText
 10
585.929016
 20
203.598972
 30
0.0
 40
5.0
  1
１１.５
 50
90.0
 41
0.616
  7
EXCADSTD
 72
     5
 11
585.929016
 21
217.598972
 31
0.0
100
AcDbText
  0
LINE
  5
20E
100
AcDbEntity
  8
LAY-6
  6
CONTINUOUS
 62
     1
100
AcDbLine
 10
586.929016
 20
215.148972
 30
0.0
 11
586.929016
 21
203.648972
 31
0.0
  0
LINE
  5
20F
100
AcDbEntity
  8
LAY-6
  6
CONTINUOUS
 62
     1
100
AcDbLine
 10
587.179016
 20
213.648972
 30
0.0
 11
586.929016
 21
215.148972
 31
0.0
  0
LINE
  5
210
100
AcDbEntity
  8
LAY-6
  6
CONTINUOUS
 62
     1
100
AcDbLine
 10
586.929016
 20
215.148972
 30
0.0
 11
586.679016
 21
213.648972
 31
0.0
  0
LINE
  5
211
100
AcDbEntity
  8
LAY-6
  6
CONTINUOUS
 62
     1
100
AcDbLine
 10
586.679016
 20
205.148972
 30
0.0
 11
586.929016
 21
203.648972
 31
0.0
  0
LINE
  5
212
100
AcDbEntity
  8
LAY-6
  6
CONTINUOUS
 62
     1
100
AcDbLine
 10
586.929016
 20
203.648972
 30
0.0
 11
587.179016
 21
205.148972
 31
0.0
  0
LINE
  5
213
100
AcDbEntity
  8
LAY-6
  6
CONTINUOUS
 62
     1
100
AcDbLine
 10
602.429016
 20
203.648972
 30
0.0
 11
585.929016
 21
203.648972
 31
0.0
  0
LINE
  5
214
100
AcDbEntity
  8
LAY-6
  6
CONTINUOUS
 62
     1
100
AcDbLine
 10
601.429016
 20
190.648972
 30
0.0
 11
585.929016
 21
190.648972
 31
0.0
  0
TEXT
  5
215
100
AcDbEntity
  8
LAY-6
  6
CONTINUOUS
 62
     2
100
AcDbText
 10
589.358032
 20
193.248972
 30
0.0
 40
5.0
  1
１３
 50
90.0
 41
0.672
  7
EXCADSTD
 72
     5
 11
589.358032
 21
200.581772
 31
0.0
100
AcDbText
  0
LINE
  5
216
100
AcDbEntity
  8
LAY-6
  6
CONTINUOUS
 62
     1
100
AcDbLine
 10
617.929016
 20
240.170517
 30
0.0
 11
617.929016
 21
244.148972
 31
0.0
  0
TEXT
  5
217
100
AcDbEntity
  8
LAY-6
  6
CONTINUOUS
 62
     2
100
AcDbText
 10
623.429016
 20
243.648972
 30
0.0
 40
5.0
  1
１９
 41
0.672
  7
EXCADSTD
 72
     5
 11
630.761816
 21
243.648972
 31
0.0
100
AcDbText
  0
LINE
  5
218
100
AcDbEntity
  8
LAY-6
  6
CONTINUOUS
 62
     1
100
AcDbLine
 10
617.929016
 20
243.148972
 30
0.0
 11
636.929016
 21
243.148972
 31
0.0
  0
LINE
  5
219
100
AcDbEntity
  8
LAY-6
  6
CONTINUOUS
 62
     1
100
AcDbLine
 10
619.429016
 20
243.398972
 30
0.0
 11
617.929016
 21
243.148972
 31
0.0
  0
LINE
  5
21A
100
AcDbEntity
  8
LAY-6
  6
CONTINUOUS
 62
     1
100
AcDbLine
 10
617.929016
 20
243.148972
 30
0.0
 11
619.429016
 21
242.898972
 31
0.0
  0
LINE
  5
21B
100
AcDbEntity
  8
LAY-6
  6
CONTINUOUS
 62
     1
100
AcDbLine
 10
635.429016
 20
242.898972
 30
0.0
 11
636.929016
 21
243.148972
 31
0.0
  0
LINE
  5
21C
100
AcDbEntity
  8
LAY-6
  6
CONTINUOUS
 62
     1
100
AcDbLine
 10
636.929016
 20
243.148972
 30
0.0
 11
635.429016
 21
243.398972
 31
0.0
  0
LINE
  5
21D
100
AcDbEntity
  8
LAY-6
  6
CONTINUOUS
 62
     1
100
AcDbLine
 10
636.929016
 20
241.441452
 30
0.0
 11
636.929016
 21
244.148972
 31
0.0
  0
LINE
  5
21E
100
AcDbEntity
  8
LAY-6
  6
CONTINUOUS
 62
     1
100
AcDbLine
 10
666.929016
 20
223.648972
 30
0.0
 11
666.929016
 21
244.148972
 31
0.0
  0
TEXT
  5
21F
100
AcDbEntity
  8
LAY-6
  6
CONTINUOUS
 62
     2
100
AcDbText
 10
647.929016
 20
243.648972
 30
0.0
 40
5.0
  1
３０
 41
0.672
  7
EXCADSTD
 72
     5
 11
655.261816
 21
243.648972
 31
0.0
100
AcDbText
  0
LINE
  5
220
100
AcDbEntity
  8
LAY-6
  6
CONTINUOUS
 62
     1
100
AcDbLine
 10
636.929016
 20
243.148972
 30
0.0
 11
666.929016
 21
243.148972
 31
0.0
  0
LINE
  5
221
100
AcDbEntity
  8
LAY-6
  6
CONTINUOUS
 62
     1
100
AcDbLine
 10
638.429016
 20
243.398972
 30
0.0
 11
636.929016
 21
243.148972
 31
0.0
  0
LINE
  5
222
100
AcDbEntity
  8
LAY-6
  6
CONTINUOUS
 62
     1
100
AcDbLine
 10
636.929016
 20
243.148972
 30
0.0
 11
638.429016
 21
242.898972
 31
0.0
  0
LINE
  5
223
100
AcDbEntity
  8
LAY-6
  6
CONTINUOUS
 62
     1
100
AcDbLine
 10
665.429016
 20
242.898972
 30
0.0
 11
666.929016
 21
243.148972
 31
0.0
  0
LINE
  5
224
100
AcDbEntity
  8
LAY-6
  6
CONTINUOUS
 62
     1
100
AcDbLine
 10
666.929016
 20
243.148972
 30
0.0
 11
665.429016
 21
243.398972
 31
0.0
  0
LINE
  5
225
100
AcDbEntity
  8
LAY-6
  6
CONTINUOUS
 62
     1
100
AcDbLine
 10
617.929016
 20
181.830215
 30
0.0
 11
617.929016
 21
169.648972
 31
0.0
  0
TEXT
  5
226
100
AcDbEntity
  8
LAY-6
  6
CONTINUOUS
 62
     2
100
AcDbText
 10
621.929016
 20
171.148972
 30
0.0
 40
5.0
  1
１６
 41
0.672
  7
EXCADSTD
 72
     5
 11
629.261816
 21
171.148972
 31
0.0
100
AcDbText
  0
LINE
  5
227
100
AcDbEntity
  8
LAY-6
  6
CONTINUOUS
 62
     1
100
AcDbLine
 10
617.929016
 20
170.648972
 30
0.0
 11
633.929016
 21
170.648972
 31
0.0
  0
LINE
  5
228
100
AcDbEntity
  8
LAY-6
  6
CONTINUOUS
 62
     1
100
AcDbLine
 10
619.429016
 20
170.898972
 30
0.0
 11
617.929016
 21
170.648972
 31
0.0
  0
LINE
  5
229
100
AcDbEntity
  8
LAY-6
  6
CONTINUOUS
 62
     1
100
AcDbLine
 10
617.929016
 20
170.648972
 30
0.0
 11
619.429016
 21
170.398972
 31
0.0
  0
LINE
  5
22A
100
AcDbEntity
  8
LAY-6
  6
CONTINUOUS
 62
     1
100
AcDbLine
 10
632.429016
 20
170.398972
 30
0.0
 11
633.929016
 21
170.648972
 31
0.0
  0
LINE
  5
22B
100
AcDbEntity
  8
LAY-6
  6
CONTINUOUS
 62
     1
100
AcDbLine
 10
633.929016
 20
170.648972
 30
0.0
 11
632.429016
 21
170.898972
 31
0.0
  0
LINE
  5
22C
100
AcDbEntity
  8
LAY-6
  6
CONTINUOUS
 62
     1
100
AcDbLine
 10
633.929016
 20
182.248978
 30
0.0
 11
633.929016
 21
169.648972
 31
0.0
  0
LINE
  5
22D
100
AcDbEntity
  8
LAY-6
  6
CONTINUOUS
 62
     1
100
AcDbLine
 10
666.929016
 20
191.148972
 30
0.0
 11
666.929016
 21
169.648972
 31
0.0
  0
TEXT
  5
22E
100
AcDbEntity
  8
LAY-6
  6
CONTINUOUS
 62
     2
100
AcDbText
 10
646.429016
 20
171.148972
 30
0.0
 40
5.0
  1
３３
 41
0.672
  7
EXCADSTD
 72
     5
 11
653.761816
 21
171.148972
 31
0.0
100
AcDbText
  0
LINE
  5
22F
100
AcDbEntity
  8
LAY-6
  6
CONTINUOUS
 62
     1
100
AcDbLine
 10
633.929016
 20
170.648972
 30
0.0
 11
666.929016
 21
170.648972
 31
0.0
  0
LINE
  5
230
100
AcDbEntity
  8
LAY-6
  6
CONTINUOUS
 62
     1
100
AcDbLine
 10
635.429016
 20
170.898972
 30
0.0
 11
633.929016
 21
170.648972
 31
0.0
  0
LINE
  5
231
100
AcDbEntity
  8
LAY-6
  6
CONTINUOUS
 62
     1
100
AcDbLine
 10
633.929016
 20
170.648972
 30
0.0
 11
635.429016
 21
170.398972
 31
0.0
  0
LINE
  5
232
100
AcDbEntity
  8
LAY-6
  6
CONTINUOUS
 62
     1
100
AcDbLine
 10
665.429016
 20
170.398972
 30
0.0
 11
666.929016
 21
170.648972
 31
0.0
  0
LINE
  5
233
100
AcDbEntity
  8
LAY-6
  6
CONTINUOUS
 62
     1
100
AcDbLine
 10
666.929016
 20
170.648972
 30
0.0
 11
665.429016
 21
170.898972
 31
0.0
  0
LINE
  5
234
100
AcDbEntity
  8
LAY-6
  6
CONTINUOUS
 62
     1
100
AcDbLine
 10
635.029022
 20
206.148972
 30
0.0
 11
625.929016
 21
206.148972
 31
0.0
  0
LINE
  5
235
100
AcDbEntity
  8
LAY-6
  6
CONTINUOUS
 62
     1
100
AcDbLine
 10
628.429016
 20
203.648972
 30
0.0
 11
625.929016
 21
203.648972
 31
0.0
  0
TEXT
  5
236
100
AcDbEntity
  8
LAY-6
  6
CONTINUOUS
 62
     2
100
AcDbText
 10
625.429016
 20
204.898972
 30
0.0
 40
5.0
  1
２.５
 50
90.0
 41
0.595556
  7
EXCADSTD
 72
     5
 11
625.429016
 21
214.898972
 31
0.0
100
AcDbText
  0
LINE
  5
237
100
AcDbEntity
  8
LAY-6
  6
CONTINUOUS
 62
     1
100
AcDbLine
 10
626.929016
 20
209.148972
 30
0.0
 11
626.929016
 21
200.648972
 31
0.0
  0
LINE
  5
238
100
AcDbEntity
  8
LAY-6
  6
CONTINUOUS
 62
     1
100
AcDbLine
 10
626.679016
 20
207.648972
 30
0.0
 11
626.929016
 21
206.148972
 31
0.0
  0
LINE
  5
239
100
AcDbEntity
  8
LAY-6
  6
CONTINUOUS
 62
     1
100
AcDbLine
 10
626.929016
 20
206.148972
 30
0.0
 11
627.179016
 21
207.648972
 31
0.0
  0
LINE
  5
23A
100
AcDbEntity
  8
LAY-6
  6
CONTINUOUS
 62
     1
100
AcDbLine
 10
627.179016
 20
202.148972
 30
0.0
 11
626.929016
 21
203.648972
 31
0.0
  0
LINE
  5
23B
100
AcDbEntity
  8
LAY-6
  6
CONTINUOUS
 62
     1
100
AcDbLine
 10
626.929016
 20
203.648972
 30
0.0
 11
626.679016
 21
202.148972
 31
0.0
  0
LINE
  5
23C
100
AcDbEntity
  8
LAY-6
  6
CONTINUOUS
 62
     1
100
AcDbLine
 10
628.429016
 20
203.648972
 30
0.0
 11
625.929016
 21
203.648972
 31
0.0
  0
LINE
  5
23D
100
AcDbEntity
  8
LAY-6
  6
CONTINUOUS
 62
     1
100
AcDbLine
 10
633.429016
 20
199.648972
 30
0.0
 11
625.929016
 21
199.648972
 31
0.0
  0
TEXT
  5
23E
100
AcDbEntity
  8
LAY-6
  6
CONTINUOUS
 62
     2
100
AcDbText
 10
626.429016
 20
194.648972
 30
0.0
 40
5.0
  1
４
 50
90.0
 41
0.672
  7
EXCADSTD
 72
     5
 11
626.429016
 21
197.848972
 31
0.0
100
AcDbText
  0
LINE
  5
23F
100
AcDbEntity
  8
LAY-6
  6
CONTINUOUS
 62
     1
100
AcDbLine
 10
626.929016
 20
203.648972
 30
0.0
 11
626.929016
 21
199.648972
 31
0.0
  0
LINE
  5
240
100
AcDbEntity
  8
LAY-6
  6
CONTINUOUS
 62
     1
100
AcDbLine
 10
627.179016
 20
202.148972
 30
0.0
 11
626.929016
 21
203.648972
 31
0.0
  0
LINE
  5
241
100
AcDbEntity
  8
LAY-6
  6
CONTINUOUS
 62
     1
100
AcDbLine
 10
626.929016
 20
203.648972
 30
0.0
 11
626.679016
 21
202.148972
 31
0.0
  0
LINE
  5
242
100
AcDbEntity
  8
LAY-6
  6
CONTINUOUS
 62
     1
100
AcDbLine
 10
626.679016
 20
201.148972
 30
0.0
 11
626.929016
 21
199.648972
 31
0.0
  0
LINE
  5
243
100
AcDbEntity
  8
LAY-6
  6
CONTINUOUS
 62
     1
100
AcDbLine
 10
626.929016
 20
199.648972
 30
0.0
 11
627.179016
 21
201.148972
 31
0.0
  0
TEXT
  5
244
100
AcDbEntity
  8
LAY-6
  6
CONTINUOUS
 62
     2
100
AcDbText
 10
359.996796
 20
363.738861
 30
0.0
 40
5.0
  1
Ｒ
 50
45.000038
 41
0.672
  7
EXCADSTD
 72
     5
 11
362.259536
 21
366.001604
 31
0.0
100
AcDbText
  0
TEXT
  5
245
100
AcDbEntity
  8
LAY-6
  6
CONTINUOUS
 62
     2
100
AcDbText
 10
362.825221
 20
366.56729
 30
0.0
 40
5.0
  1
１６
 50
45.000038
 41
0.672
  7
EXCADSTD
 72
     5
 11
368.01029
 21
371.752366
 31
0.0
100
AcDbText
  0
LINE
  5
246
100
AcDbEntity
  8
LAY-6
  6
CONTINUOUS
 62
     1
100
AcDbLine
 10
360.132527
 20
363.167473
 30
0.0
 11
381.227966
 21
384.262939
 31
0.0
  0
LINE
  5
247
100
AcDbEntity
  8
LAY-6
  6
CONTINUOUS
 62
     1
100
AcDbLine
 10
370.798144
 20
374.186656
 30
0.0
 11
369.914261
 21
372.949219
 31
0.0
  0
LINE
  5
248
100
AcDbEntity
  8
LAY-6
  6
CONTINUOUS
 62
     1
100
AcDbLine
 10
369.914261
 20
372.949219
 30
0.0
 11
371.151697
 21
373.833103
 31
0.0
  0
TEXT
  5
249
100
AcDbEntity
  8
LAY-6
  6
CONTINUOUS
 62
     2
100
AcDbText
 10
405.266305
 20
393.727316
 30
0.0
 40
5.0
  1
６５
 50
300.023717
 41
0.672
  7
EXCADSTD
 72
     5
 11
408.935333
 21
387.378443
 31
0.0
100
AcDbText
  0
TEXT
  5
24A
100
AcDbEntity
  8
LAY-6
  6
CONTINUOUS
 62
     2
100
AcDbText
 10
409.269172
 20
386.800769
 30
0.0
 40
5.0
  1
ﾟ
 50
300.023717
 41
0.4
  7
EXCADSTD
 72
     5
 11
409.919638
 21
385.675205
 31
0.0
100
AcDbText
  0
ARC
  5
24B
100
AcDbEntity
  8
LAY-6
  6
CONTINUOUS
 62
     1
100
AcDbCircle
 10
398.882003
 20
384.262929
 30
0.0
 40
10.000016
100
AcDbArc
 50
0.000057
 51
64.999943
  0
LINE
  5
24C
100
AcDbEntity
  8
LAY-6
  6
CONTINUOUS
 62
     1
100
AcDbLine
 10
408.632019
 20
385.762939
 30
0.0
 11
408.882019
 21
384.262939
 31
0.0
  0
LINE
  5
24D
100
AcDbEntity
  8
LAY-6
  6
CONTINUOUS
 62
     1
100
AcDbLine
 10
408.882019
 20
384.262939
 30
0.0
 11
409.132019
 21
385.762939
 31
0.0
  0
LINE
  5
24E
100
AcDbEntity
  8
LAY-6
  6
CONTINUOUS
 62
     1
100
AcDbLine
 10
404.573318
 20
392.918666
 30
0.0
 11
403.108202
 21
393.326017
 31
0.0
  0
LINE
  5
24F
100
AcDbEntity
  8
LAY-6
  6
CONTINUOUS
 62
     1
100
AcDbLine
 10
403.108202
 20
393.326017
 30
0.0
 11
404.362009
 21
392.465512
 31
0.0
  0
LINE
  5
250
100
AcDbEntity
  8
LAY-6
  6
CONTINUOUS
 62
     1
100
AcDbLine
 10
413.536865
 20
384.262939
 30
0.0
 11
429.227966
 21
384.262939
 31
0.0
  0
TEXT
  5
251
100
AcDbEntity
  8
LAY-6
  6
CONTINUOUS
 62
     2
100
AcDbText
 10
427.727966
 20
388.262939
 30
0.0
 40
5.0
  1
１６
 50
90.0
 41
0.672
  7
EXCADSTD
 72
     5
 11
427.727966
 21
395.595739
 31
0.0
100
AcDbText
  0
LINE
  5
252
100
AcDbEntity
  8
LAY-6
  6
CONTINUOUS
 62
     1
100
AcDbLine
 10
428.227966
 20
384.262939
 30
0.0
 11
428.227966
 21
400.262939
 31
0.0
  0
LINE
  5
253
100
AcDbEntity
  8
LAY-6
  6
CONTINUOUS
 62
     1
100
AcDbLine
 10
427.977966
 20
385.762939
 30
0.0
 11
428.227966
 21
384.262939
 31
0.0
  0
LINE
  5
254
100
AcDbEntity
  8
LAY-6
  6
CONTINUOUS
 62
     1
100
AcDbLine
 10
428.227966
 20
384.262939
 30
0.0
 11
428.477966
 21
385.762939
 31
0.0
  0
LINE
  5
255
100
AcDbEntity
  8
LAY-6
  6
CONTINUOUS
 62
     1
100
AcDbLine
 10
428.477966
 20
398.762939
 30
0.0
 11
428.227966
 21
400.262939
 31
0.0
  0
LINE
  5
256
100
AcDbEntity
  8
LAY-6
  6
CONTINUOUS
 62
     1
100
AcDbLine
 10
428.227966
 20
400.262939
 30
0.0
 11
427.977966
 21
398.762939
 31
0.0
  0
LINE
  5
257
100
AcDbEntity
  8
LAY-6
  6
CONTINUOUS
 62
     1
100
AcDbLine
 10
414.343933
 20
400.262939
 30
0.0
 11
429.227966
 21
400.262939
 31
0.0
  0
LINE
  5
258
100
AcDbEntity
  8
LAY-6
  6
CONTINUOUS
 62
     1
100
AcDbLine
 10
399.727966
 20
433.262939
 30
0.0
 11
429.227966
 21
433.262939
 31
0.0
  0
TEXT
  5
259
100
AcDbEntity
  8
LAY-6
  6
CONTINUOUS
 62
     2
100
AcDbText
 10
427.727966
 20
412.762939
 30
0.0
 40
5.0
  1
３３
 50
90.0
 41
0.672
  7
EXCADSTD
 72
     5
 11
427.727966
 21
420.095739
 31
0.0
100
AcDbText
  0
LINE
  5
25A
100
AcDbEntity
  8
LAY-6
  6
CONTINUOUS
 62
     1
100
AcDbLine
 10
428.227966
 20
400.262939
 30
0.0
 11
428.227966
 21
433.262939
 31
0.0
  0
LINE
  5
25B
100
AcDbEntity
  8
LAY-6
  6
CONTINUOUS
 62
     1
100
AcDbLine
 10
427.977966
 20
401.762939
 30
0.0
 11
428.227966
 21
400.262939
 31
0.0
  0
LINE
  5
25C
100
AcDbEntity
  8
LAY-6
  6
CONTINUOUS
 62
     1
100
AcDbLine
 10
428.227966
 20
400.262939
 30
0.0
 11
428.477966
 21
401.762939
 31
0.0
  0
LINE
  5
25D
100
AcDbEntity
  8
LAY-6
  6
CONTINUOUS
 62
     1
100
AcDbLine
 10
428.477966
 20
431.762939
 30
0.0
 11
428.227966
 21
433.262939
 31
0.0
  0
LINE
  5
25E
100
AcDbEntity
  8
LAY-6
  6
CONTINUOUS
 62
     1
100
AcDbLine
 10
428.227966
 20
433.262939
 30
0.0
 11
427.977966
 21
431.762939
 31
0.0
  0
TEXT
  5
25F
100
AcDbEntity
  8
LAY-6
  6
CONTINUOUS
 62
     2
100
AcDbText
 10
154.996742
 20
363.738861
 30
0.0
 40
5.0
  1
Ｒ
 50
45.000035
 41
0.672
  7
EXCADSTD
 72
     5
 11
157.259482
 21
366.001604
 31
0.0
100
AcDbText
  0
TEXT
  5
260
100
AcDbEntity
  8
LAY-6
  6
CONTINUOUS
 62
     2
100
AcDbText
 10
157.825167
 20
366.56729
 30
0.0
 40
5.0
  1
１６
 50
45.000035
 41
0.672
  7
EXCADSTD
 72
     5
 11
163.010237
 21
371.752366
 31
0.0
100
AcDbText
  0
LINE
  5
261
100
AcDbEntity
  8
LAY-6
  6
CONTINUOUS
 62
     1
100
AcDbLine
 10
155.182504
 20
363.217496
 30
0.0
 11
176.227921
 21
384.262939
 31
0.0
  0
LINE
  5
262
100
AcDbEntity
  8
LAY-6
  6
CONTINUOUS
 62
     1
100
AcDbLine
 10
165.798098
 20
374.186656
 30
0.0
 11
164.914215
 21
372.949219
 31
0.0
  0
LINE
  5
263
100
AcDbEntity
  8
LAY-6
  6
CONTINUOUS
 62
     1
100
AcDbLine
 10
164.914215
 20
372.949219
 30
0.0
 11
166.151651
 21
373.833103
 31
0.0
  0
TEXT
  5
264
100
AcDbEntity
  8
LAY-6
  6
CONTINUOUS
 62
     2
100
AcDbText
 10
200.266242
 20
393.727315
 30
0.0
 40
5.0
  1
６５
 50
300.023739
 41
0.672
  7
EXCADSTD
 72
     5
 11
203.935273
 21
387.378443
 31
0.0
100
AcDbText
  0
TEXT
  5
265
100
AcDbEntity
  8
LAY-6
  6
CONTINUOUS
 62
     2
100
AcDbText
 10
204.269112
 20
386.800769
 30
0.0
 40
5.0
  1
ﾟ
 50
300.023739
 41
0.4
  7
EXCADSTD
 72
     5
 11
204.919579
 21
385.675206
 31
0.0
100
AcDbText
  0
ARC
  5
266
100
AcDbEntity
  8
LAY-6
  6
CONTINUOUS
 62
     1
100
AcDbCircle
 10
193.88195
 20
384.262929
 30
0.0
 40
10.000016
100
AcDbArc
 50
0.000057
 51
64.999943
  0
LINE
  5
267
100
AcDbEntity
  8
LAY-6
  6
CONTINUOUS
 62
     1
100
AcDbLine
 10
203.631966
 20
385.762939
 30
0.0
 11
203.881966
 21
384.262939
 31
0.0
  0
LINE
  5
268
100
AcDbEntity
  8
LAY-6
  6
CONTINUOUS
 62
     1
100
AcDbLine
 10
203.881966
 20
384.262939
 30
0.0
 11
204.131966
 21
385.762939
 31
0.0
  0
LINE
  5
269
100
AcDbEntity
  8
LAY-6
  6
CONTINUOUS
 62
     1
100
AcDbLine
 10
199.573265
 20
392.918666
 30
0.0
 11
198.108149
 21
393.326017
 31
0.0
  0
LINE
  5
26A
100
AcDbEntity
  8
LAY-6
  6
CONTINUOUS
 62
     1
100
AcDbLine
 10
198.108149
 20
393.326017
 30
0.0
 11
199.361956
 21
392.465512
 31
0.0
  0
LINE
  5
26B
100
AcDbEntity
  8
LAY-6
  6
CONTINUOUS
 62
     1
100
AcDbLine
 10
208.536835
 20
384.262939
 30
0.0
 11
224.227921
 21
384.262939
 31
0.0
  0
TEXT
  5
26C
100
AcDbEntity
  8
LAY-6
  6
CONTINUOUS
 62
     2
100
AcDbText
 10
222.727921
 20
388.262939
 30
0.0
 40
5.0
  1
１６
 50
90.0
 41
0.672
  7
EXCADSTD
 72
     5
 11
222.727921
 21
395.595739
 31
0.0
100
AcDbText
  0
LINE
  5
26D
100
AcDbEntity
  8
LAY-6
  6
CONTINUOUS
 62
     1
100
AcDbLine
 10
223.227921
 20
384.262939
 30
0.0
 11
223.227921
 21
400.262939
 31
0.0
  0
LINE
  5
26E
100
AcDbEntity
  8
LAY-6
  6
CONTINUOUS
 62
     1
100
AcDbLine
 10
222.977921
 20
385.762939
 30
0.0
 11
223.227921
 21
384.262939
 31
0.0
  0
LINE
  5
26F
100
AcDbEntity
  8
LAY-6
  6
CONTINUOUS
 62
     1
100
AcDbLine
 10
223.227921
 20
384.262939
 30
0.0
 11
223.477921
 21
385.762939
 31
0.0
  0
LINE
  5
270
100
AcDbEntity
  8
LAY-6
  6
CONTINUOUS
 62
     1
100
AcDbLine
 10
223.477921
 20
398.762939
 30
0.0
 11
223.227921
 21
400.262939
 31
0.0
  0
LINE
  5
271
100
AcDbEntity
  8
LAY-6
  6
CONTINUOUS
 62
     1
100
AcDbLine
 10
223.227921
 20
400.262939
 30
0.0
 11
222.977921
 21
398.762939
 31
0.0
  0
LINE
  5
272
100
AcDbEntity
  8
LAY-6
  6
CONTINUOUS
 62
     1
100
AcDbLine
 10
209.343903
 20
400.262939
 30
0.0
 11
224.227921
 21
400.262939
 31
0.0
  0
LINE
  5
273
100
AcDbEntity
  8
LAY-6
  6
CONTINUOUS
 62
     1
100
AcDbLine
 10
194.727921
 20
433.262939
 30
0.0
 11
224.227921
 21
433.262939
 31
0.0
  0
TEXT
  5
274
100
AcDbEntity
  8
LAY-6
  6
CONTINUOUS
 62
     2
100
AcDbText
 10
222.727921
 20
412.762939
 30
0.0
 40
5.0
  1
３３
 50
90.0
 41
0.672
  7
EXCADSTD
 72
     5
 11
222.727921
 21
420.095739
 31
0.0
100
AcDbText
  0
LINE
  5
275
100
AcDbEntity
  8
LAY-6
  6
CONTINUOUS
 62
     1
100
AcDbLine
 10
223.227921
 20
400.262939
 30
0.0
 11
223.227921
 21
433.262939
 31
0.0
  0
LINE
  5
276
100
AcDbEntity
  8
LAY-6
  6
CONTINUOUS
 62
     1
100
AcDbLine
 10
222.977921
 20
401.762939
 30
0.0
 11
223.227921
 21
400.262939
 31
0.0
  0
LINE
  5
277
100
AcDbEntity
  8
LAY-6
  6
CONTINUOUS
 62
     1
100
AcDbLine
 10
223.227921
 20
400.262939
 30
0.0
 11
223.477921
 21
401.762939
 31
0.0
  0
LINE
  5
278
100
AcDbEntity
  8
LAY-6
  6
CONTINUOUS
 62
     1
100
AcDbLine
 10
223.477921
 20
431.762939
 30
0.0
 11
223.227921
 21
433.262939
 31
0.0
  0
LINE
  5
279
100
AcDbEntity
  8
LAY-6
  6
CONTINUOUS
 62
     1
100
AcDbLine
 10
223.227921
 20
433.262939
 30
0.0
 11
222.977921
 21
431.762939
 31
0.0
  0
LINE
  5
27A
100
AcDbEntity
  8
LAY-6
  6
CONTINUOUS
 62
     1
100
AcDbLine
 10
210.727921
 20
296.262939
 30
0.0
 11
224.227921
 21
296.262939
 31
0.0
  0
TEXT
  5
27B
100
AcDbEntity
  8
LAY-6
  6
CONTINUOUS
 62
     2
100
AcDbText
 10
222.727921
 20
297.262939
 30
0.0
 40
5.0
  1
６
 50
90.0
 41
0.672
  7
EXCADSTD
 72
     5
 11
222.727921
 21
300.462939
 31
0.0
100
AcDbText
  0
LINE
  5
27C
100
AcDbEntity
  8
LAY-6
  6
CONTINUOUS
 62
     1
100
AcDbLine
 10
223.227921
 20
296.262939
 30
0.0
 11
223.227921
 21
302.262939
 31
0.0
  0
LINE
  5
27D
100
AcDbEntity
  8
LAY-6
  6
CONTINUOUS
 62
     1
100
AcDbLine
 10
222.977921
 20
297.762939
 30
0.0
 11
223.227921
 21
296.262939
 31
0.0
  0
LINE
  5
27E
100
AcDbEntity
  8
LAY-6
  6
CONTINUOUS
 62
     1
100
AcDbLine
 10
223.227921
 20
296.262939
 30
0.0
 11
223.477921
 21
297.762939
 31
0.0
  0
LINE
  5
27F
100
AcDbEntity
  8
LAY-6
  6
CONTINUOUS
 62
     1
100
AcDbLine
 10
223.477921
 20
300.762939
 30
0.0
 11
223.227921
 21
302.262939
 31
0.0
  0
LINE
  5
280
100
AcDbEntity
  8
LAY-6
  6
CONTINUOUS
 62
     1
100
AcDbLine
 10
223.227921
 20
302.262939
 30
0.0
 11
222.977921
 21
300.762939
 31
0.0
  0
LINE
  5
281
100
AcDbEntity
  8
LAY-6
  6
CONTINUOUS
 62
     1
100
AcDbLine
 10
209.727921
 20
302.262939
 30
0.0
 11
224.227921
 21
302.262939
 31
0.0
  0
LINE
  5
282
100
AcDbEntity
  8
LAY-6
  6
CONTINUOUS
 62
     1
100
AcDbLine
 10
209.727921
 20
314.262939
 30
0.0
 11
224.227921
 21
314.262939
 31
0.0
  0
TEXT
  5
283
100
AcDbEntity
  8
LAY-6
  6
CONTINUOUS
 62
     2
100
AcDbText
 10
222.727921
 20
304.262939
 30
0.0
 40
5.0
  1
１２
 50
90.0
 41
0.672
  7
EXCADSTD
 72
     5
 11
222.727921
 21
311.595739
 31
0.0
100
AcDbText
  0
LINE
  5
284
100
AcDbEntity
  8
LAY-6
  6
CONTINUOUS
 62
     1
100
AcDbLine
 10
223.227921
 20
302.262939
 30
0.0
 11
223.227921
 21
314.262939
 31
0.0
  0
LINE
  5
285
100
AcDbEntity
  8
LAY-6
  6
CONTINUOUS
 62
     1
100
AcDbLine
 10
222.977921
 20
303.762939
 30
0.0
 11
223.227921
 21
302.262939
 31
0.0
  0
LINE
  5
286
100
AcDbEntity
  8
LAY-6
  6
CONTINUOUS
 62
     1
100
AcDbLine
 10
223.227921
 20
302.262939
 30
0.0
 11
223.477921
 21
303.762939
 31
0.0
  0
LINE
  5
287
100
AcDbEntity
  8
LAY-6
  6
CONTINUOUS
 62
     1
100
AcDbLine
 10
223.477921
 20
312.762939
 30
0.0
 11
223.227921
 21
314.262939
 31
0.0
  0
LINE
  5
288
100
AcDbEntity
  8
LAY-6
  6
CONTINUOUS
 62
     1
100
AcDbLine
 10
223.227921
 20
314.262939
 30
0.0
 11
222.977921
 21
312.762939
 31
0.0
  0
LINE
  5
289
100
AcDbEntity
  8
LAY-6
  6
CONTINUOUS
 62
     1
100
AcDbLine
 10
205.627701
 20
271.262939
 30
0.0
 11
239.227921
 21
271.262939
 31
0.0
  0
TEXT
  5
28A
100
AcDbEntity
  8
LAY-6
  6
CONTINUOUS
 62
     2
100
AcDbText
 10
237.727921
 20
276.762939
 30
0.0
 40
5.0
  1
１９
 50
90.0
 41
0.672
  7
EXCADSTD
 72
     5
 11
237.727921
 21
284.095739
 31
0.0
100
AcDbText
  0
LINE
  5
28B
100
AcDbEntity
  8
LAY-6
  6
CONTINUOUS
 62
     1
100
AcDbLine
 10
238.227921
 20
271.262939
 30
0.0
 11
238.227921
 21
290.262939
 31
0.0
  0
LINE
  5
28C
100
AcDbEntity
  8
LAY-6
  6
CONTINUOUS
 62
     1
100
AcDbLine
 10
237.977921
 20
272.762939
 30
0.0
 11
238.227921
 21
271.262939
 31
0.0
  0
LINE
  5
28D
100
AcDbEntity
  8
LAY-6
  6
CONTINUOUS
 62
     1
100
AcDbLine
 10
238.227921
 20
271.262939
 30
0.0
 11
238.477921
 21
272.762939
 31
0.0
  0
LINE
  5
28E
100
AcDbEntity
  8
LAY-6
  6
CONTINUOUS
 62
     1
100
AcDbLine
 10
238.477921
 20
288.762939
 30
0.0
 11
238.227921
 21
290.262939
 31
0.0
  0
LINE
  5
28F
100
AcDbEntity
  8
LAY-6
  6
CONTINUOUS
 62
     1
100
AcDbLine
 10
238.227921
 20
290.262939
 30
0.0
 11
237.977921
 21
288.762939
 31
0.0
  0
LINE
  5
290
100
AcDbEntity
  8
LAY-6
  6
CONTINUOUS
 62
     1
100
AcDbLine
 10
228.896332
 20
290.262939
 30
0.0
 11
239.227921
 21
290.262939
 31
0.0
  0
LINE
  5
291
100
AcDbEntity
  8
LAY-6
  6
CONTINUOUS
 62
     1
100
AcDbLine
 10
210.727921
 20
296.262939
 30
0.0
 11
239.227921
 21
296.262939
 31
0.0
  0
TEXT
  5
292
100
AcDbEntity
  8
LAY-6
  6
CONTINUOUS
 62
     2
100
AcDbText
 10
237.727921
 20
291.262939
 30
0.0
 40
5.0
  1
６
 50
90.0
 41
0.672
  7
EXCADSTD
 72
     5
 11
237.727921
 21
294.462939
 31
0.0
100
AcDbText
  0
LINE
  5
293
100
AcDbEntity
  8
LAY-6
  6
CONTINUOUS
 62
     1
100
AcDbLine
 10
238.227921
 20
287.262939
 30
0.0
 11
238.227921
 21
299.262939
 31
0.0
  0
LINE
  5
294
100
AcDbEntity
  8
LAY-6
  6
CONTINUOUS
 62
     1
100
AcDbLine
 10
238.477921
 20
288.762939
 30
0.0
 11
238.227921
 21
290.262939
 31
0.0
  0
LINE
  5
295
100
AcDbEntity
  8
LAY-6
  6
CONTINUOUS
 62
     1
100
AcDbLine
 10
238.227921
 20
290.262939
 30
0.0
 11
237.977921
 21
288.762939
 31
0.0
  0
LINE
  5
296
100
AcDbEntity
  8
LAY-6
  6
CONTINUOUS
 62
     1
100
AcDbLine
 10
237.977921
 20
297.762939
 30
0.0
 11
238.227921
 21
296.262939
 31
0.0
  0
LINE
  5
297
100
AcDbEntity
  8
LAY-6
  6
CONTINUOUS
 62
     1
100
AcDbLine
 10
238.227921
 20
296.262939
 30
0.0
 11
238.477921
 21
297.762939
 31
0.0
  0
LINE
  5
298
100
AcDbEntity
  8
LAY-6
  6
CONTINUOUS
 62
     1
100
AcDbLine
 10
210.727921
 20
296.262939
 30
0.0
 11
239.227921
 21
296.262939
 31
0.0
  0
LINE
  5
299
100
AcDbEntity
  8
LAY-6
  6
CONTINUOUS
 62
     1
100
AcDbLine
 10
210.727921
 20
320.262939
 30
0.0
 11
239.227921
 21
320.262939
 31
0.0
  0
TEXT
  5
29A
100
AcDbEntity
  8
LAY-6
  6
CONTINUOUS
 62
     2
100
AcDbText
 10
237.727921
 20
304.262939
 30
0.0
 40
5.0
  1
２４
 50
90.0
 41
0.672
  7
EXCADSTD
 72
     5
 11
237.727921
 21
311.595739
 31
0.0
100
AcDbText
  0
LINE
  5
29B
100
AcDbEntity
  8
LAY-6
  6
CONTINUOUS
 62
     1
100
AcDbLine
 10
238.227921
 20
296.262939
 30
0.0
 11
238.227921
 21
320.262939
 31
0.0
  0
LINE
  5
29C
100
AcDbEntity
  8
LAY-6
  6
CONTINUOUS
 62
     1
100
AcDbLine
 10
237.977921
 20
297.762939
 30
0.0
 11
238.227921
 21
296.262939
 31
0.0
  0
LINE
  5
29D
100
AcDbEntity
  8
LAY-6
  6
CONTINUOUS
 62
     1
100
AcDbLine
 10
238.227921
 20
296.262939
 30
0.0
 11
238.477921
 21
297.762939
 31
0.0
  0
LINE
  5
29E
100
AcDbEntity
  8
LAY-6
  6
CONTINUOUS
 62
     1
100
AcDbLine
 10
238.477921
 20
318.762939
 30
0.0
 11
238.227921
 21
320.262939
 31
0.0
  0
LINE
  5
29F
100
AcDbEntity
  8
LAY-6
  6
CONTINUOUS
 62
     1
100
AcDbLine
 10
238.227921
 20
320.262939
 30
0.0
 11
237.977921
 21
318.762939
 31
0.0
  0
TEXT
  5
2A0
100
AcDbEntity
  8
LAY-6
  6
CONTINUOUS
 62
     2
100
AcDbText
 10
154.996742
 20
250.738876
 30
0.0
 40
5.0
  1
Ｒ
 50
44.999997
 41
0.672
  7
EXCADSTD
 72
     5
 11
157.259484
 21
253.001618
 31
0.0
100
AcDbText
  0
TEXT
  5
2A1
100
AcDbEntity
  8
LAY-6
  6
CONTINUOUS
 62
     2
100
AcDbText
 10
157.825169
 20
253.567303
 30
0.0
 40
5.0
  1
１６
 50
44.999997
 41
0.672
  7
EXCADSTD
 72
     5
 11
163.010242
 21
258.752375
 31
0.0
100
AcDbText
  0
LINE
  5
2A2
100
AcDbEntity
  8
LAY-6
  6
CONTINUOUS
 62
     1
100
AcDbLine
 10
155.350299
 20
250.385319
 30
0.0
 11
176.227921
 21
271.262939
 31
0.0
  0
LINE
  5
2A3
100
AcDbEntity
  8
LAY-6
  6
CONTINUOUS
 62
     1
100
AcDbLine
 10
165.798099
 20
261.186671
 30
0.0
 11
164.914215
 21
259.949234
 31
0.0
  0
LINE
  5
2A4
100
AcDbEntity
  8
LAY-6
  6
CONTINUOUS
 62
     1
100
AcDbLine
 10
164.914215
 20
259.949234
 30
0.0
 11
166.151652
 21
260.833117
 31
0.0
  0
LINE
  5
2A5
100
AcDbEntity
  8
LAY-6
  6
CONTINUOUS
 62
     1
100
AcDbLine
 10
166.227928
 20
310.492584
 30
0.0
 11
166.227928
 21
307.262939
 31
0.0
  0
LINE
  5
2A6
100
AcDbEntity
  8
LAY-6
  6
CONTINUOUS
 62
     1
100
AcDbLine
 10
176.227921
 20
310.762939
 30
0.0
 11
176.227921
 21
307.262939
 31
0.0
  0
TEXT
  5
2A7
100
AcDbEntity
  8
LAY-6
  6
CONTINUOUS
 62
     2
100
AcDbText
 10
156.227921
 20
308.762939
 30
0.0
 40
5.0
  1
１０
 41
0.672
  7
EXCADSTD
 72
     5
 11
163.560721
 21
308.762939
 31
0.0
100
AcDbText
  0
LINE
  5
2A8
100
AcDbEntity
  8
LAY-6
  6
CONTINUOUS
 62
     1
100
AcDbLine
 10
163.227928
 20
308.262939
 30
0.0
 11
179.227921
 21
308.262939
 31
0.0
  0
LINE
  5
2A9
100
AcDbEntity
  8
LAY-6
  6
CONTINUOUS
 62
     1
100
AcDbLine
 10
164.727928
 20
308.012939
 30
0.0
 11
166.227928
 21
308.262939
 31
0.0
  0
LINE
  5
2AA
100
AcDbEntity
  8
LAY-6
  6
CONTINUOUS
 62
     1
100
AcDbLine
 10
166.227928
 20
308.262939
 30
0.0
 11
164.727928
 21
308.512939
 31
0.0
  0
LINE
  5
2AB
100
AcDbEntity
  8
LAY-6
  6
CONTINUOUS
 62
     1
100
AcDbLine
 10
177.727921
 20
308.512939
 30
0.0
 11
176.227921
 21
308.262939
 31
0.0
  0
LINE
  5
2AC
100
AcDbEntity
  8
LAY-6
  6
CONTINUOUS
 62
     1
100
AcDbLine
 10
176.227921
 20
308.262939
 30
0.0
 11
177.727921
 21
308.012939
 31
0.0
  0
TEXT
  5
2AD
100
AcDbEntity
  8
LAY-6
  6
CONTINUOUS
 62
     2
100
AcDbText
 10
200.266242
 20
280.727315
 30
0.0
 40
5.0
  1
６５
 50
300.023739
 41
0.672
  7
EXCADSTD
 72
     5
 11
203.935273
 21
274.378443
 31
0.0
100
AcDbText
  0
TEXT
  5
2AE
100
AcDbEntity
  8
LAY-6
  6
CONTINUOUS
 62
     2
100
AcDbText
 10
204.269112
 20
273.800769
 30
0.0
 40
5.0
  1
ﾟ
 50
300.023739
 41
0.4
  7
EXCADSTD
 72
     5
 11
204.919579
 21
272.675206
 31
0.0
100
AcDbText
  0
ARC
  5
2AF
100
AcDbEntity
  8
LAY-6
  6
CONTINUOUS
 62
     1
100
AcDbCircle
 10
193.88195
 20
271.262929
 30
0.0
 40
10.000016
100
AcDbArc
 50
0.000057
 51
64.999943
  0
LINE
  5
2B0
100
AcDbEntity
  8
LAY-6
  6
CONTINUOUS
 62
     1
100
AcDbLine
 10
203.631966
 20
272.762939
 30
0.0
 11
203.881966
 21
271.262939
 31
0.0
  0
LINE
  5
2B1
100
AcDbEntity
  8
LAY-6
  6
CONTINUOUS
 62
     1
100
AcDbLine
 10
203.881966
 20
271.262939
 30
0.0
 11
204.131966
 21
272.762939
 31
0.0
  0
LINE
  5
2B2
100
AcDbEntity
  8
LAY-6
  6
CONTINUOUS
 62
     1
100
AcDbLine
 10
199.573265
 20
279.918666
 30
0.0
 11
198.108149
 21
280.326017
 31
0.0
  0
LINE
  5
2B3
100
AcDbEntity
  8
LAY-6
  6
CONTINUOUS
 62
     1
100
AcDbLine
 10
198.108149
 20
280.326017
 30
0.0
 11
199.361956
 21
279.465512
 31
0.0
  0
LINE
  5
2B4
100
AcDbEntity
  8
LAY-6
  6
CONTINUOUS
 62
     1
100
AcDbLine
 10
210.727921
 20
186.262924
 30
0.0
 11
224.227921
 21
186.262924
 31
0.0
  0
TEXT
  5
2B5
100
AcDbEntity
  8
LAY-6
  6
CONTINUOUS
 62
     2
100
AcDbText
 10
222.727921
 20
187.262924
 30
0.0
 40
5.0
  1
６
 50
90.0
 41
0.672
  7
EXCADSTD
 72
     5
 11
222.727921
 21
190.462924
 31
0.0
100
AcDbText
  0
LINE
  5
2B6
100
AcDbEntity
  8
LAY-6
  6
CONTINUOUS
 62
     1
100
AcDbLine
 10
223.227921
 20
186.262924
 30
0.0
 11
223.227921
 21
192.262924
 31
0.0
  0
LINE
  5
2B7
100
AcDbEntity
  8
LAY-6
  6
CONTINUOUS
 62
     1
100
AcDbLine
 10
222.977921
 20
187.762924
 30
0.0
 11
223.227921
 21
186.262924
 31
0.0
  0
LINE
  5
2B8
100
AcDbEntity
  8
LAY-6
  6
CONTINUOUS
 62
     1
100
AcDbLine
 10
223.227921
 20
186.262924
 30
0.0
 11
223.477921
 21
187.762924
 31
0.0
  0
LINE
  5
2B9
100
AcDbEntity
  8
LAY-6
  6
CONTINUOUS
 62
     1
100
AcDbLine
 10
223.477921
 20
190.762924
 30
0.0
 11
223.227921
 21
192.262924
 31
0.0
  0
LINE
  5
2BA
100
AcDbEntity
  8
LAY-6
  6
CONTINUOUS
 62
     1
100
AcDbLine
 10
223.227921
 20
192.262924
 30
0.0
 11
222.977921
 21
190.762924
 31
0.0
  0
LINE
  5
2BB
100
AcDbEntity
  8
LAY-6
  6
CONTINUOUS
 62
     1
100
AcDbLine
 10
209.727921
 20
192.262924
 30
0.0
 11
224.227921
 21
192.262924
 31
0.0
  0
LINE
  5
2BC
100
AcDbEntity
  8
LAY-6
  6
CONTINUOUS
 62
     1
100
AcDbLine
 10
209.727921
 20
204.262924
 30
0.0
 11
224.227921
 21
204.262924
 31
0.0
  0
TEXT
  5
2BD
100
AcDbEntity
  8
LAY-6
  6
CONTINUOUS
 62
     2
100
AcDbText
 10
222.727921
 20
194.262924
 30
0.0
 40
5.0
  1
１２
 50
90.0
 41
0.672
  7
EXCADSTD
 72
     5
 11
222.727921
 21
201.595724
 31
0.0
100
AcDbText
  0
LINE
  5
2BE
100
AcDbEntity
  8
LAY-6
  6
CONTINUOUS
 62
     1
100
AcDbLine
 10
223.227921
 20
192.262924
 30
0.0
 11
223.227921
 21
204.262924
 31
0.0
  0
LINE
  5
2BF
100
AcDbEntity
  8
LAY-6
  6
CONTINUOUS
 62
     1
100
AcDbLine
 10
222.977921
 20
193.762924
 30
0.0
 11
223.227921
 21
192.262924
 31
0.0
  0
LINE
  5
2C0
100
AcDbEntity
  8
LAY-6
  6
CONTINUOUS
 62
     1
100
AcDbLine
 10
223.227921
 20
192.262924
 30
0.0
 11
223.477921
 21
193.762924
 31
0.0
  0
LINE
  5
2C1
100
AcDbEntity
  8
LAY-6
  6
CONTINUOUS
 62
     1
100
AcDbLine
 10
223.477921
 20
202.762924
 30
0.0
 11
223.227921
 21
204.262924
 31
0.0
  0
LINE
  5
2C2
100
AcDbEntity
  8
LAY-6
  6
CONTINUOUS
 62
     1
100
AcDbLine
 10
223.227921
 20
204.262924
 30
0.0
 11
222.977921
 21
202.762924
 31
0.0
  0
LINE
  5
2C3
100
AcDbEntity
  8
LAY-6
  6
CONTINUOUS
 62
     1
100
AcDbLine
 10
205.627701
 20
161.262924
 30
0.0
 11
239.227921
 21
161.262924
 31
0.0
  0
TEXT
  5
2C4
100
AcDbEntity
  8
LAY-6
  6
CONTINUOUS
 62
     2
100
AcDbText
 10
237.727921
 20
166.762924
 30
0.0
 40
5.0
  1
１９
 50
90.0
 41
0.672
  7
EXCADSTD
 72
     5
 11
237.727921
 21
174.095724
 31
0.0
100
AcDbText
  0
LINE
  5
2C5
100
AcDbEntity
  8
LAY-6
  6
CONTINUOUS
 62
     1
100
AcDbLine
 10
238.227921
 20
161.262924
 30
0.0
 11
238.227921
 21
180.262924
 31
0.0
  0
LINE
  5
2C6
100
AcDbEntity
  8
LAY-6
  6
CONTINUOUS
 62
     1
100
AcDbLine
 10
237.977921
 20
162.762924
 30
0.0
 11
238.227921
 21
161.262924
 31
0.0
  0
LINE
  5
2C7
100
AcDbEntity
  8
LAY-6
  6
CONTINUOUS
 62
     1
100
AcDbLine
 10
238.227921
 20
161.262924
 30
0.0
 11
238.477921
 21
162.762924
 31
0.0
  0
LINE
  5
2C8
100
AcDbEntity
  8
LAY-6
  6
CONTINUOUS
 62
     1
100
AcDbLine
 10
238.477921
 20
178.762924
 30
0.0
 11
238.227921
 21
180.262924
 31
0.0
  0
LINE
  5
2C9
100
AcDbEntity
  8
LAY-6
  6
CONTINUOUS
 62
     1
100
AcDbLine
 10
238.227921
 20
180.262924
 30
0.0
 11
237.977921
 21
178.762924
 31
0.0
  0
LINE
  5
2CA
100
AcDbEntity
  8
LAY-6
  6
CONTINUOUS
 62
     1
100
AcDbLine
 10
228.896332
 20
180.262924
 30
0.0
 11
239.227921
 21
180.262924
 31
0.0
  0
LINE
  5
2CB
100
AcDbEntity
  8
LAY-6
  6
CONTINUOUS
 62
     1
100
AcDbLine
 10
210.727921
 20
186.262924
 30
0.0
 11
239.227921
 21
186.262924
 31
0.0
  0
TEXT
  5
2CC
100
AcDbEntity
  8
LAY-6
  6
CONTINUOUS
 62
     2
100
AcDbText
 10
237.727905
 20
181.262924
 30
0.0
 40
5.0
  1
６
 50
90.0
 41
0.672
  7
EXCADSTD
 72
     5
 11
237.727905
 21
184.462924
 31
0.0
100
AcDbText
  0
LINE
  5
2CD
100
AcDbEntity
  8
LAY-6
  6
CONTINUOUS
 62
     1
100
AcDbLine
 10
238.227921
 20
177.262924
 30
0.0
 11
238.227921
 21
189.262924
 31
0.0
  0
LINE
  5
2CE
100
AcDbEntity
  8
LAY-6
  6
CONTINUOUS
 62
     1
100
AcDbLine
 10
238.477921
 20
178.762924
 30
0.0
 11
238.227921
 21
180.262924
 31
0.0
  0
LINE
  5
2CF
100
AcDbEntity
  8
LAY-6
  6
CONTINUOUS
 62
     1
100
AcDbLine
 10
238.227921
 20
180.262924
 30
0.0
 11
237.977921
 21
178.762924
 31
0.0
  0
LINE
  5
2D0
100
AcDbEntity
  8
LAY-6
  6
CONTINUOUS
 62
     1
100
AcDbLine
 10
237.977921
 20
187.762924
 30
0.0
 11
238.227921
 21
186.262924
 31
0.0
  0
LINE
  5
2D1
100
AcDbEntity
  8
LAY-6
  6
CONTINUOUS
 62
     1
100
AcDbLine
 10
238.227921
 20
186.262924
 30
0.0
 11
238.477921
 21
187.762924
 31
0.0
  0
LINE
  5
2D2
100
AcDbEntity
  8
LAY-6
  6
CONTINUOUS
 62
     1
100
AcDbLine
 10
210.727921
 20
186.262924
 30
0.0
 11
239.227921
 21
186.262924
 31
0.0
  0
LINE
  5
2D3
100
AcDbEntity
  8
LAY-6
  6
CONTINUOUS
 62
     1
100
AcDbLine
 10
210.727921
 20
210.262924
 30
0.0
 11
239.227921
 21
210.262924
 31
0.0
  0
TEXT
  5
2D4
100
AcDbEntity
  8
LAY-6
  6
CONTINUOUS
 62
     2
100
AcDbText
 10
237.727921
 20
194.262924
 30
0.0
 40
5.0
  1
２４
 50
90.0
 41
0.672
  7
EXCADSTD
 72
     5
 11
237.727921
 21
201.595724
 31
0.0
100
AcDbText
  0
LINE
  5
2D5
100
AcDbEntity
  8
LAY-6
  6
CONTINUOUS
 62
     1
100
AcDbLine
 10
238.227921
 20
186.262924
 30
0.0
 11
238.227921
 21
210.262924
 31
0.0
  0
LINE
  5
2D6
100
AcDbEntity
  8
LAY-6
  6
CONTINUOUS
 62
     1
100
AcDbLine
 10
237.977921
 20
187.762924
 30
0.0
 11
238.227921
 21
186.262924
 31
0.0
  0
LINE
  5
2D7
100
AcDbEntity
  8
LAY-6
  6
CONTINUOUS
 62
     1
100
AcDbLine
 10
238.227921
 20
186.262924
 30
0.0
 11
238.477921
 21
187.762924
 31
0.0
  0
LINE
  5
2D8
100
AcDbEntity
  8
LAY-6
  6
CONTINUOUS
 62
     1
100
AcDbLine
 10
238.477921
 20
208.762924
 30
0.0
 11
238.227921
 21
210.262924
 31
0.0
  0
LINE
  5
2D9
100
AcDbEntity
  8
LAY-6
  6
CONTINUOUS
 62
     1
100
AcDbLine
 10
238.227921
 20
210.262924
 30
0.0
 11
237.977921
 21
208.762924
 31
0.0
  0
TEXT
  5
2DA
100
AcDbEntity
  8
LAY-6
  6
CONTINUOUS
 62
     2
100
AcDbText
 10
154.996742
 20
140.738861
 30
0.0
 40
5.0
  1
Ｒ
 50
44.999997
 41
0.672
  7
EXCADSTD
 72
     5
 11
157.259484
 21
143.001603
 31
0.0
100
AcDbText
  0
TEXT
  5
2DB
100
AcDbEntity
  8
LAY-6
  6
CONTINUOUS
 62
     2
100
AcDbText
 10
157.825169
 20
143.567288
 30
0.0
 40
5.0
  1
１６
 50
44.999997
 41
0.672
  7
EXCADSTD
 72
     5
 11
163.010242
 21
148.75236
 31
0.0
100
AcDbText
  0
LINE
  5
2DC
100
AcDbEntity
  8
LAY-6
  6
CONTINUOUS
 62
     1
100
AcDbLine
 10
164.914215
 20
149.949219
 30
0.0
 11
176.227921
 21
161.262924
 31
0.0
  0
LINE
  5
2DD
100
AcDbEntity
  8
LAY-6
  6
CONTINUOUS
 62
     1
100
AcDbLine
 10
165.798099
 20
151.186656
 30
0.0
 11
164.914215
 21
149.949219
 31
0.0
  0
LINE
  5
2DE
100
AcDbEntity
  8
LAY-6
  6
CONTINUOUS
 62
     1
100
AcDbLine
 10
164.914215
 20
149.949219
 30
0.0
 11
166.151652
 21
150.833102
 31
0.0
  0
LINE
  5
2DF
100
AcDbEntity
  8
LAY-6
  6
CONTINUOUS
 62
     1
100
AcDbLine
 10
166.227928
 20
200.492584
 30
0.0
 11
166.227928
 21
197.262924
 31
0.0
  0
LINE
  5
2E0
100
AcDbEntity
  8
LAY-6
  6
CONTINUOUS
 62
     1
100
AcDbLine
 10
176.227921
 20
200.762924
 30
0.0
 11
176.227921
 21
197.262924
 31
0.0
  0
TEXT
  5
2E1
100
AcDbEntity
  8
LAY-6
  6
CONTINUOUS
 62
     2
100
AcDbText
 10
156.227921
 20
198.762924
 30
0.0
 40
5.0
  1
１０
 41
0.672
  7
EXCADSTD
 72
     5
 11
163.560721
 21
198.762924
 31
0.0
100
AcDbText
  0
LINE
  5
2E2
100
AcDbEntity
  8
LAY-6
  6
CONTINUOUS
 62
     1
100
AcDbLine
 10
163.227928
 20
198.262924
 30
0.0
 11
179.227921
 21
198.262924
 31
0.0
  0
LINE
  5
2E3
100
AcDbEntity
  8
LAY-6
  6
CONTINUOUS
 62
     1
100
AcDbLine
 10
164.727928
 20
198.012924
 30
0.0
 11
166.227928
 21
198.262924
 31
0.0
  0
LINE
  5
2E4
100
AcDbEntity
  8
LAY-6
  6
CONTINUOUS
 62
     1
100
AcDbLine
 10
166.227928
 20
198.262924
 30
0.0
 11
164.727928
 21
198.512924
 31
0.0
  0
LINE
  5
2E5
100
AcDbEntity
  8
LAY-6
  6
CONTINUOUS
 62
     1
100
AcDbLine
 10
177.727921
 20
198.512924
 30
0.0
 11
176.227921
 21
198.262924
 31
0.0
  0
LINE
  5
2E6
100
AcDbEntity
  8
LAY-6
  6
CONTINUOUS
 62
     1
100
AcDbLine
 10
176.227921
 20
198.262924
 30
0.0
 11
177.727921
 21
198.012924
 31
0.0
  0
TEXT
  5
2E7
100
AcDbEntity
  8
LAY-6
  6
CONTINUOUS
 62
     2
100
AcDbText
 10
200.266242
 20
170.7273
 30
0.0
 40
5.0
  1
６５
 50
300.023739
 41
0.672
  7
EXCADSTD
 72
     5
 11
203.935273
 21
164.378428
 31
0.0
100
AcDbText
  0
TEXT
  5
2E8
100
AcDbEntity
  8
LAY-6
  6
CONTINUOUS
 62
     2
100
AcDbText
 10
204.269112
 20
163.800754
 30
0.0
 40
5.0
  1
ﾟ
 50
300.023739
 41
0.4
  7
EXCADSTD
 72
     5
 11
204.919579
 21
162.675191
 31
0.0
100
AcDbText
  0
ARC
  5
2E9
100
AcDbEntity
  8
LAY-6
  6
CONTINUOUS
 62
     1
100
AcDbCircle
 10
193.88195
 20
161.262914
 30
0.0
 40
10.000016
100
AcDbArc
 50
0.000057
 51
64.999943
  0
LINE
  5
2EA
100
AcDbEntity
  8
LAY-6
  6
CONTINUOUS
 62
     1
100
AcDbLine
 10
203.631966
 20
162.762924
 30
0.0
 11
203.881966
 21
161.262924
 31
0.0
  0
LINE
  5
2EB
100
AcDbEntity
  8
LAY-6
  6
CONTINUOUS
 62
     1
100
AcDbLine
 10
203.881966
 20
161.262924
 30
0.0
 11
204.131966
 21
162.762924
 31
0.0
  0
LINE
  5
2EC
100
AcDbEntity
  8
LAY-6
  6
CONTINUOUS
 62
     1
100
AcDbLine
 10
199.573265
 20
169.918651
 30
0.0
 11
198.108149
 21
170.326002
 31
0.0
  0
LINE
  5
2ED
100
AcDbEntity
  8
LAY-6
  6
CONTINUOUS
 62
     1
100
AcDbLine
 10
198.108149
 20
170.326002
 30
0.0
 11
199.361956
 21
169.465497
 31
0.0
  0
LINE
  5
2EE
100
AcDbEntity
  8
LAY-6
  6
CONTINUOUS
 62
     1
100
AcDbLine
 10
671.82901
 20
412.148987
 30
0.0
 11
685.929016
 21
412.148987
 31
0.0
  0
LINE
  5
2EF
100
AcDbEntity
  8
LAY-6
  6
CONTINUOUS
 62
     1
100
AcDbLine
 10
669.529022
 20
403.148987
 30
0.0
 11
685.929016
 21
403.148987
 31
0.0
  0
TEXT
  5
2F0
100
AcDbEntity
  8
LAY-6
  6
CONTINUOUS
 62
     2
100
AcDbText
 10
684.429016
 20
405.648987
 30
0.0
 40
5.0
  1
９
 50
90.0
 41
0.672
  7
EXCADSTD
 72
     5
 11
684.429016
 21
408.848987
 31
0.0
100
AcDbText
  0
LINE
  5
2F1
100
AcDbEntity
  8
LAY-6
  6
CONTINUOUS
 62
     1
100
AcDbLine
 10
684.929016
 20
412.148987
 30
0.0
 11
684.929016
 21
403.148987
 31
0.0
  0
LINE
  5
2F2
100
AcDbEntity
  8
LAY-6
  6
CONTINUOUS
 62
     1
100
AcDbLine
 10
685.179016
 20
410.648987
 30
0.0
 11
684.929016
 21
412.148987
 31
0.0
  0
LINE
  5
2F3
100
AcDbEntity
  8
LAY-6
  6
CONTINUOUS
 62
     1
100
AcDbLine
 10
684.929016
 20
412.148987
 30
0.0
 11
684.679016
 21
410.648987
 31
0.0
  0
LINE
  5
2F4
100
AcDbEntity
  8
LAY-6
  6
CONTINUOUS
 62
     1
100
AcDbLine
 10
684.679016
 20
404.648987
 30
0.0
 11
684.929016
 21
403.148987
 31
0.0
  0
LINE
  5
2F5
100
AcDbEntity
  8
LAY-6
  6
CONTINUOUS
 62
     1
100
AcDbLine
 10
684.929016
 20
403.148987
 30
0.0
 11
685.179016
 21
404.648987
 31
0.0
  0
LINE
  5
2F6
100
AcDbEntity
  8
LAY-6
  6
CONTINUOUS
 62
     1
100
AcDbLine
 10
675.429016
 20
421.648987
 30
0.0
 11
685.929016
 21
421.648987
 31
0.0
  0
LINE
  5
2F7
100
AcDbEntity
  8
LAY-6
  6
CONTINUOUS
 62
     1
100
AcDbLine
 10
675.429016
 20
415.148987
 30
0.0
 11
685.929016
 21
415.148987
 31
0.0
  0
TEXT
  5
2F8
100
AcDbEntity
  8
LAY-6
  6
CONTINUOUS
 62
     2
100
AcDbText
 10
691.635468
 20
415.125641
 30
0.0
 40
5.0
  1
６.５
 50
90.0
 41
0.595556
  7
EXCADSTD
 72
     5
 11
691.635468
 21
425.125641
 31
0.0
100
AcDbText
  0
LINE
  5
2F9
100
AcDbEntity
  8
LAY-6
  6
CONTINUOUS
 62
     1
100
AcDbLine
 10
684.929016
 20
421.648987
 30
0.0
 11
684.929016
 21
415.148987
 31
0.0
  0
LINE
  5
2FA
100
AcDbEntity
  8
LAY-6
  6
CONTINUOUS
 62
     1
100
AcDbLine
 10
685.179016
 20
420.148987
 30
0.0
 11
684.929016
 21
421.648987
 31
0.0
  0
LINE
  5
2FB
100
AcDbEntity
  8
LAY-6
  6
CONTINUOUS
 62
     1
100
AcDbLine
 10
684.929016
 20
421.648987
 30
0.0
 11
684.679016
 21
420.148987
 31
0.0
  0
LINE
  5
2FC
100
AcDbEntity
  8
LAY-6
  6
CONTINUOUS
 62
     1
100
AcDbLine
 10
684.679016
 20
416.648987
 30
0.0
 11
684.929016
 21
415.148987
 31
0.0
  0
LINE
  5
2FD
100
AcDbEntity
  8
LAY-6
  6
CONTINUOUS
 62
     1
100
AcDbLine
 10
684.929016
 20
415.148987
 30
0.0
 11
685.179016
 21
416.648987
 31
0.0
  0
LINE
  5
2FE
100
AcDbEntity
  8
LAY-6
  6
CONTINUOUS
 62
     1
100
AcDbLine
 10
675.429016
 20
415.148987
 30
0.0
 11
700.929016
 21
415.148987
 31
0.0
  0
LINE
  5
2FF
100
AcDbEntity
  8
LAY-6
  6
CONTINUOUS
 62
     1
100
AcDbLine
 10
671.82901
 20
412.148987
 30
0.0
 11
700.929016
 21
412.148987
 31
0.0
  0
TEXT
  5
300
100
AcDbEntity
  8
LAY-6
  6
CONTINUOUS
 62
     2
100
AcDbText
 10
699.429016
 20
416.648987
 30
0.0
 40
5.0
  1
３
 50
90.0
 41
0.672
  7
EXCADSTD
 72
     5
 11
699.429016
 21
419.848987
 31
0.0
100
AcDbText
  0
LINE
  5
301
100
AcDbEntity
  8
LAY-6
  6
CONTINUOUS
 62
     1
100
AcDbLine
 10
699.929016
 20
418.148987
 30
0.0
 11
699.929016
 21
409.148987
 31
0.0
  0
LINE
  5
302
100
AcDbEntity
  8
LAY-6
  6
CONTINUOUS
 62
     1
100
AcDbLine
 10
699.679016
 20
416.648987
 30
0.0
 11
699.929016
 21
415.148987
 31
0.0
  0
LINE
  5
303
100
AcDbEntity
  8
LAY-6
  6
CONTINUOUS
 62
     1
100
AcDbLine
 10
699.929016
 20
415.148987
 30
0.0
 11
700.179016
 21
416.648987
 31
0.0
  0
LINE
  5
304
100
AcDbEntity
  8
LAY-6
  6
CONTINUOUS
 62
     1
100
AcDbLine
 10
700.179016
 20
410.648987
 30
0.0
 11
699.929016
 21
412.148987
 31
0.0
  0
LINE
  5
305
100
AcDbEntity
  8
LAY-6
  6
CONTINUOUS
 62
     1
100
AcDbLine
 10
699.929016
 20
412.148987
 30
0.0
 11
699.679016
 21
410.648987
 31
0.0
  0
LINE
  5
306
100
AcDbEntity
  8
LAY-6
  6
CONTINUOUS
 62
     1
100
AcDbLine
 10
662.429016
 20
428.148987
 30
0.0
 11
685.929016
 21
428.148987
 31
0.0
  0
LINE
  5
307
100
AcDbEntity
  8
LAY-6
  6
CONTINUOUS
 62
     1
100
AcDbLine
 10
671.429016
 20
421.648987
 30
0.0
 11
685.929016
 21
421.648987
 31
0.0
  0
TEXT
  5
308
100
AcDbEntity
  8
LAY-6
  6
CONTINUOUS
 62
     2
100
AcDbText
 10
684.429016
 20
428.898987
 30
0.0
 40
5.0
  1
６.５
 50
90.0
 41
0.595556
  7
EXCADSTD
 72
     5
 11
684.429016
 21
438.898987
 31
0.0
100
AcDbText
  0
LINE
  5
309
100
AcDbEntity
  8
LAY-6
  6
CONTINUOUS
 62
     1
100
AcDbLine
 10
684.929016
 20
428.148987
 30
0.0
 11
684.929016
 21
421.648987
 31
0.0
  0
LINE
  5
30A
100
AcDbEntity
  8
LAY-6
  6
CONTINUOUS
 62
     1
100
AcDbLine
 10
685.179016
 20
426.648987
 30
0.0
 11
684.929016
 21
428.148987
 31
0.0
  0
LINE
  5
30B
100
AcDbEntity
  8
LAY-6
  6
CONTINUOUS
 62
     1
100
AcDbLine
 10
684.929016
 20
428.148987
 30
0.0
 11
684.679016
 21
426.648987
 31
0.0
  0
LINE
  5
30C
100
AcDbEntity
  8
LAY-6
  6
CONTINUOUS
 62
     1
100
AcDbLine
 10
684.679016
 20
423.148987
 30
0.0
 11
684.929016
 21
421.648987
 31
0.0
  0
LINE
  5
30D
100
AcDbEntity
  8
LAY-6
  6
CONTINUOUS
 62
     1
100
AcDbLine
 10
684.929016
 20
421.648987
 30
0.0
 11
685.179016
 21
423.148987
 31
0.0
  0
LINE
  5
30E
100
AcDbEntity
  8
LAY-6
  6
CONTINUOUS
 62
     1
100
AcDbLine
 10
673.429016
 20
212.148972
 30
0.0
 11
700.929016
 21
212.148972
 31
0.0
  0
LINE
  5
30F
100
AcDbEntity
  8
LAY-6
  6
CONTINUOUS
 62
     1
100
AcDbLine
 10
675.429016
 20
206.148972
 30
0.0
 11
700.929016
 21
206.148972
 31
0.0
  0
TEXT
  5
310
100
AcDbEntity
  8
LAY-6
  6
CONTINUOUS
 62
     2
100
AcDbText
 10
699.429016
 20
207.148972
 30
0.0
 40
5.0
  1
６
 50
90.0
 41
0.672
  7
EXCADSTD
 72
     5
 11
699.429016
 21
210.348972
 31
0.0
100
AcDbText
  0
LINE
  5
311
100
AcDbEntity
  8
LAY-6
  6
CONTINUOUS
 62
     1
100
AcDbLine
 10
699.929016
 20
215.148972
 30
0.0
 11
699.929016
 21
203.148972
 31
0.0
  0
LINE
  5
312
100
AcDbEntity
  8
LAY-6
  6
CONTINUOUS
 62
     1
100
AcDbLine
 10
699.679016
 20
213.648972
 30
0.0
 11
699.929016
 21
212.148972
 31
0.0
  0
LINE
  5
313
100
AcDbEntity
  8
LAY-6
  6
CONTINUOUS
 62
     1
100
AcDbLine
 10
699.929016
 20
212.148972
 30
0.0
 11
700.179016
 21
213.648972
 31
0.0
  0
LINE
  5
314
100
AcDbEntity
  8
LAY-6
  6
CONTINUOUS
 62
     1
100
AcDbLine
 10
700.179016
 20
204.648972
 30
0.0
 11
699.929016
 21
206.148972
 31
0.0
  0
LINE
  5
315
100
AcDbEntity
  8
LAY-6
  6
CONTINUOUS
 62
     1
100
AcDbLine
 10
699.929016
 20
206.148972
 30
0.0
 11
699.679016
 21
204.648972
 31
0.0
  0
LINE
  5
316
100
AcDbEntity
  8
LAY-6
  6
CONTINUOUS
 62
     1
100
AcDbLine
 10
673.429016
 20
212.148972
 30
0.0
 11
685.929016
 21
212.148972
 31
0.0
  0
LINE
  5
317
100
AcDbEntity
  8
LAY-6
  6
CONTINUOUS
 62
     1
100
AcDbLine
 10
662.429016
 20
215.148972
 30
0.0
 11
685.929016
 21
215.148972
 31
0.0
  0
TEXT
  5
318
100
AcDbEntity
  8
LAY-6
  6
CONTINUOUS
 62
     2
100
AcDbText
 10
684.429016
 20
207.648972
 30
0.0
 40
5.0
  1
３
 50
90.0
 41
0.672
  7
EXCADSTD
 72
     5
 11
684.429016
 21
210.848972
 31
0.0
100
AcDbText
  0
LINE
  5
319
100
AcDbEntity
  8
LAY-6
  6
CONTINUOUS
 62
     1
100
AcDbLine
 10
684.929016
 20
209.148972
 30
0.0
 11
684.929016
 21
218.148972
 31
0.0
  0
LINE
  5
31A
100
AcDbEntity
  8
LAY-6
  6
CONTINUOUS
 62
     1
100
AcDbLine
 10
685.179016
 20
210.648972
 30
0.0
 11
684.929016
 21
212.148972
 31
0.0
  0
LINE
  5
31B
100
AcDbEntity
  8
LAY-6
  6
CONTINUOUS
 62
     1
100
AcDbLine
 10
684.929016
 20
212.148972
 30
0.0
 11
684.679016
 21
210.648972
 31
0.0
  0
LINE
  5
31C
100
AcDbEntity
  8
LAY-6
  6
CONTINUOUS
 62
     1
100
AcDbLine
 10
684.679016
 20
216.648972
 30
0.0
 11
684.929016
 21
215.148972
 31
0.0
  0
LINE
  5
31D
100
AcDbEntity
  8
LAY-6
  6
CONTINUOUS
 62
     1
100
AcDbLine
 10
684.929016
 20
215.148972
 30
0.0
 11
685.179016
 21
216.648972
 31
0.0
  0
LINE
  5
31E
100
AcDbEntity
  8
LAY-6
  6
CONTINUOUS
 62
     1
100
AcDbLine
 10
662.429016
 20
215.148972
 30
0.0
 11
685.929016
 21
215.148972
 31
0.0
  0
LINE
  5
31F
100
AcDbEntity
  8
LAY-6
  6
CONTINUOUS
 62
     1
100
AcDbLine
 10
669.529022
 20
224.148972
 30
0.0
 11
685.929016
 21
224.148972
 31
0.0
  0
TEXT
  5
320
100
AcDbEntity
  8
LAY-6
  6
CONTINUOUS
 62
     2
100
AcDbText
 10
684.429016
 20
217.648972
 30
0.0
 40
5.0
  1
９
 50
90.0
 41
0.672
  7
EXCADSTD
 72
     5
 11
684.429016
 21
220.848972
 31
0.0
100
AcDbText
  0
LINE
  5
321
100
AcDbEntity
  8
LAY-6
  6
CONTINUOUS
 62
     1
100
AcDbLine
 10
684.929016
 20
215.148972
 30
0.0
 11
684.929016
 21
224.148972
 31
0.0
  0
LINE
  5
322
100
AcDbEntity
  8
LAY-6
  6
CONTINUOUS
 62
     1
100
AcDbLine
 10
684.679016
 20
216.648972
 30
0.0
 11
684.929016
 21
215.148972
 31
0.0
  0
LINE
  5
323
100
AcDbEntity
  8
LAY-6
  6
CONTINUOUS
 62
     1
100
AcDbLine
 10
684.929016
 20
215.148972
 30
0.0
 11
685.179016
 21
216.648972
 31
0.0
  0
LINE
  5
324
100
AcDbEntity
  8
LAY-6
  6
CONTINUOUS
 62
     1
100
AcDbLine
 10
685.179016
 20
222.648972
 30
0.0
 11
684.929016
 21
224.148972
 31
0.0
  0
LINE
  5
325
100
AcDbEntity
  8
LAY-6
  6
CONTINUOUS
 62
     1
100
AcDbLine
 10
684.929016
 20
224.148972
 30
0.0
 11
684.679016
 21
222.648972
 31
0.0
  0
LINE
  5
326
100
AcDbEntity
  8
LAY-6
  6
CONTINUOUS
 62
     1
100
AcDbLine
 10
675.429016
 20
199.648972
 30
0.0
 11
685.929016
 21
199.648972
 31
0.0
  0
LINE
  5
327
100
AcDbEntity
  8
LAY-6
  6
CONTINUOUS
 62
     1
100
AcDbLine
 10
662.429016
 20
190.648972
 30
0.0
 11
685.929016
 21
190.648972
 31
0.0
  0
TEXT
  5
328
100
AcDbEntity
  8
LAY-6
  6
CONTINUOUS
 62
     2
100
AcDbText
 10
684.429016
 20
193.148972
 30
0.0
 40
5.0
  1
９
 50
90.0
 41
0.672
  7
EXCADSTD
 72
     5
 11
684.429016
 21
196.348972
 31
0.0
100
AcDbText
  0
LINE
  5
329
100
AcDbEntity
  8
LAY-6
  6
CONTINUOUS
 62
     1
100
AcDbLine
 10
684.929016
 20
199.648972
 30
0.0
 11
684.929016
 21
190.648972
 31
0.0
  0
LINE
  5
32A
100
AcDbEntity
  8
LAY-6
  6
CONTINUOUS
 62
     1
100
AcDbLine
 10
685.179016
 20
198.148972
 30
0.0
 11
684.929016
 21
199.648972
 31
0.0
  0
LINE
  5
32B
100
AcDbEntity
  8
LAY-6
  6
CONTINUOUS
 62
     1
100
AcDbLine
 10
684.929016
 20
199.648972
 30
0.0
 11
684.679016
 21
198.148972
 31
0.0
  0
LINE
  5
32C
100
AcDbEntity
  8
LAY-6
  6
CONTINUOUS
 62
     1
100
AcDbLine
 10
684.679016
 20
192.148972
 30
0.0
 11
684.929016
 21
190.648972
 31
0.0
  0
LINE
  5
32D
100
AcDbEntity
  8
LAY-6
  6
CONTINUOUS
 62
     1
100
AcDbLine
 10
684.929016
 20
190.648972
 30
0.0
 11
685.179016
 21
192.148972
 31
0.0
  0
LINE
  5
32E
100
AcDbEntity
  8
LAY-6
  6
CONTINUOUS
 62
     1
100
AcDbLine
 10
173.227921
 20
317.762939
 30
0.0
 11
173.227921
 21
332.262939
 31
0.0
  0
TEXT
  5
32F
100
AcDbEntity
  8
LAY-6
  6
CONTINUOUS
 62
     2
100
AcDbText
 10
174.727921
 20
331.762939
 30
0.0
 40
5.0
  1
７
 41
0.672
  7
EXCADSTD
 72
     5
 11
177.927921
 21
331.762939
 31
0.0
100
AcDbText
  0
LINE
  5
330
100
AcDbEntity
  8
LAY-6
  6
CONTINUOUS
 62
     1
100
AcDbLine
 10
173.227921
 20
331.262939
 30
0.0
 11
180.227921
 21
331.262939
 31
0.0
  0
LINE
  5
331
100
AcDbEntity
  8
LAY-6
  6
CONTINUOUS
 62
     1
100
AcDbLine
 10
174.727921
 20
331.512939
 30
0.0
 11
173.227921
 21
331.262939
 31
0.0
  0
LINE
  5
332
100
AcDbEntity
  8
LAY-6
  6
CONTINUOUS
 62
     1
100
AcDbLine
 10
173.227921
 20
331.262939
 30
0.0
 11
174.727921
 21
331.012939
 31
0.0
  0
LINE
  5
333
100
AcDbEntity
  8
LAY-6
  6
CONTINUOUS
 62
     1
100
AcDbLine
 10
178.727921
 20
331.012939
 30
0.0
 11
180.227921
 21
331.262939
 31
0.0
  0
LINE
  5
334
100
AcDbEntity
  8
LAY-6
  6
CONTINUOUS
 62
     1
100
AcDbLine
 10
180.227921
 20
331.262939
 30
0.0
 11
178.727921
 21
331.512939
 31
0.0
  0
LINE
  5
335
100
AcDbEntity
  8
LAY-6
  6
CONTINUOUS
 62
     1
100
AcDbLine
 10
180.227921
 20
320.762939
 30
0.0
 11
180.227921
 21
332.262939
 31
0.0
  0
LINE
  5
336
100
AcDbEntity
  8
LAY-6
  6
CONTINUOUS
 62
     1
100
AcDbLine
 10
204.227921
 20
320.762939
 30
0.0
 11
204.227921
 21
332.262939
 31
0.0
  0
TEXT
  5
337
100
AcDbEntity
  8
LAY-6
  6
CONTINUOUS
 62
     2
100
AcDbText
 10
188.227921
 20
331.762939
 30
0.0
 40
5.0
  1
２４
 41
0.672
  7
EXCADSTD
 72
     5
 11
195.560721
 21
331.762939
 31
0.0
100
AcDbText
  0
LINE
  5
338
100
AcDbEntity
  8
LAY-6
  6
CONTINUOUS
 62
     1
100
AcDbLine
 10
180.227921
 20
331.262939
 30
0.0
 11
204.227921
 21
331.262939
 31
0.0
  0
LINE
  5
339
100
AcDbEntity
  8
LAY-6
  6
CONTINUOUS
 62
     1
100
AcDbLine
 10
181.727921
 20
331.512939
 30
0.0
 11
180.227921
 21
331.262939
 31
0.0
  0
LINE
  5
33A
100
AcDbEntity
  8
LAY-6
  6
CONTINUOUS
 62
     1
100
AcDbLine
 10
180.227921
 20
331.262939
 30
0.0
 11
181.727921
 21
331.012939
 31
0.0
  0
LINE
  5
33B
100
AcDbEntity
  8
LAY-6
  6
CONTINUOUS
 62
     1
100
AcDbLine
 10
202.727921
 20
331.012939
 30
0.0
 11
204.227921
 21
331.262939
 31
0.0
  0
LINE
  5
33C
100
AcDbEntity
  8
LAY-6
  6
CONTINUOUS
 62
     1
100
AcDbLine
 10
204.227921
 20
331.262939
 30
0.0
 11
202.727921
 21
331.512939
 31
0.0
  0
LINE
  5
33D
100
AcDbEntity
  8
LAY-6
  6
CONTINUOUS
 62
     1
100
AcDbLine
 10
166.227928
 20
325.162933
 30
0.0
 11
166.227928
 21
342.262939
 31
0.0
  0
TEXT
  5
33E
100
AcDbEntity
  8
LAY-6
  6
CONTINUOUS
 62
     2
100
AcDbText
 10
167.727921
 20
341.762939
 30
0.0
 40
5.0
  1
７
 41
0.672
  7
EXCADSTD
 72
     5
 11
170.927921
 21
341.762939
 31
0.0
100
AcDbText
  0
LINE
  5
33F
100
AcDbEntity
  8
LAY-6
  6
CONTINUOUS
 62
     1
100
AcDbLine
 10
166.227928
 20
341.262939
 30
0.0
 11
173.227921
 21
341.262939
 31
0.0
  0
LINE
  5
340
100
AcDbEntity
  8
LAY-6
  6
CONTINUOUS
 62
     1
100
AcDbLine
 10
167.727928
 20
341.512939
 30
0.0
 11
166.227928
 21
341.262939
 31
0.0
  0
LINE
  5
341
100
AcDbEntity
  8
LAY-6
  6
CONTINUOUS
 62
     1
100
AcDbLine
 10
166.227928
 20
341.262939
 30
0.0
 11
167.727928
 21
341.012939
 31
0.0
  0
LINE
  5
342
100
AcDbEntity
  8
LAY-6
  6
CONTINUOUS
 62
     1
100
AcDbLine
 10
171.727921
 20
341.012939
 30
0.0
 11
173.227921
 21
341.262939
 31
0.0
  0
LINE
  5
343
100
AcDbEntity
  8
LAY-6
  6
CONTINUOUS
 62
     1
100
AcDbLine
 10
173.227921
 20
341.262939
 30
0.0
 11
171.727921
 21
341.512939
 31
0.0
  0
LINE
  5
344
100
AcDbEntity
  8
LAY-6
  6
CONTINUOUS
 62
     1
100
AcDbLine
 10
173.227921
 20
317.762939
 30
0.0
 11
173.227921
 21
342.262939
 31
0.0
  0
LINE
  5
345
100
AcDbEntity
  8
LAY-6
  6
CONTINUOUS
 62
     1
100
AcDbLine
 10
213.227921
 20
317.762939
 30
0.0
 11
213.227921
 21
342.262939
 31
0.0
  0
TEXT
  5
346
100
AcDbEntity
  8
LAY-6
  6
CONTINUOUS
 62
     2
100
AcDbText
 10
189.227921
 20
341.762939
 30
0.0
 40
5.0
  1
４０
 41
0.672
  7
EXCADSTD
 72
     5
 11
196.560721
 21
341.762939
 31
0.0
100
AcDbText
  0
LINE
  5
347
100
AcDbEntity
  8
LAY-6
  6
CONTINUOUS
 62
     1
100
AcDbLine
 10
173.227921
 20
341.262939
 30
0.0
 11
213.227921
 21
341.262939
 31
0.0
  0
LINE
  5
348
100
AcDbEntity
  8
LAY-6
  6
CONTINUOUS
 62
     1
100
AcDbLine
 10
174.727921
 20
341.512939
 30
0.0
 11
173.227921
 21
341.262939
 31
0.0
  0
LINE
  5
349
100
AcDbEntity
  8
LAY-6
  6
CONTINUOUS
 62
     1
100
AcDbLine
 10
173.227921
 20
341.262939
 30
0.0
 11
174.727921
 21
341.012939
 31
0.0
  0
LINE
  5
34A
100
AcDbEntity
  8
LAY-6
  6
CONTINUOUS
 62
     1
100
AcDbLine
 10
211.727921
 20
341.012939
 30
0.0
 11
213.227921
 21
341.262939
 31
0.0
  0
LINE
  5
34B
100
AcDbEntity
  8
LAY-6
  6
CONTINUOUS
 62
     1
100
AcDbLine
 10
213.227921
 20
341.262939
 30
0.0
 11
211.727921
 21
341.512939
 31
0.0
  0
LINE
  5
34C
100
AcDbEntity
  8
LAY-6
  6
CONTINUOUS
 62
     1
100
AcDbLine
 10
173.227921
 20
294.12529
 30
0.0
 11
173.227921
 21
291.262939
 31
0.0
  0
LINE
  5
34D
100
AcDbEntity
  8
LAY-6
  6
CONTINUOUS
 62
     1
100
AcDbLine
 10
198.227921
 20
293.837708
 30
0.0
 11
198.227921
 21
291.262939
 31
0.0
  0
TEXT
  5
34E
100
AcDbEntity
  8
LAY-6
  6
CONTINUOUS
 62
     2
100
AcDbText
 10
181.727921
 20
292.762939
 30
0.0
 40
5.0
  1
２５
 41
0.672
  7
EXCADSTD
 72
     5
 11
189.060721
 21
292.762939
 31
0.0
100
AcDbText
  0
LINE
  5
34F
100
AcDbEntity
  8
LAY-6
  6
CONTINUOUS
 62
     1
100
AcDbLine
 10
173.227921
 20
292.262939
 30
0.0
 11
198.227921
 21
292.262939
 31
0.0
  0
LINE
  5
350
100
AcDbEntity
  8
LAY-6
  6
CONTINUOUS
 62
     1
100
AcDbLine
 10
174.727921
 20
292.512939
 30
0.0
 11
173.227921
 21
292.262939
 31
0.0
  0
LINE
  5
351
100
AcDbEntity
  8
LAY-6
  6
CONTINUOUS
 62
     1
100
AcDbLine
 10
173.227921
 20
292.262939
 30
0.0
 11
174.727921
 21
292.012939
 31
0.0
  0
LINE
  5
352
100
AcDbEntity
  8
LAY-6
  6
CONTINUOUS
 62
     1
100
AcDbLine
 10
196.727921
 20
292.012939
 30
0.0
 11
198.227921
 21
292.262939
 31
0.0
  0
LINE
  5
353
100
AcDbEntity
  8
LAY-6
  6
CONTINUOUS
 62
     1
100
AcDbLine
 10
198.227921
 20
292.262939
 30
0.0
 11
196.727921
 21
292.512939
 31
0.0
  0
LINE
  5
354
100
AcDbEntity
  8
LAY-6
  6
CONTINUOUS
 62
     1
100
AcDbLine
 10
173.227921
 20
207.762924
 30
0.0
 11
173.227921
 21
222.262924
 31
0.0
  0
TEXT
  5
355
100
AcDbEntity
  8
LAY-6
  6
CONTINUOUS
 62
     2
100
AcDbText
 10
174.727921
 20
221.762924
 30
0.0
 40
5.0
  1
７
 41
0.672
  7
EXCADSTD
 72
     5
 11
177.927921
 21
221.762924
 31
0.0
100
AcDbText
  0
LINE
  5
356
100
AcDbEntity
  8
LAY-6
  6
CONTINUOUS
 62
     1
100
AcDbLine
 10
173.227921
 20
221.262924
 30
0.0
 11
180.227921
 21
221.262924
 31
0.0
  0
LINE
  5
357
100
AcDbEntity
  8
LAY-6
  6
CONTINUOUS
 62
     1
100
AcDbLine
 10
174.727921
 20
221.512924
 30
0.0
 11
173.227921
 21
221.262924
 31
0.0
  0
LINE
  5
358
100
AcDbEntity
  8
LAY-6
  6
CONTINUOUS
 62
     1
100
AcDbLine
 10
173.227921
 20
221.262924
 30
0.0
 11
174.727921
 21
221.012924
 31
0.0
  0
LINE
  5
359
100
AcDbEntity
  8
LAY-6
  6
CONTINUOUS
 62
     1
100
AcDbLine
 10
178.727921
 20
221.012924
 30
0.0
 11
180.227921
 21
221.262924
 31
0.0
  0
LINE
  5
35A
100
AcDbEntity
  8
LAY-6
  6
CONTINUOUS
 62
     1
100
AcDbLine
 10
180.227921
 20
221.262924
 30
0.0
 11
178.727921
 21
221.512924
 31
0.0
  0
LINE
  5
35B
100
AcDbEntity
  8
LAY-6
  6
CONTINUOUS
 62
     1
100
AcDbLine
 10
180.227921
 20
210.762924
 30
0.0
 11
180.227921
 21
222.262924
 31
0.0
  0
LINE
  5
35C
100
AcDbEntity
  8
LAY-6
  6
CONTINUOUS
 62
     1
100
AcDbLine
 10
204.227921
 20
210.762924
 30
0.0
 11
204.227921
 21
222.262924
 31
0.0
  0
TEXT
  5
35D
100
AcDbEntity
  8
LAY-6
  6
CONTINUOUS
 62
     2
100
AcDbText
 10
188.227921
 20
221.762924
 30
0.0
 40
5.0
  1
２４
 41
0.672
  7
EXCADSTD
 72
     5
 11
195.560721
 21
221.762924
 31
0.0
100
AcDbText
  0
LINE
  5
35E
100
AcDbEntity
  8
LAY-6
  6
CONTINUOUS
 62
     1
100
AcDbLine
 10
180.227921
 20
221.262924
 30
0.0
 11
204.227921
 21
221.262924
 31
0.0
  0
LINE
  5
35F
100
AcDbEntity
  8
LAY-6
  6
CONTINUOUS
 62
     1
100
AcDbLine
 10
181.727921
 20
221.512924
 30
0.0
 11
180.227921
 21
221.262924
 31
0.0
  0
LINE
  5
360
100
AcDbEntity
  8
LAY-6
  6
CONTINUOUS
 62
     1
100
AcDbLine
 10
180.227921
 20
221.262924
 30
0.0
 11
181.727921
 21
221.012924
 31
0.0
  0
LINE
  5
361
100
AcDbEntity
  8
LAY-6
  6
CONTINUOUS
 62
     1
100
AcDbLine
 10
202.727921
 20
221.012924
 30
0.0
 11
204.227921
 21
221.262924
 31
0.0
  0
LINE
  5
362
100
AcDbEntity
  8
LAY-6
  6
CONTINUOUS
 62
     1
100
AcDbLine
 10
204.227921
 20
221.262924
 30
0.0
 11
202.727921
 21
221.512924
 31
0.0
  0
LINE
  5
363
100
AcDbEntity
  8
LAY-6
  6
CONTINUOUS
 62
     1
100
AcDbLine
 10
166.227928
 20
215.162918
 30
0.0
 11
166.227928
 21
232.262924
 31
0.0
  0
TEXT
  5
364
100
AcDbEntity
  8
LAY-6
  6
CONTINUOUS
 62
     2
100
AcDbText
 10
167.727921
 20
231.762924
 30
0.0
 40
5.0
  1
７
 41
0.672
  7
EXCADSTD
 72
     5
 11
170.927921
 21
231.762924
 31
0.0
100
AcDbText
  0
LINE
  5
365
100
AcDbEntity
  8
LAY-6
  6
CONTINUOUS
 62
     1
100
AcDbLine
 10
166.227928
 20
231.262924
 30
0.0
 11
173.227921
 21
231.262924
 31
0.0
  0
LINE
  5
366
100
AcDbEntity
  8
LAY-6
  6
CONTINUOUS
 62
     1
100
AcDbLine
 10
167.727928
 20
231.512924
 30
0.0
 11
166.227928
 21
231.262924
 31
0.0
  0
LINE
  5
367
100
AcDbEntity
  8
LAY-6
  6
CONTINUOUS
 62
     1
100
AcDbLine
 10
166.227928
 20
231.262924
 30
0.0
 11
167.727928
 21
231.012924
 31
0.0
  0
LINE
  5
368
100
AcDbEntity
  8
LAY-6
  6
CONTINUOUS
 62
     1
100
AcDbLine
 10
171.727921
 20
231.012924
 30
0.0
 11
173.227921
 21
231.262924
 31
0.0
  0
LINE
  5
369
100
AcDbEntity
  8
LAY-6
  6
CONTINUOUS
 62
     1
100
AcDbLine
 10
173.227921
 20
231.262924
 30
0.0
 11
171.727921
 21
231.512924
 31
0.0
  0
LINE
  5
36A
100
AcDbEntity
  8
LAY-6
  6
CONTINUOUS
 62
     1
100
AcDbLine
 10
173.227921
 20
207.762924
 30
0.0
 11
173.227921
 21
232.262924
 31
0.0
  0
LINE
  5
36B
100
AcDbEntity
  8
LAY-6
  6
CONTINUOUS
 62
     1
100
AcDbLine
 10
213.227921
 20
207.762924
 30
0.0
 11
213.227921
 21
232.262924
 31
0.0
  0
TEXT
  5
36C
100
AcDbEntity
  8
LAY-6
  6
CONTINUOUS
 62
     2
100
AcDbText
 10
189.227921
 20
231.762924
 30
0.0
 40
5.0
  1
４０
 41
0.672
  7
EXCADSTD
 72
     5
 11
196.560721
 21
231.762924
 31
0.0
100
AcDbText
  0
LINE
  5
36D
100
AcDbEntity
  8
LAY-6
  6
CONTINUOUS
 62
     1
100
AcDbLine
 10
173.227921
 20
231.262924
 30
0.0
 11
213.227921
 21
231.262924
 31
0.0
  0
LINE
  5
36E
100
AcDbEntity
  8
LAY-6
  6
CONTINUOUS
 62
     1
100
AcDbLine
 10
174.727921
 20
231.512924
 30
0.0
 11
173.227921
 21
231.262924
 31
0.0
  0
LINE
  5
36F
100
AcDbEntity
  8
LAY-6
  6
CONTINUOUS
 62
     1
100
AcDbLine
 10
173.227921
 20
231.262924
 30
0.0
 11
174.727921
 21
231.012924
 31
0.0
  0
LINE
  5
370
100
AcDbEntity
  8
LAY-6
  6
CONTINUOUS
 62
     1
100
AcDbLine
 10
211.727921
 20
231.012924
 30
0.0
 11
213.227921
 21
231.262924
 31
0.0
  0
LINE
  5
371
100
AcDbEntity
  8
LAY-6
  6
CONTINUOUS
 62
     1
100
AcDbLine
 10
213.227921
 20
231.262924
 30
0.0
 11
211.727921
 21
231.512924
 31
0.0
  0
TEXT
  5
372
100
AcDbEntity
  8
LAY-6
  6
CONTINUOUS
 62
     2
100
AcDbText
 10
181.727921
 20
182.762924
 30
0.0
 40
5.0
  1
２５
 41
0.672
  7
EXCADSTD
 72
     5
 11
189.060721
 21
182.762924
 31
0.0
100
AcDbText
  0
LINE
  5
373
100
AcDbEntity
  8
LAY-6
  6
CONTINUOUS
 62
     1
100
AcDbLine
 10
173.227921
 20
182.262924
 30
0.0
 11
198.227921
 21
182.262924
 31
0.0
  0
LINE
  5
374
100
AcDbEntity
  8
LAY-6
  6
CONTINUOUS
 62
     1
100
AcDbLine
 10
174.727921
 20
182.512924
 30
0.0
 11
173.227921
 21
182.262924
 31
0.0
  0
LINE
  5
375
100
AcDbEntity
  8
LAY-6
  6
CONTINUOUS
 62
     1
100
AcDbLine
 10
173.227921
 20
182.262924
 30
0.0
 11
174.727921
 21
182.012924
 31
0.0
  0
LINE
  5
376
100
AcDbEntity
  8
LAY-6
  6
CONTINUOUS
 62
     1
100
AcDbLine
 10
196.727921
 20
182.012924
 30
0.0
 11
198.227921
 21
182.262924
 31
0.0
  0
LINE
  5
377
100
AcDbEntity
  8
LAY-6
  6
CONTINUOUS
 62
     1
100
AcDbLine
 10
198.227921
 20
182.262924
 30
0.0
 11
196.727921
 21
182.512924
 31
0.0
  0
LINE
  5
378
100
AcDbEntity
  8
LAY-6
  6
CONTINUOUS
 62
     1
100
AcDbLine
 10
377.227966
 20
430.762939
 30
0.0
 11
377.227966
 21
447.262939
 31
0.0
  0
LINE
  5
379
100
AcDbEntity
  8
LAY-6
  6
CONTINUOUS
 62
     1
100
AcDbLine
 10
402.227966
 20
430.762939
 30
0.0
 11
402.227966
 21
447.262939
 31
0.0
  0
TEXT
  5
37A
100
AcDbEntity
  8
LAY-6
  6
CONTINUOUS
 62
     2
100
AcDbText
 10
385.727966
 20
446.762939
 30
0.0
 40
5.0
  1
２５
 41
0.672
  7
EXCADSTD
 72
     5
 11
393.060766
 21
446.762939
 31
0.0
100
AcDbText
  0
LINE
  5
37B
100
AcDbEntity
  8
LAY-6
  6
CONTINUOUS
 62
     1
100
AcDbLine
 10
377.227966
 20
446.262939
 30
0.0
 11
402.227966
 21
446.262939
 31
0.0
  0
LINE
  5
37C
100
AcDbEntity
  8
LAY-6
  6
CONTINUOUS
 62
     1
100
AcDbLine
 10
378.727966
 20
446.512939
 30
0.0
 11
377.227966
 21
446.262939
 31
0.0
  0
LINE
  5
37D
100
AcDbEntity
  8
LAY-6
  6
CONTINUOUS
 62
     1
100
AcDbLine
 10
377.227966
 20
446.262939
 30
0.0
 11
378.727966
 21
446.012939
 31
0.0
  0
LINE
  5
37E
100
AcDbEntity
  8
LAY-6
  6
CONTINUOUS
 62
     1
100
AcDbLine
 10
400.727966
 20
446.012939
 30
0.0
 11
402.227966
 21
446.262939
 31
0.0
  0
LINE
  5
37F
100
AcDbEntity
  8
LAY-6
  6
CONTINUOUS
 62
     1
100
AcDbLine
 10
402.227966
 20
446.262939
 30
0.0
 11
400.727966
 21
446.512939
 31
0.0
  0
LINE
  5
380
100
AcDbEntity
  8
LAY-6
  6
CONTINUOUS
 62
     1
100
AcDbLine
 10
368.227966
 20
441.762939
 30
0.0
 11
368.227966
 21
457.262939
 31
0.0
  0
TEXT
  5
381
100
AcDbEntity
  8
LAY-6
  6
CONTINUOUS
 62
     2
100
AcDbText
 10
370.727966
 20
456.762939
 30
0.0
 40
5.0
  1
９
 41
0.672
  7
EXCADSTD
 72
     5
 11
373.927966
 21
456.762939
 31
0.0
100
AcDbText
  0
LINE
  5
382
100
AcDbEntity
  8
LAY-6
  6
CONTINUOUS
 62
     1
100
AcDbLine
 10
368.227966
 20
456.262939
 30
0.0
 11
377.227966
 21
456.262939
 31
0.0
  0
LINE
  5
383
100
AcDbEntity
  8
LAY-6
  6
CONTINUOUS
 62
     1
100
AcDbLine
 10
369.727966
 20
456.512939
 30
0.0
 11
368.227966
 21
456.262939
 31
0.0
  0
LINE
  5
384
100
AcDbEntity
  8
LAY-6
  6
CONTINUOUS
 62
     1
100
AcDbLine
 10
368.227966
 20
456.262939
 30
0.0
 11
369.727966
 21
456.012939
 31
0.0
  0
LINE
  5
385
100
AcDbEntity
  8
LAY-6
  6
CONTINUOUS
 62
     1
100
AcDbLine
 10
375.727966
 20
456.012939
 30
0.0
 11
377.227966
 21
456.262939
 31
0.0
  0
LINE
  5
386
100
AcDbEntity
  8
LAY-6
  6
CONTINUOUS
 62
     1
100
AcDbLine
 10
377.227966
 20
456.262939
 30
0.0
 11
375.727966
 21
456.512939
 31
0.0
  0
LINE
  5
387
100
AcDbEntity
  8
LAY-6
  6
CONTINUOUS
 62
     1
100
AcDbLine
 10
377.227966
 20
430.762939
 30
0.0
 11
377.227966
 21
457.262939
 31
0.0
  0
LINE
  5
388
100
AcDbEntity
  8
LAY-6
  6
CONTINUOUS
 62
     1
100
AcDbLine
 10
381.227966
 20
443.362946
 30
0.0
 11
381.227966
 21
457.262939
 31
0.0
  0
TEXT
  5
389
100
AcDbEntity
  8
LAY-6
  6
CONTINUOUS
 62
     2
100
AcDbText
 10
377.227966
 20
456.762939
 30
0.0
 40
5.0
  1
４
 41
0.672
  7
EXCADSTD
 72
     5
 11
380.427966
 21
456.762939
 31
0.0
100
AcDbText
  0
LINE
  5
38A
100
AcDbEntity
  8
LAY-6
  6
CONTINUOUS
 62
     1
100
AcDbLine
 10
374.227966
 20
456.262939
 30
0.0
 11
384.227966
 21
456.262939
 31
0.0
  0
LINE
  5
38B
100
AcDbEntity
  8
LAY-6
  6
CONTINUOUS
 62
     1
100
AcDbLine
 10
375.727966
 20
456.012939
 30
0.0
 11
377.227966
 21
456.262939
 31
0.0
  0
LINE
  5
38C
100
AcDbEntity
  8
LAY-6
  6
CONTINUOUS
 62
     1
100
AcDbLine
 10
377.227966
 20
456.262939
 30
0.0
 11
375.727966
 21
456.512939
 31
0.0
  0
LINE
  5
38D
100
AcDbEntity
  8
LAY-6
  6
CONTINUOUS
 62
     1
100
AcDbLine
 10
382.727966
 20
456.512939
 30
0.0
 11
381.227966
 21
456.262939
 31
0.0
  0
LINE
  5
38E
100
AcDbEntity
  8
LAY-6
  6
CONTINUOUS
 62
     1
100
AcDbLine
 10
381.227966
 20
456.262939
 30
0.0
 11
382.727966
 21
456.012939
 31
0.0
  0
LINE
  5
38F
100
AcDbEntity
  8
LAY-6
  6
CONTINUOUS
 62
     1
100
AcDbLine
 10
368.227966
 20
441.762939
 30
0.0
 11
368.227966
 21
467.262939
 31
0.0
  0
LINE
  5
390
100
AcDbEntity
  8
LAY-6
  6
CONTINUOUS
 62
     1
100
AcDbLine
 10
381.227966
 20
443.362946
 30
0.0
 11
381.227966
 21
467.262939
 31
0.0
  0
TEXT
  5
391
100
AcDbEntity
  8
LAY-6
  6
CONTINUOUS
 62
     2
100
AcDbText
 10
370.727966
 20
466.762939
 30
0.0
 40
5.0
  1
１３
 41
0.672
  7
EXCADSTD
 72
     5
 11
378.060766
 21
466.762939
 31
0.0
100
AcDbText
  0
LINE
  5
392
100
AcDbEntity
  8
LAY-6
  6
CONTINUOUS
 62
     1
100
AcDbLine
 10
368.227966
 20
466.262939
 30
0.0
 11
381.227966
 21
466.262939
 31
0.0
  0
LINE
  5
393
100
AcDbEntity
  8
LAY-6
  6
CONTINUOUS
 62
     1
100
AcDbLine
 10
369.727966
 20
466.512939
 30
0.0
 11
368.227966
 21
466.262939
 31
0.0
  0
LINE
  5
394
100
AcDbEntity
  8
LAY-6
  6
CONTINUOUS
 62
     1
100
AcDbLine
 10
368.227966
 20
466.262939
 30
0.0
 11
369.727966
 21
466.012939
 31
0.0
  0
LINE
  5
395
100
AcDbEntity
  8
LAY-6
  6
CONTINUOUS
 62
     1
100
AcDbLine
 10
379.727966
 20
466.012939
 30
0.0
 11
381.227966
 21
466.262939
 31
0.0
  0
LINE
  5
396
100
AcDbEntity
  8
LAY-6
  6
CONTINUOUS
 62
     1
100
AcDbLine
 10
381.227966
 20
466.262939
 30
0.0
 11
379.727966
 21
466.512939
 31
0.0
  0
LINE
  5
397
100
AcDbEntity
  8
LAY-6
  6
CONTINUOUS
 62
     1
100
AcDbLine
 10
172.227921
 20
430.762939
 30
0.0
 11
172.227921
 21
447.262939
 31
0.0
  0
LINE
  5
398
100
AcDbEntity
  8
LAY-6
  6
CONTINUOUS
 62
     1
100
AcDbLine
 10
197.227921
 20
430.762939
 30
0.0
 11
197.227921
 21
447.262939
 31
0.0
  0
TEXT
  5
399
100
AcDbEntity
  8
LAY-6
  6
CONTINUOUS
 62
     2
100
AcDbText
 10
180.727921
 20
446.762939
 30
0.0
 40
5.0
  1
２５
 41
0.672
  7
EXCADSTD
 72
     5
 11
188.060721
 21
446.762939
 31
0.0
100
AcDbText
  0
LINE
  5
39A
100
AcDbEntity
  8
LAY-6
  6
CONTINUOUS
 62
     1
100
AcDbLine
 10
172.227921
 20
446.262939
 30
0.0
 11
197.227921
 21
446.262939
 31
0.0
  0
LINE
  5
39B
100
AcDbEntity
  8
LAY-6
  6
CONTINUOUS
 62
     1
100
AcDbLine
 10
173.727921
 20
446.512939
 30
0.0
 11
172.227921
 21
446.262939
 31
0.0
  0
LINE
  5
39C
100
AcDbEntity
  8
LAY-6
  6
CONTINUOUS
 62
     1
100
AcDbLine
 10
172.227921
 20
446.262939
 30
0.0
 11
173.727921
 21
446.012939
 31
0.0
  0
LINE
  5
39D
100
AcDbEntity
  8
LAY-6
  6
CONTINUOUS
 62
     1
100
AcDbLine
 10
195.727921
 20
446.012939
 30
0.0
 11
197.227921
 21
446.262939
 31
0.0
  0
LINE
  5
39E
100
AcDbEntity
  8
LAY-6
  6
CONTINUOUS
 62
     1
100
AcDbLine
 10
197.227921
 20
446.262939
 30
0.0
 11
195.727921
 21
446.512939
 31
0.0
  0
LINE
  5
39F
100
AcDbEntity
  8
LAY-6
  6
CONTINUOUS
 62
     1
100
AcDbLine
 10
163.227921
 20
441.762939
 30
0.0
 11
163.227921
 21
457.262939
 31
0.0
  0
TEXT
  5
3A0
100
AcDbEntity
  8
LAY-6
  6
CONTINUOUS
 62
     2
100
AcDbText
 10
165.727921
 20
456.762939
 30
0.0
 40
5.0
  1
９
 41
0.672
  7
EXCADSTD
 72
     5
 11
168.927921
 21
456.762939
 31
0.0
100
AcDbText
  0
LINE
  5
3A1
100
AcDbEntity
  8
LAY-6
  6
CONTINUOUS
 62
     1
100
AcDbLine
 10
163.227921
 20
456.262939
 30
0.0
 11
172.227921
 21
456.262939
 31
0.0
  0
LINE
  5
3A2
100
AcDbEntity
  8
LAY-6
  6
CONTINUOUS
 62
     1
100
AcDbLine
 10
164.727921
 20
456.512939
 30
0.0
 11
163.227921
 21
456.262939
 31
0.0
  0
LINE
  5
3A3
100
AcDbEntity
  8
LAY-6
  6
CONTINUOUS
 62
     1
100
AcDbLine
 10
163.227921
 20
456.262939
 30
0.0
 11
164.727921
 21
456.012939
 31
0.0
  0
LINE
  5
3A4
100
AcDbEntity
  8
LAY-6
  6
CONTINUOUS
 62
     1
100
AcDbLine
 10
170.727921
 20
456.012939
 30
0.0
 11
172.227921
 21
456.262939
 31
0.0
  0
LINE
  5
3A5
100
AcDbEntity
  8
LAY-6
  6
CONTINUOUS
 62
     1
100
AcDbLine
 10
172.227921
 20
456.262939
 30
0.0
 11
170.727921
 21
456.512939
 31
0.0
  0
LINE
  5
3A6
100
AcDbEntity
  8
LAY-6
  6
CONTINUOUS
 62
     1
100
AcDbLine
 10
172.227921
 20
430.762939
 30
0.0
 11
172.227921
 21
457.262939
 31
0.0
  0
LINE
  5
3A7
100
AcDbEntity
  8
LAY-6
  6
CONTINUOUS
 62
     1
100
AcDbLine
 10
176.227921
 20
443.362946
 30
0.0
 11
176.227921
 21
457.262939
 31
0.0
  0
TEXT
  5
3A8
100
AcDbEntity
  8
LAY-6
  6
CONTINUOUS
 62
     2
100
AcDbText
 10
172.227921
 20
456.762939
 30
0.0
 40
5.0
  1
４
 41
0.672
  7
EXCADSTD
 72
     5
 11
175.427921
 21
456.762939
 31
0.0
100
AcDbText
  0
LINE
  5
3A9
100
AcDbEntity
  8
LAY-6
  6
CONTINUOUS
 62
     1
100
AcDbLine
 10
169.227921
 20
456.262939
 30
0.0
 11
179.227921
 21
456.262939
 31
0.0
  0
LINE
  5
3AA
100
AcDbEntity
  8
LAY-6
  6
CONTINUOUS
 62
     1
100
AcDbLine
 10
170.727921
 20
456.012939
 30
0.0
 11
172.227921
 21
456.262939
 31
0.0
  0
LINE
  5
3AB
100
AcDbEntity
  8
LAY-6
  6
CONTINUOUS
 62
     1
100
AcDbLine
 10
172.227921
 20
456.262939
 30
0.0
 11
170.727921
 21
456.512939
 31
0.0
  0
LINE
  5
3AC
100
AcDbEntity
  8
LAY-6
  6
CONTINUOUS
 62
     1
100
AcDbLine
 10
177.727921
 20
456.512939
 30
0.0
 11
176.227921
 21
456.262939
 31
0.0
  0
LINE
  5
3AD
100
AcDbEntity
  8
LAY-6
  6
CONTINUOUS
 62
     1
100
AcDbLine
 10
176.227921
 20
456.262939
 30
0.0
 11
177.727921
 21
456.012939
 31
0.0
  0
LINE
  5
3AE
100
AcDbEntity
  8
LAY-6
  6
CONTINUOUS
 62
     1
100
AcDbLine
 10
163.227921
 20
441.762939
 30
0.0
 11
163.227921
 21
467.262939
 31
0.0
  0
LINE
  5
3AF
100
AcDbEntity
  8
LAY-6
  6
CONTINUOUS
 62
     1
100
AcDbLine
 10
176.227921
 20
443.362946
 30
0.0
 11
176.227921
 21
467.262939
 31
0.0
  0
TEXT
  5
3B0
100
AcDbEntity
  8
LAY-6
  6
CONTINUOUS
 62
     2
100
AcDbText
 10
165.727921
 20
466.762939
 30
0.0
 40
5.0
  1
１３
 41
0.672
  7
EXCADSTD
 72
     5
 11
173.060721
 21
466.762939
 31
0.0
100
AcDbText
  0
LINE
  5
3B1
100
AcDbEntity
  8
LAY-6
  6
CONTINUOUS
 62
     1
100
AcDbLine
 10
163.227921
 20
466.262939
 30
0.0
 11
176.227921
 21
466.262939
 31
0.0
  0
LINE
  5
3B2
100
AcDbEntity
  8
LAY-6
  6
CONTINUOUS
 62
     1
100
AcDbLine
 10
164.727921
 20
466.512939
 30
0.0
 11
163.227921
 21
466.262939
 31
0.0
  0
LINE
  5
3B3
100
AcDbEntity
  8
LAY-6
  6
CONTINUOUS
 62
     1
100
AcDbLine
 10
163.227921
 20
466.262939
 30
0.0
 11
164.727921
 21
466.012939
 31
0.0
  0
LINE
  5
3B4
100
AcDbEntity
  8
LAY-6
  6
CONTINUOUS
 62
     1
100
AcDbLine
 10
174.727921
 20
466.012939
 30
0.0
 11
176.227921
 21
466.262939
 31
0.0
  0
LINE
  5
3B5
100
AcDbEntity
  8
LAY-6
  6
CONTINUOUS
 62
     1
100
AcDbLine
 10
176.227921
 20
466.262939
 30
0.0
 11
174.727921
 21
466.512939
 31
0.0
  0
TEXT
  5
3B6
100
AcDbEntity
  8
LAY-6
  6
CONTINUOUS
 62
     2
100
AcDbText
 10
214.76173
 20
456.077476
 30
0.0
 40
5.0
  1
（タップ穴加工付はオプション）
 41
0.672
  7
EXCADSTD
 72
     5
 11
274.76173
 21
456.077476
 31
0.0
100
AcDbText
  0
TEXT
  5
3B7
100
AcDbEntity
  8
LAY-6
  6
CONTINUOUS
 62
     2
100
AcDbText
 10
412.161775
 20
455.877476
 30
0.0
 40
5.0
  1
（タップ穴加工付はオプション）
 41
0.672
  7
EXCADSTD
 72
     5
 11
472.161775
 21
455.877476
 31
0.0
100
AcDbText
  0
LINE
  5
3B8
100
AcDbEntity
  8
LAY-6
  6
CONTINUOUS
 62
     1
100
AcDbLine
 10
636.929016
 20
268.14898
 30
0.0
 11
636.929016
 21
273.4
 31
0.0
  0
LINE
  5
3B9
100
AcDbEntity
  8
LAY-6
  6
CONTINUOUS
 62
     1
100
AcDbLine
 10
672.929016
 20
268.1
 30
0.0
 11
672.929016
 21
273.4
 31
0.0
  0
TEXT
  5
3BA
100
AcDbEntity
  8
LAY-6
  6
CONTINUOUS
 62
     2
100
AcDbText
 10
646.929016
 20
272.4
 30
0.0
 40
5.0
  1
３６以上
 41
0.672
  7
EXCADSTD
 72
     5
 11
662.929016
 21
272.4
 31
0.0
100
AcDbText
  0
LINE
  5
3BB
100
AcDbEntity
  8
LAY-6
  6
CONTINUOUS
 62
     1
100
AcDbLine
 10
636.929016
 20
271.9
 30
0.0
 11
672.929016
 21
271.9
 31
0.0
  0
LINE
  5
3BC
100
AcDbEntity
  8
LAY-6
  6
CONTINUOUS
 62
     1
100
AcDbLine
 10
639.929016
 20
272.4
 30
0.0
 11
636.929016
 21
271.9
 31
0.0
  0
LINE
  5
3BD
100
AcDbEntity
  8
LAY-6
  6
CONTINUOUS
 62
     1
100
AcDbLine
 10
636.929016
 20
271.9
 30
0.0
 11
639.929016
 21
271.4
 31
0.0
  0
LINE
  5
3BE
100
AcDbEntity
  8
LAY-6
  6
CONTINUOUS
 62
     1
100
AcDbLine
 10
669.929016
 20
271.4
 30
0.0
 11
672.929016
 21
271.9
 31
0.0
  0
LINE
  5
3BF
100
AcDbEntity
  8
LAY-6
  6
CONTINUOUS
 62
     1
100
AcDbLine
 10
672.929016
 20
271.9
 30
0.0
 11
669.929016
 21
272.4
 31
0.0
  0
TEXT
  5
3C0
100
AcDbEntity
  8
LAY-6
  6
CONTINUOUS
 62
     2
100
AcDbText
 10
343.806013
 20
426.238092
 30
0.0
 40
5.0
  1
竪枠
 41
0.672
  7
EXCADSTD
 72
     5
 11
351.138813
 21
426.238092
 31
0.0
100
AcDbText
  0
TEXT
  5
3C1
100
AcDbEntity
  8
LAY-6
  6
CONTINUOUS
 62
     2
100
AcDbText
 10
128.894433
 20
285.914689
 30
0.0
 40
5.0
  1
セットネジ
 41
0.672
  7
EXCADSTD
 72
     5
 11
148.894433
 21
285.914689
 31
0.0
100
AcDbText
  0
POLYLINE
  5
3C2
100
AcDbEntity
  8
LAY-6
  6
CONTINUOUS
 62
     1
100
AcDb2dPolyline
 66
     1
 10
0.0
 20
0.0
 30
0.0
 70
   128
  0
VERTEX
  5
3C3
100
AcDbEntity
  8
LAY-6
  6
CONTINUOUS
 62
     1
100
AcDbVertex
100
AcDb2dVertex
 10
163.08646
 20
277.390908
 30
0.0
  0
VERTEX
  5
3C4
100
AcDbEntity
  8
LAY-6
  6
CONTINUOUS
 62
     1
100
AcDbVertex
100
AcDb2dVertex
 10
149.188865
 20
285.414689
 30
0.0
  0
VERTEX
  5
3C5
100
AcDbEntity
  8
LAY-6
  6
CONTINUOUS
 62
     1
100
AcDbVertex
100
AcDb2dVertex
 10
128.6
 20
285.414689
 30
0.0
  0
SEQEND
  5
3C6
100
AcDbEntity
  8
LAY-6
  6
CONTINUOUS
 62
     1
  0
LINE
  5
3C7
100
AcDbEntity
  8
LAY-6
  6
CONTINUOUS
 62
     1
100
AcDbLine
 10
161.187743
 20
278.102233
 30
0.0
 11
163.08646
 21
277.390908
 31
0.0
  0
LINE
  5
3C8
100
AcDbEntity
  8
LAY-6
  6
CONTINUOUS
 62
     1
100
AcDbLine
 10
163.08646
 20
277.390908
 30
0.0
 11
161.521076
 21
278.679584
 31
0.0
  0
LINE
  5
3C9
100
AcDbEntity
  8
LAY-6
  6
CONTINUOUS
 62
     1
100
AcDbLine
 10
608.529016
 20
429.648987
 30
0.0
 11
608.529016
 21
444.4
 31
0.0
  0
LINE
  5
3CA
100
AcDbEntity
  8
LAY-6
  6
CONTINUOUS
 62
     1
100
AcDbLine
 10
627.329016
 20
429.648987
 30
0.0
 11
627.329016
 21
444.4
 31
0.0
  0
TEXT
  5
3CB
100
AcDbEntity
  8
LAY-6
  6
CONTINUOUS
 62
     2
100
AcDbText
 10
609.629016
 20
443.4
 30
0.0
 40
5.0
  1
φ
 41
0.672
  7
EXCADSTD
 72
     5
 11
612.829016
 21
443.4
 31
0.0
100
AcDbText
  0
TEXT
  5
3CC
100
AcDbEntity
  8
LAY-6
  6
CONTINUOUS
 62
     2
100
AcDbText
 10
613.629016
 20
443.4
 30
0.0
 40
5.0
  1
１８.８
 41
0.616
  7
EXCADSTD
 72
     5
 11
627.629016
 21
443.4
 31
0.0
100
AcDbText
  0
LINE
  5
3CD
100
AcDbEntity
  8
LAY-6
  6
CONTINUOUS
 62
     1
100
AcDbLine
 10
608.529016
 20
442.9
 30
0.0
 11
627.329016
 21
442.9
 31
0.0
  0
LINE
  5
3CE
100
AcDbEntity
  8
LAY-6
  6
CONTINUOUS
 62
     1
100
AcDbLine
 10
611.529016
 20
443.4
 30
0.0
 11
608.529016
 21
442.9
 31
0.0
  0
LINE
  5
3CF
100
AcDbEntity
  8
LAY-6
  6
CONTINUOUS
 62
     1
100
AcDbLine
 10
608.529016
 20
442.9
 30
0.0
 11
611.529016
 21
442.4
 31
0.0
  0
LINE
  5
3D0
100
AcDbEntity
  8
LAY-6
  6
CONTINUOUS
 62
     1
100
AcDbLine
 10
624.329016
 20
442.4
 30
0.0
 11
627.329016
 21
442.9
 31
0.0
  0
LINE
  5
3D1
100
AcDbEntity
  8
LAY-6
  6
CONTINUOUS
 62
     1
100
AcDbLine
 10
627.329016
 20
442.9
 30
0.0
 11
624.329016
 21
443.4
 31
0.0
  0
LINE
  5
3D2
100
AcDbEntity
  8
LAY-6
  6
CONTINUOUS
 62
     1
100
AcDbLine
 10
610.511059
 20
432.11531
 30
0.0
 11
585.5
 21
432.11531
 31
0.0
  0
LINE
  5
3D3
100
AcDbEntity
  8
LAY-6
  6
CONTINUOUS
 62
     1
100
AcDbLine
 10
600.429016
 20
428.148987
 30
0.0
 11
585.5
 21
428.148987
 31
0.0
  0
TEXT
  5
3D4
100
AcDbEntity
  8
LAY-6
  6
CONTINUOUS
 62
     2
100
AcDbText
 10
238.251831
 20
241.04718
 30
0.0
 40
5.0
  1
４－Ｍ５×１２皿小ネジ
 41
0.672
  7
EXCADSTD
 72
     5
 11
282.251831
 21
241.04718
 31
0.0
100
AcDbText
  0
POLYLINE
  5
3D5
100
AcDbEntity
  8
LAY-6
  6
CONTINUOUS
 62
     1
100
AcDb2dPolyline
 66
     1
 10
0.0
 20
0.0
 30
0.0
 70
   128
  0
VERTEX
  5
3D6
100
AcDbEntity
  8
LAY-6
  6
CONTINUOUS
 62
     1
100
AcDbVertex
100
AcDb2dVertex
 10
206.727921
 20
208.593048
 30
0.0
  0
VERTEX
  5
3D7
100
AcDbEntity
  8
LAY-6
  6
CONTINUOUS
 62
     1
100
AcDbVertex
100
AcDb2dVertex
 10
225.012527
 20
240.262924
 30
0.0
  0
VERTEX
  5
3D8
100
AcDbEntity
  8
LAY-6
  6
CONTINUOUS
 62
     1
100
AcDbVertex
100
AcDb2dVertex
 10
286.528549
 20
240.262924
 30
0.0
  0
SEQEND
  5
3D9
100
AcDbEntity
  8
LAY-6
  6
CONTINUOUS
 62
     1
  0
LINE
  5
3DA
100
AcDbEntity
  8
LAY-6
  6
CONTINUOUS
 62
     1
100
AcDbLine
 10
207.261414
 20
210.017086
 30
0.0
 11
206.727921
 21
208.593048
 31
0.0
  0
LINE
  5
3DB
100
AcDbEntity
  8
LAY-6
  6
CONTINUOUS
 62
     1
100
AcDbLine
 10
206.727921
 20
208.593048
 30
0.0
 11
207.694427
 21
209.767086
 31
0.0
  0
TEXT
  5
3DC
100
AcDbEntity
  8
LAY-6
  6
CONTINUOUS
 62
     2
100
AcDbText
 10
125.860538
 20
338.204651
 30
0.0
 40
6.0
  1
（ドア側）
 41
0.672
  7
EXCADSTD
 72
     5
 11
149.860539
 21
338.204651
 31
0.0
100
AcDbText
  0
TEXT
  5
3DD
100
AcDbEntity
  8
LAY-6
  6
CONTINUOUS
 62
     2
100
AcDbText
 10
125.860523
 20
451.204651
 30
0.0
 40
6.0
  1
（上枠側）
 41
0.672
  7
EXCADSTD
 72
     5
 11
149.860524
 21
451.204651
 31
0.0
100
AcDbText
  0
TEXT
  5
3DE
100
AcDbEntity
  8
LAY-6
  6
CONTINUOUS
 62
     2
100
AcDbText
 10
116.244118
 20
458.262939
 30
0.0
 40
6.0
  1
トップピボット
 41
0.672
  7
EXCADSTD
 72
     5
 11
149.844119
 21
458.262939
 31
0.0
100
AcDbText
  0
TEXT
  5
3DF
100
AcDbEntity
  8
LAY-6
  6
CONTINUOUS
 62
     2
100
AcDbText
 10
116.244133
 20
345.262939
 30
0.0
 40
6.0
  1
トップピボット
 41
0.672
  7
EXCADSTD
 72
     5
 11
149.844134
 21
345.262939
 31
0.0
100
AcDbText
  0
TEXT
  5
3E0
100
AcDbEntity
  8
LAY-6
  6
CONTINUOUS
 62
     2
100
AcDbText
 10
116.244133
 20
235.262924
 30
0.0
 40
6.0
  1
ア　ー　ム
 41
0.672
  7
EXCADSTD
 72
     5
 11
140.244134
 21
235.262924
 31
0.0
100
AcDbText
  0
CIRCLE
  5
3E1
100
AcDbEntity
  8
LAY-6
  6
CONTINUOUS
 62
     2
100
AcDbCircle
 10
111.2
 20
461.5
 30
0.0
 40
4.0
  0
TEXT
  5
3E2
100
AcDbEntity
  8
LAY-6
  6
CONTINUOUS
 62
     2
100
AcDbText
 10
109.4
 20
459.0
 30
0.0
 40
5.0
  1
１
 41
0.672
  7
EXCADSTD
 72
     5
 11
112.6
 21
459.0
 31
0.0
100
AcDbText
  0
CIRCLE
  5
3E3
100
AcDbEntity
  8
LAY-6
  6
CONTINUOUS
 62
     2
100
AcDbCircle
 10
111.7
 20
347.7
 30
0.0
 40
4.0
  0
CIRCLE
  5
3E4
100
AcDbEntity
  8
LAY-6
  6
CONTINUOUS
 62
     2
100
AcDbCircle
 10
109.9
 20
238.0
 30
0.0
 40
4.0
  0
TEXT
  5
3E5
100
AcDbEntity
  8
LAY-6
  6
CONTINUOUS
 62
     2
100
AcDbText
 10
108.1
 20
235.5
 30
0.0
 40
5.0
  1
３
 41
0.672
  7
EXCADSTD
 72
     5
 11
111.3
 21
235.5
 31
0.0
100
AcDbText
  0
TEXT
  5
3E6
100
AcDbEntity
  8
LAY-6
  6
CONTINUOUS
 62
     2
100
AcDbText
 10
109.9
 20
345.2
 30
0.0
 40
5.0
  1
２
 41
0.672
  7
EXCADSTD
 72
     5
 11
113.1
 21
345.2
 31
0.0
100
AcDbText
  0
TEXT
  5
3E7
100
AcDbEntity
  8
LAY-6
  6
CONTINUOUS
 62
     2
100
AcDbText
 10
225.651831
 20
350.64718
 30
0.0
 40
5.0
  1
４－Ｍ５×１２皿小ネジ
 41
0.672
  7
EXCADSTD
 72
     5
 11
269.651831
 21
350.64718
 31
0.0
100
AcDbText
  0
LINE
  5
3E8
100
AcDbEntity
  8
LAY-6
  6
CONTINUOUS
 62
     1
100
AcDbLine
 10
206.727921
 20
318.593063
 30
0.0
 11
207.116149
 21
320.041952
 31
0.0
  0
LINE
  5
3E9
100
AcDbEntity
  8
LAY-6
  6
CONTINUOUS
 62
     1
100
AcDbLine
 10
206.727921
 20
318.593063
 30
0.0
 11
207.788581
 21
319.653723
 31
0.0
  0
POLYLINE
  5
3EA
100
AcDbEntity
  8
LAY-6
  6
CONTINUOUS
 62
     1
100
AcDb2dPolyline
 66
     1
 10
0.0
 20
0.0
 30
0.0
 70
   128
  0
VERTEX
  5
3EB
100
AcDbEntity
  8
LAY-6
  6
CONTINUOUS
 62
     1
100
AcDbVertex
100
AcDb2dVertex
 10
206.727921
 20
318.593063
 30
0.0
  0
VERTEX
  5
3EC
100
AcDbEntity
  8
LAY-6
  6
CONTINUOUS
 62
     1
100
AcDbVertex
100
AcDb2dVertex
 10
225.012527
 20
350.262939
 30
0.0
  0
VERTEX
  5
3ED
100
AcDbEntity
  8
LAY-6
  6
CONTINUOUS
 62
     1
100
AcDbVertex
100
AcDb2dVertex
 10
270.2
 20
350.262939
 30
0.0
  0
SEQEND
  5
3EE
100
AcDbEntity
  8
LAY-6
  6
CONTINUOUS
 62
     1
  0
TEXT
  5
3EF
100
AcDbEntity
  8
LAY-6
  6
CONTINUOUS
 62
     2
100
AcDbText
 10
239.350171
 20
417.738092
 30
0.0
 40
5.0
  1
上枠
 41
0.672
  7
EXCADSTD
 72
     5
 11
246.682971
 21
417.738092
 31
0.0
100
AcDbText
  0
TEXT
  5
3F0
100
AcDbEntity
  8
LAY-6
  6
CONTINUOUS
 62
     2
100
AcDbText
 10
148.578092
 20
423.238092
 30
0.0
 40
5.0
  1
竪枠
 41
0.672
  7
EXCADSTD
 72
     5
 11
155.910892
 21
423.238092
 31
0.0
100
AcDbText
  0
TEXT
  5
3F1
100
AcDbEntity
  8
LAY-6
  6
CONTINUOUS
 62
     2
100
AcDbText
 10
246.350171
 20
305.475153
 30
0.0
 40
5.0
  1
ドア
 41
0.672
  7
EXCADSTD
 72
     5
 11
253.682971
 21
305.475153
 31
0.0
100
AcDbText
  0
TEXT
  5
3F2
100
AcDbEntity
  8
LAY-6
  6
CONTINUOUS
 62
     2
100
AcDbText
 10
245.350171
 20
193.475153
 30
0.0
 40
5.0
  1
ドア
 41
0.672
  7
EXCADSTD
 72
     5
 11
252.682971
 21
193.475153
 31
0.0
100
AcDbText
  0
TEXT
  5
3F3
100
AcDbEntity
  8
LAY-6
  6
CONTINUOUS
 62
     2
100
AcDbText
 10
699.390686
 20
308.29567
 30
0.0
 40
5.0
  1
ＤＨ
 50
89.999981
 41
0.672
  7
EXCADSTD
 72
     5
 11
699.390688
 21
315.62847
 31
0.0
100
AcDbText
  0
LINE
  5
3F4
100
AcDbEntity
  8
LAY-6
  6
CONTINUOUS
 62
     1
100
AcDbLine
 10
699.929016
 20
412.148987
 30
0.0
 11
699.929016
 21
212.148972
 31
0.0
  0
CIRCLE
  5
3F5
100
AcDbEntity
  8
LAY-6
  6
CONTINUOUS
 62
     2
100
AcDbCircle
 10
586.9
 20
447.1
 30
0.0
 40
4.0
  0
TEXT
  5
3F6
100
AcDbEntity
  8
LAY-6
  6
CONTINUOUS
 62
     2
100
AcDbText
 10
585.1
 20
444.6
 30
0.0
 40
5.0
  1
１
 41
0.672
  7
EXCADSTD
 72
     5
 11
588.3
 21
444.6
 31
0.0
100
AcDbText
  0
POLYLINE
  5
3F7
100
AcDbEntity
  8
LAY-6
  6
CONTINUOUS
 62
     1
100
AcDb2dPolyline
 66
     1
 10
0.0
 20
0.0
 30
0.0
 70
   128
  0
VERTEX
  5
3F8
100
AcDbEntity
  8
LAY-6
  6
CONTINUOUS
 62
     1
100
AcDbVertex
100
AcDb2dVertex
 10
604.8
 20
428.148987
 30
0.0
  0
VERTEX
  5
3F9
100
AcDbEntity
  8
LAY-6
  6
CONTINUOUS
 62
     1
100
AcDbVertex
100
AcDb2dVertex
 10
589.681686
 20
444.225591
 30
0.0
  0
SEQEND
  5
3FA
100
AcDbEntity
  8
LAY-6
  6
CONTINUOUS
 62
     1
  0
LINE
  5
3FB
100
AcDbEntity
  8
LAY-6
  6
CONTINUOUS
 62
     1
100
AcDbLine
 10
602.380572
 20
429.991911
 30
0.0
 11
604.8
 21
428.148987
 31
0.0
  0
LINE
  5
3FC
100
AcDbEntity
  8
LAY-6
  6
CONTINUOUS
 62
     1
100
AcDbLine
 10
604.8
 20
428.148987
 30
0.0
 11
603.109057
 21
430.676973
 31
0.0
  0
CIRCLE
  5
3FD
100
AcDbEntity
  8
LAY-6
  6
CONTINUOUS
 62
     2
100
AcDbCircle
 10
586.9
 20
378.9
 30
0.0
 40
4.0
  0
TEXT
  5
3FE
100
AcDbEntity
  8
LAY-6
  6
CONTINUOUS
 62
     2
100
AcDbText
 10
585.1
 20
376.4
 30
0.0
 40
5.0
  1
２
 41
0.672
  7
EXCADSTD
 72
     5
 11
588.3
 21
376.4
 31
0.0
100
AcDbText
  0
POLYLINE
  5
3FF
100
AcDbEntity
  8
LAY-6
  6
CONTINUOUS
 62
     1
100
AcDb2dPolyline
 66
     1
 10
0.0
 20
0.0
 30
0.0
 70
   128
  0
VERTEX
  5
400
100
AcDbEntity
  8
LAY-6
  6
CONTINUOUS
 62
     1
100
AcDbVertex
100
AcDb2dVertex
 10
607.6
 20
399.148987
 30
0.0
  0
VERTEX
  5
401
100
AcDbEntity
  8
LAY-6
  6
CONTINUOUS
 62
     1
100
AcDbVertex
100
AcDb2dVertex
 10
590.303192
 20
381.001972
 30
0.0
  0
SEQEND
  5
402
100
AcDbEntity
  8
LAY-6
  6
CONTINUOUS
 62
     1
  0
LINE
  5
403
100
AcDbEntity
  8
LAY-6
  6
CONTINUOUS
 62
     1
100
AcDbLine
 10
605.89209
 20
396.632433
 30
0.0
 11
607.6
 21
399.148987
 31
0.0
  0
LINE
  5
404
100
AcDbEntity
  8
LAY-6
  6
CONTINUOUS
 62
     1
100
AcDbLine
 10
607.6
 20
399.148987
 30
0.0
 11
605.16823
 21
397.32238
 31
0.0
  0
TEXT
  5
405
100
AcDbEntity
  8
LAY-6
  6
CONTINUOUS
 62
     2
100
AcDbText
 10
682.150171
 20
447.022821
 30
0.0
 40
5.0
  1
裏板（別途）
 41
0.672
  7
EXCADSTD
 72
     5
 11
706.150171
 21
447.022821
 31
0.0
100
AcDbText
  0
POLYLINE
  5
406
100
AcDbEntity
  8
LAY-6
  6
CONTINUOUS
 62
     1
100
AcDb2dPolyline
 66
     1
 10
0.0
 20
0.0
 30
0.0
 70
   128
  0
VERTEX
  5
407
100
AcDbEntity
  8
LAY-6
  6
CONTINUOUS
 62
     1
100
AcDbVertex
100
AcDb2dVertex
 10
672.5
 20
421.648987
 30
0.0
  0
VERTEX
  5
408
100
AcDbEntity
  8
LAY-6
  6
CONTINUOUS
 62
     1
100
AcDbVertex
100
AcDb2dVertex
 10
680.2
 20
446.7
 30
0.0
  0
VERTEX
  5
409
100
AcDbEntity
  8
LAY-6
  6
CONTINUOUS
 62
     1
100
AcDbVertex
100
AcDb2dVertex
 10
706.1
 20
446.7
 30
0.0
  0
SEQEND
  5
40A
100
AcDbEntity
  8
LAY-6
  6
CONTINUOUS
 62
     1
  0
LINE
  5
40B
100
AcDbEntity
  8
LAY-6
  6
CONTINUOUS
 62
     1
100
AcDbLine
 10
672.903488
 20
424.663485
 30
0.0
 11
672.5
 21
421.648987
 31
0.0
  0
LINE
  5
40C
100
AcDbEntity
  8
LAY-6
  6
CONTINUOUS
 62
     1
100
AcDbLine
 10
672.5
 20
421.648987
 30
0.0
 11
673.859353
 21
424.369678
 31
0.0
  0
POLYLINE
  5
40D
100
AcDbEntity
  8
LAY-6
  6
CONTINUOUS
 62
     1
100
AcDb2dPolyline
 66
     1
 10
0.0
 20
0.0
 30
0.0
 70
   128
  0
VERTEX
  5
40E
100
AcDbEntity
  8
LAY-6
  6
CONTINUOUS
 62
     1
100
AcDbVertex
100
AcDb2dVertex
 10
665.6
 20
399.948975
 30
0.0
  0
VERTEX
  5
40F
100
AcDbEntity
  8
LAY-6
  6
CONTINUOUS
 62
     1
100
AcDbVertex
100
AcDb2dVertex
 10
705.5
 20
378.6
 30
0.0
  0
VERTEX
  5
410
100
AcDbEntity
  8
LAY-6
  6
CONTINUOUS
 62
     1
100
AcDbVertex
100
AcDb2dVertex
 10
755.1
 20
378.6
 30
0.0
  0
SEQEND
  5
411
100
AcDbEntity
  8
LAY-6
  6
CONTINUOUS
 62
     1
  0
LINE
  5
412
100
AcDbEntity
  8
LAY-6
  6
CONTINUOUS
 62
     1
100
AcDbLine
 10
668.481045
 20
398.974511
 30
0.0
 11
665.6
 21
399.948975
 31
0.0
  0
LINE
  5
413
100
AcDbEntity
  8
LAY-6
  6
CONTINUOUS
 62
     1
100
AcDbLine
 10
665.6
 20
399.948975
 30
0.0
 11
668.00927
 21
398.092792
 31
0.0
  0
TEXT
  5
414
100
AcDbEntity
  8
LAY-6
  6
CONTINUOUS
 62
     2
100
AcDbText
 10
706.803296
 20
378.733136
 30
0.0
 40
5.0
  1
裏板３．２ｔ以上（別途）
 41
0.672
  7
EXCADSTD
 72
     5
 11
754.803296
 21
378.733136
 31
0.0
100
AcDbText
  0
CIRCLE
  5
415
100
AcDbEntity
  8
LAY-6
  6
CONTINUOUS
 62
     2
100
AcDbCircle
 10
586.596808
 20
245.898028
 30
0.0
 40
4.0
  0
CIRCLE
  5
416
100
AcDbEntity
  8
LAY-6
  6
CONTINUOUS
 62
     2
100
AcDbCircle
 10
586.996808
 20
167.898028
 30
0.0
 40
4.0
  0
POLYLINE
  5
417
100
AcDbEntity
  8
LAY-6
  6
CONTINUOUS
 62
     1
100
AcDb2dPolyline
 66
     1
 10
0.0
 20
0.0
 30
0.0
 70
   128
  0
VERTEX
  5
418
100
AcDbEntity
  8
LAY-6
  6
CONTINUOUS
 62
     1
100
AcDbVertex
100
AcDb2dVertex
 10
606.4
 20
228.148972
 30
0.0
  0
VERTEX
  5
419
100
AcDbEntity
  8
LAY-6
  6
CONTINUOUS
 62
     1
100
AcDbVertex
100
AcDb2dVertex
 10
589.562996
 20
243.214425
 30
0.0
  0
SEQEND
  5
41A
100
AcDbEntity
  8
LAY-6
  6
CONTINUOUS
 62
     1
  0
LINE
  5
41B
100
AcDbEntity
  8
LAY-6
  6
CONTINUOUS
 62
     1
100
AcDbLine
 10
603.83092
 20
229.776801
 30
0.0
 11
606.4
 21
228.148972
 31
0.0
  0
LINE
  5
41C
100
AcDbEntity
  8
LAY-6
  6
CONTINUOUS
 62
     1
100
AcDbLine
 10
606.4
 20
228.148972
 30
0.0
 11
604.497733
 21
230.522025
 31
0.0
  0
POLYLINE
  5
41D
100
AcDbEntity
  8
LAY-6
  6
CONTINUOUS
 62
     1
100
AcDb2dPolyline
 66
     1
 10
0.0
 20
0.0
 30
0.0
 70
   128
  0
VERTEX
  5
41E
100
AcDbEntity
  8
LAY-6
  6
CONTINUOUS
 62
     1
100
AcDbVertex
100
AcDb2dVertex
 10
606.6
 20
190.648972
 30
0.0
  0
VERTEX
  5
41F
100
AcDbEntity
  8
LAY-6
  6
CONTINUOUS
 62
     1
100
AcDbVertex
100
AcDb2dVertex
 10
590.293083
 20
170.163988
 30
0.0
  0
SEQEND
  5
420
100
AcDbEntity
  8
LAY-6
  6
CONTINUOUS
 62
     1
  0
LINE
  5
421
100
AcDbEntity
  8
LAY-6
  6
CONTINUOUS
 62
     1
100
AcDbLine
 10
605.122773
 20
187.990439
 30
0.0
 11
606.6
 21
190.648972
 31
0.0
  0
LINE
  5
422
100
AcDbEntity
  8
LAY-6
  6
CONTINUOUS
 62
     1
100
AcDbLine
 10
606.6
 20
190.648972
 30
0.0
 11
604.340396
 21
188.613244
 31
0.0
  0
TEXT
  5
423
100
AcDbEntity
  8
LAY-6
  6
CONTINUOUS
 62
     2
100
AcDbText
 10
584.796808
 20
243.398028
 30
0.0
 40
5.0
  1
３
 41
0.672
  7
EXCADSTD
 72
     5
 11
587.996808
 21
243.398028
 31
0.0
100
AcDbText
  0
TEXT
  5
424
100
AcDbEntity
  8
LAY-6
  6
CONTINUOUS
 62
     2
100
AcDbText
 10
585.196808
 20
165.398028
 30
0.0
 40
5.0
  1
４
 41
0.672
  7
EXCADSTD
 72
     5
 11
588.396808
 21
165.398028
 31
0.0
100
AcDbText
  0
LINE
  5
425
100
AcDbEntity
  8
LAY-6
  6
CONTINUOUS
 62
     1
100
AcDbLine
 10
586.929016
 20
228.148972
 30
0.0
 11
587.317245
 21
226.700083
 31
0.0
  0
LINE
  5
426
100
AcDbEntity
  8
LAY-6
  6
CONTINUOUS
 62
     1
100
AcDbLine
 10
586.929016
 20
228.148972
 30
0.0
 11
586.540787
 21
226.700083
 31
0.0
  0
LINE
  5
427
100
AcDbEntity
  8
LAY-6
  6
CONTINUOUS
 62
     1
100
AcDbLine
 10
586.929016
 20
215.148972
 30
0.0
 11
586.540787
 21
216.597861
 31
0.0
  0
LINE
  5
428
100
AcDbEntity
  8
LAY-6
  6
CONTINUOUS
 62
     1
100
AcDbLine
 10
586.929016
 20
215.148972
 30
0.0
 11
587.317245
 21
216.597861
 31
0.0
  0
LINE
  5
429
100
AcDbEntity
  8
LAY-6
  6
CONTINUOUS
 62
     1
100
AcDbLine
 10
586.929016
 20
203.648972
 30
0.0
 11
587.317245
 21
202.200083
 31
0.0
  0
LINE
  5
42A
100
AcDbEntity
  8
LAY-6
  6
CONTINUOUS
 62
     1
100
AcDbLine
 10
586.929016
 20
203.648972
 30
0.0
 11
586.540787
 21
202.200083
 31
0.0
  0
LINE
  5
42B
100
AcDbEntity
  8
LAY-6
  6
CONTINUOUS
 62
     1
100
AcDbLine
 10
586.929016
 20
190.648972
 30
0.0
 11
586.540787
 21
192.097861
 31
0.0
  0
LINE
  5
42C
100
AcDbEntity
  8
LAY-6
  6
CONTINUOUS
 62
     1
100
AcDbLine
 10
586.929016
 20
190.648972
 30
0.0
 11
587.317245
 21
192.097861
 31
0.0
  0
LINE
  5
42D
100
AcDbEntity
  8
LAY-6
  6
CONTINUOUS
 62
     1
100
AcDbLine
 10
586.929016
 20
203.648972
 30
0.0
 11
586.929016
 21
200.5
 31
0.0
  0
LINE
  5
42E
100
AcDbEntity
  8
LAY-6
  6
CONTINUOUS
 62
     1
100
AcDbLine
 10
586.929016
 20
194.0
 30
0.0
 11
586.929016
 21
190.648972
 31
0.0
  0
LINE
  5
42F
100
AcDbEntity
  8
LAY-6
  6
CONTINUOUS
 62
     1
100
AcDbLine
 10
586.929016
 20
228.148972
 30
0.0
 11
586.929016
 21
224.8
 31
0.0
  0
LINE
  5
430
100
AcDbEntity
  8
LAY-6
  6
CONTINUOUS
 62
     1
100
AcDbLine
 10
586.929016
 20
218.4
 30
0.0
 11
586.929016
 21
215.148972
 31
0.0
  0
POLYLINE
  5
431
100
AcDbEntity
  8
LAY-6
  6
CONTINUOUS
 62
     1
100
AcDb2dPolyline
 66
     1
 10
0.0
 20
0.0
 30
0.0
 70
   128
  0
VERTEX
  5
432
100
AcDbEntity
  8
LAY-6
  6
CONTINUOUS
 62
     1
100
AcDbVertex
100
AcDb2dVertex
 10
671.3
 20
199.648972
 30
0.0
  0
VERTEX
  5
433
100
AcDbEntity
  8
LAY-6
  6
CONTINUOUS
 62
     1
100
AcDbVertex
100
AcDb2dVertex
 10
681.7
 20
178.0
 30
0.0
  0
VERTEX
  5
434
100
AcDbEntity
  8
LAY-6
  6
CONTINUOUS
 62
     1
100
AcDbVertex
100
AcDb2dVertex
 10
706.4
 20
178.0
 30
0.0
  0
SEQEND
  5
435
100
AcDbEntity
  8
LAY-6
  6
CONTINUOUS
 62
     1
  0
LINE
  5
436
100
AcDbEntity
  8
LAY-6
  6
CONTINUOUS
 62
     1
100
AcDbLine
 10
673.049748
 20
197.161326
 30
0.0
 11
671.3
 21
199.648972
 31
0.0
  0
LINE
  5
437
100
AcDbEntity
  8
LAY-6
  6
CONTINUOUS
 62
     1
100
AcDbLine
 10
671.3
 20
199.648972
 30
0.0
 11
672.148363
 21
196.728308
 31
0.0
  0
TEXT
  5
438
100
AcDbEntity
  8
LAY-6
  6
CONTINUOUS
 62
     2
100
AcDbText
 10
682.750171
 20
178.175153
 30
0.0
 40
5.0
  1
裏板（別途）
 41
0.672
  7
EXCADSTD
 72
     5
 11
706.750171
 21
178.175153
 31
0.0
100
AcDbText
  0
TEXT
  5
439
100
AcDbEntity
  8
LAY-6
  6
CONTINUOUS
 62
     2
100
AcDbText
 10
703.103296
 20
261.964838
 30
0.0
 40
5.0
  1
裏板３．２ｔ以上（別途）
 41
0.672
  7
EXCADSTD
 72
     5
 11
751.103296
 21
261.964838
 31
0.0
100
AcDbText
  0
POLYLINE
  5
43A
100
AcDbEntity
  8
LAY-6
  6
CONTINUOUS
 62
     1
100
AcDb2dPolyline
 66
     1
 10
0.0
 20
0.0
 30
0.0
 70
   128
  0
VERTEX
  5
43B
100
AcDbEntity
  8
LAY-6
  6
CONTINUOUS
 62
     1
100
AcDbVertex
100
AcDb2dVertex
 10
667.7
 20
225.8
 30
0.0
  0
VERTEX
  5
43C
100
AcDbEntity
  8
LAY-6
  6
CONTINUOUS
 62
     1
100
AcDbVertex
100
AcDb2dVertex
 10
702.0
 20
260.8
 30
0.0
  0
VERTEX
  5
43D
100
AcDbEntity
  8
LAY-6
  6
CONTINUOUS
 62
     1
100
AcDbVertex
100
AcDb2dVertex
 10
750.3
 20
260.8
 30
0.0
  0
SEQEND
  5
43E
100
AcDbEntity
  8
LAY-6
  6
CONTINUOUS
 62
     1
  0
LINE
  5
43F
100
AcDbEntity
  8
LAY-6
  6
CONTINUOUS
 62
     1
100
AcDbLine
 10
669.442679
 20
228.292603
 30
0.0
 11
667.7
 21
225.8
 31
0.0
  0
LINE
  5
440
100
AcDbEntity
  8
LAY-6
  6
CONTINUOUS
 62
     1
100
AcDbLine
 10
667.7
 20
225.8
 30
0.0
 11
670.156892
 21
227.592674
 31
0.0
  0
TEXT
  5
441
100
AcDbEntity
  8
LAY-6
  6
CONTINUOUS
 62
     2
100
AcDbText
 10
649.350171
 20
336.475153
 30
0.0
 40
5.0
  1
ドア
 41
0.672
  7
EXCADSTD
 72
     5
 11
656.682971
 21
336.475153
 31
0.0
100
AcDbText
  0
TEXT
  5
442
100
AcDbEntity
  8
LAY-6
  6
CONTINUOUS
 62
     2
100
AcDbText
 10
710.350171
 20
436.475153
 30
0.0
 40
5.0
  1
上枠
 41
0.672
  7
EXCADSTD
 72
     5
 11
717.682971
 21
436.475153
 31
0.0
100
AcDbText
  0
TEXT
  5
443
100
AcDbEntity
  8
LAY-6
  6
CONTINUOUS
 62
     2
100
AcDbText
 10
586.5
 20
428.17531
 30
0.0
 40
5.0
  1
４
 50
90.0
 41
0.672
  7
EXCADSTD
 72
     5
 11
586.5
 21
431.37531
 31
0.0
100
AcDbText
  0
LINE
  5
444
100
AcDbEntity
  8
LAY-6
  6
CONTINUOUS
 62
     1
100
AcDbLine
 10
586.929016
 20
428.148987
 30
0.0
 11
586.929016
 21
415.148987
 31
0.0
  0
LINE
  5
445
100
AcDbEntity
  8
LAY-6
  6
CONTINUOUS
 62
     1
100
AcDbLine
 10
586.929016
 20
428.148987
 30
0.0
 11
587.317245
 21
426.700098
 31
0.0
  0
LINE
  5
446
100
AcDbEntity
  8
LAY-6
  6
CONTINUOUS
 62
     1
100
AcDbLine
 10
586.929016
 20
428.148987
 30
0.0
 11
586.540787
 21
426.700098
 31
0.0
  0
LINE
  5
447
100
AcDbEntity
  8
LAY-6
  6
CONTINUOUS
 62
     1
100
AcDbLine
 10
586.929016
 20
415.148987
 30
0.0
 11
586.540787
 21
416.597876
 31
0.0
  0
LINE
  5
448
100
AcDbEntity
  8
LAY-6
  6
CONTINUOUS
 62
     1
100
AcDbLine
 10
586.929016
 20
415.148987
 30
0.0
 11
587.317245
 21
416.597876
 31
0.0
  0
LINE
  5
449
100
AcDbEntity
  8
LAY-6
  6
CONTINUOUS
 62
     1
100
AcDbLine
 10
586.929016
 20
432.081634
 30
0.0
 11
587.317245
 21
433.530522
 31
0.0
  0
LINE
  5
44A
100
AcDbEntity
  8
LAY-6
  6
CONTINUOUS
 62
     1
100
AcDbLine
 10
586.929016
 20
432.081634
 30
0.0
 11
586.540787
 21
433.530522
 31
0.0
  0
LINE
  5
44B
100
AcDbEntity
  8
LAY-6
  6
CONTINUOUS
 62
     1
100
AcDbLine
 10
586.93
 20
435.1
 30
0.0
 11
586.93
 21
423.148987
 31
0.0
  0
TEXT
  5
44C
100
AcDbEntity
  8
LAY-6
  6
CONTINUOUS
 62
     2
100
AcDbText
 10
544.350171
 20
190.475153
 30
0.0
 40
5.0
  1
床面
 41
0.672
  7
EXCADSTD
 72
     5
 11
551.682971
 21
190.475153
 31
0.0
100
AcDbText
  0
TEXT
  5
44D
100
AcDbEntity
  8
LAY-6
  6
CONTINUOUS
 62
     2
100
AcDbText
 10
321.244156
 20
458.262939
 30
0.0
 40
6.0
  1
床面軸座
 41
0.672
  7
EXCADSTD
 72
     5
 11
340.444157
 21
458.262939
 31
0.0
100
AcDbText
  0
CIRCLE
  5
44E
100
AcDbEntity
  8
LAY-6
  6
CONTINUOUS
 62
     2
100
AcDbCircle
 10
315.2
 20
461.3
 30
0.0
 40
4.0
  0
TEXT
  5
44F
100
AcDbEntity
  8
LAY-6
  6
CONTINUOUS
 62
     2
100
AcDbText
 10
313.4
 20
458.8
 30
0.0
 40
5.0
  1
４
 41
0.672
  7
EXCADSTD
 72
     5
 11
316.6
 21
458.8
 31
0.0
100
AcDbText
  0
ARC
  5
450
100
AcDbEntity
  8
LAY-6
  6
CONTINUOUS
 62
     4
100
AcDbCircle
 10
756.999999
 20
101.0
 30
0.0
 40
18.0
100
AcDbArc
 50
180.0
 51
225.487766
  0
ARC
  5
451
100
AcDbEntity
  8
LAY-6
  6
CONTINUOUS
 62
     4
100
AcDbCircle
 10
721.0
 20
101.0
 30
0.0
 40
18.0
100
AcDbArc
 50
314.424746
 51
0.0
  0
LINE
  5
452
100
AcDbEntity
  8
LAY-6
  6
CONTINUOUS
 62
     4
100
AcDbLine
 10
742.658807
 20
90.122032
 30
0.0
 11
761.5
 21
101.0
 31
0.0
  0
LINE
  5
453
100
AcDbEntity
  8
LAY-6
  6
CONTINUOUS
 62
     4
100
AcDbLine
 10
735.341193
 20
90.122032
 30
0.0
 11
716.499999
 21
101.0
 31
0.0
  0
LINE
  5
454
100
AcDbEntity
  8
LAY-6
  6
CONTINUOUS
 62
     4
100
AcDbLine
 10
716.5
 20
101.0
 30
0.0
 11
761.5
 21
101.0
 31
0.0
  0
LINE
  5
455
100
AcDbEntity
  8
LAY-6
  6
CONTINUOUS
 62
     4
100
AcDbLine
 10
761.5
 20
104.75
 30
0.0
 11
769.0
 21
104.75
 31
0.0
  0
LINE
  5
456
100
AcDbEntity
  8
LAY-6
  6
CONTINUOUS
 62
     4
100
AcDbLine
 10
716.5
 20
104.75
 30
0.0
 11
709.0
 21
104.75
 31
0.0
  0
LINE
  5
457
100
AcDbEntity
  8
LAY-6
  6
CONTINUOUS
 62
     4
100
AcDbLine
 10
716.5
 20
97.25
 30
0.0
 11
709.0
 21
97.25
 31
0.0
  0
LINE
  5
458
100
AcDbEntity
  8
LAY-6
  6
CONTINUOUS
 62
     4
100
AcDbLine
 10
716.5
 20
97.25
 30
0.0
 11
716.5
 21
104.75
 31
0.0
  0
LINE
  5
459
100
AcDbEntity
  8
LAY-6
  6
CONTINUOUS
 62
     4
100
AcDbLine
 10
709.0
 20
97.25
 30
0.0
 11
709.0
 21
104.75
 31
0.0
  0
LINE
  5
45A
100
AcDbEntity
  8
LAY-6
  6
CONTINUOUS
 62
     4
100
AcDbLine
 10
761.5
 20
97.25
 30
0.0
 11
769.0
 21
97.25
 31
0.0
  0
LINE
  5
45B
100
AcDbEntity
  8
LAY-6
  6
CONTINUOUS
 62
     4
100
AcDbLine
 10
761.5
 20
97.25
 30
0.0
 11
761.5
 21
104.75
 31
0.0
  0
LINE
  5
45C
100
AcDbEntity
  8
LAY-6
  6
CONTINUOUS
 62
     4
100
AcDbLine
 10
769.0
 20
97.25
 30
0.0
 11
769.0
 21
104.75
 31
0.0
  0
LINE
  5
45D
100
AcDbEntity
  8
LAY-6
  6
CONTINUOUS
 62
     2
100
AcDbLine
 10
745.000003
 20
113.765001
 30
0.0
 11
739.0
 21
107.764998
 31
0.0
  0
LINE
  5
45E
100
AcDbEntity
  8
LAY-6
  6
CONTINUOUS
 62
     2
100
AcDbLine
 10
742.0
 20
113.765
 30
0.0
 11
745.000003
 21
113.765001
 31
0.0
  0
LINE
  5
45F
100
AcDbEntity
  8
LAY-6
  6
CONTINUOUS
 62
     2
100
AcDbLine
 10
733.000003
 20
113.764995
 30
0.0
 11
739.0
 21
107.764998
 31
0.0
  0
LINE
  5
460
100
AcDbEntity
  8
LAY-6
  6
CONTINUOUS
 62
     2
100
AcDbLine
 10
733.000003
 20
113.764995
 30
0.0
 11
736.0
 21
113.764996
 31
0.0
  0
LINE
  5
461
100
AcDbEntity
  8
LAY-6
  6
CONTINUOUS
 62
     2
100
AcDbLine
 10
742.0
 20
113.765
 30
0.0
 11
742.0
 21
119.765
 31
0.0
  0
LINE
  5
462
100
AcDbEntity
  8
LAY-6
  6
CONTINUOUS
 62
     2
100
AcDbLine
 10
742.0
 20
119.765
 30
0.0
 11
739.0
 21
119.765
 31
0.0
  0
LINE
  5
463
100
AcDbEntity
  8
LAY-6
  6
CONTINUOUS
 62
     2
100
AcDbLine
 10
739.0
 20
119.765
 30
0.0
 11
736.0
 21
119.765
 31
0.0
  0
LINE
  5
464
100
AcDbEntity
  8
LAY-6
  6
CONTINUOUS
 62
     2
100
AcDbLine
 10
736.0
 20
113.764996
 30
0.0
 11
736.0
 21
119.764999
 31
0.0
  0
TEXT
  5
465
100
AcDbEntity
  8
LAY-6
  6
CONTINUOUS
 62
     2
100
AcDbText
 10
705.322841
 20
126.108318
 30
0.0
 40
9.0
  1
ドアの開き勝手基準
 41
0.672
  7
EXCADSTD
 72
     5
 11
770.122844
 21
126.108318
 31
0.0
100
AcDbText
  0
LINE
  5
466
100
AcDbEntity
  8
LAY-6
  6
CONTINUOUS
 62
     2
100
AcDbLine
 10
704.113457
 20
124.279497
 30
0.0
 11
773.263457
 21
124.279497
 31
0.0
  0
TEXT
  5
467
100
AcDbEntity
  8
LAY-6
  6
CONTINUOUS
 62
     2
100
AcDbText
 10
701.244428
 20
71.110529
 30
0.0
 40
9.0
  1
本図は右開きを示します
 41
0.672
  7
EXCADSTD
 72
     5
 11
780.444431
 21
71.110529
 31
0.0
100
AcDbText
  0
TEXT
  5
468
100
AcDbEntity
  8
LAY-6
  6
CONTINUOUS
 62
     2
100
AcDbText
 10
730.813134
 20
92.896519
 30
0.0
 40
7.5
  1
右
 41
0.672
  7
EXCADSTD
 72
     5
 11
735.613134
 21
92.896519
 31
0.0
100
AcDbText
  0
TEXT
  5
469
100
AcDbEntity
  8
LAY-6
  6
CONTINUOUS
 62
     2
100
AcDbText
 10
741.528085
 20
92.885
 30
0.0
 40
7.5
  1
左
 41
0.672
  7
EXCADSTD
 72
     5
 11
746.328085
 21
92.885
 31
0.0
100
AcDbText
  0
LINE
  5
46A
100
AcDbEntity
  8
LAY-6
  6
CONTINUOUS
 62
     1
100
AcDbLine
 10
172.227921
 20
430.762939
 30
0.0
 11
172.227921
 21
436.7
 31
0.0
  0
LINE
  5
46B
100
AcDbEntity
  8
LAY-6
  6
CONTINUOUS
 62
     1
100
AcDbLine
 10
178.227921
 20
433.762939
 30
0.0
 11
178.227921
 21
436.7
 31
0.0
  0
TEXT
  5
46C
100
AcDbEntity
  8
LAY-6
  6
CONTINUOUS
 62
     2
100
AcDbText
 10
163.777921
 20
435.7
 30
0.0
 40
5.0
  1
(
 41
0.4
  7
EXCADSTD
 72
     5
 11
165.077921
 21
435.7
 31
0.0
100
AcDbText
  0
TEXT
  5
46D
100
AcDbEntity
  8
LAY-6
  6
CONTINUOUS
 62
     2
100
AcDbText
 10
165.777921
 20
435.7
 30
0.0
 40
5.0
  1
６
 41
0.672
  7
EXCADSTD
 72
     5
 11
168.977921
 21
435.7
 31
0.0
100
AcDbText
  0
TEXT
  5
46E
100
AcDbEntity
  8
LAY-6
  6
CONTINUOUS
 62
     2
100
AcDbText
 10
169.777921
 20
435.7
 30
0.0
 40
5.0
  1
)
 41
0.4
  7
EXCADSTD
 72
     5
 11
171.077921
 21
435.7
 31
0.0
100
AcDbText
  0
LINE
  5
46F
100
AcDbEntity
  8
LAY-6
  6
CONTINUOUS
 62
     1
100
AcDbLine
 10
164.19
 20
435.2
 30
0.0
 11
178.227921
 21
435.2
 31
0.0
  0
LINE
  5
470
100
AcDbEntity
  8
LAY-6
  6
CONTINUOUS
 62
     1
100
AcDbLine
 10
170.227921
 20
434.866667
 30
0.0
 11
172.227921
 21
435.2
 31
0.0
  0
LINE
  5
471
100
AcDbEntity
  8
LAY-6
  6
CONTINUOUS
 62
     1
100
AcDbLine
 10
172.227921
 20
435.2
 30
0.0
 11
170.227921
 21
435.533333
 31
0.0
  0
TEXT
  5
472
100
AcDbEntity
  8
LAY-6
  6
CONTINUOUS
 62
     2
100
AcDbText
 10
178.727921
 20
435.7
 30
0.0
 40
5.0
  1
(
 41
0.4
  7
EXCADSTD
 72
     5
 11
180.027921
 21
435.7
 31
0.0
100
AcDbText
  0
TEXT
  5
473
100
AcDbEntity
  8
LAY-6
  6
CONTINUOUS
 62
     2
100
AcDbText
 10
180.727921
 20
435.7
 30
0.0
 40
5.0
  1
１３
 41
0.672
  7
EXCADSTD
 72
     5
 11
188.060721
 21
435.7
 31
0.0
100
AcDbText
  0
TEXT
  5
474
100
AcDbEntity
  8
LAY-6
  6
CONTINUOUS
 62
     2
100
AcDbText
 10
188.727921
 20
435.7
 30
0.0
 40
5.0
  1
)
 41
0.4
  7
EXCADSTD
 72
     5
 11
190.027921
 21
435.7
 31
0.0
100
AcDbText
  0
LINE
  5
475
100
AcDbEntity
  8
LAY-6
  6
CONTINUOUS
 62
     1
100
AcDbLine
 10
191.227921
 20
433.762939
 30
0.0
 11
191.227921
 21
436.7
 31
0.0
  0
LINE
  5
476
100
AcDbEntity
  8
LAY-6
  6
CONTINUOUS
 62
     1
100
AcDbLine
 10
178.227921
 20
435.2
 30
0.0
 11
191.227921
 21
435.2
 31
0.0
  0
LINE
  5
477
100
AcDbEntity
  8
LAY-6
  6
CONTINUOUS
 62
     1
100
AcDbLine
 10
180.227921
 20
435.533333
 30
0.0
 11
178.227921
 21
435.2
 31
0.0
  0
LINE
  5
478
100
AcDbEntity
  8
LAY-6
  6
CONTINUOUS
 62
     1
100
AcDbLine
 10
178.227921
 20
435.2
 30
0.0
 11
180.227921
 21
434.866667
 31
0.0
  0
LINE
  5
479
100
AcDbEntity
  8
LAY-6
  6
CONTINUOUS
 62
     1
100
AcDbLine
 10
189.227921
 20
434.866667
 30
0.0
 11
191.227921
 21
435.2
 31
0.0
  0
LINE
  5
47A
100
AcDbEntity
  8
LAY-6
  6
CONTINUOUS
 62
     1
100
AcDbLine
 10
191.227921
 20
435.2
 30
0.0
 11
189.227921
 21
435.533333
 31
0.0
  0
TEXT
  5
47B
100
AcDbEntity
  8
LAY-6
  6
CONTINUOUS
 62
     2
100
AcDbText
 10
212.5
 20
399.862939
 30
0.0
 40
5.0
  1
(
 50
90.0
 41
0.36
  7
EXCADSTD
 72
     5
 11
212.5
 21
401.032939
 31
0.0
100
AcDbText
  0
TEXT
  5
47C
100
AcDbEntity
  8
LAY-6
  6
CONTINUOUS
 62
     2
100
AcDbText
 10
212.5
 20
401.662939
 30
0.0
 40
5.0
  1
１０
 50
90.0
 41
0.6048
  7
EXCADSTD
 72
     5
 11
212.5
 21
408.262459
 31
0.0
100
AcDbText
  0
TEXT
  5
47D
100
AcDbEntity
  8
LAY-6
  6
CONTINUOUS
 62
     2
100
AcDbText
 10
212.5
 20
408.862939
 30
0.0
 40
5.0
  1
)
 50
90.0
 41
0.36
  7
EXCADSTD
 72
     5
 11
212.5
 21
410.032939
 31
0.0
100
AcDbText
  0
LINE
  5
47E
100
AcDbEntity
  8
LAY-6
  6
CONTINUOUS
 62
     1
100
AcDbLine
 10
196.727921
 20
410.262939
 30
0.0
 11
214.5
 21
410.262939
 31
0.0
  0
LINE
  5
47F
100
AcDbEntity
  8
LAY-6
  6
CONTINUOUS
 62
     1
100
AcDbLine
 10
213.0
 20
400.262939
 30
0.0
 11
213.0
 21
410.262939
 31
0.0
  0
LINE
  5
480
100
AcDbEntity
  8
LAY-6
  6
CONTINUOUS
 62
     1
100
AcDbLine
 10
212.666667
 20
402.262939
 30
0.0
 11
213.0
 21
400.262939
 31
0.0
  0
LINE
  5
481
100
AcDbEntity
  8
LAY-6
  6
CONTINUOUS
 62
     1
100
AcDbLine
 10
213.0
 20
400.262939
 30
0.0
 11
213.333333
 21
402.262939
 31
0.0
  0
LINE
  5
482
100
AcDbEntity
  8
LAY-6
  6
CONTINUOUS
 62
     1
100
AcDbLine
 10
213.333333
 20
408.262939
 30
0.0
 11
213.0
 21
410.262939
 31
0.0
  0
LINE
  5
483
100
AcDbEntity
  8
LAY-6
  6
CONTINUOUS
 62
     1
100
AcDbLine
 10
213.0
 20
410.262939
 30
0.0
 11
212.666667
 21
408.262939
 31
0.0
  0
TEXT
  5
484
100
AcDbEntity
  8
LAY-6
  6
CONTINUOUS
 62
     2
100
AcDbText
 10
212.5
 20
413.262939
 30
0.0
 40
5.0
  1
１８
 50
90.0
 41
0.672
  7
EXCADSTD
 72
     5
 11
212.5
 21
420.595739
 31
0.0
100
AcDbText
  0
TEXT
  5
485
100
AcDbEntity
  8
LAY-6
  6
CONTINUOUS
 62
     2
100
AcDbText
 10
212.5
 20
421.262939
 30
0.0
 40
5.0
  1
）
 50
90.0
 41
0.672
  7
EXCADSTD
 72
     5
 11
212.5
 21
424.462939
 31
0.0
100
AcDbText
  0
LINE
  5
486
100
AcDbEntity
  8
LAY-6
  6
CONTINUOUS
 62
     1
100
AcDbLine
 10
196.727921
 20
428.262939
 30
0.0
 11
214.5
 21
428.262939
 31
0.0
  0
LINE
  5
487
100
AcDbEntity
  8
LAY-6
  6
CONTINUOUS
 62
     1
100
AcDbLine
 10
213.0
 20
410.262939
 30
0.0
 11
213.0
 21
428.262939
 31
0.0
  0
LINE
  5
488
100
AcDbEntity
  8
LAY-6
  6
CONTINUOUS
 62
     1
100
AcDbLine
 10
212.666667
 20
412.262939
 30
0.0
 11
213.0
 21
410.262939
 31
0.0
  0
LINE
  5
489
100
AcDbEntity
  8
LAY-6
  6
CONTINUOUS
 62
     1
100
AcDbLine
 10
213.0
 20
410.262939
 30
0.0
 11
213.333333
 21
412.262939
 31
0.0
  0
LINE
  5
48A
100
AcDbEntity
  8
LAY-6
  6
CONTINUOUS
 62
     1
100
AcDbLine
 10
213.333333
 20
426.262939
 30
0.0
 11
213.0
 21
428.262939
 31
0.0
  0
LINE
  5
48B
100
AcDbEntity
  8
LAY-6
  6
CONTINUOUS
 62
     1
100
AcDbLine
 10
213.0
 20
428.262939
 30
0.0
 11
212.666667
 21
426.262939
 31
0.0
  0
TEXT
  5
48C
100
AcDbEntity
  8
LAY-6
  6
CONTINUOUS
 62
     2
100
AcDbText
 10
215.3
 20
462.1
 30
0.0
 40
5.0
  1
４－Ｍ５×１６皿小ネジ(P=0.8)(別途)
 41
0.576198
  7
EXCADSTD
 72
     5
 11
285.3
 21
462.1
 31
0.0
100
AcDbText
  0
POLYLINE
  5
48D
100
AcDbEntity
  8
LAY-6
  6
CONTINUOUS
 62
     1
100
AcDb2dPolyline
 66
     1
 10
0.0
 20
0.0
 30
0.0
 70
   128
  0
VERTEX
  5
48E
100
AcDbEntity
  8
LAY-6
  6
CONTINUOUS
 62
     1
100
AcDbVertex
100
AcDb2dVertex
 10
192.629569
 20
430.333055
 30
0.0
  0
VERTEX
  5
48F
100
AcDbEntity
  8
LAY-6
  6
CONTINUOUS
 62
     1
100
AcDbVertex
100
AcDb2dVertex
 10
213.8
 20
461.6
 30
0.0
  0
VERTEX
  5
490
100
AcDbEntity
  8
LAY-6
  6
CONTINUOUS
 62
     1
100
AcDbVertex
100
AcDb2dVertex
 10
286.8
 20
461.6
 30
0.0
  0
SEQEND
  5
491
100
AcDbEntity
  8
LAY-6
  6
CONTINUOUS
 62
     1
  0
LINE
  5
492
100
AcDbEntity
  8
LAY-6
  6
CONTINUOUS
 62
     1
100
AcDbLine
 10
193.474872
 20
432.176035
 30
0.0
 11
192.629569
 21
430.333055
 31
0.0
  0
LINE
  5
493
100
AcDbEntity
  8
LAY-6
  6
CONTINUOUS
 62
     1
100
AcDbLine
 10
192.629569
 20
430.333055
 30
0.0
 11
194.026903
 21
431.802262
 31
0.0
  0
LINE
  5
494
100
AcDbEntity
  8
LAY-6
  6
CONTINUOUS
 62
     1
100
AcDbLine
 10
377.227966
 20
431.262939
 30
0.0
 11
377.227966
 21
436.4
 31
0.0
  0
LINE
  5
495
100
AcDbEntity
  8
LAY-6
  6
CONTINUOUS
 62
     1
100
AcDbLine
 10
383.227966
 20
433.762939
 30
0.0
 11
383.227966
 21
436.4
 31
0.0
  0
TEXT
  5
496
100
AcDbEntity
  8
LAY-6
  6
CONTINUOUS
 62
     2
100
AcDbText
 10
368.727966
 20
435.4
 30
0.0
 40
5.0
  1
(
 41
0.4
  7
EXCADSTD
 72
     5
 11
370.027966
 21
435.4
 31
0.0
100
AcDbText
  0
TEXT
  5
497
100
AcDbEntity
  8
LAY-6
  6
CONTINUOUS
 62
     2
100
AcDbText
 10
370.727966
 20
435.4
 30
0.0
 40
5.0
  1
６
 41
0.672
  7
EXCADSTD
 72
     5
 11
373.927966
 21
435.4
 31
0.0
100
AcDbText
  0
TEXT
  5
498
100
AcDbEntity
  8
LAY-6
  6
CONTINUOUS
 62
     2
100
AcDbText
 10
374.727966
 20
435.4
 30
0.0
 40
5.0
  1
)
 41
0.4
  7
EXCADSTD
 72
     5
 11
376.027966
 21
435.4
 31
0.0
100
AcDbText
  0
LINE
  5
499
100
AcDbEntity
  8
LAY-6
  6
CONTINUOUS
 62
     1
100
AcDbLine
 10
368.9
 20
434.9
 30
0.0
 11
383.227966
 21
434.9
 31
0.0
  0
LINE
  5
49A
100
AcDbEntity
  8
LAY-6
  6
CONTINUOUS
 62
     1
100
AcDbLine
 10
375.227966
 20
434.566667
 30
0.0
 11
377.227966
 21
434.9
 31
0.0
  0
LINE
  5
49B
100
AcDbEntity
  8
LAY-6
  6
CONTINUOUS
 62
     1
100
AcDbLine
 10
377.227966
 20
434.9
 30
0.0
 11
375.227966
 21
435.233333
 31
0.0
  0
TEXT
  5
49C
100
AcDbEntity
  8
LAY-6
  6
CONTINUOUS
 62
     2
100
AcDbText
 10
383.727966
 20
435.4
 30
0.0
 40
5.0
  1
(
 41
0.4
  7
EXCADSTD
 72
     5
 11
385.027966
 21
435.4
 31
0.0
100
AcDbText
  0
TEXT
  5
49D
100
AcDbEntity
  8
LAY-6
  6
CONTINUOUS
 62
     2
100
AcDbText
 10
385.727966
 20
435.4
 30
0.0
 40
5.0
  1
１３
 41
0.672
  7
EXCADSTD
 72
     5
 11
393.060766
 21
435.4
 31
0.0
100
AcDbText
  0
TEXT
  5
49E
100
AcDbEntity
  8
LAY-6
  6
CONTINUOUS
 62
     2
100
AcDbText
 10
393.727966
 20
435.4
 30
0.0
 40
5.0
  1
)
 41
0.4
  7
EXCADSTD
 72
     5
 11
395.027966
 21
435.4
 31
0.0
100
AcDbText
  0
LINE
  5
49F
100
AcDbEntity
  8
LAY-6
  6
CONTINUOUS
 62
     1
100
AcDbLine
 10
396.227966
 20
433.762939
 30
0.0
 11
396.227966
 21
436.4
 31
0.0
  0
LINE
  5
4A0
100
AcDbEntity
  8
LAY-6
  6
CONTINUOUS
 62
     1
100
AcDbLine
 10
383.227966
 20
434.9
 30
0.0
 11
396.227966
 21
434.9
 31
0.0
  0
LINE
  5
4A1
100
AcDbEntity
  8
LAY-6
  6
CONTINUOUS
 62
     1
100
AcDbLine
 10
385.227966
 20
435.233333
 30
0.0
 11
383.227966
 21
434.9
 31
0.0
  0
LINE
  5
4A2
100
AcDbEntity
  8
LAY-6
  6
CONTINUOUS
 62
     1
100
AcDbLine
 10
383.227966
 20
434.9
 30
0.0
 11
385.227966
 21
434.566667
 31
0.0
  0
LINE
  5
4A3
100
AcDbEntity
  8
LAY-6
  6
CONTINUOUS
 62
     1
100
AcDbLine
 10
394.227966
 20
434.566667
 30
0.0
 11
396.227966
 21
434.9
 31
0.0
  0
LINE
  5
4A4
100
AcDbEntity
  8
LAY-6
  6
CONTINUOUS
 62
     1
100
AcDbLine
 10
396.227966
 20
434.9
 30
0.0
 11
394.227966
 21
435.233333
 31
0.0
  0
TEXT
  5
4A5
100
AcDbEntity
  8
LAY-6
  6
CONTINUOUS
 62
     2
100
AcDbText
 10
418.5
 20
399.862939
 30
0.0
 40
5.0
  1
(
 50
90.0
 41
0.36
  7
EXCADSTD
 72
     5
 11
418.5
 21
401.032939
 31
0.0
100
AcDbText
  0
TEXT
  5
4A6
100
AcDbEntity
  8
LAY-6
  6
CONTINUOUS
 62
     2
100
AcDbText
 10
418.5
 20
401.662939
 30
0.0
 40
5.0
  1
１０
 50
90.0
 41
0.6048
  7
EXCADSTD
 72
     5
 11
418.5
 21
408.262459
 31
0.0
100
AcDbText
  0
TEXT
  5
4A7
100
AcDbEntity
  8
LAY-6
  6
CONTINUOUS
 62
     2
100
AcDbText
 10
418.5
 20
408.862939
 30
0.0
 40
5.0
  1
)
 50
90.0
 41
0.36
  7
EXCADSTD
 72
     5
 11
418.5
 21
410.032939
 31
0.0
100
AcDbText
  0
LINE
  5
4A8
100
AcDbEntity
  8
LAY-6
  6
CONTINUOUS
 62
     1
100
AcDbLine
 10
401.727966
 20
410.262939
 30
0.0
 11
420.5
 21
410.262939
 31
0.0
  0
LINE
  5
4A9
100
AcDbEntity
  8
LAY-6
  6
CONTINUOUS
 62
     1
100
AcDbLine
 10
419.0
 20
400.262939
 30
0.0
 11
419.0
 21
410.262939
 31
0.0
  0
LINE
  5
4AA
100
AcDbEntity
  8
LAY-6
  6
CONTINUOUS
 62
     1
100
AcDbLine
 10
418.666667
 20
402.262939
 30
0.0
 11
419.0
 21
400.262939
 31
0.0
  0
LINE
  5
4AB
100
AcDbEntity
  8
LAY-6
  6
CONTINUOUS
 62
     1
100
AcDbLine
 10
419.0
 20
400.262939
 30
0.0
 11
419.333333
 21
402.262939
 31
0.0
  0
LINE
  5
4AC
100
AcDbEntity
  8
LAY-6
  6
CONTINUOUS
 62
     1
100
AcDbLine
 10
419.333333
 20
408.262939
 30
0.0
 11
419.0
 21
410.262939
 31
0.0
  0
LINE
  5
4AD
100
AcDbEntity
  8
LAY-6
  6
CONTINUOUS
 62
     1
100
AcDbLine
 10
419.0
 20
410.262939
 30
0.0
 11
418.666667
 21
408.262939
 31
0.0
  0
TEXT
  5
4AE
100
AcDbEntity
  8
LAY-6
  6
CONTINUOUS
 62
     2
100
AcDbText
 10
418.5
 20
411.262939
 30
0.0
 40
5.0
  1
（
 50
90.0
 41
0.672
  7
EXCADSTD
 72
     5
 11
418.5
 21
414.462939
 31
0.0
100
AcDbText
  0
TEXT
  5
4AF
100
AcDbEntity
  8
LAY-6
  6
CONTINUOUS
 62
     2
100
AcDbText
 10
418.5
 20
415.262939
 30
0.0
 40
5.0
  1
１８
 50
90.0
 41
0.672
  7
EXCADSTD
 72
     5
 11
418.5
 21
422.595739
 31
0.0
100
AcDbText
  0
TEXT
  5
4B0
100
AcDbEntity
  8
LAY-6
  6
CONTINUOUS
 62
     2
100
AcDbText
 10
418.5
 20
423.262939
 30
0.0
 40
5.0
  1
）
 50
90.0
 41
0.672
  7
EXCADSTD
 72
     5
 11
418.5
 21
426.462939
 31
0.0
100
AcDbText
  0
LINE
  5
4B1
100
AcDbEntity
  8
LAY-6
  6
CONTINUOUS
 62
     1
100
AcDbLine
 10
401.727966
 20
428.262939
 30
0.0
 11
420.5
 21
428.262939
 31
0.0
  0
LINE
  5
4B2
100
AcDbEntity
  8
LAY-6
  6
CONTINUOUS
 62
     1
100
AcDbLine
 10
419.0
 20
410.262939
 30
0.0
 11
419.0
 21
428.262939
 31
0.0
  0
LINE
  5
4B3
100
AcDbEntity
  8
LAY-6
  6
CONTINUOUS
 62
     1
100
AcDbLine
 10
418.666667
 20
412.262939
 30
0.0
 11
419.0
 21
410.262939
 31
0.0
  0
LINE
  5
4B4
100
AcDbEntity
  8
LAY-6
  6
CONTINUOUS
 62
     1
100
AcDbLine
 10
419.0
 20
410.262939
 30
0.0
 11
419.333333
 21
412.262939
 31
0.0
  0
LINE
  5
4B5
100
AcDbEntity
  8
LAY-6
  6
CONTINUOUS
 62
     1
100
AcDbLine
 10
419.333333
 20
426.262939
 30
0.0
 11
419.0
 21
428.262939
 31
0.0
  0
LINE
  5
4B6
100
AcDbEntity
  8
LAY-6
  6
CONTINUOUS
 62
     1
100
AcDbLine
 10
419.0
 20
428.262939
 30
0.0
 11
418.666667
 21
426.262939
 31
0.0
  0
TEXT
  5
4B7
100
AcDbEntity
  8
LAY-6
  6
CONTINUOUS
 62
     2
100
AcDbText
 10
413.3
 20
461.8
 30
0.0
 40
5.0
  1
４－Ｍ５×１６皿小ネジ(P=0.8)(別途)
 41
0.576198
  7
EXCADSTD
 72
     5
 11
483.3
 21
461.8
 31
0.0
100
AcDbText
  0
POLYLINE
  5
4B8
100
AcDbEntity
  8
LAY-6
  6
CONTINUOUS
 62
     1
100
AcDb2dPolyline
 66
     1
 10
0.0
 20
0.0
 30
0.0
 70
   128
  0
VERTEX
  5
4B9
100
AcDbEntity
  8
LAY-6
  6
CONTINUOUS
 62
     1
100
AcDbVertex
100
AcDb2dVertex
 10
397.34348
 20
430.500265
 30
0.0
  0
VERTEX
  5
4BA
100
AcDbEntity
  8
LAY-6
  6
CONTINUOUS
 62
     1
100
AcDbVertex
100
AcDb2dVertex
 10
412.7
 20
461.3
 30
0.0
  0
VERTEX
  5
4BB
100
AcDbEntity
  8
LAY-6
  6
CONTINUOUS
 62
     1
100
AcDbVertex
100
AcDb2dVertex
 10
483.9
 20
461.3
 30
0.0
  0
SEQEND
  5
4BC
100
AcDbEntity
  8
LAY-6
  6
CONTINUOUS
 62
     1
  0
LINE
  5
4BD
100
AcDbEntity
  8
LAY-6
  6
CONTINUOUS
 62
     1
100
AcDbLine
 10
397.937581
 20
432.438861
 30
0.0
 11
397.34348
 21
430.500265
 31
0.0
  0
LINE
  5
4BE
100
AcDbEntity
  8
LAY-6
  6
CONTINUOUS
 62
     1
100
AcDbLine
 10
397.34348
 20
430.500265
 30
0.0
 11
398.534202
 21
432.141391
 31
0.0
  0
TEXT
  5
4BF
100
AcDbEntity
  8
LAY-6
  6
CONTINUOUS
 62
     2
100
AcDbText
 10
603.95
 20
370.1
 30
0.0
 40
5.0
  1
φ
 41
0.672
  7
EXCADSTD
 72
     5
 11
607.15
 21
370.1
 31
0.0
100
AcDbText
  0
TEXT
  5
4C0
100
AcDbEntity
  8
LAY-6
  6
CONTINUOUS
 62
     2
100
AcDbText
 10
607.95
 20
370.1
 30
0.0
 40
5.0
  1
１２.５
 41
0.616
  7
EXCADSTD
 72
     5
 11
621.95
 21
370.1
 31
0.0
100
AcDbText
  0
LINE
  5
4C1
100
AcDbEntity
  8
LAY-6
  6
CONTINUOUS
 62
     1
100
AcDbLine
 10
611.679016
 20
413.648987
 30
0.0
 11
624.179016
 21
413.648987
 31
0.0
  0
LINE
  5
4C2
100
AcDbEntity
  8
LAY-6
  6
CONTINUOUS
 62
     1
100
AcDbLine
 10
613.679016
 20
413.98232
 30
0.0
 11
611.679016
 21
413.648987
 31
0.0
  0
LINE
  5
4C3
100
AcDbEntity
  8
LAY-6
  6
CONTINUOUS
 62
     1
100
AcDbLine
 10
611.679016
 20
413.648987
 30
0.0
 11
613.679016
 21
413.315654
 31
0.0
  0
LINE
  5
4C4
100
AcDbEntity
  8
LAY-6
  6
CONTINUOUS
 62
     1
100
AcDbLine
 10
622.179016
 20
413.315654
 30
0.0
 11
624.179016
 21
413.648987
 31
0.0
  0
LINE
  5
4C5
100
AcDbEntity
  8
LAY-6
  6
CONTINUOUS
 62
     1
100
AcDbLine
 10
624.179016
 20
413.648987
 30
0.0
 11
622.179016
 21
413.98232
 31
0.0
  0
POLYLINE
  5
4C6
100
AcDbEntity
  8
LAY-6
  6
CONTINUOUS
 62
     1
100
AcDb2dPolyline
 66
     1
 10
0.0
 20
0.0
 30
0.0
 70
   128
  0
VERTEX
  5
4C7
100
AcDbEntity
  8
LAY-6
  6
CONTINUOUS
 62
     1
100
AcDbVertex
100
AcDb2dVertex
 10
617.929016
 20
413.648987
 30
0.0
  0
VERTEX
  5
4C8
100
AcDbEntity
  8
LAY-6
  6
CONTINUOUS
 62
     1
100
AcDbVertex
100
AcDb2dVertex
 10
602.1
 20
369.6
 30
0.0
  0
VERTEX
  5
4C9
100
AcDbEntity
  8
LAY-6
  6
CONTINUOUS
 62
     1
100
AcDbVertex
100
AcDb2dVertex
 10
621.1
 20
369.6
 30
0.0
  0
SEQEND
  5
4CA
100
AcDbEntity
  8
LAY-6
  6
CONTINUOUS
 62
     1
  0
TEXT
  5
4CB
100
AcDbEntity
  8
LAY-6
  6
CONTINUOUS
 62
     2
100
AcDbText
 10
578.689374
 20
454.335565
 30
0.0
 40
5.0
  1
キャップ
 41
0.672
  7
EXCADSTD
 72
     5
 11
594.689374
 21
454.335565
 31
0.0
100
AcDbText
  0
POLYLINE
  5
4CC
100
AcDbEntity
  8
LAY-6
  6
CONTINUOUS
 62
     1
100
AcDb2dPolyline
 66
     1
 10
0.0
 20
0.0
 30
0.0
 70
   128
  0
VERTEX
  5
4CD
100
AcDbEntity
  8
LAY-6
  6
CONTINUOUS
 62
     1
100
AcDbVertex
100
AcDb2dVertex
 10
612.529016
 20
432.148987
 30
0.0
  0
VERTEX
  5
4CE
100
AcDbEntity
  8
LAY-6
  6
CONTINUOUS
 62
     1
100
AcDbVertex
100
AcDb2dVertex
 10
594.7
 20
454.2
 30
0.0
  0
VERTEX
  5
4CF
100
AcDbEntity
  8
LAY-6
  6
CONTINUOUS
 62
     1
100
AcDbVertex
100
AcDb2dVertex
 10
578.0
 20
454.2
 30
0.0
  0
SEQEND
  5
4D0
100
AcDbEntity
  8
LAY-6
  6
CONTINUOUS
 62
     1
  0
LINE
  5
4D1
100
AcDbEntity
  8
LAY-6
  6
CONTINUOUS
 62
     1
100
AcDbLine
 10
611.012342
 20
433.494651
 30
0.0
 11
612.529016
 21
432.148987
 31
0.0
  0
LINE
  5
4D2
100
AcDbEntity
  8
LAY-6
  6
CONTINUOUS
 62
     1
100
AcDbLine
 10
612.529016
 20
432.148987
 30
0.0
 11
611.530756
 21
433.913806
 31
0.0
  0
TEXT
  5
4D3
100
AcDbEntity
  8
LAY-6
  6
CONTINUOUS
 62
     2
100
AcDbText
 10
321.0
 20
92.0
 30
0.0
 40
9.0
  1
■タップ型(①④タ ップ穴加工付)は品番の後にＴＡＰを付けて下さい。(オプション)　発注例：１Ａ－５ ＴＡＰ
 41
0.651808
  7
EXCADSTD
 72
     5
 11
684.59999
 21
92.0
 31
0.0
100
AcDbText
  0
TEXT
  5
4D4
100
AcDbEntity
  8
LAY-6
  6
CONTINUOUS
 62
     2
100
AcDbText
 10
321.0
 20
83.0
 30
0.0
 40
9.0
  1
　タップ穴は（　）内寸法をご参照下さい。
 41
0.672
  7
EXCADSTD
 72
     5
 11
464.999996
 21
83.0
 31
0.0
100
AcDbText
  0
TEXT
  5
4D5
100
AcDbEntity
  8
LAY-6
  6
CONTINUOUS
 62
     2
100
AcDbText
 10
321.0
 20
74.0
 30
0.0
 40
9.0
  1
■①カバー３㎜伸ばしは品番の後に①Ｔを付けて下さい。(オプション)　発注例：１Ａ－５①Ｔ
 41
0.662413
  7
EXCADSTD
 72
     5
 11
630.599992
 21
74.0
 31
0.0
100
AcDbText
  0
TEXT
  5
4D6
100
AcDbEntity
  8
LAY-6
  6
CONTINUOUS
 62
     2
100
AcDbText
 10
446.050171
 20
417.738092
 30
0.0
 40
5.0
  1
沓摺
 41
0.672
  7
EXCADSTD
 72
     5
 11
453.382971
 21
417.738092
 31
0.0
100
AcDbText
  0
TEXT
  5
4D7
100
AcDbEntity
  8
LAY-6
  6
CONTINUOUS
 62
     2
100
AcDbText
 10
710.350171
 20
200.475153
 30
0.0
 40
5.0
  1
沓摺
 41
0.672
  7
EXCADSTD
 72
     5
 11
717.682971
 21
200.475153
 31
0.0
100
AcDbText
  0
LINE
  5
4D8
100
AcDbEntity
  8
LAY-9
  6
CONTINUOUS
 62
     1
100
AcDbLine
 10
343.227951
 20
415.262939
 30
0.0
 11
343.227951
 21
401.862946
 31
0.0
  0
LINE
  5
4D9
100
AcDbEntity
  8
LAY-9
  6
CONTINUOUS
 62
     1
100
AcDbLine
 10
344.827942
 20
415.262939
 30
0.0
 11
344.827942
 21
401.862946
 31
0.0
  0
LINE
  5
4DA
100
AcDbEntity
  8
LAY-9
  6
CONTINUOUS
 62
     1
100
AcDbLine
 10
344.827942
 20
401.862946
 30
0.0
 11
366.62796
 21
401.862946
 31
0.0
  0
ARC
  5
4DB
100
AcDbEntity
  8
LAY-9
  6
CONTINUOUS
 62
     1
100
AcDbCircle
 10
344.827942
 20
401.862946
 30
0.0
 40
1.6
100
AcDbArc
 50
180.00002
 51
270.0
  0
ARC
  5
4DC
100
AcDbEntity
  8
LAY-9
  6
CONTINUOUS
 62
     1
100
AcDbCircle
 10
366.62796
 20
401.862946
 30
0.0
 40
1.6
100
AcDbArc
 50
270.0
 51
359.999982
  0
LINE
  5
4DD
100
AcDbEntity
  8
LAY-9
  6
CONTINUOUS
 62
     1
100
AcDbLine
 10
344.827942
 20
415.262939
 30
0.0
 11
343.227951
 21
415.262939
 31
0.0
  0
LINE
  5
4DE
100
AcDbEntity
  8
LAY-9
  6
CONTINUOUS
 62
     1
100
AcDbLine
 10
371.034821
 20
400.262939
 30
0.0
 11
344.827942
 21
400.262939
 31
0.0
  0
LINE
  5
4DF
100
AcDbEntity
  8
LAY-9
  6
CONTINUOUS
 62
     1
100
AcDbLine
 10
383.227966
 20
461.262939
 30
0.0
 11
383.227966
 21
442.862946
 31
0.0
  0
LINE
  5
4E0
100
AcDbEntity
  8
LAY-9
  6
CONTINUOUS
 62
     1
100
AcDbLine
 10
368.227966
 20
442.862946
 30
0.0
 11
381.62793
 21
442.862946
 31
0.0
  0
LINE
  5
4E1
100
AcDbEntity
  8
LAY-9
  6
CONTINUOUS
 62
     1
100
AcDbLine
 10
381.62793
 20
461.262939
 30
0.0
 11
381.62793
 21
442.862946
 31
0.0
  0
ARC
  5
4E2
100
AcDbEntity
  8
LAY-9
  6
CONTINUOUS
 62
     1
100
AcDbCircle
 10
368.227966
 20
441.262939
 30
0.0
 40
1.6
100
AcDbArc
 50
89.999981
 51
180.00002
  0
ARC
  5
4E3
100
AcDbEntity
  8
LAY-9
  6
CONTINUOUS
 62
     1
100
AcDbCircle
 10
381.62793
 20
442.862946
 30
0.0
 40
1.6
100
AcDbArc
 50
270.0
 51
359.999982
  0
LINE
  5
4E4
100
AcDbEntity
  8
LAY-9
  6
CONTINUOUS
 62
     1
100
AcDbLine
 10
368.227966
 20
441.262939
 30
0.0
 11
368.227966
 21
401.862946
 31
0.0
  0
LINE
  5
4E5
100
AcDbEntity
  8
LAY-9
  6
CONTINUOUS
 62
     1
100
AcDbLine
 10
366.62796
 20
401.862946
 30
0.0
 11
366.62796
 21
441.262939
 31
0.0
  0
LINE
  5
4E6
100
AcDbEntity
  8
LAY-9
  6
CONTINUOUS
 62
     1
100
AcDbLine
 10
138.227928
 20
415.262939
 30
0.0
 11
138.227928
 21
401.862946
 31
0.0
  0
LINE
  5
4E7
100
AcDbEntity
  8
LAY-9
  6
CONTINUOUS
 62
     1
100
AcDbLine
 10
139.827927
 20
415.262939
 30
0.0
 11
139.827927
 21
401.862946
 31
0.0
  0
LINE
  5
4E8
100
AcDbEntity
  8
LAY-9
  6
CONTINUOUS
 62
     1
100
AcDbLine
 10
139.827927
 20
401.862946
 30
0.0
 11
161.62793
 21
401.862946
 31
0.0
  0
ARC
  5
4E9
100
AcDbEntity
  8
LAY-9
  6
CONTINUOUS
 62
     1
100
AcDbCircle
 10
139.827927
 20
401.862946
 30
0.0
 40
1.6
100
AcDbArc
 50
180.00002
 51
270.0
  0
ARC
  5
4EA
100
AcDbEntity
  8
LAY-9
  6
CONTINUOUS
 62
     1
100
AcDbCircle
 10
161.62793
 20
401.862946
 30
0.0
 40
1.6
100
AcDbArc
 50
270.0
 51
359.999982
  0
LINE
  5
4EB
100
AcDbEntity
  8
LAY-9
  6
CONTINUOUS
 62
     1
100
AcDbLine
 10
139.827927
 20
415.262939
 30
0.0
 11
138.227928
 21
415.262939
 31
0.0
  0
LINE
  5
4EC
100
AcDbEntity
  8
LAY-9
  6
CONTINUOUS
 62
     1
100
AcDbLine
 10
166.034798
 20
400.262939
 30
0.0
 11
139.827927
 21
400.262939
 31
0.0
  0
ARC
  5
4ED
100
AcDbEntity
  8
LAY-9
  6
CONTINUOUS
 62
     1
100
AcDbCircle
 10
167.827927
 20
291.862946
 30
0.0
 40
1.6
100
AcDbArc
 50
180.00002
 51
270.0
  0
ARC
  5
4EE
100
AcDbEntity
  8
LAY-9
  6
CONTINUOUS
 62
     1
100
AcDbCircle
 10
167.827927
 20
181.86293
 30
0.0
 40
1.6
100
AcDbArc
 50
180.00002
 51
270.0
  0
ARC
  5
4EF
100
AcDbEntity
  8
LAY-9
  6
CONTINUOUS
 62
     1
100
AcDbCircle
 10
167.827927
 20
324.662933
 30
0.0
 40
1.6
100
AcDbArc
 50
89.999981
 51
180.00002
  0
LINE
  5
4F0
100
AcDbEntity
  8
LAY-9
  6
CONTINUOUS
 62
     1
100
AcDbLine
 10
166.227928
 20
324.662933
 30
0.0
 11
166.227928
 21
291.862946
 31
0.0
  0
ARC
  5
4F1
100
AcDbEntity
  8
LAY-9
  6
CONTINUOUS
 62
     1
100
AcDbCircle
 10
167.827927
 20
214.662918
 30
0.0
 40
1.6
100
AcDbArc
 50
89.999981
 51
180.00002
  0
LINE
  5
4F2
100
AcDbEntity
  8
LAY-9
  6
CONTINUOUS
 62
     1
100
AcDbLine
 10
166.227928
 20
214.662918
 30
0.0
 11
166.227928
 21
181.86293
 31
0.0
  0
LINE
  5
4F3
100
AcDbEntity
  8
LAY-9
  6
CONTINUOUS
 62
     1
100
AcDbLine
 10
178.227921
 20
461.262939
 30
0.0
 11
178.227921
 21
442.862946
 31
0.0
  0
LINE
  5
4F4
100
AcDbEntity
  8
LAY-9
  6
CONTINUOUS
 62
     1
100
AcDbLine
 10
163.227928
 20
442.862946
 30
0.0
 11
176.627914
 21
442.862946
 31
0.0
  0
LINE
  5
4F5
100
AcDbEntity
  8
LAY-9
  6
CONTINUOUS
 62
     1
100
AcDbLine
 10
176.627914
 20
461.262939
 30
0.0
 11
176.627914
 21
442.862946
 31
0.0
  0
ARC
  5
4F6
100
AcDbEntity
  8
LAY-9
  6
CONTINUOUS
 62
     1
100
AcDbCircle
 10
163.227928
 20
441.262939
 30
0.0
 40
1.6
100
AcDbArc
 50
89.999981
 51
180.00002
  0
ARC
  5
4F7
100
AcDbEntity
  8
LAY-9
  6
CONTINUOUS
 62
     1
100
AcDbCircle
 10
176.627914
 20
442.862946
 30
0.0
 40
1.6
100
AcDbArc
 50
270.0
 51
359.999982
  0
LINE
  5
4F8
100
AcDbEntity
  8
LAY-9
  6
CONTINUOUS
 62
     1
100
AcDbLine
 10
163.227928
 20
441.262939
 30
0.0
 11
163.227928
 21
401.862946
 31
0.0
  0
LINE
  5
4F9
100
AcDbEntity
  8
LAY-9
  6
CONTINUOUS
 62
     1
100
AcDbLine
 10
161.62793
 20
401.862946
 30
0.0
 11
161.62793
 21
441.262939
 31
0.0
  0
ARC
  5
4FA
100
AcDbEntity
  8
LAY-9
  6
CONTINUOUS
 62
     1
100
AcDbCircle
 10
635.529022
 20
438.54895
 30
0.0
 40
1.6
100
AcDbArc
 50
89.999981
 51
180.00002
  0
ARC
  5
4FB
100
AcDbEntity
  8
LAY-9
  6
CONTINUOUS
 62
     1
100
AcDbCircle
 10
635.529022
 20
416.748962
 30
0.0
 40
1.6
100
AcDbArc
 50
180.00002
 51
270.0
  0
LINE
  5
4FC
100
AcDbEntity
  8
LAY-9
  6
CONTINUOUS
 62
     1
100
AcDbLine
 10
640.82901
 20
395.54895
 30
0.0
 11
640.82901
 21
403.148987
 31
0.0
  0
ARC
  5
4FD
100
AcDbEntity
  8
LAY-9
  6
CONTINUOUS
 62
     1
100
AcDbCircle
 10
635.529022
 20
204.548965
 30
0.0
 40
1.6
100
AcDbArc
 50
89.999981
 51
180.00002
  0
LINE
  5
4FE
100
AcDbEntity
  8
LAY-9
  6
CONTINUOUS
 62
     1
100
AcDbLine
 10
635.529022
 20
421.648987
 30
0.0
 11
635.529022
 21
416.748962
 31
0.0
  0
LINE
  5
4FF
100
AcDbEntity
  8
LAY-9
  6
CONTINUOUS
 62
     1
100
AcDbLine
 10
635.529022
 20
428.148987
 30
0.0
 11
635.529022
 21
438.54895
 31
0.0
  0
LINE
  5
500
100
AcDbEntity
  8
LAY-9
  6
CONTINUOUS
 62
     1
100
AcDbLine
 10
633.929016
 20
428.148987
 30
0.0
 11
633.929016
 21
438.54895
 31
0.0
  0
LINE
  5
501
100
AcDbEntity
  8
LAY-9
  6
CONTINUOUS
 62
     1
100
AcDbLine
 10
638.529022
 20
215.148972
 30
0.0
 11
638.529022
 21
212.148972
 31
0.0
  0
LINE
  5
502
100
AcDbEntity
  8
LAY-9
  6
CONTINUOUS
 62
     1
100
AcDbLine
 10
636.929016
 20
215.148972
 30
0.0
 11
636.929016
 21
212.148972
 31
0.0
  0
ARC
  5
503
100
AcDbEntity
  8
LAY-9
  6
CONTINUOUS
 62
     1
100
AcDbCircle
 10
640.82901
 20
227.348969
 30
0.0
 40
2.3
100
AcDbArc
 50
89.999981
 51
180.00002
  0
LINE
  5
504
100
AcDbEntity
  8
LAY-9
  6
CONTINUOUS
 62
     1
100
AcDbLine
 10
640.82901
 20
224.148972
 30
0.0
 11
640.82901
 21
227.348969
 31
0.0
  0
LINE
  5
505
100
AcDbEntity
  8
LAY-9
  6
CONTINUOUS
 62
     1
100
AcDbLine
 10
640.82901
 20
395.54895
 30
0.0
 11
638.529022
 21
395.54895
 31
0.0
  0
LINE
  5
506
100
AcDbEntity
  8
LAY-9
  6
CONTINUOUS
 62
     1
100
AcDbLine
 10
635.529022
 20
199.648972
 30
0.0
 11
635.529022
 21
204.548965
 31
0.0
  0
ARC
  5
507
100
AcDbEntity
  8
LAY-9
  6
CONTINUOUS
 62
     1
100
AcDbCircle
 10
635.529022
 20
182.748978
 30
0.0
 40
1.6
100
AcDbArc
 50
180.00002
 51
270.0
  0
LINE
  5
508
100
AcDbEntity
  8
LAY-9
  6
CONTINUOUS
 62
     1
100
AcDbLine
 10
635.529022
 20
190.648972
 30
0.0
 11
635.529022
 21
182.748978
 31
0.0
  0
LINE
  5
509
100
AcDbEntity
  8
LAY-9
  6
CONTINUOUS
 62
     1
100
AcDbLine
 10
633.929016
 20
190.648972
 30
0.0
 11
633.929016
 21
182.748978
 31
0.0
  0
LINE
  5
50A
100
AcDbEntity
  8
LAY-9
  6
CONTINUOUS
 62
     1
100
AcDbLine
 10
648.929016
 20
438.54895
 30
0.0
 11
648.929016
 21
440.148987
 31
0.0
  0
LINE
  5
50B
100
AcDbEntity
  8
LAY-9
  6
CONTINUOUS
 62
     1
100
AcDbLine
 10
635.529022
 20
440.148987
 30
0.0
 11
648.929016
 21
440.148987
 31
0.0
  0
LINE
  5
50C
100
AcDbEntity
  8
LAY-9
  6
CONTINUOUS
 62
     1
100
AcDbLine
 10
635.529022
 20
438.54895
 30
0.0
 11
648.929016
 21
438.54895
 31
0.0
  0
LINE
  5
50D
100
AcDbEntity
  8
LAY-9
  6
CONTINUOUS
 62
     1
100
AcDbLine
 10
648.929016
 20
182.748978
 30
0.0
 11
648.929016
 21
181.148972
 31
0.0
  0
LINE
  5
50E
100
AcDbEntity
  8
LAY-9
  6
CONTINUOUS
 62
     1
100
AcDbLine
 10
635.529022
 20
181.148972
 30
0.0
 11
648.929016
 21
181.148972
 31
0.0
  0
LINE
  5
50F
100
AcDbEntity
  8
LAY-9
  6
CONTINUOUS
 62
     1
100
AcDbLine
 10
635.529022
 20
182.748978
 30
0.0
 11
648.929016
 21
182.748978
 31
0.0
  0
LINE
  5
510
100
AcDbEntity
  8
LAY-9
  6
CONTINUOUS
 62
     1
100
AcDbLine
 10
638.529022
 20
317.148987
 30
0.0
 11
638.529022
 21
403.148987
 31
0.0
  0
LINE
  5
511
100
AcDbEntity
  8
LAY-9
  6
CONTINUOUS
 62
     1
100
AcDbLine
 10
638.529022
 20
307.148987
 30
0.0
 11
638.529022
 21
224.148972
 31
0.0
  0
LINE
  5
512
100
AcDbEntity
  8
LAY-9
  6
CONTINUOUS
 62
     1
100
AcDbLine
 10
636.929016
 20
317.148987
 30
0.0
 11
636.929016
 21
399.148987
 31
0.0
  0
LINE
  5
513
100
AcDbEntity
  8
LAY-9
  6
CONTINUOUS
 62
     1
100
AcDbLine
 10
636.929016
 20
307.148987
 30
0.0
 11
636.929016
 21
228.148972
 31
0.0
  0
LINE
  5
514
100
AcDbEntity
  8
LAY-9
  6
CONTINUOUS
 62
     1
100
AcDbLine
 10
674.929016
 20
317.148987
 30
0.0
 11
674.929016
 21
415.148987
 31
0.0
  0
LINE
  5
515
100
AcDbEntity
  8
LAY-9
  6
CONTINUOUS
 62
     1
100
AcDbLine
 10
676.529022
 20
415.148987
 30
0.0
 11
676.529022
 21
401.748962
 31
0.0
  0
ARC
  5
516
100
AcDbEntity
  8
LAY-9
  6
CONTINUOUS
 62
     1
100
AcDbCircle
 10
674.929016
 20
415.148987
 30
0.0
 40
1.6
100
AcDbArc
 50
0.0
 51
89.999981
  0
ARC
  5
517
100
AcDbEntity
  8
LAY-9
  6
CONTINUOUS
 62
     1
100
AcDbCircle
 10
676.529022
 20
401.748962
 30
0.0
 40
1.6
100
AcDbArc
 50
180.00002
 51
270.0
  0
ARC
  5
518
100
AcDbEntity
  8
LAY-9
  6
CONTINUOUS
 62
     1
100
AcDbCircle
 10
671.32901
 20
410.54895
 30
0.0
 40
1.6
100
AcDbArc
 50
0.0
 51
89.999981
  0
LINE
  5
519
100
AcDbEntity
  8
LAY-9
  6
CONTINUOUS
 62
     1
100
AcDbLine
 10
669.029022
 20
395.54895
 30
0.0
 11
669.029022
 21
408.248962
 31
0.0
  0
ARC
  5
51A
100
AcDbEntity
  8
LAY-9
  6
CONTINUOUS
 62
     1
100
AcDbCircle
 10
669.029022
 20
408.248962
 30
0.0
 40
2.3
100
AcDbArc
 50
0.0
 51
89.999981
  0
LINE
  5
51B
100
AcDbEntity
  8
LAY-9
  6
CONTINUOUS
 62
     1
100
AcDbLine
 10
674.929016
 20
416.748962
 30
0.0
 11
674.929016
 21
421.648987
 31
0.0
  0
LINE
  5
51C
100
AcDbEntity
  8
LAY-9
  6
CONTINUOUS
 62
     1
100
AcDbLine
 10
669.029022
 20
395.54895
 30
0.0
 11
671.32901
 21
395.54895
 31
0.0
  0
LINE
  5
51D
100
AcDbEntity
  8
LAY-9
  6
CONTINUOUS
 62
     1
100
AcDbLine
 10
672.929016
 20
317.148987
 30
0.0
 11
672.929016
 21
410.54895
 31
0.0
  0
LINE
  5
51E
100
AcDbEntity
  8
LAY-9
  6
CONTINUOUS
 62
     1
100
AcDbLine
 10
671.32901
 20
317.148987
 30
0.0
 11
671.32901
 21
410.54895
 31
0.0
  0
LINE
  5
51F
100
AcDbEntity
  8
LAY-9
  6
CONTINUOUS
 62
     1
100
AcDbLine
 10
665.929016
 20
412.148987
 30
0.0
 11
671.32901
 21
412.148987
 31
0.0
  0
LINE
  5
520
100
AcDbEntity
  8
LAY-9
  6
CONTINUOUS
 62
     1
100
AcDbLine
 10
635.529022
 20
415.148987
 30
0.0
 11
674.929016
 21
415.148987
 31
0.0
  0
LINE
  5
521
100
AcDbEntity
  8
LAY-9
  6
CONTINUOUS
 62
     1
100
AcDbLine
 10
635.529022
 20
416.748962
 30
0.0
 11
674.929016
 21
416.748962
 31
0.0
  0
LINE
  5
522
100
AcDbEntity
  8
LAY-9
  6
CONTINUOUS
 62
     1
100
AcDbLine
 10
666.929016
 20
410.54895
 30
0.0
 11
671.32901
 21
410.54895
 31
0.0
  0
LINE
  5
523
100
AcDbEntity
  8
LAY-9
  6
CONTINUOUS
 62
     1
100
AcDbLine
 10
666.929016
 20
408.248962
 30
0.0
 11
669.029022
 21
408.248962
 31
0.0
  0
LINE
  5
524
100
AcDbEntity
  8
LAY-9
  6
CONTINUOUS
 62
     1
100
AcDbLine
 10
635.529022
 20
421.648987
 30
0.0
 11
674.929016
 21
421.648987
 31
0.0
  0
LINE
  5
525
100
AcDbEntity
  8
LAY-9
  6
CONTINUOUS
 62
     1
100
AcDbLine
 10
640.82901
 20
403.148987
 30
0.0
 11
669.029022
 21
403.148987
 31
0.0
  0
LINE
  5
526
100
AcDbEntity
  8
LAY-9
  6
CONTINUOUS
 62
     1
100
AcDbLine
 10
669.029022
 20
399.948975
 30
0.0
 11
640.82901
 21
399.948975
 31
0.0
  0
LINE
  5
527
100
AcDbEntity
  8
LAY-9
  6
CONTINUOUS
 62
     1
100
AcDbLine
 10
635.529022
 20
416.748962
 30
0.0
 11
674.929016
 21
421.648987
 31
0.0
  0
LINE
  5
528
100
AcDbEntity
  8
LAY-9
  6
CONTINUOUS
 62
     1
100
AcDbLine
 10
635.529022
 20
421.648987
 30
0.0
 11
674.929016
 21
416.748962
 31
0.0
  0
LINE
  5
529
100
AcDbEntity
  8
LAY-9
  6
CONTINUOUS
 62
     1
100
AcDbLine
 10
640.82901
 20
403.148987
 30
0.0
 11
669.029022
 21
399.948975
 31
0.0
  0
LINE
  5
52A
100
AcDbEntity
  8
LAY-9
  6
CONTINUOUS
 62
     1
100
AcDbLine
 10
640.82901
 20
399.948975
 30
0.0
 11
669.029022
 21
403.148987
 31
0.0
  0
LINE
  5
52B
100
AcDbEntity
  8
LAY-9
  6
CONTINUOUS
 62
     1
100
AcDbLine
 10
694.929016
 20
400.148987
 30
0.0
 11
676.529022
 21
400.148987
 31
0.0
  0
LINE
  5
52C
100
AcDbEntity
  8
LAY-9
  6
CONTINUOUS
 62
     1
100
AcDbLine
 10
694.929016
 20
401.748962
 30
0.0
 11
676.529022
 21
401.748962
 31
0.0
  0
LINE
  5
52D
100
AcDbEntity
  8
LAY-9
  6
CONTINUOUS
 62
     1
100
AcDbLine
 10
676.529022
 20
219.548965
 30
0.0
 11
676.529022
 21
206.148972
 31
0.0
  0
ARC
  5
52E
100
AcDbEntity
  8
LAY-9
  6
CONTINUOUS
 62
     1
100
AcDbCircle
 10
674.929016
 20
206.148972
 30
0.0
 40
1.6
100
AcDbArc
 50
270.0
 51
359.999982
  0
ARC
  5
52F
100
AcDbEntity
  8
LAY-9
  6
CONTINUOUS
 62
     1
100
AcDbCircle
 10
676.529022
 20
219.548965
 30
0.0
 40
1.6
100
AcDbArc
 50
89.999981
 51
180.00002
  0
ARC
  5
530
100
AcDbEntity
  8
LAY-9
  6
CONTINUOUS
 62
     1
100
AcDbCircle
 10
669.029022
 20
227.348969
 30
0.0
 40
2.3
100
AcDbArc
 50
0.0
 51
89.999981
  0
LINE
  5
531
100
AcDbEntity
  8
LAY-9
  6
CONTINUOUS
 62
     1
100
AcDbLine
 10
674.929016
 20
199.648972
 30
0.0
 11
674.929016
 21
204.548965
 31
0.0
  0
LINE
  5
532
100
AcDbEntity
  8
LAY-9
  6
CONTINUOUS
 62
     1
100
AcDbLine
 10
672.929016
 20
307.148987
 30
0.0
 11
672.929016
 21
212.148972
 31
0.0
  0
LINE
  5
533
100
AcDbEntity
  8
LAY-9
  6
CONTINUOUS
 62
     1
100
AcDbLine
 10
671.32901
 20
307.148987
 30
0.0
 11
671.32901
 21
212.148972
 31
0.0
  0
LINE
  5
534
100
AcDbEntity
  8
LAY-9
  6
CONTINUOUS
 62
     1
100
AcDbLine
 10
635.529022
 20
206.148972
 30
0.0
 11
674.929016
 21
206.148972
 31
0.0
  0
LINE
  5
535
100
AcDbEntity
  8
LAY-9
  6
CONTINUOUS
 62
     1
100
AcDbLine
 10
674.929016
 20
204.548965
 30
0.0
 11
635.529022
 21
204.548965
 31
0.0
  0
LINE
  5
536
100
AcDbEntity
  8
LAY-9
  6
CONTINUOUS
 62
     1
100
AcDbLine
 10
669.029022
 20
229.648972
 30
0.0
 11
640.82901
 21
229.648972
 31
0.0
  0
LINE
  5
537
100
AcDbEntity
  8
LAY-9
  6
CONTINUOUS
 62
     1
100
AcDbLine
 10
669.029022
 20
227.348969
 30
0.0
 11
640.82901
 21
227.348969
 31
0.0
  0
LINE
  5
538
100
AcDbEntity
  8
LAY-9
  6
CONTINUOUS
 62
     1
100
AcDbLine
 10
640.82901
 20
224.148972
 30
0.0
 11
669.029022
 21
224.148972
 31
0.0
  0
LINE
  5
539
100
AcDbEntity
  8
LAY-9
  6
CONTINUOUS
 62
     1
100
AcDbLine
 10
635.529022
 20
199.648972
 30
0.0
 11
674.929016
 21
199.648972
 31
0.0
  0
LINE
  5
53A
100
AcDbEntity
  8
LAY-9
  6
CONTINUOUS
 62
     1
100
AcDbLine
 10
669.029022
 20
227.348969
 30
0.0
 11
640.82901
 21
224.148972
 31
0.0
  0
LINE
  5
53B
100
AcDbEntity
  8
LAY-9
  6
CONTINUOUS
 62
     1
100
AcDbLine
 10
674.929016
 20
204.548965
 30
0.0
 11
635.529022
 21
199.648972
 31
0.0
  0
LINE
  5
53C
100
AcDbEntity
  8
LAY-9
  6
CONTINUOUS
 62
     1
100
AcDbLine
 10
640.82901
 20
227.348969
 30
0.0
 11
669.029022
 21
224.148972
 31
0.0
  0
LINE
  5
53D
100
AcDbEntity
  8
LAY-9
  6
CONTINUOUS
 62
     1
100
AcDbLine
 10
635.529022
 20
204.548965
 30
0.0
 11
674.929016
 21
199.648972
 31
0.0
  0
LINE
  5
53E
100
AcDbEntity
  8
LAY-9
  6
DIVIDE
 62
     1
100
AcDbLine
 10
682.929016
 20
317.148987
 30
0.0
 11
626.929016
 21
317.148987
 31
0.0
  0
LINE
  5
53F
100
AcDbEntity
  8
LAY-9
  6
DIVIDE
 62
     1
100
AcDbLine
 10
682.929016
 20
307.148987
 30
0.0
 11
626.929016
 21
307.148987
 31
0.0
  0
LINE
  5
540
100
AcDbEntity
  8
LAY-9
  6
CONTINUOUS
 62
     1
100
AcDbLine
 10
678.429016
 20
219.548965
 30
0.0
 11
676.529022
 21
219.548965
 31
0.0
  0
LINE
  5
541
100
AcDbEntity
  8
LAY-9
  6
CONTINUOUS
 62
     1
100
AcDbLine
 10
685.932678
 20
219.548965
 30
0.0
 11
694.929016
 21
219.548965
 31
0.0
  0
LINE
  5
542
100
AcDbEntity
  8
LAY-9
  6
CONTINUOUS
 62
     1
100
AcDbLine
 10
678.429016
 20
221.148972
 30
0.0
 11
676.529022
 21
221.148972
 31
0.0
  0
LINE
  5
543
100
AcDbEntity
  8
LAY-9
  6
CONTINUOUS
 62
     1
100
AcDbLine
 10
685.932678
 20
221.148972
 30
0.0
 11
694.929016
 21
221.148972
 31
0.0
  0
LINE
  5
544
100
AcDbEntity
  8
LAY-9
  6
CONTINUOUS
 62
     1
100
AcDbLine
 10
633.929016
 20
412.148987
 30
0.0
 11
633.929016
 21
421.648987
 31
0.0
  0
LINE
  5
545
100
AcDbEntity
  8
LAY-9
  6
CONTINUOUS
 62
     1
100
AcDbLine
 10
633.929016
 20
317.148987
 30
0.0
 11
633.929016
 21
399.148987
 31
0.0
  0
LINE
  5
546
100
AcDbEntity
  8
LAY-9
  6
CONTINUOUS
 62
     1
100
AcDbLine
 10
674.929016
 20
307.148987
 30
0.0
 11
674.929016
 21
206.148972
 31
0.0
  0
LINE
  5
547
100
AcDbEntity
  8
LAY-9
  6
CONTINUOUS
 62
     1
100
AcDbLine
 10
633.929016
 20
228.148972
 30
0.0
 11
633.929016
 21
307.148987
 31
0.0
  0
LINE
  5
548
100
AcDbEntity
  8
LAY-9
  6
CONTINUOUS
 62
     1
100
AcDbLine
 10
633.929016
 20
215.148972
 30
0.0
 11
633.929016
 21
199.648972
 31
0.0
  0
LINE
  5
549
100
AcDbEntity
  8
LAY-9
  6
CONTINUOUS
 62
     1
100
AcDbLine
 10
671.32901
 20
212.148972
 30
0.0
 11
672.929016
 21
212.148972
 31
0.0
  0
LINE
  5
54A
100
AcDbEntity
  8
LAY-9
  6
CONTINUOUS
 62
     1
100
AcDbLine
 10
669.029022
 20
227.348969
 30
0.0
 11
669.029022
 21
214.148972
 31
0.0
  0
LINE
  5
54B
100
AcDbEntity
  8
LAY-9
  6
CONTINUOUS
 62
     1
100
AcDbLine
 10
669.029022
 20
214.148972
 30
0.0
 11
671.32901
 21
214.148972
 31
0.0
  0
LINE
  5
54C
100
AcDbEntity
  8
LAY-9
  6
CONTINUOUS
 62
     1
100
AcDbLine
 10
638.529022
 20
214.148972
 30
0.0
 11
640.82901
 21
214.148972
 31
0.0
  0
LINE
  5
54D
100
AcDbEntity
  8
LAY-9
  6
CONTINUOUS
 62
     1
100
AcDbLine
 10
640.82901
 20
215.148972
 30
0.0
 11
640.82901
 21
214.148972
 31
0.0
  0
LINE
  5
54E
100
AcDbEntity
  8
LAY-9
  6
CONTINUOUS
 62
     1
100
AcDbLine
 10
638.529022
 20
212.148972
 30
0.0
 11
636.929016
 21
212.148972
 31
0.0
  0
LINE
  5
54F
100
AcDbEntity
  8
LAY-9
  6
CONTINUOUS
 62
     1
100
AcDbLine
 10
602.929016
 20
203.648972
 30
0.0
 11
534.2
 21
203.648972
 31
0.0
  0
ARC
  5
550
100
AcDbEntity
  8
LAY-9
  6
CONTINUOUS
 62
     1
100
AcDbCircle
 10
532.6526
 20
189.812243
 30
0.0
 40
4.864898
100
AcDbArc
 50
288.546521
 51
71.453479
  0
ARC
  5
551
100
AcDbEntity
  8
LAY-9
  6
CONTINUOUS
 62
     1
100
AcDbCircle
 10
535.7474
 20
199.036729
 30
0.0
 40
4.864898
100
AcDbArc
 50
108.546521
 51
251.453479
  0
LINE
  5
552
100
AcDbEntity
  8
LAY-9
  6
CONTINUOUS
 62
     1
100
AcDbLine
 10
201.34288
 20
400.262939
 30
0.0
 11
283.3
 21
400.262939
 31
0.0
  0
LINE
  5
553
100
AcDbEntity
  8
LAY-9
  6
CONTINUOUS
 62
     1
100
AcDbLine
 10
163.227928
 20
441.262939
 30
0.0
 11
176.627914
 21
441.262939
 31
0.0
  0
POLYLINE
  5
554
100
AcDbEntity
  8
LAY-9
  6
CONTINUOUS
 62
     1
100
AcDb2dPolyline
 66
     1
 10
0.0
 20
0.0
 30
0.0
 70
   128
  0
VERTEX
  5
555
100
AcDbEntity
  8
LAY-9
  6
CONTINUOUS
 62
     1
100
AcDbVertex
100
AcDb2dVertex
 10
283.3
 20
436.262939
 30
0.0
  0
VERTEX
  5
556
100
AcDbEntity
  8
LAY-9
  6
CONTINUOUS
 62
     1
100
AcDbVertex
100
AcDb2dVertex
 10
283.34043
 20
436.168282
 30
0.0
  0
VERTEX
  5
557
100
AcDbEntity
  8
LAY-9
  6
CONTINUOUS
 62
     1
100
AcDbVertex
100
AcDb2dVertex
 10
283.453481
 20
435.898373
 30
0.0
  0
VERTEX
  5
558
100
AcDbEntity
  8
LAY-9
  6
CONTINUOUS
 62
     1
100
AcDbVertex
100
AcDb2dVertex
 10
283.626797
 20
435.474302
 30
0.0
  0
VERTEX
  5
559
100
AcDbEntity
  8
LAY-9
  6
CONTINUOUS
 62
     1
100
AcDbVertex
100
AcDb2dVertex
 10
283.848021
 20
434.917162
 30
0.0
  0
VERTEX
  5
55A
100
AcDbEntity
  8
LAY-9
  6
CONTINUOUS
 62
     1
100
AcDbVertex
100
AcDb2dVertex
 10
284.104795
 20
434.248045
 30
0.0
  0
VERTEX
  5
55B
100
AcDbEntity
  8
LAY-9
  6
CONTINUOUS
 62
     1
100
AcDbVertex
100
AcDb2dVertex
 10
284.384762
 20
433.488041
 30
0.0
  0
VERTEX
  5
55C
100
AcDbEntity
  8
LAY-9
  6
CONTINUOUS
 62
     1
100
AcDbVertex
100
AcDb2dVertex
 10
284.675566
 20
432.658243
 30
0.0
  0
VERTEX
  5
55D
100
AcDbEntity
  8
LAY-9
  6
CONTINUOUS
 62
     1
100
AcDbVertex
100
AcDb2dVertex
 10
284.964848
 20
431.779742
 30
0.0
  0
VERTEX
  5
55E
100
AcDbEntity
  8
LAY-9
  6
CONTINUOUS
 62
     1
100
AcDbVertex
100
AcDb2dVertex
 10
285.240253
 20
430.87363
 30
0.0
  0
VERTEX
  5
55F
100
AcDbEntity
  8
LAY-9
  6
CONTINUOUS
 62
     1
100
AcDbVertex
100
AcDb2dVertex
 10
285.489422
 20
429.960998
 30
0.0
  0
VERTEX
  5
560
100
AcDbEntity
  8
LAY-9
  6
CONTINUOUS
 62
     1
100
AcDbVertex
100
AcDb2dVertex
 10
285.7
 20
429.062939
 30
0.0
  0
VERTEX
  5
561
100
AcDbEntity
  8
LAY-9
  6
CONTINUOUS
 62
     1
100
AcDbVertex
100
AcDb2dVertex
 10
285.925854
 20
427.76991
 30
0.0
  0
VERTEX
  5
562
100
AcDbEntity
  8
LAY-9
  6
CONTINUOUS
 62
     1
100
AcDbVertex
100
AcDb2dVertex
 10
286.045375
 20
426.55097
 30
0.0
  0
VERTEX
  5
563
100
AcDbEntity
  8
LAY-9
  6
CONTINUOUS
 62
     1
100
AcDbVertex
100
AcDb2dVertex
 10
286.06804
 20
425.399138
 30
0.0
  0
VERTEX
  5
564
100
AcDbEntity
  8
LAY-9
  6
CONTINUOUS
 62
     1
100
AcDbVertex
100
AcDb2dVertex
 10
286.003329
 20
424.307437
 30
0.0
  0
VERTEX
  5
565
100
AcDbEntity
  8
LAY-9
  6
CONTINUOUS
 62
     1
100
AcDbVertex
100
AcDb2dVertex
 10
285.86072
 20
423.268887
 30
0.0
  0
VERTEX
  5
566
100
AcDbEntity
  8
LAY-9
  6
CONTINUOUS
 62
     1
100
AcDbVertex
100
AcDb2dVertex
 10
285.649691
 20
422.276509
 30
0.0
  0
VERTEX
  5
567
100
AcDbEntity
  8
LAY-9
  6
CONTINUOUS
 62
     1
100
AcDbVertex
100
AcDb2dVertex
 10
285.379721
 20
421.323324
 30
0.0
  0
VERTEX
  5
568
100
AcDbEntity
  8
LAY-9
  6
CONTINUOUS
 62
     1
100
AcDbVertex
100
AcDb2dVertex
 10
285.060288
 20
420.402353
 30
0.0
  0
VERTEX
  5
569
100
AcDbEntity
  8
LAY-9
  6
CONTINUOUS
 62
     1
100
AcDbVertex
100
AcDb2dVertex
 10
284.700872
 20
419.506618
 30
0.0
  0
VERTEX
  5
56A
100
AcDbEntity
  8
LAY-9
  6
CONTINUOUS
 62
     1
100
AcDbVertex
100
AcDb2dVertex
 10
284.310949
 20
418.62914
 30
0.0
  0
VERTEX
  5
56B
100
AcDbEntity
  8
LAY-9
  6
CONTINUOUS
 62
     1
100
AcDbVertex
100
AcDb2dVertex
 10
283.9
 20
417.762939
 30
0.0
  0
VERTEX
  5
56C
100
AcDbEntity
  8
LAY-9
  6
CONTINUOUS
 62
     1
100
AcDbVertex
100
AcDb2dVertex
 10
283.571294
 20
417.089916
 30
0.0
  0
VERTEX
  5
56D
100
AcDbEntity
  8
LAY-9
  6
CONTINUOUS
 62
     1
100
AcDbVertex
100
AcDb2dVertex
 10
283.242841
 20
416.413417
 30
0.0
  0
VERTEX
  5
56E
100
AcDbEntity
  8
LAY-9
  6
CONTINUOUS
 62
     1
100
AcDbVertex
100
AcDb2dVertex
 10
282.921924
 20
415.727346
 30
0.0
  0
VERTEX
  5
56F
100
AcDbEntity
  8
LAY-9
  6
CONTINUOUS
 62
     1
100
AcDbVertex
100
AcDb2dVertex
 10
282.615828
 20
415.025611
 30
0.0
  0
VERTEX
  5
570
100
AcDbEntity
  8
LAY-9
  6
CONTINUOUS
 62
     1
100
AcDbVertex
100
AcDb2dVertex
 10
282.331837
 20
414.302116
 30
0.0
  0
VERTEX
  5
571
100
AcDbEntity
  8
LAY-9
  6
CONTINUOUS
 62
     1
100
AcDbVertex
100
AcDb2dVertex
 10
282.077234
 20
413.550769
 30
0.0
  0
VERTEX
  5
572
100
AcDbEntity
  8
LAY-9
  6
CONTINUOUS
 62
     1
100
AcDbVertex
100
AcDb2dVertex
 10
281.859305
 20
412.765474
 30
0.0
  0
VERTEX
  5
573
100
AcDbEntity
  8
LAY-9
  6
CONTINUOUS
 62
     1
100
AcDbVertex
100
AcDb2dVertex
 10
281.685333
 20
411.940137
 30
0.0
  0
VERTEX
  5
574
100
AcDbEntity
  8
LAY-9
  6
CONTINUOUS
 62
     1
100
AcDbVertex
100
AcDb2dVertex
 10
281.562602
 20
411.068666
 30
0.0
  0
VERTEX
  5
575
100
AcDbEntity
  8
LAY-9
  6
CONTINUOUS
 62
     1
100
AcDbVertex
100
AcDb2dVertex
 10
281.498396
 20
410.144964
 30
0.0
  0
VERTEX
  5
576
100
AcDbEntity
  8
LAY-9
  6
CONTINUOUS
 62
     1
100
AcDbVertex
100
AcDb2dVertex
 10
281.5
 20
409.162939
 30
0.0
  0
VERTEX
  5
577
100
AcDbEntity
  8
LAY-9
  6
CONTINUOUS
 62
     1
100
AcDbVertex
100
AcDb2dVertex
 10
281.572968
 20
408.104064
 30
0.0
  0
VERTEX
  5
578
100
AcDbEntity
  8
LAY-9
  6
CONTINUOUS
 62
     1
100
AcDbVertex
100
AcDb2dVertex
 10
281.707166
 20
407.00771
 30
0.0
  0
VERTEX
  5
579
100
AcDbEntity
  8
LAY-9
  6
CONTINUOUS
 62
     1
100
AcDbVertex
100
AcDb2dVertex
 10
281.88823
 20
405.903022
 30
0.0
  0
VERTEX
  5
57A
100
AcDbEntity
  8
LAY-9
  6
CONTINUOUS
 62
     1
100
AcDbVertex
100
AcDb2dVertex
 10
282.101794
 20
404.819147
 30
0.0
  0
VERTEX
  5
57B
100
AcDbEntity
  8
LAY-9
  6
CONTINUOUS
 62
     1
100
AcDbVertex
100
AcDb2dVertex
 10
282.333491
 20
403.785228
 30
0.0
  0
VERTEX
  5
57C
100
AcDbEntity
  8
LAY-9
  6
CONTINUOUS
 62
     1
100
AcDbVertex
100
AcDb2dVertex
 10
282.568956
 20
402.830411
 30
0.0
  0
VERTEX
  5
57D
100
AcDbEntity
  8
LAY-9
  6
CONTINUOUS
 62
     1
100
AcDbVertex
100
AcDb2dVertex
 10
282.793823
 20
401.983842
 30
0.0
  0
VERTEX
  5
57E
100
AcDbEntity
  8
LAY-9
  6
CONTINUOUS
 62
     1
100
AcDbVertex
100
AcDb2dVertex
 10
282.993727
 20
401.274664
 30
0.0
  0
VERTEX
  5
57F
100
AcDbEntity
  8
LAY-9
  6
CONTINUOUS
 62
     1
100
AcDbVertex
100
AcDb2dVertex
 10
283.154301
 20
400.732025
 30
0.0
  0
VERTEX
  5
580
100
AcDbEntity
  8
LAY-9
  6
CONTINUOUS
 62
     1
100
AcDbVertex
100
AcDb2dVertex
 10
283.261181
 20
400.385068
 30
0.0
  0
VERTEX
  5
581
100
AcDbEntity
  8
LAY-9
  6
CONTINUOUS
 62
     1
100
AcDbVertex
100
AcDb2dVertex
 10
283.3
 20
400.262939
 30
0.0
  0
SEQEND
  5
582
100
AcDbEntity
  8
LAY-9
  6
CONTINUOUS
 62
     1
  0
LINE
  5
583
100
AcDbEntity
  8
LAY-9
  6
CONTINUOUS
 62
     1
100
AcDbLine
 10
167.827927
 20
326.262939
 30
0.0
 11
283.3
 21
326.262939
 31
0.0
  0
LINE
  5
584
100
AcDbEntity
  8
LAY-9
  6
CONTINUOUS
 62
     1
100
AcDbLine
 10
202.741806
 20
290.262939
 30
0.0
 11
283.3
 21
290.262939
 31
0.0
  0
LINE
  5
585
100
AcDbEntity
  8
LAY-9
  6
CONTINUOUS
 62
     1
100
AcDbLine
 10
167.827927
 20
216.262924
 30
0.0
 11
283.3
 21
216.262924
 31
0.0
  0
LINE
  5
586
100
AcDbEntity
  8
LAY-9
  6
CONTINUOUS
 62
     1
100
AcDbLine
 10
202.741806
 20
180.262924
 30
0.0
 11
283.3
 21
180.262924
 31
0.0
  0
POLYLINE
  5
587
100
AcDbEntity
  8
LAY-9
  6
CONTINUOUS
 62
     1
100
AcDb2dPolyline
 66
     1
 10
0.0
 20
0.0
 30
0.0
 70
   128
  0
VERTEX
  5
588
100
AcDbEntity
  8
LAY-9
  6
CONTINUOUS
 62
     1
100
AcDbVertex
100
AcDb2dVertex
 10
283.3
 20
326.262939
 30
0.0
  0
VERTEX
  5
589
100
AcDbEntity
  8
LAY-9
  6
CONTINUOUS
 62
     1
100
AcDbVertex
100
AcDb2dVertex
 10
283.34043
 20
326.168282
 30
0.0
  0
VERTEX
  5
58A
100
AcDbEntity
  8
LAY-9
  6
CONTINUOUS
 62
     1
100
AcDbVertex
100
AcDb2dVertex
 10
283.453481
 20
325.898373
 30
0.0
  0
VERTEX
  5
58B
100
AcDbEntity
  8
LAY-9
  6
CONTINUOUS
 62
     1
100
AcDbVertex
100
AcDb2dVertex
 10
283.626797
 20
325.474302
 30
0.0
  0
VERTEX
  5
58C
100
AcDbEntity
  8
LAY-9
  6
CONTINUOUS
 62
     1
100
AcDbVertex
100
AcDb2dVertex
 10
283.848021
 20
324.917162
 30
0.0
  0
VERTEX
  5
58D
100
AcDbEntity
  8
LAY-9
  6
CONTINUOUS
 62
     1
100
AcDbVertex
100
AcDb2dVertex
 10
284.104795
 20
324.248045
 30
0.0
  0
VERTEX
  5
58E
100
AcDbEntity
  8
LAY-9
  6
CONTINUOUS
 62
     1
100
AcDbVertex
100
AcDb2dVertex
 10
284.384762
 20
323.488041
 30
0.0
  0
VERTEX
  5
58F
100
AcDbEntity
  8
LAY-9
  6
CONTINUOUS
 62
     1
100
AcDbVertex
100
AcDb2dVertex
 10
284.675566
 20
322.658243
 30
0.0
  0
VERTEX
  5
590
100
AcDbEntity
  8
LAY-9
  6
CONTINUOUS
 62
     1
100
AcDbVertex
100
AcDb2dVertex
 10
284.964848
 20
321.779742
 30
0.0
  0
VERTEX
  5
591
100
AcDbEntity
  8
LAY-9
  6
CONTINUOUS
 62
     1
100
AcDbVertex
100
AcDb2dVertex
 10
285.240253
 20
320.87363
 30
0.0
  0
VERTEX
  5
592
100
AcDbEntity
  8
LAY-9
  6
CONTINUOUS
 62
     1
100
AcDbVertex
100
AcDb2dVertex
 10
285.489422
 20
319.960998
 30
0.0
  0
VERTEX
  5
593
100
AcDbEntity
  8
LAY-9
  6
CONTINUOUS
 62
     1
100
AcDbVertex
100
AcDb2dVertex
 10
285.7
 20
319.062939
 30
0.0
  0
VERTEX
  5
594
100
AcDbEntity
  8
LAY-9
  6
CONTINUOUS
 62
     1
100
AcDbVertex
100
AcDb2dVertex
 10
285.925854
 20
317.76991
 30
0.0
  0
VERTEX
  5
595
100
AcDbEntity
  8
LAY-9
  6
CONTINUOUS
 62
     1
100
AcDbVertex
100
AcDb2dVertex
 10
286.045375
 20
316.55097
 30
0.0
  0
VERTEX
  5
596
100
AcDbEntity
  8
LAY-9
  6
CONTINUOUS
 62
     1
100
AcDbVertex
100
AcDb2dVertex
 10
286.06804
 20
315.399138
 30
0.0
  0
VERTEX
  5
597
100
AcDbEntity
  8
LAY-9
  6
CONTINUOUS
 62
     1
100
AcDbVertex
100
AcDb2dVertex
 10
286.003329
 20
314.307437
 30
0.0
  0
VERTEX
  5
598
100
AcDbEntity
  8
LAY-9
  6
CONTINUOUS
 62
     1
100
AcDbVertex
100
AcDb2dVertex
 10
285.86072
 20
313.268887
 30
0.0
  0
VERTEX
  5
599
100
AcDbEntity
  8
LAY-9
  6
CONTINUOUS
 62
     1
100
AcDbVertex
100
AcDb2dVertex
 10
285.649691
 20
312.276509
 30
0.0
  0
VERTEX
  5
59A
100
AcDbEntity
  8
LAY-9
  6
CONTINUOUS
 62
     1
100
AcDbVertex
100
AcDb2dVertex
 10
285.379721
 20
311.323324
 30
0.0
  0
VERTEX
  5
59B
100
AcDbEntity
  8
LAY-9
  6
CONTINUOUS
 62
     1
100
AcDbVertex
100
AcDb2dVertex
 10
285.060288
 20
310.402353
 30
0.0
  0
VERTEX
  5
59C
100
AcDbEntity
  8
LAY-9
  6
CONTINUOUS
 62
     1
100
AcDbVertex
100
AcDb2dVertex
 10
284.700872
 20
309.506618
 30
0.0
  0
VERTEX
  5
59D
100
AcDbEntity
  8
LAY-9
  6
CONTINUOUS
 62
     1
100
AcDbVertex
100
AcDb2dVertex
 10
284.310949
 20
308.62914
 30
0.0
  0
VERTEX
  5
59E
100
AcDbEntity
  8
LAY-9
  6
CONTINUOUS
 62
     1
100
AcDbVertex
100
AcDb2dVertex
 10
283.9
 20
307.762939
 30
0.0
  0
VERTEX
  5
59F
100
AcDbEntity
  8
LAY-9
  6
CONTINUOUS
 62
     1
100
AcDbVertex
100
AcDb2dVertex
 10
283.571294
 20
307.089916
 30
0.0
  0
VERTEX
  5
5A0
100
AcDbEntity
  8
LAY-9
  6
CONTINUOUS
 62
     1
100
AcDbVertex
100
AcDb2dVertex
 10
283.242841
 20
306.413417
 30
0.0
  0
VERTEX
  5
5A1
100
AcDbEntity
  8
LAY-9
  6
CONTINUOUS
 62
     1
100
AcDbVertex
100
AcDb2dVertex
 10
282.921924
 20
305.727346
 30
0.0
  0
VERTEX
  5
5A2
100
AcDbEntity
  8
LAY-9
  6
CONTINUOUS
 62
     1
100
AcDbVertex
100
AcDb2dVertex
 10
282.615828
 20
305.025611
 30
0.0
  0
VERTEX
  5
5A3
100
AcDbEntity
  8
LAY-9
  6
CONTINUOUS
 62
     1
100
AcDbVertex
100
AcDb2dVertex
 10
282.331837
 20
304.302116
 30
0.0
  0
VERTEX
  5
5A4
100
AcDbEntity
  8
LAY-9
  6
CONTINUOUS
 62
     1
100
AcDbVertex
100
AcDb2dVertex
 10
282.077234
 20
303.550769
 30
0.0
  0
VERTEX
  5
5A5
100
AcDbEntity
  8
LAY-9
  6
CONTINUOUS
 62
     1
100
AcDbVertex
100
AcDb2dVertex
 10
281.859305
 20
302.765474
 30
0.0
  0
VERTEX
  5
5A6
100
AcDbEntity
  8
LAY-9
  6
CONTINUOUS
 62
     1
100
AcDbVertex
100
AcDb2dVertex
 10
281.685333
 20
301.940137
 30
0.0
  0
VERTEX
  5
5A7
100
AcDbEntity
  8
LAY-9
  6
CONTINUOUS
 62
     1
100
AcDbVertex
100
AcDb2dVertex
 10
281.562602
 20
301.068666
 30
0.0
  0
VERTEX
  5
5A8
100
AcDbEntity
  8
LAY-9
  6
CONTINUOUS
 62
     1
100
AcDbVertex
100
AcDb2dVertex
 10
281.498396
 20
300.144964
 30
0.0
  0
VERTEX
  5
5A9
100
AcDbEntity
  8
LAY-9
  6
CONTINUOUS
 62
     1
100
AcDbVertex
100
AcDb2dVertex
 10
281.5
 20
299.162939
 30
0.0
  0
VERTEX
  5
5AA
100
AcDbEntity
  8
LAY-9
  6
CONTINUOUS
 62
     1
100
AcDbVertex
100
AcDb2dVertex
 10
281.572968
 20
298.104064
 30
0.0
  0
VERTEX
  5
5AB
100
AcDbEntity
  8
LAY-9
  6
CONTINUOUS
 62
     1
100
AcDbVertex
100
AcDb2dVertex
 10
281.707166
 20
297.00771
 30
0.0
  0
VERTEX
  5
5AC
100
AcDbEntity
  8
LAY-9
  6
CONTINUOUS
 62
     1
100
AcDbVertex
100
AcDb2dVertex
 10
281.88823
 20
295.903022
 30
0.0
  0
VERTEX
  5
5AD
100
AcDbEntity
  8
LAY-9
  6
CONTINUOUS
 62
     1
100
AcDbVertex
100
AcDb2dVertex
 10
282.101794
 20
294.819147
 30
0.0
  0
VERTEX
  5
5AE
100
AcDbEntity
  8
LAY-9
  6
CONTINUOUS
 62
     1
100
AcDbVertex
100
AcDb2dVertex
 10
282.333491
 20
293.785228
 30
0.0
  0
VERTEX
  5
5AF
100
AcDbEntity
  8
LAY-9
  6
CONTINUOUS
 62
     1
100
AcDbVertex
100
AcDb2dVertex
 10
282.568956
 20
292.830411
 30
0.0
  0
VERTEX
  5
5B0
100
AcDbEntity
  8
LAY-9
  6
CONTINUOUS
 62
     1
100
AcDbVertex
100
AcDb2dVertex
 10
282.793823
 20
291.983842
 30
0.0
  0
VERTEX
  5
5B1
100
AcDbEntity
  8
LAY-9
  6
CONTINUOUS
 62
     1
100
AcDbVertex
100
AcDb2dVertex
 10
282.993727
 20
291.274664
 30
0.0
  0
VERTEX
  5
5B2
100
AcDbEntity
  8
LAY-9
  6
CONTINUOUS
 62
     1
100
AcDbVertex
100
AcDb2dVertex
 10
283.154301
 20
290.732025
 30
0.0
  0
VERTEX
  5
5B3
100
AcDbEntity
  8
LAY-9
  6
CONTINUOUS
 62
     1
100
AcDbVertex
100
AcDb2dVertex
 10
283.261181
 20
290.385068
 30
0.0
  0
VERTEX
  5
5B4
100
AcDbEntity
  8
LAY-9
  6
CONTINUOUS
 62
     1
100
AcDbVertex
100
AcDb2dVertex
 10
283.3
 20
290.262939
 30
0.0
  0
SEQEND
  5
5B5
100
AcDbEntity
  8
LAY-9
  6
CONTINUOUS
 62
     1
  0
POLYLINE
  5
5B6
100
AcDbEntity
  8
LAY-9
  6
CONTINUOUS
 62
     1
100
AcDb2dPolyline
 66
     1
 10
0.0
 20
0.0
 30
0.0
 70
   128
  0
VERTEX
  5
5B7
100
AcDbEntity
  8
LAY-9
  6
CONTINUOUS
 62
     1
100
AcDbVertex
100
AcDb2dVertex
 10
283.3
 20
216.262924
 30
0.0
  0
VERTEX
  5
5B8
100
AcDbEntity
  8
LAY-9
  6
CONTINUOUS
 62
     1
100
AcDbVertex
100
AcDb2dVertex
 10
283.34043
 20
216.168267
 30
0.0
  0
VERTEX
  5
5B9
100
AcDbEntity
  8
LAY-9
  6
CONTINUOUS
 62
     1
100
AcDbVertex
100
AcDb2dVertex
 10
283.453481
 20
215.898358
 30
0.0
  0
VERTEX
  5
5BA
100
AcDbEntity
  8
LAY-9
  6
CONTINUOUS
 62
     1
100
AcDbVertex
100
AcDb2dVertex
 10
283.626797
 20
215.474287
 30
0.0
  0
VERTEX
  5
5BB
100
AcDbEntity
  8
LAY-9
  6
CONTINUOUS
 62
     1
100
AcDbVertex
100
AcDb2dVertex
 10
283.848021
 20
214.917147
 30
0.0
  0
VERTEX
  5
5BC
100
AcDbEntity
  8
LAY-9
  6
CONTINUOUS
 62
     1
100
AcDbVertex
100
AcDb2dVertex
 10
284.104795
 20
214.24803
 30
0.0
  0
VERTEX
  5
5BD
100
AcDbEntity
  8
LAY-9
  6
CONTINUOUS
 62
     1
100
AcDbVertex
100
AcDb2dVertex
 10
284.384762
 20
213.488026
 30
0.0
  0
VERTEX
  5
5BE
100
AcDbEntity
  8
LAY-9
  6
CONTINUOUS
 62
     1
100
AcDbVertex
100
AcDb2dVertex
 10
284.675566
 20
212.658228
 30
0.0
  0
VERTEX
  5
5BF
100
AcDbEntity
  8
LAY-9
  6
CONTINUOUS
 62
     1
100
AcDbVertex
100
AcDb2dVertex
 10
284.964848
 20
211.779727
 30
0.0
  0
VERTEX
  5
5C0
100
AcDbEntity
  8
LAY-9
  6
CONTINUOUS
 62
     1
100
AcDbVertex
100
AcDb2dVertex
 10
285.240253
 20
210.873615
 30
0.0
  0
VERTEX
  5
5C1
100
AcDbEntity
  8
LAY-9
  6
CONTINUOUS
 62
     1
100
AcDbVertex
100
AcDb2dVertex
 10
285.489422
 20
209.960983
 30
0.0
  0
VERTEX
  5
5C2
100
AcDbEntity
  8
LAY-9
  6
CONTINUOUS
 62
     1
100
AcDbVertex
100
AcDb2dVertex
 10
285.7
 20
209.062924
 30
0.0
  0
VERTEX
  5
5C3
100
AcDbEntity
  8
LAY-9
  6
CONTINUOUS
 62
     1
100
AcDbVertex
100
AcDb2dVertex
 10
285.925854
 20
207.769895
 30
0.0
  0
VERTEX
  5
5C4
100
AcDbEntity
  8
LAY-9
  6
CONTINUOUS
 62
     1
100
AcDbVertex
100
AcDb2dVertex
 10
286.045375
 20
206.550955
 30
0.0
  0
VERTEX
  5
5C5
100
AcDbEntity
  8
LAY-9
  6
CONTINUOUS
 62
     1
100
AcDbVertex
100
AcDb2dVertex
 10
286.06804
 20
205.399123
 30
0.0
  0
VERTEX
  5
5C6
100
AcDbEntity
  8
LAY-9
  6
CONTINUOUS
 62
     1
100
AcDbVertex
100
AcDb2dVertex
 10
286.003329
 20
204.307422
 30
0.0
  0
VERTEX
  5
5C7
100
AcDbEntity
  8
LAY-9
  6
CONTINUOUS
 62
     1
100
AcDbVertex
100
AcDb2dVertex
 10
285.86072
 20
203.268872
 30
0.0
  0
VERTEX
  5
5C8
100
AcDbEntity
  8
LAY-9
  6
CONTINUOUS
 62
     1
100
AcDbVertex
100
AcDb2dVertex
 10
285.649691
 20
202.276494
 30
0.0
  0
VERTEX
  5
5C9
100
AcDbEntity
  8
LAY-9
  6
CONTINUOUS
 62
     1
100
AcDbVertex
100
AcDb2dVertex
 10
285.379721
 20
201.323309
 30
0.0
  0
VERTEX
  5
5CA
100
AcDbEntity
  8
LAY-9
  6
CONTINUOUS
 62
     1
100
AcDbVertex
100
AcDb2dVertex
 10
285.060288
 20
200.402338
 30
0.0
  0
VERTEX
  5
5CB
100
AcDbEntity
  8
LAY-9
  6
CONTINUOUS
 62
     1
100
AcDbVertex
100
AcDb2dVertex
 10
284.700872
 20
199.506603
 30
0.0
  0
VERTEX
  5
5CC
100
AcDbEntity
  8
LAY-9
  6
CONTINUOUS
 62
     1
100
AcDbVertex
100
AcDb2dVertex
 10
284.310949
 20
198.629125
 30
0.0
  0
VERTEX
  5
5CD
100
AcDbEntity
  8
LAY-9
  6
CONTINUOUS
 62
     1
100
AcDbVertex
100
AcDb2dVertex
 10
283.9
 20
197.762924
 30
0.0
  0
VERTEX
  5
5CE
100
AcDbEntity
  8
LAY-9
  6
CONTINUOUS
 62
     1
100
AcDbVertex
100
AcDb2dVertex
 10
283.571294
 20
197.089901
 30
0.0
  0
VERTEX
  5
5CF
100
AcDbEntity
  8
LAY-9
  6
CONTINUOUS
 62
     1
100
AcDbVertex
100
AcDb2dVertex
 10
283.242841
 20
196.413402
 30
0.0
  0
VERTEX
  5
5D0
100
AcDbEntity
  8
LAY-9
  6
CONTINUOUS
 62
     1
100
AcDbVertex
100
AcDb2dVertex
 10
282.921924
 20
195.727331
 30
0.0
  0
VERTEX
  5
5D1
100
AcDbEntity
  8
LAY-9
  6
CONTINUOUS
 62
     1
100
AcDbVertex
100
AcDb2dVertex
 10
282.615828
 20
195.025596
 30
0.0
  0
VERTEX
  5
5D2
100
AcDbEntity
  8
LAY-9
  6
CONTINUOUS
 62
     1
100
AcDbVertex
100
AcDb2dVertex
 10
282.331837
 20
194.302101
 30
0.0
  0
VERTEX
  5
5D3
100
AcDbEntity
  8
LAY-9
  6
CONTINUOUS
 62
     1
100
AcDbVertex
100
AcDb2dVertex
 10
282.077234
 20
193.550754
 30
0.0
  0
VERTEX
  5
5D4
100
AcDbEntity
  8
LAY-9
  6
CONTINUOUS
 62
     1
100
AcDbVertex
100
AcDb2dVertex
 10
281.859305
 20
192.765459
 30
0.0
  0
VERTEX
  5
5D5
100
AcDbEntity
  8
LAY-9
  6
CONTINUOUS
 62
     1
100
AcDbVertex
100
AcDb2dVertex
 10
281.685333
 20
191.940122
 30
0.0
  0
VERTEX
  5
5D6
100
AcDbEntity
  8
LAY-9
  6
CONTINUOUS
 62
     1
100
AcDbVertex
100
AcDb2dVertex
 10
281.562602
 20
191.068651
 30
0.0
  0
VERTEX
  5
5D7
100
AcDbEntity
  8
LAY-9
  6
CONTINUOUS
 62
     1
100
AcDbVertex
100
AcDb2dVertex
 10
281.498396
 20
190.144949
 30
0.0
  0
VERTEX
  5
5D8
100
AcDbEntity
  8
LAY-9
  6
CONTINUOUS
 62
     1
100
AcDbVertex
100
AcDb2dVertex
 10
281.5
 20
189.162924
 30
0.0
  0
VERTEX
  5
5D9
100
AcDbEntity
  8
LAY-9
  6
CONTINUOUS
 62
     1
100
AcDbVertex
100
AcDb2dVertex
 10
281.572968
 20
188.104049
 30
0.0
  0
VERTEX
  5
5DA
100
AcDbEntity
  8
LAY-9
  6
CONTINUOUS
 62
     1
100
AcDbVertex
100
AcDb2dVertex
 10
281.707166
 20
187.007695
 30
0.0
  0
VERTEX
  5
5DB
100
AcDbEntity
  8
LAY-9
  6
CONTINUOUS
 62
     1
100
AcDbVertex
100
AcDb2dVertex
 10
281.88823
 20
185.903007
 30
0.0
  0
VERTEX
  5
5DC
100
AcDbEntity
  8
LAY-9
  6
CONTINUOUS
 62
     1
100
AcDbVertex
100
AcDb2dVertex
 10
282.101794
 20
184.819132
 30
0.0
  0
VERTEX
  5
5DD
100
AcDbEntity
  8
LAY-9
  6
CONTINUOUS
 62
     1
100
AcDbVertex
100
AcDb2dVertex
 10
282.333491
 20
183.785213
 30
0.0
  0
VERTEX
  5
5DE
100
AcDbEntity
  8
LAY-9
  6
CONTINUOUS
 62
     1
100
AcDbVertex
100
AcDb2dVertex
 10
282.568956
 20
182.830396
 30
0.0
  0
VERTEX
  5
5DF
100
AcDbEntity
  8
LAY-9
  6
CONTINUOUS
 62
     1
100
AcDbVertex
100
AcDb2dVertex
 10
282.793823
 20
181.983827
 30
0.0
  0
VERTEX
  5
5E0
100
AcDbEntity
  8
LAY-9
  6
CONTINUOUS
 62
     1
100
AcDbVertex
100
AcDb2dVertex
 10
282.993727
 20
181.274649
 30
0.0
  0
VERTEX
  5
5E1
100
AcDbEntity
  8
LAY-9
  6
CONTINUOUS
 62
     1
100
AcDbVertex
100
AcDb2dVertex
 10
283.154301
 20
180.73201
 30
0.0
  0
VERTEX
  5
5E2
100
AcDbEntity
  8
LAY-9
  6
CONTINUOUS
 62
     1
100
AcDbVertex
100
AcDb2dVertex
 10
283.261181
 20
180.385053
 30
0.0
  0
VERTEX
  5
5E3
100
AcDbEntity
  8
LAY-9
  6
CONTINUOUS
 62
     1
100
AcDbVertex
100
AcDb2dVertex
 10
283.3
 20
180.262924
 30
0.0
  0
SEQEND
  5
5E4
100
AcDbEntity
  8
LAY-9
  6
CONTINUOUS
 62
     1
  0
LINE
  5
5E5
100
AcDbEntity
  8
LAY-9
  6
CONTINUOUS
 62
     1
100
AcDbLine
 10
381.62793
 20
441.262939
 30
0.0
 11
368.227966
 21
441.262939
 31
0.0
  0
POLYLINE
  5
5E6
100
AcDbEntity
  8
LAY-9
  6
CONTINUOUS
 62
     1
100
AcDb2dPolyline
 66
     1
 10
0.0
 20
0.0
 30
0.0
 70
   128
  0
VERTEX
  5
5E7
100
AcDbEntity
  8
LAY-9
  6
CONTINUOUS
 62
     1
100
AcDbVertex
100
AcDb2dVertex
 10
455.9
 20
436.262939
 30
0.0
  0
VERTEX
  5
5E8
100
AcDbEntity
  8
LAY-9
  6
CONTINUOUS
 62
     1
100
AcDbVertex
100
AcDb2dVertex
 10
455.94043
 20
436.168282
 30
0.0
  0
VERTEX
  5
5E9
100
AcDbEntity
  8
LAY-9
  6
CONTINUOUS
 62
     1
100
AcDbVertex
100
AcDb2dVertex
 10
456.053481
 20
435.898373
 30
0.0
  0
VERTEX
  5
5EA
100
AcDbEntity
  8
LAY-9
  6
CONTINUOUS
 62
     1
100
AcDbVertex
100
AcDb2dVertex
 10
456.226797
 20
435.474302
 30
0.0
  0
VERTEX
  5
5EB
100
AcDbEntity
  8
LAY-9
  6
CONTINUOUS
 62
     1
100
AcDbVertex
100
AcDb2dVertex
 10
456.448021
 20
434.917162
 30
0.0
  0
VERTEX
  5
5EC
100
AcDbEntity
  8
LAY-9
  6
CONTINUOUS
 62
     1
100
AcDbVertex
100
AcDb2dVertex
 10
456.704795
 20
434.248045
 30
0.0
  0
VERTEX
  5
5ED
100
AcDbEntity
  8
LAY-9
  6
CONTINUOUS
 62
     1
100
AcDbVertex
100
AcDb2dVertex
 10
456.984762
 20
433.488041
 30
0.0
  0
VERTEX
  5
5EE
100
AcDbEntity
  8
LAY-9
  6
CONTINUOUS
 62
     1
100
AcDbVertex
100
AcDb2dVertex
 10
457.275566
 20
432.658243
 30
0.0
  0
VERTEX
  5
5EF
100
AcDbEntity
  8
LAY-9
  6
CONTINUOUS
 62
     1
100
AcDbVertex
100
AcDb2dVertex
 10
457.564848
 20
431.779742
 30
0.0
  0
VERTEX
  5
5F0
100
AcDbEntity
  8
LAY-9
  6
CONTINUOUS
 62
     1
100
AcDbVertex
100
AcDb2dVertex
 10
457.840253
 20
430.87363
 30
0.0
  0
VERTEX
  5
5F1
100
AcDbEntity
  8
LAY-9
  6
CONTINUOUS
 62
     1
100
AcDbVertex
100
AcDb2dVertex
 10
458.089422
 20
429.960998
 30
0.0
  0
VERTEX
  5
5F2
100
AcDbEntity
  8
LAY-9
  6
CONTINUOUS
 62
     1
100
AcDbVertex
100
AcDb2dVertex
 10
458.3
 20
429.062939
 30
0.0
  0
VERTEX
  5
5F3
100
AcDbEntity
  8
LAY-9
  6
CONTINUOUS
 62
     1
100
AcDbVertex
100
AcDb2dVertex
 10
458.525854
 20
427.76991
 30
0.0
  0
VERTEX
  5
5F4
100
AcDbEntity
  8
LAY-9
  6
CONTINUOUS
 62
     1
100
AcDbVertex
100
AcDb2dVertex
 10
458.645375
 20
426.55097
 30
0.0
  0
VERTEX
  5
5F5
100
AcDbEntity
  8
LAY-9
  6
CONTINUOUS
 62
     1
100
AcDbVertex
100
AcDb2dVertex
 10
458.66804
 20
425.399138
 30
0.0
  0
VERTEX
  5
5F6
100
AcDbEntity
  8
LAY-9
  6
CONTINUOUS
 62
     1
100
AcDbVertex
100
AcDb2dVertex
 10
458.603329
 20
424.307437
 30
0.0
  0
VERTEX
  5
5F7
100
AcDbEntity
  8
LAY-9
  6
CONTINUOUS
 62
     1
100
AcDbVertex
100
AcDb2dVertex
 10
458.46072
 20
423.268887
 30
0.0
  0
VERTEX
  5
5F8
100
AcDbEntity
  8
LAY-9
  6
CONTINUOUS
 62
     1
100
AcDbVertex
100
AcDb2dVertex
 10
458.249691
 20
422.276509
 30
0.0
  0
VERTEX
  5
5F9
100
AcDbEntity
  8
LAY-9
  6
CONTINUOUS
 62
     1
100
AcDbVertex
100
AcDb2dVertex
 10
457.979721
 20
421.323324
 30
0.0
  0
VERTEX
  5
5FA
100
AcDbEntity
  8
LAY-9
  6
CONTINUOUS
 62
     1
100
AcDbVertex
100
AcDb2dVertex
 10
457.660288
 20
420.402353
 30
0.0
  0
VERTEX
  5
5FB
100
AcDbEntity
  8
LAY-9
  6
CONTINUOUS
 62
     1
100
AcDbVertex
100
AcDb2dVertex
 10
457.300872
 20
419.506618
 30
0.0
  0
VERTEX
  5
5FC
100
AcDbEntity
  8
LAY-9
  6
CONTINUOUS
 62
     1
100
AcDbVertex
100
AcDb2dVertex
 10
456.910949
 20
418.62914
 30
0.0
  0
VERTEX
  5
5FD
100
AcDbEntity
  8
LAY-9
  6
CONTINUOUS
 62
     1
100
AcDbVertex
100
AcDb2dVertex
 10
456.5
 20
417.762939
 30
0.0
  0
VERTEX
  5
5FE
100
AcDbEntity
  8
LAY-9
  6
CONTINUOUS
 62
     1
100
AcDbVertex
100
AcDb2dVertex
 10
456.171294
 20
417.089916
 30
0.0
  0
VERTEX
  5
5FF
100
AcDbEntity
  8
LAY-9
  6
CONTINUOUS
 62
     1
100
AcDbVertex
100
AcDb2dVertex
 10
455.842841
 20
416.413417
 30
0.0
  0
VERTEX
  5
600
100
AcDbEntity
  8
LAY-9
  6
CONTINUOUS
 62
     1
100
AcDbVertex
100
AcDb2dVertex
 10
455.521924
 20
415.727346
 30
0.0
  0
VERTEX
  5
601
100
AcDbEntity
  8
LAY-9
  6
CONTINUOUS
 62
     1
100
AcDbVertex
100
AcDb2dVertex
 10
455.215828
 20
415.025611
 30
0.0
  0
VERTEX
  5
602
100
AcDbEntity
  8
LAY-9
  6
CONTINUOUS
 62
     1
100
AcDbVertex
100
AcDb2dVertex
 10
454.931837
 20
414.302116
 30
0.0
  0
VERTEX
  5
603
100
AcDbEntity
  8
LAY-9
  6
CONTINUOUS
 62
     1
100
AcDbVertex
100
AcDb2dVertex
 10
454.677234
 20
413.550769
 30
0.0
  0
VERTEX
  5
604
100
AcDbEntity
  8
LAY-9
  6
CONTINUOUS
 62
     1
100
AcDbVertex
100
AcDb2dVertex
 10
454.459305
 20
412.765474
 30
0.0
  0
VERTEX
  5
605
100
AcDbEntity
  8
LAY-9
  6
CONTINUOUS
 62
     1
100
AcDbVertex
100
AcDb2dVertex
 10
454.285333
 20
411.940137
 30
0.0
  0
VERTEX
  5
606
100
AcDbEntity
  8
LAY-9
  6
CONTINUOUS
 62
     1
100
AcDbVertex
100
AcDb2dVertex
 10
454.162602
 20
411.068666
 30
0.0
  0
VERTEX
  5
607
100
AcDbEntity
  8
LAY-9
  6
CONTINUOUS
 62
     1
100
AcDbVertex
100
AcDb2dVertex
 10
454.098396
 20
410.144964
 30
0.0
  0
VERTEX
  5
608
100
AcDbEntity
  8
LAY-9
  6
CONTINUOUS
 62
     1
100
AcDbVertex
100
AcDb2dVertex
 10
454.1
 20
409.162939
 30
0.0
  0
VERTEX
  5
609
100
AcDbEntity
  8
LAY-9
  6
CONTINUOUS
 62
     1
100
AcDbVertex
100
AcDb2dVertex
 10
454.172968
 20
408.104064
 30
0.0
  0
VERTEX
  5
60A
100
AcDbEntity
  8
LAY-9
  6
CONTINUOUS
 62
     1
100
AcDbVertex
100
AcDb2dVertex
 10
454.307166
 20
407.00771
 30
0.0
  0
VERTEX
  5
60B
100
AcDbEntity
  8
LAY-9
  6
CONTINUOUS
 62
     1
100
AcDbVertex
100
AcDb2dVertex
 10
454.48823
 20
405.903022
 30
0.0
  0
VERTEX
  5
60C
100
AcDbEntity
  8
LAY-9
  6
CONTINUOUS
 62
     1
100
AcDbVertex
100
AcDb2dVertex
 10
454.701794
 20
404.819147
 30
0.0
  0
VERTEX
  5
60D
100
AcDbEntity
  8
LAY-9
  6
CONTINUOUS
 62
     1
100
AcDbVertex
100
AcDb2dVertex
 10
454.933491
 20
403.785228
 30
0.0
  0
VERTEX
  5
60E
100
AcDbEntity
  8
LAY-9
  6
CONTINUOUS
 62
     1
100
AcDbVertex
100
AcDb2dVertex
 10
455.168956
 20
402.830411
 30
0.0
  0
VERTEX
  5
60F
100
AcDbEntity
  8
LAY-9
  6
CONTINUOUS
 62
     1
100
AcDbVertex
100
AcDb2dVertex
 10
455.393823
 20
401.983842
 30
0.0
  0
VERTEX
  5
610
100
AcDbEntity
  8
LAY-9
  6
CONTINUOUS
 62
     1
100
AcDbVertex
100
AcDb2dVertex
 10
455.593727
 20
401.274664
 30
0.0
  0
VERTEX
  5
611
100
AcDbEntity
  8
LAY-9
  6
CONTINUOUS
 62
     1
100
AcDbVertex
100
AcDb2dVertex
 10
455.754301
 20
400.732025
 30
0.0
  0
VERTEX
  5
612
100
AcDbEntity
  8
LAY-9
  6
CONTINUOUS
 62
     1
100
AcDbVertex
100
AcDb2dVertex
 10
455.861181
 20
400.385068
 30
0.0
  0
VERTEX
  5
613
100
AcDbEntity
  8
LAY-9
  6
CONTINUOUS
 62
     1
100
AcDbVertex
100
AcDb2dVertex
 10
455.9
 20
400.262939
 30
0.0
  0
SEQEND
  5
614
100
AcDbEntity
  8
LAY-9
  6
CONTINUOUS
 62
     1
  0
LINE
  5
615
100
AcDbEntity
  8
LAY-9
  6
CONTINUOUS
 62
     1
100
AcDbLine
 10
406.342896
 20
400.262939
 30
0.0
 11
455.9
 21
400.262939
 31
0.0
  0
LINE
  5
616
100
AcDbEntity
  8
LAY-10
  6
CONTINUOUS
 62
     5
100
AcDbLine
 10
15.0
 20
15.0
 30
0.0
 11
826.0
 21
15.0
 31
0.0
  0
LINE
  5
617
100
AcDbEntity
  8
LAY-10
  6
CONTINUOUS
 62
     5
100
AcDbLine
 10
826.0
 20
15.0
 30
0.0
 11
826.0
 21
579.0
 31
0.0
  0
LINE
  5
618
100
AcDbEntity
  8
LAY-10
  6
CONTINUOUS
 62
     5
100
AcDbLine
 10
15.0
 20
15.0
 30
0.0
 11
15.0
 21
579.0
 31
0.0
  0
LINE
  5
619
100
AcDbEntity
  8
LAY-10
  6
CONTINUOUS
 62
     5
100
AcDbLine
 10
15.0
 20
579.0
 30
0.0
 11
826.0
 21
579.0
 31
0.0
  0
LINE
  5
61A
100
AcDbEntity
  8
LAY-10
  6
CONTINUOUS
 62
     5
100
AcDbLine
 10
15.0
 20
40.0
 30
0.0
 11
826.0
 21
40.0
 31
0.0
  0
LINE
  5
61B
100
AcDbEntity
  8
LAY-10
  6
CONTINUOUS
 62
     1
100
AcDbLine
 10
224.0
 20
40.0
 30
0.0
 11
224.0
 21
15.0
 31
0.0
  0
LINE
  5
61C
100
AcDbEntity
  8
LAY-10
  6
CONTINUOUS
 62
     1
100
AcDbLine
 10
249.5
 20
40.0
 30
0.0
 11
249.5
 21
15.0
 31
0.0
  0
LINE
  5
61D
100
AcDbEntity
  8
LAY-10
  6
CONTINUOUS
 62
     1
100
AcDbLine
 10
275.0
 20
40.0
 30
0.0
 11
275.0
 21
15.0
 31
0.0
  0
LINE
  5
61E
100
AcDbEntity
  8
LAY-10
  6
CONTINUOUS
 62
     1
100
AcDbLine
 10
300.5
 20
40.0
 30
0.0
 11
300.5
 21
15.0
 31
0.0
  0
LINE
  5
61F
100
AcDbEntity
  8
LAY-10
  6
CONTINUOUS
 62
     1
100
AcDbLine
 10
326.0
 20
40.0
 30
0.0
 11
326.0
 21
15.0
 31
0.0
  0
LINE
  5
620
100
AcDbEntity
  8
LAY-10
  6
CONTINUOUS
 62
     1
100
AcDbLine
 10
377.0
 20
40.0
 30
0.0
 11
377.0
 21
15.0
 31
0.0
  0
LINE
  5
621
100
AcDbEntity
  8
LAY-10
  6
CONTINUOUS
 62
     1
100
AcDbLine
 10
738.0
 20
40.0
 30
0.0
 11
738.0
 21
15.0
 31
0.0
  0
LINE
  5
622
100
AcDbEntity
  8
LAY-10
  6
CONTINUOUS
 62
     1
100
AcDbLine
 10
224.0
 20
32.0
 30
0.0
 11
377.0
 21
32.0
 31
0.0
  0
TEXT
  5
623
100
AcDbEntity
  8
LAY-10
  6
CONTINUOUS
 62
     4
100
AcDbText
 10
227.5
 20
33.0
 30
0.0
 40
6.0
  1
検　  図
 41
0.57856
  7
EXCADSTD
 72
     5
 11
246.700001
 21
33.0
 31
0.0
100
AcDbText
  0
TEXT
  5
624
100
AcDbEntity
  8
LAY-10
  6
CONTINUOUS
 62
     4
100
AcDbText
 10
253.2
 20
33.0
 30
0.0
 40
6.0
  1
担　　当
 41
0.672
  7
EXCADSTD
 72
     5
 11
272.400001
 21
33.0
 31
0.0
100
AcDbText
  0
TEXT
  5
625
100
AcDbEntity
  8
LAY-10
  6
CONTINUOUS
 62
     4
100
AcDbText
 10
278.4
 20
33.0
 30
0.0
 40
6.0
  1
製　　図
 41
0.672
  7
EXCADSTD
 72
     5
 11
297.600001
 21
33.0
 31
0.0
100
AcDbText
  0
TEXT
  5
626
100
AcDbEntity
  8
LAY-10
  6
CONTINUOUS
 62
     4
100
AcDbText
 10
303.9
 20
33.0
 30
0.0
 40
6.0
  1
尺　　度
 41
0.672
  7
EXCADSTD
 72
     5
 11
323.100001
 21
33.0
 31
0.0
100
AcDbText
  0
TEXT
  5
627
100
AcDbEntity
  8
LAY-10
  6
CONTINUOUS
 62
     4
100
AcDbText
 10
339.5
 20
33.0
 30
0.0
 40
6.0
  1
作成年月日
 41
0.672
  7
EXCADSTD
 72
     5
 11
363.500001
 21
33.0
 31
0.0
100
AcDbText
  0
TEXT
  5
628
100
AcDbEntity
  8
LAY-10
  6
CONTINUOUS
 62
   134
100
AcDbText
 10
42.98
 20
20.91
 30
0.0
 40
13.0
  1
日本ドアーチエック製造株式会社
 41
0.653908
  7
EXCADSTD
 72
     5
 11
194.779994
 21
20.91
 31
0.0
100
AcDbText
  0
LINE
  5
629
100
AcDbEntity
  8
LAY-10
  6
CONTINUOUS
 62
     1
100
AcDbLine
 10
841.0
 20
0.0
 30
0.0
 11
841.0
 21
2.0
 31
0.0
  0
LINE
  5
62A
100
AcDbEntity
  8
LAY-10
  6
CONTINUOUS
 62
     1
100
AcDbLine
 10
841.0
 20
592.0
 30
0.0
 11
841.0
 21
594.0
 31
0.0
  0
LINE
  5
62B
100
AcDbEntity
  8
LAY-10
  6
CONTINUOUS
 62
     1
100
AcDbLine
 10
841.0
 20
594.0
 30
0.0
 11
839.0
 21
594.0
 31
0.0
  0
LINE
  5
62C
100
AcDbEntity
  8
LAY-10
  6
CONTINUOUS
 62
     1
100
AcDbLine
 10
2.0
 20
594.0
 30
0.0
 11
0.0
 21
594.0
 31
0.0
  0
LINE
  5
62D
100
AcDbEntity
  8
LAY-10
  6
CONTINUOUS
 62
     1
100
AcDbLine
 10
0.0
 20
594.0
 30
0.0
 11
0.0
 21
592.0
 31
0.0
  0
LINE
  5
62E
100
AcDbEntity
  8
LAY-10
  6
CONTINUOUS
 62
     1
100
AcDbLine
 10
0.0
 20
2.0
 30
0.0
 11
0.0
 21
0.0
 31
0.0
  0
LINE
  5
62F
100
AcDbEntity
  8
LAY-10
  6
CONTINUOUS
 62
     1
100
AcDbLine
 10
0.0
 20
0.0
 30
0.0
 11
2.0
 21
0.0
 31
0.0
  0
LINE
  5
630
100
AcDbEntity
  8
LAY-10
  6
CONTINUOUS
 62
     1
100
AcDbLine
 10
839.0
 20
0.0
 30
0.0
 11
841.0
 21
0.0
 31
0.0
  0
TEXT
  5
631
100
AcDbEntity
  8
LAY-10
  6
CONTINUOUS
 62
     4
100
AcDbText
 10
383.0
 20
33.0
 30
0.0
 40
6.0
  1
図 面 名
 41
0.57856
  7
EXCADSTD
 72
     5
 11
402.200001
 21
33.0
 31
0.0
100
AcDbText
  0
TEXT
  5
632
100
AcDbEntity
  8
LAY-10
  6
CONTINUOUS
 62
     4
100
AcDbText
 10
744.0
 20
33.0
 30
0.0
 40
6.0
  1
図面番号
 41
0.672
  7
EXCADSTD
 72
     5
 11
763.200001
 21
33.0
 31
0.0
100
AcDbText
  0
TEXT
  5
633
100
AcDbEntity
  8
LAY-10
  6
CONTINUOUS
 62
     2
100
AcDbText
 10
306.5
 20
20.2
 30
0.0
 40
6.0
  1
１／１
 41
0.672
  7
EXCADSTD
 72
     5
 11
320.900001
 21
20.2
 31
0.0
100
AcDbText
  0
TEXT
  5
634
100
AcDbEntity
  8
LAY-10
  6
CONTINUOUS
 62
     2
100
AcDbText
 10
332.6
 20
20.2
 30
0.0
 40
6.0
  1
Ｈ１３.　７.　２
 41
0.622617
  7
EXCADSTD
 72
     5
 11
371.000002
 21
20.2
 31
0.0
100
AcDbText
  0
TEXT
  5
635
100
AcDbEntity
  8
LAY-10
  6
CONTINUOUS
 62
     2
100
AcDbText
 10
406.828367
 20
19.274519
 30
0.0
 40
10.0
  1
ピボットヒンジ　１Ａ－５(沓摺挿入型 )　納まり図
 41
0.654222
  7
EXCADSTD
 72
     5
 11
590.828367
 21
19.274519
 31
0.0
100
AcDbText
  0
ENDSEC
  0
SECTION
  2
OBJECTS
  0
DICTIONARY
  5
19
100
AcDbDictionary
  3
ACAD_GROUP
350
1A
  3
ACAD_MLINESTYLE
350
1B
  0
DICTIONARY
  5
1A
102
{ACAD_REACTORS
330
19
102
}
100
AcDbDictionary
  0
DICTIONARY
  5
1B
102
{ACAD_REACTORS
330
19
102
}
100
AcDbDictionary
  3
STANDARD
350
1C
  0
MLINESTYLE
  5
1C
102
{ACAD_REACTORS
330
1B
102
}
100
AcDbMlineStyle
  2
Standard
 70
     0
  3

 62
     0
 51
90.0
 52
90.0
 71
     2
 49
0.5
 62
   256
  6
ByLayer
 49
-0.5
 62
   256
  6
ByLayer
  0
ENDSEC
  0
EOF
