  0
SECTION
  2
HEADER
  9
$ACADVER
  1
AC1014
  9
$ACADMAINTVER
 70
     0
  9
$DWGCODEPAGE
  3
ANSI_932
  9
$INSBASE
 10
0.0
 20
0.0
 30
0.0
  9
$EXTMIN
 10
0.0
 20
0.0
 30
0.0
  9
$EXTMAX
 10
841.0
 20
594.0
 30
0.0
  9
$LIMMIN
 10
0.0
 20
0.0
  9
$LIMMAX
 10
841.0
 20
594.0
  9
$ORTHOMODE
 70
     0
  9
$REGENMODE
 70
     1
  9
$FILLMODE
 70
     1
  9
$QTEXTMODE
 70
     0
  9
$MIRRTEXT
 70
     1
  9
$DRAGMODE
 70
     2
  9
$LTSCALE
 40
1.0
  9
$OSMODE
 70
     0
  9
$ATTMODE
 70
     1
  9
$TEXTSIZE
 40
0.2
  9
$TRACEWID
 40
0.05
  9
$TEXTSTYLE
  7
STANDARD
  9
$CLAYER
  8
LAY-1
  9
$CELTYPE
  6
CONTINUOUS
  9
$CECOLOR
 62
   256
  9
$CELTSCALE
 40
1.0
  9
$DELOBJ
 70
     1
  9
$DISPSILH
 70
     0
  9
$DIMSCALE
 40
1.0
  9
$DIMASZ
 40
0.18
  9
$DIMEXO
 40
0.0625
  9
$DIMDLI
 40
0.38
  9
$DIMRND
 40
0.0
  9
$DIMDLE
 40
0.0
  9
$DIMEXE
 40
0.18
  9
$DIMTP
 40
0.0
  9
$DIMTM
 40
0.0
  9
$DIMTXT
 40
0.18
  9
$DIMCEN
 40
0.09
  9
$DIMTSZ
 40
0.0
  9
$DIMTOL
 70
     0
  9
$DIMLIM
 70
     0
  9
$DIMTIH
 70
     1
  9
$DIMTOH
 70
     1
  9
$DIMSE1
 70
     0
  9
$DIMSE2
 70
     0
  9
$DIMTAD
 70
     0
  9
$DIMZIN
 70
     0
  9
$DIMBLK
  1

  9
$DIMASO
 70
     1
  9
$DIMSHO
 70
     1
  9
$DIMPOST
  1

  9
$DIMAPOST
  1

  9
$DIMALT
 70
     0
  9
$DIMALTD
 70
     2
  9
$DIMALTF
 40
25.4
  9
$DIMLFAC
 40
1.0
  9
$DIMTOFL
 70
     0
  9
$DIMTVP
 40
0.0
  9
$DIMTIX
 70
     0
  9
$DIMSOXD
 70
     0
  9
$DIMSAH
 70
     0
  9
$DIMBLK1
  1

  9
$DIMBLK2
  1

  9
$DIMSTYLE
  2
STANDARD
  9
$DIMCLRD
 70
     0
  9
$DIMCLRE
 70
     0
  9
$DIMCLRT
 70
     0
  9
$DIMTFAC
 40
1.0
  9
$DIMGAP
 40
0.09
  9
$DIMJUST
 70
     0
  9
$DIMSD1
 70
     0
  9
$DIMSD2
 70
     0
  9
$DIMTOLJ
 70
     1
  9
$DIMTZIN
 70
     0
  9
$DIMALTZ
 70
     0
  9
$DIMALTTZ
 70
     0
  9
$DIMFIT
 70
     3
  9
$DIMUPT
 70
     0
  9
$DIMUNIT
 70
     2
  9
$DIMDEC
 70
     4
  9
$DIMTDEC
 70
     4
  9
$DIMALTU
 70
     2
  9
$DIMALTTD
 70
     2
  9
$DIMTXSTY
  7
STANDARD
  9
$DIMAUNIT
 70
     0
  9
$LUNITS
 70
     2
  9
$LUPREC
 70
     4
  9
$SKETCHINC
 40
0.1
  9
$FILLETRAD
 40
0.0
  9
$AUNITS
 70
     0
  9
$AUPREC
 70
     0
  9
$MENU
  1
acad
  9
$ELEVATION
 40
0.0
  9
$PELEVATION
 40
0.0
  9
$THICKNESS
 40
0.0
  9
$LIMCHECK
 70
     0
  9
$BLIPMODE
 70
     1
  9
$CHAMFERA
 40
0.0
  9
$CHAMFERB
 40
0.0
  9
$CHAMFERC
 40
0.0
  9
$CHAMFERD
 40
0.0
  9
$SKPOLY
 70
     0
  9
$TDCREATE
 40
2454542.101272998
  9
$TDUPDATE
 40
2454542.101272998
  9
$TDINDWG
 40
0.0000000000
  9
$TDUSRTIMER
 40
0.0000000000
  9
$USRTIMER
 70
     1
  9
$ANGBASE
 50
0.0
  9
$ANGDIR
 70
     0
  9
$PDMODE
 70
     0
  9
$PDSIZE
 40
0.0
  9
$PLINEWID
 40
0.0
  9
$COORDS
 70
     1
  9
$SPLFRAME
 70
     0
  9
$SPLINETYPE
 70
     6
  9
$SPLINESEGS
 70
     8
  9
$ATTDIA
 70
     0
  9
$ATTREQ
 70
     1
  9
$HANDLING
 70
     1
  9
$HANDSEED
  5
872
  9
$SURFTAB1
 70
     6
  9
$SURFTAB2
 70
     6
  9
$SURFTYPE
 70
     6
  9
$SURFU
 70
     6
  9
$SURFV
 70
     6
  9
$UCSNAME
  2

  9
$UCSORG
 10
0.0
 20
0.0
 30
0.0
  9
$UCSXDIR
 10
1.0
 20
0.0
 30
0.0
  9
$UCSYDIR
 10
0.0
 20
1.0
 30
0.0
  9
$PUCSNAME
  2

  9
$PUCSORG
 10
0.0
 20
0.0
 30
0.0
  9
$PUCSXDIR
 10
1.0
 20
0.0
 30
0.0
  9
$PUCSYDIR
 10
0.0
 20
1.0
 30
0.0
  9
$USERI1
 70
     0
  9
$USERI2
 70
     0
  9
$USERI3
 70
     0
  9
$USERI4
 70
     0
  9
$USERI5
 70
     0
  9
$USERR1
 40
0.0
  9
$USERR2
 40
0.0
  9
$USERR3
 40
0.0
  9
$USERR4
 40
0.0
  9
$USERR5
 40
0.0
  9
$WORLDVIEW
 70
     1
  9
$SHADEDGE
 70
     3
  9
$SHADEDIF
 70
    70
  9
$TILEMODE
 70
     1
  9
$MAXACTVP
 70
    16
  9
$PINSBASE
 10
0.0
 20
0.0
 30
0.0
  9
$PLIMCHECK
 70
     0
  9
$PEXTMIN
 10
1.000000E+20
 20
1.000000E+20
 30
1.000000E+20
  9
$PEXTMAX
 10
-1.000000E+20
 20
-1.000000E+20
 30
-1.000000E+20
  9
$PLIMMIN
 10
0.0
 20
0.0
  9
$PLIMMAX
 10
12.0
 20
9.0
  9
$UNITMODE
 70
     0
  9
$VISRETAIN
 70
     0
  9
$PLINEGEN
 70
     1
  9
$PSLTSCALE
 70
     0
  9
$TREEDEPTH
 70
  3020
  9
$PICKSTYLE
 70
     1
  9
$CMLSTYLE
  2
Standard
  9
$CMLJUST
 70
     0
  9
$CMLSCALE
 40
1.0
  9
$PROXYGRAPHICS
 70
     0
  9
$MEASUREMENT
 70
     0
  0
ENDSEC
  0
SECTION
  2
CLASSES
  0
CLASS
  1
LWPOLYLINE
  2
AcDbPolyline
  3
"AutoCAD"
 90
        0
280
     0
281
     1
  0
CLASS
  1
IMAGE
  2
AcDbRasterImage
  3
ISM
 90
      127
280
     0
281
     1
  0
CLASS
  1
OLE2FRAME
  2
AcDbOle2Frame
  3
""
 90
        0
280
     0
281
     1
  0
CLASS
  1
HATCH
  2
AcDbHatch
  3
"ACAD_SEDONA"
 90
        0
280
     0
281
     1
  0
CLASS
  1
DICTIONARYVAR
  2
AcDbDictionaryVar
  3
"AutoCAD"
 90
        0
280
     0
281
     0
  0
CLASS
  1
RASTERVARIABLES
  2
AcDbRasterVariables
  3
ISM
 90
        0
280
     0
281
     0
  0
CLASS
  1
IMAGEDEF
  2
AcDbRasterImageDef
  3
ISM
 90
        0
280
     0
281
     0
  0
CLASS
  1
IMAGEDEF_REACTOR
  2
AcDbRasterImageDefReactor
  3
ISM
 90
        1
280
     0
281
     0
  0
CLASS
  1
IDBUFFER
  2
AcDbIdBuffer
  3
"Acad"
 90
        0
280
     0
281
     0
  0
CLASS
  1
SPATIAL_FILTER
  2
AcDbSpatialFilter
  3
"Acad"
 90
        0
280
     0
281
     0
  0
CLASS
  1
XRECORD
  2
AcDbXrecord
  3
"<Built In>"
 90
        0
280
     0
281
     0
  0
CLASS
  1
SORTENTSTABLE
  2
AcDbSortentsTable
  3
"AutoCAD"
 90
        0
280
     0
281
     0
  0
CLASS
  1
LAYER_INDEX
  2
AcDbLayerIndex
  3
"Acad"
 90
        0
280
     0
281
     0
  0
CLASS
  1
SPATIAL_INDEX
  2
AcDbSpatialIndex
  3
"Acad"
 90
        0
280
     0
281
     0
  0
CLASS
  1
OBJECT_PTR
  2
CAseDLPNTableRecord
  3
"ASE-LPNTableRecord"
 90
        1
280
     0
281
     0
  0
CLASS
  1
LAYOUT
  2
AcDbLayout
  3
"AutoCAD 2000"
 90
        0
280
     0
281
     0
  0
CLASS
  1
PLOTSETTINGS
  2
AcDbPlotSettings
  3
"AutoCAD 2000"
 90
        0
280
     0
281
     0
  0
CLASS
  1
ACDBDICTIONARYWDFLT
  2
AcDbDictionaryWithDefault
  3
"AutoCAD 2000"
 90
        0
280
     0
281
     0
  0
CLASS
  1
ACDBPLACEHOLDER
  2
AcDbPlaceHolder
  3
"AutoCAD 2000"
 90
        0
280
     0
281
     0
  0
CLASS
  1
VBA_PROJECT
  2
AcDbVbaProject
  3
"acadvba"
 90
        0
280
     0
281
     0
  0
CLASS
  1
WIPEOUT
  2
AcDbWipeout
  3
WipeOut|AutoCAD Express Tool|expresstools@autodesk.com
 90
      127
280
     0
281
     1
  0
CLASS
  1
WIPEOUTVARIABLES
  2
AcDbWipeoutVariables
  3
WipeOut|AutoCAD Express Tool|expresstools@autodesk.com
 90
        0
280
     0
281
     0
  0
CLASS
  1
RTEXT
  2
RText
  3
RText|AutoCAD Express Tool|expresstools@autodesk.com
 90
        0
280
     0
281
     1
  0
CLASS
  1
ARCALIGNEDTEXT
  2
AcDbArcAlignedText
  3
ATEXT|AutoCAD Express Tool|expresstools@autodesk.com
 90
        0
280
     0
281
     1
  0
ENDSEC
  0
SECTION
  2
TABLES
  0
TABLE
  2
VPORT
  5
7
100
AcDbSymbolTable
 70
     1
  0
VPORT
  5
15
100
AcDbSymbolTableRecord
100
AcDbViewportTableRecord
  2
*ACTIVE
 70
     0
 10
0.0
 20
0.0
 11
1.0
 21
1.0
 12
420.5
 22
297.0
 13
0.0
 23
0.0
 14
1.0
 24
1.0
 15
0.0
 25
0.0
 16
0.0
 26
0.0
 36
1.0
 17
0.0
 27
0.0
 37
0.0
 40
594.0
 41
1.722533
 42
50.0
 43
0.0
 44
0.0
 50
0.0
 51
0.0
 71
     0
 72
   100
 73
     1
 74
     1
 75
     0
 76
     0
 77
     0
 78
     0
  0
ENDTAB
  0
TABLE
  2
LTYPE
  5
4
100
AcDbSymbolTable
 70
     9
  0
LTYPE
  5
11
100
AcDbSymbolTableRecord
100
AcDbLinetypeTableRecord
  2
BYBLOCK
 70
    64
  3

 72
    65
 73
     0
 40
0.0
  0
LTYPE
  5
12
100
AcDbSymbolTableRecord
100
AcDbLinetypeTableRecord
  2
BYLAYER
 70
    64
  3

 72
    65
 73
     0
 40
0.0
  0
LTYPE
  5
13
100
AcDbSymbolTableRecord
100
AcDbLinetypeTableRecord
  2
CONTINUOUS
 70
    64
  3
実線
 72
    65
 73
     0
 40
0.0
  0
LTYPE
  5
1D
100
AcDbSymbolTableRecord
100
AcDbLinetypeTableRecord
  2
DASHED
 70
    64
  3
Dashed __ __ __ __ __ __ __ __ __ __ __ __ __ _
 72
    65
 73
     2
 40
19.05
 49
12.7
 74
     0
 49
-6.35
 74
     0
  0
LTYPE
  5
1E
100
AcDbSymbolTableRecord
100
AcDbLinetypeTableRecord
  2
DASHED2
 70
    64
  3
Dashed (.5x) _ _ _ _ _ _ _ _ _ _ _ _ _ _ _ _ _ 
 72
    65
 73
     2
 40
9.525
 49
6.35
 74
     0
 49
-3.175
 74
     0
  0
LTYPE
  5
1F
100
AcDbSymbolTableRecord
100
AcDbLinetypeTableRecord
  2
DASHDOT
 70
    64
  3
Dash dot __ . __ . __ . __ . __ . __ . __ . __
 72
    65
 73
     4
 40
25.4
 49
12.7
 74
     0
 49
-6.35
 74
     0
 49
0.0
 74
     0
 49
-6.35
 74
     0
  0
LTYPE
  5
20
100
AcDbSymbolTableRecord
100
AcDbLinetypeTableRecord
  2
DIVIDE
 70
    64
  3
Divide ____ . . ____ . . ____ . . ____ . . ____
 72
    65
 73
     6
 40
31.75
 49
12.7
 74
     0
 49
-6.35
 74
     0
 49
0.0
 74
     0
 49
-6.35
 74
     0
 49
0.0
 74
     0
 49
-6.35
 74
     0
  0
LTYPE
  5
21
100
AcDbSymbolTableRecord
100
AcDbLinetypeTableRecord
  2
ACAD_ISO06W100
 70
    64
  3
ISO long-dash triple-dot ____ ... ____ ... ____
 72
    65
 73
     8
 40
36.0
 49
24.0
 74
     0
 49
-3.0
 74
     0
 49
0.0
 74
     0
 49
-3.0
 74
     0
 49
0.0
 74
     0
 49
-3.0
 74
     0
 49
0.0
 74
     0
 49
-3.0
 74
     0
  0
LTYPE
  5
22
100
AcDbSymbolTableRecord
100
AcDbLinetypeTableRecord
  2
ACAD_ISO15W100
 70
    64
  3
ISO double-dash triple-dot __ __ . . . __ __ . .
 72
    65
 73
    10
 40
39.0
 49
12.0
 74
     0
 49
-3.0
 74
     0
 49
12.0
 74
     0
 49
-3.0
 74
     0
 49
0.0
 74
     0
 49
-3.0
 74
     0
 49
0.0
 74
     0
 49
-3.0
 74
     0
 49
0.0
 74
     0
 49
-3.0
 74
     0
  0
ENDTAB
  0
TABLE
  2
LAYER
  5
2
100
AcDbSymbolTable
 70
     9
  0
LAYER
  5
14
100
AcDbSymbolTableRecord
100
AcDbLayerTableRecord
  2
0
 70
     0
 62
     7
  6
CONTINUOUS
  0
LAYER
  5
25
100
AcDbSymbolTableRecord
100
AcDbLayerTableRecord
  2
LAY-1
 70
    64
 62
     3
  6
CONTINUOUS
  0
LAYER
  5
26
100
AcDbSymbolTableRecord
100
AcDbLayerTableRecord
  2
LAY-2
 70
    64
 62
     3
  6
CONTINUOUS
  0
LAYER
  5
27
100
AcDbSymbolTableRecord
100
AcDbLayerTableRecord
  2
LAY-3
 70
    64
 62
     3
  6
CONTINUOUS
  0
LAYER
  5
28
100
AcDbSymbolTableRecord
100
AcDbLayerTableRecord
  2
LAY-4
 70
    64
 62
     3
  6
CONTINUOUS
  0
LAYER
  5
29
100
AcDbSymbolTableRecord
100
AcDbLayerTableRecord
  2
LAY-5
 70
    64
 62
     1
  6
DASHDOT
  0
LAYER
  5
2A
100
AcDbSymbolTableRecord
100
AcDbLayerTableRecord
  2
LAY-6
 70
    64
 62
     2
  6
CONTINUOUS
  0
LAYER
  5
2B
100
AcDbSymbolTableRecord
100
AcDbLayerTableRecord
  2
LAY-9
 70
    64
 62
     1
  6
CONTINUOUS
  0
LAYER
  5
2C
100
AcDbSymbolTableRecord
100
AcDbLayerTableRecord
  2
LAY-10
 70
    64
 62
     5
  6
CONTINUOUS
  0
ENDTAB
  0
TABLE
  2
STYLE
  5
3
100
AcDbSymbolTable
 70
     3
  0
STYLE
  5
17
100
AcDbSymbolTableRecord
100
AcDbTextStyleTableRecord
  2
STANDARD
 70
     0
 40
0.0
 41
1.0
 50
0.0
 71
     0
 42
0.0
  3
monotxt
  4
extfont
  0
STYLE
  5
23
100
AcDbSymbolTableRecord
100
AcDbTextStyleTableRecord
  2
EXCADSTD
 70
    64
 40
0.0
 41
1.0
 50
0.0
 71
     0
 42
0.2
  3
monotxt
  4
extfont
  0
STYLE
  5
24
100
AcDbSymbolTableRecord
100
AcDbTextStyleTableRecord
  2
EXCADVERT
 70
    68
 40
0.0
 41
1.0
 50
0.0
 71
     0
 42
0.286885
  3
monotxt
  4
extfont
  0
ENDTAB
  0
TABLE
  2
VIEW
  5
5
100
AcDbSymbolTable
 70
     0
  0
ENDTAB
  0
TABLE
  2
UCS
  5
6
100
AcDbSymbolTable
 70
     0
  0
ENDTAB
  0
TABLE
  2
APPID
  5
8
100
AcDbSymbolTable
 70
     1
  0
APPID
  5
16
100
AcDbSymbolTableRecord
100
AcDbRegAppTableRecord
  2
ACAD
 70
     0
  0
ENDTAB
  0
TABLE
  2
DIMSTYLE
  5
9
100
AcDbSymbolTable
 70
     1
  0
DIMSTYLE
105
18
100
AcDbSymbolTableRecord
100
AcDbDimStyleTableRecord
  2
STANDARD
 70
     0
  3

  4

  5

  6

  7

 40
1.0
 41
0.18
 42
0.0625
 43
0.38
 44
0.18
 45
0.0
 46
0.0
 47
0.0
 48
0.0
 71
     0
 72
     0
 73
     1
 74
     1
 75
     0
 76
     0
 77
     0
 78
     0
140
0.18
141
0.09
142
0.0
143
25.4
144
1.0
145
0.0
146
1.0
147
0.09
170
     0
171
     2
172
     1
173
     0
174
     0
175
     0
176
     0
177
     0
178
     0
270
     2
271
     4
272
     4
273
     2
274
     2
275
     0
280
     0
281
     0
282
     0
283
     1
284
     0
285
     0
286
     0
287
     3
288
     0
340
17
  0
ENDTAB
  0
TABLE
  2
BLOCK_RECORD
  5
1
100
AcDbSymbolTable
 70
    16
  0
BLOCK_RECORD
  5
A
100
AcDbSymbolTableRecord
100
AcDbBlockTableRecord
  2
*MODEL_SPACE
  0
BLOCK_RECORD
  5
B
100
AcDbSymbolTableRecord
100
AcDbBlockTableRecord
  2
*PAPER_SPACE
  0
BLOCK_RECORD
  5
2D
100
AcDbSymbolTableRecord
100
AcDbBlockTableRecord
  2
_EX_NORM
  0
BLOCK_RECORD
  5
2E
100
AcDbSymbolTableRecord
100
AcDbBlockTableRecord
  2
_EX_BNORM
  0
BLOCK_RECORD
  5
2F
100
AcDbSymbolTableRecord
100
AcDbBlockTableRecord
  2
_EX_BCIR
  0
BLOCK_RECORD
  5
30
100
AcDbSymbolTableRecord
100
AcDbBlockTableRecord
  2
_EX_RCIVIL
  0
BLOCK_RECORD
  5
31
100
AcDbSymbolTableRecord
100
AcDbBlockTableRecord
  2
_EX_SLANT
  0
BLOCK_RECORD
  5
32
100
AcDbSymbolTableRecord
100
AcDbBlockTableRecord
  2
_EX_NONE
  0
BLOCK_RECORD
  5
33
100
AcDbSymbolTableRecord
100
AcDbBlockTableRecord
  2
_EX_CIVIL
  0
BLOCK_RECORD
  5
34
100
AcDbSymbolTableRecord
100
AcDbBlockTableRecord
  2
_EX_WCIR
  0
BLOCK_RECORD
  5
35
100
AcDbSymbolTableRecord
100
AcDbBlockTableRecord
  2
_EX_WCIR2
  0
BLOCK_RECORD
  5
36
100
AcDbSymbolTableRecord
100
AcDbBlockTableRecord
  2
_EX_WNORM
  0
BLOCK_RECORD
  5
37
100
AcDbSymbolTableRecord
100
AcDbBlockTableRecord
  2
_EX_NNORM
  0
BLOCK_RECORD
  5
38
100
AcDbSymbolTableRecord
100
AcDbBlockTableRecord
  2
_EX_BBOX
  0
BLOCK_RECORD
  5
39
100
AcDbSymbolTableRecord
100
AcDbBlockTableRecord
  2
_EX_WBOX
  0
BLOCK_RECORD
  5
3A
100
AcDbSymbolTableRecord
100
AcDbBlockTableRecord
  2
_EX_INTEGRAL
  0
BLOCK_RECORD
  5
3B
100
AcDbSymbolTableRecord
100
AcDbBlockTableRecord
  2
SYM-1
  0
BLOCK_RECORD
  5
3C
100
AcDbSymbolTableRecord
100
AcDbBlockTableRecord
  2
SYM-2
  0
ENDTAB
  0
ENDSEC
  0
SECTION
  2
BLOCKS
  0
BLOCK
  5
D
100
AcDbEntity
  8
0
100
AcDbBlockBegin
  2
*MODEL_SPACE
 70
     0
 10
0.0
 20
0.0
 30
0.0
  3
*MODEL_SPACE
  1

  0
ENDBLK
  5
E
100
AcDbEntity
  8
0
100
AcDbBlockEnd
  0
BLOCK
  5
F
100
AcDbEntity
 67
     1
  8
0
100
AcDbBlockBegin
  2
*PAPER_SPACE
 70
     0
 10
0.0
 20
0.0
 30
0.0
  3
*PAPER_SPACE
  1

  0
ENDBLK
  5
10
100
AcDbEntity
 67
     1
  8
0
100
AcDbBlockEnd
  0
BLOCK
  5
3D
100
AcDbEntity
  8
0
100
AcDbBlockBegin
  2
_EX_NORM
 70
     0
 10
0.0
 20
0.0
 30
0.0
  3
_EX_NORM
  1

  0
LINE
  5
3E
100
AcDbEntity
  8
0
  6
CONTINUOUS
 62
     0
100
AcDbLine
 10
0.0
 20
0.0
 30
0.0
 11
-1.0
 21
0.0
 31
0.0
  0
LINE
  5
3F
100
AcDbEntity
  8
0
  6
CONTINUOUS
 62
     0
100
AcDbLine
 10
0.0
 20
0.0
 30
0.0
 11
-1.0
 21
0.166667
 31
0.0
  0
LINE
  5
40
100
AcDbEntity
  8
0
  6
CONTINUOUS
 62
     0
100
AcDbLine
 10
0.0
 20
0.0
 30
0.0
 11
-1.0
 21
-0.166667
 31
0.0
  0
ENDBLK
  5
41
100
AcDbEntity
  8
0
100
AcDbBlockEnd
  0
BLOCK
  5
42
100
AcDbEntity
  8
0
100
AcDbBlockBegin
  2
_EX_BNORM
 70
     0
 10
0.0
 20
0.0
 30
0.0
  3
_EX_BNORM
  1

  0
LINE
  5
43
100
AcDbEntity
  8
0
  6
CONTINUOUS
 62
     0
100
AcDbLine
 10
0.0
 20
0.0
 30
0.0
 11
-1.0
 21
0.0
 31
0.0
  0
LINE
  5
44
100
AcDbEntity
  8
0
  6
CONTINUOUS
 62
     0
100
AcDbLine
 10
0.0
 20
0.0
 30
0.0
 11
-1.0
 21
0.166667
 31
0.0
  0
LINE
  5
45
100
AcDbEntity
  8
0
  6
CONTINUOUS
 62
     0
100
AcDbLine
 10
0.0
 20
0.0
 30
0.0
 11
-1.0
 21
-0.166667
 31
0.0
  0
LINE
  5
46
100
AcDbEntity
  8
0
  6
CONTINUOUS
 62
     0
100
AcDbLine
 10
0.0
 20
0.0
 30
0.0
 11
-1.0
 21
0.083333
 31
0.0
  0
LINE
  5
47
100
AcDbEntity
  8
0
  6
CONTINUOUS
 62
     0
100
AcDbLine
 10
0.0
 20
0.0
 30
0.0
 11
-1.0
 21
-0.083333
 31
0.0
  0
LINE
  5
48
100
AcDbEntity
  8
0
  6
CONTINUOUS
 62
     0
100
AcDbLine
 10
-1.0
 20
0.166667
 30
0.0
 11
-1.0
 21
-0.166667
 31
0.0
  0
ENDBLK
  5
49
100
AcDbEntity
  8
0
100
AcDbBlockEnd
  0
BLOCK
  5
4A
100
AcDbEntity
  8
0
100
AcDbBlockBegin
  2
_EX_BCIR
 70
     0
 10
0.0
 20
0.0
 30
0.0
  3
_EX_BCIR
  1

  0
LINE
  5
4B
100
AcDbEntity
  8
0
  6
CONTINUOUS
 62
     0
100
AcDbLine
 10
0.0
 20
0.0
 30
0.0
 11
-1.0
 21
0.0
 31
0.0
  0
CIRCLE
  5
4C
100
AcDbEntity
  8
0
  6
CONTINUOUS
 62
     0
100
AcDbCircle
 10
0.0
 20
0.0
 30
0.0
 40
0.5
  0
CIRCLE
  5
4D
100
AcDbEntity
  8
0
  6
CONTINUOUS
 62
     0
100
AcDbCircle
 10
0.0
 20
0.0
 30
0.0
 40
0.25
  0
ENDBLK
  5
4E
100
AcDbEntity
  8
0
100
AcDbBlockEnd
  0
BLOCK
  5
4F
100
AcDbEntity
  8
0
100
AcDbBlockBegin
  2
_EX_RCIVIL
 70
     0
 10
0.0
 20
0.0
 30
0.0
  3
_EX_RCIVIL
  1

  0
LINE
  5
50
100
AcDbEntity
  8
0
  6
CONTINUOUS
 62
     0
100
AcDbLine
 10
0.0
 20
0.0
 30
0.0
 11
-1.0
 21
0.0
 31
0.0
  0
LINE
  5
51
100
AcDbEntity
  8
0
  6
CONTINUOUS
 62
     0
100
AcDbLine
 10
-1.0
 20
-0.25
 30
0.0
 11
0.0
 21
-0.25
 31
0.0
  0
LINE
  5
52
100
AcDbEntity
  8
0
  6
CONTINUOUS
 62
     0
100
AcDbLine
 10
-1.0
 20
-0.125
 30
0.0
 11
0.0
 21
-0.125
 31
0.0
  0
ENDBLK
  5
53
100
AcDbEntity
  8
0
100
AcDbBlockEnd
  0
BLOCK
  5
54
100
AcDbEntity
  8
0
100
AcDbBlockBegin
  2
_EX_SLANT
 70
     0
 10
0.0
 20
0.0
 30
0.0
  3
_EX_SLANT
  1

  0
LINE
  5
55
100
AcDbEntity
  8
0
  6
CONTINUOUS
 62
     0
100
AcDbLine
 10
0.0
 20
0.0
 30
0.0
 11
-1.0
 21
0.0
 31
0.0
  0
LINE
  5
56
100
AcDbEntity
  8
0
  6
CONTINUOUS
 62
     0
100
AcDbLine
 10
0.707107
 20
0.707107
 30
0.0
 11
-0.707107
 21
-0.707107
 31
0.0
  0
ENDBLK
  5
57
100
AcDbEntity
  8
0
100
AcDbBlockEnd
  0
BLOCK
  5
58
100
AcDbEntity
  8
0
100
AcDbBlockBegin
  2
_EX_NONE
 70
     0
 10
0.0
 20
0.0
 30
0.0
  3
_EX_NONE
  1

  0
LINE
  5
59
100
AcDbEntity
  8
0
  6
CONTINUOUS
 62
     0
100
AcDbLine
 10
0.0
 20
0.0
 30
0.0
 11
-1.0
 21
0.0
 31
0.0
  0
ENDBLK
  5
5A
100
AcDbEntity
  8
0
100
AcDbBlockEnd
  0
BLOCK
  5
5B
100
AcDbEntity
  8
0
100
AcDbBlockBegin
  2
_EX_CIVIL
 70
     0
 10
0.0
 20
0.0
 30
0.0
  3
_EX_CIVIL
  1

  0
LINE
  5
5C
100
AcDbEntity
  8
0
  6
CONTINUOUS
 62
     0
100
AcDbLine
 10
0.0
 20
0.0
 30
0.0
 11
-1.0
 21
0.0
 31
0.0
  0
LINE
  5
5D
100
AcDbEntity
  8
0
  6
CONTINUOUS
 62
     0
100
AcDbLine
 10
-1.0
 20
0.25
 30
0.0
 11
0.0
 21
0.25
 31
0.0
  0
LINE
  5
5E
100
AcDbEntity
  8
0
  6
CONTINUOUS
 62
     0
100
AcDbLine
 10
-1.0
 20
0.125
 30
0.0
 11
0.0
 21
0.125
 31
0.0
  0
ENDBLK
  5
5F
100
AcDbEntity
  8
0
100
AcDbBlockEnd
  0
BLOCK
  5
60
100
AcDbEntity
  8
0
100
AcDbBlockBegin
  2
_EX_WCIR
 70
     0
 10
0.0
 20
0.0
 30
0.0
  3
_EX_WCIR
  1

  0
LINE
  5
61
100
AcDbEntity
  8
0
  6
CONTINUOUS
 62
     0
100
AcDbLine
 10
0.0
 20
0.0
 30
0.0
 11
-1.0
 21
0.0
 31
0.0
  0
CIRCLE
  5
62
100
AcDbEntity
  8
0
  6
CONTINUOUS
 62
     0
100
AcDbCircle
 10
0.0
 20
0.0
 30
0.0
 40
0.5
  0
ENDBLK
  5
63
100
AcDbEntity
  8
0
100
AcDbBlockEnd
  0
BLOCK
  5
64
100
AcDbEntity
  8
0
100
AcDbBlockBegin
  2
_EX_WCIR2
 70
     0
 10
0.0
 20
0.0
 30
0.0
  3
_EX_WCIR2
  1

  0
LINE
  5
65
100
AcDbEntity
  8
0
  6
CONTINUOUS
 62
     0
100
AcDbLine
 10
-0.5
 20
0.0
 30
0.0
 11
-1.0
 21
0.0
 31
0.0
  0
CIRCLE
  5
66
100
AcDbEntity
  8
0
  6
CONTINUOUS
 62
     0
100
AcDbCircle
 10
0.0
 20
0.0
 30
0.0
 40
0.5
  0
ENDBLK
  5
67
100
AcDbEntity
  8
0
100
AcDbBlockEnd
  0
BLOCK
  5
68
100
AcDbEntity
  8
0
100
AcDbBlockBegin
  2
_EX_WNORM
 70
     0
 10
0.0
 20
0.0
 30
0.0
  3
_EX_WNORM
  1

  0
LINE
  5
69
100
AcDbEntity
  8
0
  6
CONTINUOUS
 62
     0
100
AcDbLine
 10
-1.0
 20
0.0
 30
0.0
 11
-1.0
 21
0.0
 31
0.0
  0
LINE
  5
6A
100
AcDbEntity
  8
0
  6
CONTINUOUS
 62
     0
100
AcDbLine
 10
0.0
 20
0.0
 30
0.0
 11
-1.0
 21
0.166667
 31
0.0
  0
LINE
  5
6B
100
AcDbEntity
  8
0
  6
CONTINUOUS
 62
     0
100
AcDbLine
 10
0.0
 20
0.0
 30
0.0
 11
-1.0
 21
-0.166667
 31
0.0
  0
LINE
  5
6C
100
AcDbEntity
  8
0
  6
CONTINUOUS
 62
     0
100
AcDbLine
 10
-1.0
 20
0.166667
 30
0.0
 11
-1.0
 21
-0.166667
 31
0.0
  0
ENDBLK
  5
6D
100
AcDbEntity
  8
0
100
AcDbBlockEnd
  0
BLOCK
  5
6E
100
AcDbEntity
  8
0
100
AcDbBlockBegin
  2
_EX_NNORM
 70
     0
 10
0.0
 20
0.0
 30
0.0
  3
_EX_NNORM
  1

  0
LINE
  5
6F
100
AcDbEntity
  8
0
  6
CONTINUOUS
 62
     0
100
AcDbLine
 10
0.0
 20
0.0
 30
0.0
 11
-1.0
 21
0.0
 31
0.0
  0
LINE
  5
70
100
AcDbEntity
  8
0
  6
CONTINUOUS
 62
     0
100
AcDbLine
 10
0.0
 20
0.0
 30
0.0
 11
-1.0
 21
0.166667
 31
0.0
  0
LINE
  5
71
100
AcDbEntity
  8
0
  6
CONTINUOUS
 62
     0
100
AcDbLine
 10
0.0
 20
0.0
 30
0.0
 11
-1.0
 21
-0.166667
 31
0.0
  0
LINE
  5
72
100
AcDbEntity
  8
0
  6
CONTINUOUS
 62
     0
100
AcDbLine
 10
-1.0
 20
0.166667
 30
0.0
 11
-1.0
 21
-0.166667
 31
0.0
  0
ENDBLK
  5
73
100
AcDbEntity
  8
0
100
AcDbBlockEnd
  0
BLOCK
  5
74
100
AcDbEntity
  8
0
100
AcDbBlockBegin
  2
_EX_BBOX
 70
     0
 10
0.0
 20
0.0
 30
0.0
  3
_EX_BBOX
  1

  0
LINE
  5
75
100
AcDbEntity
  8
0
  6
CONTINUOUS
 62
     0
100
AcDbLine
 10
0.0
 20
0.0
 30
0.0
 11
-1.0
 21
0.0
 31
0.0
  0
LINE
  5
76
100
AcDbEntity
  8
0
  6
CONTINUOUS
 62
     0
100
AcDbLine
 10
-0.5
 20
0.5
 30
0.0
 11
0.5
 21
0.5
 31
0.0
  0
LINE
  5
77
100
AcDbEntity
  8
0
  6
CONTINUOUS
 62
     0
100
AcDbLine
 10
0.5
 20
0.5
 30
0.0
 11
0.5
 21
-0.5
 31
0.0
  0
LINE
  5
78
100
AcDbEntity
  8
0
  6
CONTINUOUS
 62
     0
100
AcDbLine
 10
0.5
 20
-0.5
 30
0.0
 11
-0.5
 21
-0.5
 31
0.0
  0
LINE
  5
79
100
AcDbEntity
  8
0
  6
CONTINUOUS
 62
     0
100
AcDbLine
 10
-0.5
 20
-0.5
 30
0.0
 11
-0.5
 21
0.5
 31
0.0
  0
LINE
  5
7A
100
AcDbEntity
  8
0
  6
CONTINUOUS
 62
     0
100
AcDbLine
 10
-0.25
 20
0.25
 30
0.0
 11
0.25
 21
0.25
 31
0.0
  0
LINE
  5
7B
100
AcDbEntity
  8
0
  6
CONTINUOUS
 62
     0
100
AcDbLine
 10
0.25
 20
0.25
 30
0.0
 11
0.25
 21
-0.25
 31
0.0
  0
LINE
  5
7C
100
AcDbEntity
  8
0
  6
CONTINUOUS
 62
     0
100
AcDbLine
 10
0.25
 20
-0.25
 30
0.0
 11
-0.25
 21
-0.25
 31
0.0
  0
LINE
  5
7D
100
AcDbEntity
  8
0
  6
CONTINUOUS
 62
     0
100
AcDbLine
 10
-0.25
 20
-0.25
 30
0.0
 11
-0.25
 21
0.25
 31
0.0
  0
ENDBLK
  5
7E
100
AcDbEntity
  8
0
100
AcDbBlockEnd
  0
BLOCK
  5
7F
100
AcDbEntity
  8
0
100
AcDbBlockBegin
  2
_EX_WBOX
 70
     0
 10
0.0
 20
0.0
 30
0.0
  3
_EX_WBOX
  1

  0
LINE
  5
80
100
AcDbEntity
  8
0
  6
CONTINUOUS
 62
     0
100
AcDbLine
 10
-0.5
 20
0.0
 30
0.0
 11
-1.0
 21
0.0
 31
0.0
  0
LINE
  5
81
100
AcDbEntity
  8
0
  6
CONTINUOUS
 62
     0
100
AcDbLine
 10
-0.5
 20
0.5
 30
0.0
 11
0.5
 21
0.5
 31
0.0
  0
LINE
  5
82
100
AcDbEntity
  8
0
  6
CONTINUOUS
 62
     0
100
AcDbLine
 10
0.5
 20
0.5
 30
0.0
 11
0.5
 21
-0.5
 31
0.0
  0
LINE
  5
83
100
AcDbEntity
  8
0
  6
CONTINUOUS
 62
     0
100
AcDbLine
 10
0.5
 20
-0.5
 30
0.0
 11
-0.5
 21
-0.5
 31
0.0
  0
LINE
  5
84
100
AcDbEntity
  8
0
  6
CONTINUOUS
 62
     0
100
AcDbLine
 10
-0.5
 20
-0.5
 30
0.0
 11
-0.5
 21
0.5
 31
0.0
  0
ENDBLK
  5
85
100
AcDbEntity
  8
0
100
AcDbBlockEnd
  0
BLOCK
  5
86
100
AcDbEntity
  8
0
100
AcDbBlockBegin
  2
_EX_INTEGRAL
 70
     0
 10
0.0
 20
0.0
 30
0.0
  3
_EX_INTEGRAL
  1

  0
LINE
  5
87
100
AcDbEntity
  8
0
  6
CONTINUOUS
 62
     0
100
AcDbLine
 10
0.0
 20
0.0
 30
0.0
 11
-1.0
 21
0.0
 31
0.0
  0
ARC
  5
88
100
AcDbEntity
  8
0
  6
CONTINUOUS
 62
     0
100
AcDbCircle
 10
0.542115
 20
0.164992
 30
0.0
 40
0.56667
100
AcDbArc
 50
73.07249
 51
196.927513
  0
ARC
  5
89
100
AcDbEntity
  8
0
  6
CONTINUOUS
 62
     0
100
AcDbCircle
 10
-0.542115
 20
-0.164992
 30
0.0
 40
0.56667
100
AcDbArc
 50
253.072487
 51
16.927513
  0
ENDBLK
  5
8A
100
AcDbEntity
  8
0
100
AcDbBlockEnd
  0
BLOCK
  5
8B
100
AcDbEntity
  8
0
100
AcDbBlockBegin
  2
SYM-1
 70
     0
 10
0.0
 20
0.0
 30
0.0
  3
SYM-1
  1

  0
ARC
  5
8C
100
AcDbEntity
  8
0
  6
CONTINUOUS
 62
     3
100
AcDbCircle
 10
1.5
 20
1.5
 30
0.0
 40
1.0
100
AcDbArc
 50
180.0
 51
270.0
  0
ARC
  5
8D
100
AcDbEntity
  8
0
  6
CONTINUOUS
 62
     3
100
AcDbCircle
 10
-1.5
 20
-1.5
 30
0.0
 40
1.0
100
AcDbArc
 50
0.0
 51
90.0
  0
ARC
  5
8E
100
AcDbEntity
  8
0
  6
CONTINUOUS
 62
     3
100
AcDbCircle
 10
-1.5
 20
1.5
 30
0.0
 40
1.0
100
AcDbArc
 50
270.0
 51
0.0
  0
ARC
  5
8F
100
AcDbEntity
  8
0
  6
CONTINUOUS
 62
     3
100
AcDbCircle
 10
1.5
 20
-1.5
 30
0.0
 40
1.0
100
AcDbArc
 50
90.0
 51
180.0
  0
ARC
  5
90
100
AcDbEntity
  8
0
  6
CONTINUOUS
 62
     3
100
AcDbCircle
 10
1.5
 20
1.5
 30
0.0
 40
1.0
100
AcDbArc
 50
180.0
 51
270.0
  0
ARC
  5
91
100
AcDbEntity
  8
0
  6
CONTINUOUS
 62
     3
100
AcDbCircle
 10
1.5
 20
-1.5
 30
0.0
 40
1.0
100
AcDbArc
 50
90.0
 51
180.0
  0
CIRCLE
  5
92
100
AcDbEntity
  8
0
  6
CONTINUOUS
 62
     3
100
AcDbCircle
 10
0.0
 20
0.0
 30
0.0
 40
4.0
  0
LINE
  5
93
100
AcDbEntity
  8
0
  6
CONTINUOUS
 62
     3
100
AcDbLine
 10
0.5
 20
1.5
 30
0.0
 11
0.5
 21
2.25
 31
0.0
  0
LINE
  5
94
100
AcDbEntity
  8
0
  6
CONTINUOUS
 62
     3
100
AcDbLine
 10
-0.5
 20
2.25
 30
0.0
 11
0.5
 21
2.25
 31
0.0
  0
LINE
  5
95
100
AcDbEntity
  8
0
  6
CONTINUOUS
 62
     3
100
AcDbLine
 10
-0.5
 20
1.5
 30
0.0
 11
-0.5
 21
2.25
 31
0.0
  0
LINE
  5
96
100
AcDbEntity
  8
0
  6
CONTINUOUS
 62
     3
100
AcDbLine
 10
-0.5
 20
1.5
 30
0.0
 11
-0.5
 21
2.25
 31
0.0
  0
LINE
  5
97
100
AcDbEntity
  8
0
  6
CONTINUOUS
 62
     3
100
AcDbLine
 10
0.5
 20
2.25
 30
0.0
 11
-0.5
 21
2.25
 31
0.0
  0
LINE
  5
98
100
AcDbEntity
  8
0
  6
CONTINUOUS
 62
     3
100
AcDbLine
 10
0.5
 20
1.5
 30
0.0
 11
0.5
 21
2.25
 31
0.0
  0
LINE
  5
99
100
AcDbEntity
  8
0
  6
CONTINUOUS
 62
     3
100
AcDbLine
 10
-2.25
 20
-0.5
 30
0.0
 11
-2.25
 21
0.5
 31
0.0
  0
LINE
  5
9A
100
AcDbEntity
  8
0
  6
CONTINUOUS
 62
     3
100
AcDbLine
 10
0.5
 20
-2.25
 30
0.0
 11
-0.5
 21
-2.25
 31
0.0
  0
LINE
  5
9B
100
AcDbEntity
  8
0
  6
CONTINUOUS
 62
     3
100
AcDbLine
 10
2.25
 20
0.5
 30
0.0
 11
2.25
 21
-0.5
 31
0.0
  0
LINE
  5
9C
100
AcDbEntity
  8
0
  6
CONTINUOUS
 62
     3
100
AcDbLine
 10
-1.5
 20
-0.5
 30
0.0
 11
-2.25
 21
-0.5
 31
0.0
  0
LINE
  5
9D
100
AcDbEntity
  8
0
  6
CONTINUOUS
 62
     3
100
AcDbLine
 10
-1.5
 20
0.5
 30
0.0
 11
-2.25
 21
0.5
 31
0.0
  0
LINE
  5
9E
100
AcDbEntity
  8
0
  6
CONTINUOUS
 62
     3
100
AcDbLine
 10
0.5
 20
-1.5
 30
0.0
 11
0.5
 21
-2.25
 31
0.0
  0
LINE
  5
9F
100
AcDbEntity
  8
0
  6
CONTINUOUS
 62
     3
100
AcDbLine
 10
-0.5
 20
-1.5
 30
0.0
 11
-0.5
 21
-2.25
 31
0.0
  0
LINE
  5
A0
100
AcDbEntity
  8
0
  6
CONTINUOUS
 62
     3
100
AcDbLine
 10
-0.5
 20
-1.5
 30
0.0
 11
-0.5
 21
-2.25
 31
0.0
  0
LINE
  5
A1
100
AcDbEntity
  8
0
  6
CONTINUOUS
 62
     3
100
AcDbLine
 10
0.5
 20
-1.5
 30
0.0
 11
0.5
 21
-2.25
 31
0.0
  0
LINE
  5
A2
100
AcDbEntity
  8
0
  6
CONTINUOUS
 62
     3
100
AcDbLine
 10
1.5
 20
-0.5
 30
0.0
 11
2.25
 21
-0.5
 31
0.0
  0
LINE
  5
A3
100
AcDbEntity
  8
0
  6
CONTINUOUS
 62
     3
100
AcDbLine
 10
1.5
 20
0.5
 30
0.0
 11
2.25
 21
0.5
 31
0.0
  0
LINE
  5
A4
100
AcDbEntity
  8
0
  6
CONTINUOUS
 62
     3
100
AcDbLine
 10
1.5
 20
0.5
 30
0.0
 11
2.25
 21
0.5
 31
0.0
  0
ENDBLK
  5
A5
100
AcDbEntity
  8
0
100
AcDbBlockEnd
  0
BLOCK
  5
A6
100
AcDbEntity
  8
0
100
AcDbBlockBegin
  2
SYM-2
 70
     0
 10
0.0
 20
0.0
 30
0.0
  3
SYM-2
  1

  0
TEXT
  5
A7
100
AcDbEntity
  8
0
  6
CONTINUOUS
 62
     2
100
AcDbText
 10
-2.7
 20
-1.0
 30
0.0
 40
5.0
  1
Ｐ
 41
0.672
  7
EXCADSTD
 72
     5
 11
0.5
 21
-1.0
 31
0.0
100
AcDbText
  0
TEXT
  5
A8
100
AcDbEntity
  8
0
  6
CONTINUOUS
 62
     2
100
AcDbText
 10
-1.8
 20
-0.9
 30
0.0
 40
5.0
  1
Ｌ
 41
0.672
  7
EXCADSTD
 72
     5
 11
1.4
 21
-0.9
 31
0.0
100
AcDbText
  0
ENDBLK
  5
A9
100
AcDbEntity
  8
0
100
AcDbBlockEnd
  0
ENDSEC
  0
SECTION
  2
ENTITIES
  0
LINE
  5
AA
100
AcDbEntity
  8
LAY-1
  6
CONTINUOUS
 62
     3
100
AcDbLine
 10
128.471298
 20
497.570953
 30
0.0
 11
128.471298
 21
495.370941
 31
0.0
  0
LINE
  5
AB
100
AcDbEntity
  8
LAY-1
  6
CONTINUOUS
 62
     3
100
AcDbLine
 10
115.971298
 20
497.570953
 30
0.0
 11
115.971298
 21
495.370941
 31
0.0
  0
LINE
  5
AC
100
AcDbEntity
  8
LAY-1
  6
CONTINUOUS
 62
     3
100
AcDbLine
 10
263.221313
 20
498.370972
 30
0.0
 11
81.221313
 21
498.370972
 31
0.0
  0
LINE
  5
AD
100
AcDbEntity
  8
LAY-1
  6
CONTINUOUS
 62
     3
100
AcDbLine
 10
263.221313
 20
497.570984
 30
0.0
 11
81.221313
 21
497.570984
 31
0.0
  0
LINE
  5
AE
100
AcDbEntity
  8
LAY-1
  6
CONTINUOUS
 62
     3
100
AcDbLine
 10
263.221313
 20
498.370972
 30
0.0
 11
263.221313
 21
497.570984
 31
0.0
  0
LINE
  5
AF
100
AcDbEntity
  8
LAY-1
  6
CONTINUOUS
 62
     3
100
AcDbLine
 10
81.221313
 20
498.370972
 30
0.0
 11
81.221313
 21
497.570984
 31
0.0
  0
LINE
  5
B0
100
AcDbEntity
  8
LAY-1
  6
CONTINUOUS
 62
     3
100
AcDbLine
 10
88.221313
 20
498.370972
 30
0.0
 11
88.221313
 21
504.370972
 31
0.0
  0
LINE
  5
B1
100
AcDbEntity
  8
LAY-1
  6
CONTINUOUS
 62
     3
100
AcDbLine
 10
257.221313
 20
498.370972
 30
0.0
 11
257.221313
 21
504.370972
 31
0.0
  0
LINE
  5
B2
100
AcDbEntity
  8
LAY-1
  6
CONTINUOUS
 62
     3
100
AcDbLine
 10
88.221313
 20
504.370972
 30
0.0
 11
257.221313
 21
504.370972
 31
0.0
  0
CIRCLE
  5
B3
100
AcDbEntity
  8
LAY-1
  6
CONTINUOUS
 62
     3
100
AcDbCircle
 10
202.221283
 20
515.870941
 30
0.0
 40
3.5
  0
ARC
  5
B4
100
AcDbEntity
  8
LAY-1
  6
CONTINUOUS
 62
     3
100
AcDbCircle
 10
202.221283
 20
515.870941
 30
0.0
 40
6.0
100
AcDbArc
 50
0.0
 51
180.00002
  0
ARC
  5
B5
100
AcDbEntity
  8
LAY-1
  6
CONTINUOUS
 62
     3
100
AcDbCircle
 10
223.221283
 20
519.870941
 30
0.0
 40
6.0
100
AcDbArc
 50
305.685646
 51
234.314969
  0
LINE
  5
B6
100
AcDbEntity
  8
LAY-1
  6
CONTINUOUS
 62
     3
100
AcDbLine
 10
218.121307
 20
504.371002
 30
0.0
 11
218.121307
 21
510.371002
 31
0.0
  0
LINE
  5
B7
100
AcDbEntity
  8
LAY-1
  6
CONTINUOUS
 62
     3
100
AcDbLine
 10
228.32132
 20
504.371002
 30
0.0
 11
228.32132
 21
510.371002
 31
0.0
  0
LINE
  5
B8
100
AcDbEntity
  8
LAY-1
  6
CONTINUOUS
 62
     3
100
AcDbLine
 10
218.121307
 20
510.371002
 30
0.0
 11
228.32132
 21
510.371002
 31
0.0
  0
LINE
  5
B9
100
AcDbEntity
  8
LAY-1
  6
CONTINUOUS
 62
     1
100
AcDbLine
 10
218.721313
 20
504.371002
 30
0.0
 11
218.721313
 21
510.371002
 31
0.0
  0
LINE
  5
BA
100
AcDbEntity
  8
LAY-1
  6
CONTINUOUS
 62
     1
100
AcDbLine
 10
227.721313
 20
504.371002
 30
0.0
 11
227.721313
 21
510.371002
 31
0.0
  0
LINE
  5
BB
100
AcDbEntity
  8
LAY-1
  6
CONTINUOUS
 62
     3
100
AcDbLine
 10
219.721313
 20
514.997559
 30
0.0
 11
219.721313
 21
510.371002
 31
0.0
  0
LINE
  5
BC
100
AcDbEntity
  8
LAY-1
  6
CONTINUOUS
 62
     3
100
AcDbLine
 10
226.721313
 20
514.997559
 30
0.0
 11
226.721313
 21
510.371002
 31
0.0
  0
LINE
  5
BD
100
AcDbEntity
  8
LAY-1
  6
CONTINUOUS
 62
     3
100
AcDbLine
 10
219.721313
 20
514.997528
 30
0.0
 11
226.721344
 21
514.997528
 31
0.0
  0
LINE
  5
BE
100
AcDbEntity
  8
LAY-1
  6
CONTINUOUS
 62
     3
100
AcDbLine
 10
208.221283
 20
515.870941
 30
0.0
 11
208.221283
 21
504.371002
 31
0.0
  0
LINE
  5
BF
100
AcDbEntity
  8
LAY-1
  6
CONTINUOUS
 62
     3
100
AcDbLine
 10
196.221283
 20
515.870941
 30
0.0
 11
196.221283
 21
504.371002
 31
0.0
  0
ARC
  5
C0
100
AcDbEntity
  8
LAY-1
  6
CONTINUOUS
 62
     3
100
AcDbCircle
 10
223.221283
 20
519.870941
 30
0.0
 40
11.0
100
AcDbArc
 50
333.214091
 51
359.999982
  0
ARC
  5
C1
100
AcDbEntity
  8
LAY-1
  6
CONTINUOUS
 62
     3
100
AcDbCircle
 10
222.221283
 20
522.370941
 30
0.0
 40
12.0
100
AcDbArc
 50
0.0
 51
94.76361
  0
LINE
  5
C2
100
AcDbEntity
  8
LAY-1
  6
CONTINUOUS
 62
     3
100
AcDbLine
 10
234.221283
 20
522.370941
 30
0.0
 11
234.221283
 21
519.870941
 31
0.0
  0
ARC
  5
C3
100
AcDbEntity
  8
LAY-1
  6
CONTINUOUS
 62
     3
100
AcDbCircle
 10
230.827942
 20
516.267517
 30
0.0
 40
2.5
100
AcDbArc
 50
180.00002
 51
328.367269
  0
LINE
  5
C4
100
AcDbEntity
  8
LAY-1
  6
CONTINUOUS
 62
     3
100
AcDbLine
 10
221.221283
 20
534.370972
 30
0.0
 11
134.221283
 21
511.870941
 31
0.0
  0
LINE
  5
C5
100
AcDbEntity
  8
LAY-1
  6
CONTINUOUS
 62
     3
100
AcDbLine
 10
219.221283
 20
515.398804
 30
0.0
 11
219.221283
 21
512.662994
 31
0.0
  0
LINE
  5
C6
100
AcDbEntity
  8
LAY-1
  6
CONTINUOUS
 62
     3
100
AcDbLine
 10
208.221283
 20
509.282745
 30
0.0
 11
218.450317
 21
511.689575
 31
0.0
  0
ARC
  5
C7
100
AcDbEntity
  8
LAY-1
  6
CONTINUOUS
 62
     3
100
AcDbCircle
 10
218.221283
 20
512.662994
 30
0.0
 40
1.0
100
AcDbArc
 50
283.240597
 51
359.999982
  0
LINE
  5
C8
100
AcDbEntity
  8
LAY-1
  6
CONTINUOUS
 62
     3
100
AcDbLine
 10
196.221283
 20
507.694489
 30
0.0
 11
186.491882
 21
507.408264
 31
0.0
  0
LINE
  5
C9
100
AcDbEntity
  8
LAY-1
  6
CONTINUOUS
 62
     3
100
AcDbLine
 10
134.221283
 20
505.870941
 30
0.0
 11
176.948822
 21
507.127594
 31
0.0
  0
ARC
  5
CA
100
AcDbEntity
  8
LAY-1
  6
CONTINUOUS
 62
     3
100
AcDbCircle
 10
176.978226
 20
506.128021
 30
0.0
 40
1.0
100
AcDbArc
 50
32.083058
 51
91.684649
  0
ARC
  5
CB
100
AcDbEntity
  8
LAY-1
  6
CONTINUOUS
 62
     3
100
AcDbCircle
 10
186.521286
 20
506.408722
 30
0.0
 40
1.0
100
AcDbArc
 50
91.684764
 51
180.00002
  0
ARC
  5
CC
100
AcDbEntity
  8
LAY-1
  6
DASHED2
 62
     3
100
AcDbCircle
 10
183.574661
 20
499.370941
 30
0.0
 40
1.0
100
AcDbArc
 50
212.083135
 51
270.000001
  0
ARC
  5
CD
100
AcDbEntity
  8
LAY-1
  6
DASHED2
 62
     3
100
AcDbCircle
 10
184.521286
 20
499.370941
 30
0.0
 40
1.0
100
AcDbArc
 50
270.000001
 51
359.999982
  0
LINE
  5
CE
100
AcDbEntity
  8
LAY-1
  6
CONTINUOUS
 62
     3
100
AcDbLine
 10
185.521286
 20
506.408722
 30
0.0
 11
185.521286
 21
504.370941
 31
0.0
  0
LINE
  5
CF
100
AcDbEntity
  8
LAY-1
  6
DASHED2
 62
     3
100
AcDbLine
 10
185.521301
 20
504.370972
 30
0.0
 11
185.521286
 21
499.370941
 31
0.0
  0
LINE
  5
D0
100
AcDbEntity
  8
LAY-1
  6
CONTINUOUS
 62
     3
100
AcDbLine
 10
177.8255
 20
506.65918
 30
0.0
 11
179.259964
 21
504.370941
 31
0.0
  0
LINE
  5
D1
100
AcDbEntity
  8
LAY-1
  6
DASHED2
 62
     3
100
AcDbLine
 10
179.259933
 20
504.370941
 30
0.0
 11
182.727386
 21
498.839783
 31
0.0
  0
LINE
  5
D2
100
AcDbEntity
  8
LAY-1
  6
CONTINUOUS
 62
     3
100
AcDbLine
 10
134.221283
 20
511.870941
 30
0.0
 11
131.721329
 21
511.870941
 31
0.0
  0
LINE
  5
D3
100
AcDbEntity
  8
LAY-1
  6
CONTINUOUS
 62
     3
100
AcDbLine
 10
134.221283
 20
505.870941
 30
0.0
 11
131.721329
 21
505.870941
 31
0.0
  0
LINE
  5
D4
100
AcDbEntity
  8
LAY-1
  6
CONTINUOUS
 62
     3
100
AcDbLine
 10
112.771332
 20
504.371002
 30
0.0
 11
112.771332
 21
536.371002
 31
0.0
  0
LINE
  5
D5
100
AcDbEntity
  8
LAY-1
  6
CONTINUOUS
 62
     3
100
AcDbLine
 10
131.671326
 20
504.371002
 30
0.0
 11
131.671326
 21
536.371002
 31
0.0
  0
LINE
  5
D6
100
AcDbEntity
  8
LAY-1
  6
CONTINUOUS
 62
     3
100
AcDbLine
 10
112.771332
 20
536.371002
 30
0.0
 11
131.671326
 21
536.371002
 31
0.0
  0
LINE
  5
D7
100
AcDbEntity
  8
LAY-1
  6
DASHED2
 62
     3
100
AcDbLine
 10
91.221313
 20
498.770966
 30
0.0
 11
91.221313
 21
498.370972
 31
0.0
  0
LINE
  5
D8
100
AcDbEntity
  8
LAY-1
  6
DASHED2
 62
     3
100
AcDbLine
 10
97.221313
 20
498.770966
 30
0.0
 11
91.221313
 21
498.770966
 31
0.0
  0
LINE
  5
D9
100
AcDbEntity
  8
LAY-1
  6
DASHED2
 62
     3
100
AcDbLine
 10
94.221313
 20
501.770966
 30
0.0
 11
94.221313
 21
508.870972
 31
0.0
  0
LINE
  5
DA
100
AcDbEntity
  8
LAY-1
  6
DASHED2
 62
     3
100
AcDbLine
 10
97.221313
 20
501.770966
 30
0.0
 11
94.221313
 21
501.770966
 31
0.0
  0
LINE
  5
DB
100
AcDbEntity
  8
LAY-1
  6
DASHED2
 62
     3
100
AcDbLine
 10
94.221313
 20
501.770966
 30
0.0
 11
91.221313
 21
498.770966
 31
0.0
  0
LINE
  5
DC
100
AcDbEntity
  8
LAY-1
  6
CONTINUOUS
 62
     3
100
AcDbLine
 10
94.221313
 20
514.370972
 30
0.0
 11
97.221313
 21
514.370972
 31
0.0
  0
LINE
  5
DD
100
AcDbEntity
  8
LAY-1
  6
CONTINUOUS
 62
     3
100
AcDbLine
 10
94.221313
 20
508.870972
 30
0.0
 11
94.221313
 21
514.370972
 31
0.0
  0
LINE
  5
DE
100
AcDbEntity
  8
LAY-1
  6
DASHED2
 62
     1
100
AcDbLine
 10
94.721313
 20
501.770966
 30
0.0
 11
94.721313
 21
508.870972
 31
0.0
  0
LINE
  5
DF
100
AcDbEntity
  8
LAY-1
  6
CONTINUOUS
 62
     1
100
AcDbLine
 10
94.721313
 20
508.870972
 30
0.0
 11
94.721313
 21
514.370972
 31
0.0
  0
LINE
  5
E0
100
AcDbEntity
  8
LAY-1
  6
CONTINUOUS
 62
     3
100
AcDbLine
 10
100.221313
 20
514.370972
 30
0.0
 11
97.221313
 21
514.370972
 31
0.0
  0
LINE
  5
E1
100
AcDbEntity
  8
LAY-1
  6
CONTINUOUS
 62
     1
100
AcDbLine
 10
99.721313
 20
508.870972
 30
0.0
 11
99.721313
 21
514.370972
 31
0.0
  0
LINE
  5
E2
100
AcDbEntity
  8
LAY-1
  6
CONTINUOUS
 62
     3
100
AcDbLine
 10
100.221313
 20
508.870972
 30
0.0
 11
100.221313
 21
514.370972
 31
0.0
  0
LINE
  5
E3
100
AcDbEntity
  8
LAY-1
  6
DASHED2
 62
     1
100
AcDbLine
 10
99.721313
 20
501.770966
 30
0.0
 11
99.721313
 21
508.870972
 31
0.0
  0
LINE
  5
E4
100
AcDbEntity
  8
LAY-1
  6
DASHED2
 62
     3
100
AcDbLine
 10
100.221313
 20
501.770966
 30
0.0
 11
100.221313
 21
508.870972
 31
0.0
  0
LINE
  5
E5
100
AcDbEntity
  8
LAY-1
  6
DASHED2
 62
     3
100
AcDbLine
 10
97.221313
 20
501.770966
 30
0.0
 11
100.221313
 21
501.770966
 31
0.0
  0
LINE
  5
E6
100
AcDbEntity
  8
LAY-1
  6
DASHED2
 62
     3
100
AcDbLine
 10
100.221313
 20
501.770966
 30
0.0
 11
103.221313
 21
498.770966
 31
0.0
  0
LINE
  5
E7
100
AcDbEntity
  8
LAY-1
  6
DASHED2
 62
     3
100
AcDbLine
 10
103.221313
 20
498.770966
 30
0.0
 11
103.221313
 21
498.370972
 31
0.0
  0
LINE
  5
E8
100
AcDbEntity
  8
LAY-1
  6
DASHED2
 62
     3
100
AcDbLine
 10
97.221313
 20
498.770966
 30
0.0
 11
103.221313
 21
498.770966
 31
0.0
  0
LINE
  5
E9
100
AcDbEntity
  8
LAY-1
  6
DASHED2
 62
     3
100
AcDbLine
 10
238.221283
 20
498.770966
 30
0.0
 11
238.221283
 21
498.370972
 31
0.0
  0
LINE
  5
EA
100
AcDbEntity
  8
LAY-1
  6
DASHED2
 62
     3
100
AcDbLine
 10
244.221283
 20
498.770966
 30
0.0
 11
238.221283
 21
498.770966
 31
0.0
  0
LINE
  5
EB
100
AcDbEntity
  8
LAY-1
  6
DASHED2
 62
     3
100
AcDbLine
 10
241.221283
 20
501.770966
 30
0.0
 11
241.221283
 21
508.870972
 31
0.0
  0
LINE
  5
EC
100
AcDbEntity
  8
LAY-1
  6
DASHED2
 62
     3
100
AcDbLine
 10
244.221283
 20
501.770966
 30
0.0
 11
241.221283
 21
501.770966
 31
0.0
  0
LINE
  5
ED
100
AcDbEntity
  8
LAY-1
  6
DASHED2
 62
     3
100
AcDbLine
 10
241.221283
 20
501.770966
 30
0.0
 11
238.221283
 21
498.770966
 31
0.0
  0
LINE
  5
EE
100
AcDbEntity
  8
LAY-1
  6
CONTINUOUS
 62
     3
100
AcDbLine
 10
241.221283
 20
514.370972
 30
0.0
 11
244.221283
 21
514.370972
 31
0.0
  0
LINE
  5
EF
100
AcDbEntity
  8
LAY-1
  6
CONTINUOUS
 62
     3
100
AcDbLine
 10
241.221283
 20
508.870972
 30
0.0
 11
241.221283
 21
514.370972
 31
0.0
  0
LINE
  5
F0
100
AcDbEntity
  8
LAY-1
  6
DASHED2
 62
     1
100
AcDbLine
 10
241.721283
 20
501.770966
 30
0.0
 11
241.721283
 21
508.870972
 31
0.0
  0
LINE
  5
F1
100
AcDbEntity
  8
LAY-1
  6
CONTINUOUS
 62
     1
100
AcDbLine
 10
241.721283
 20
508.870972
 30
0.0
 11
241.721283
 21
514.370972
 31
0.0
  0
LINE
  5
F2
100
AcDbEntity
  8
LAY-1
  6
CONTINUOUS
 62
     3
100
AcDbLine
 10
247.221283
 20
514.370972
 30
0.0
 11
244.221283
 21
514.370972
 31
0.0
  0
LINE
  5
F3
100
AcDbEntity
  8
LAY-1
  6
CONTINUOUS
 62
     1
100
AcDbLine
 10
246.721283
 20
508.870972
 30
0.0
 11
246.721283
 21
514.370972
 31
0.0
  0
LINE
  5
F4
100
AcDbEntity
  8
LAY-1
  6
CONTINUOUS
 62
     3
100
AcDbLine
 10
247.221283
 20
508.870972
 30
0.0
 11
247.221283
 21
514.370972
 31
0.0
  0
LINE
  5
F5
100
AcDbEntity
  8
LAY-1
  6
DASHED2
 62
     1
100
AcDbLine
 10
246.721283
 20
501.770966
 30
0.0
 11
246.721283
 21
508.870972
 31
0.0
  0
LINE
  5
F6
100
AcDbEntity
  8
LAY-1
  6
DASHED2
 62
     3
100
AcDbLine
 10
247.221283
 20
501.770966
 30
0.0
 11
247.221283
 21
508.870972
 31
0.0
  0
LINE
  5
F7
100
AcDbEntity
  8
LAY-1
  6
DASHED2
 62
     3
100
AcDbLine
 10
244.221283
 20
501.770966
 30
0.0
 11
247.221283
 21
501.770966
 31
0.0
  0
LINE
  5
F8
100
AcDbEntity
  8
LAY-1
  6
DASHED2
 62
     3
100
AcDbLine
 10
247.221283
 20
501.770966
 30
0.0
 11
250.221283
 21
498.770966
 31
0.0
  0
LINE
  5
F9
100
AcDbEntity
  8
LAY-1
  6
DASHED2
 62
     3
100
AcDbLine
 10
250.221283
 20
498.770966
 30
0.0
 11
250.221283
 21
498.370972
 31
0.0
  0
LINE
  5
FA
100
AcDbEntity
  8
LAY-1
  6
DASHED2
 62
     3
100
AcDbLine
 10
244.221283
 20
498.770966
 30
0.0
 11
250.221283
 21
498.770966
 31
0.0
  0
LINE
  5
FB
100
AcDbEntity
  8
LAY-1
  6
CONTINUOUS
 62
     3
100
AcDbLine
 10
556.771794
 20
515.854187
 30
0.0
 11
374.771794
 21
515.854187
 31
0.0
  0
LINE
  5
FC
100
AcDbEntity
  8
LAY-1
  6
CONTINUOUS
 62
     3
100
AcDbLine
 10
556.771794
 20
552.854187
 30
0.0
 11
374.771794
 21
552.854187
 31
0.0
  0
LINE
  5
FD
100
AcDbEntity
  8
LAY-1
  6
CONTINUOUS
 62
     3
100
AcDbLine
 10
556.771794
 20
552.854187
 30
0.0
 11
556.771794
 21
515.854217
 31
0.0
  0
LINE
  5
FE
100
AcDbEntity
  8
LAY-1
  6
CONTINUOUS
 62
     3
100
AcDbLine
 10
374.771794
 20
552.854187
 30
0.0
 11
374.771794
 21
515.854217
 31
0.0
  0
LINE
  5
FF
100
AcDbEntity
  8
LAY-1
  6
CONTINUOUS
 62
     3
100
AcDbLine
 10
381.771794
 20
518.354217
 30
0.0
 11
381.771794
 21
550.354187
 31
0.0
  0
LINE
  5
100
100
AcDbEntity
  8
LAY-1
  6
CONTINUOUS
 62
     3
100
AcDbLine
 10
381.771794
 20
550.354187
 30
0.0
 11
550.771794
 21
550.354187
 31
0.0
  0
LINE
  5
101
100
AcDbEntity
  8
LAY-1
  6
CONTINUOUS
 62
     3
100
AcDbLine
 10
381.771794
 20
518.354217
 30
0.0
 11
550.771794
 21
518.354217
 31
0.0
  0
LINE
  5
102
100
AcDbEntity
  8
LAY-1
  6
CONTINUOUS
 62
     3
100
AcDbLine
 10
550.771794
 20
550.354187
 30
0.0
 11
550.771794
 21
518.354248
 31
0.0
  0
CIRCLE
  5
103
100
AcDbEntity
  8
LAY-1
  6
DASHED2
 62
     3
100
AcDbCircle
 10
390.771794
 20
525.354217
 30
0.0
 40
6.0
  0
CIRCLE
  5
104
100
AcDbEntity
  8
LAY-1
  6
CONTINUOUS
 62
     3
100
AcDbCircle
 10
390.771794
 20
525.354217
 30
0.0
 40
3.35
  0
CIRCLE
  5
105
100
AcDbEntity
  8
LAY-1
  6
DASHED2
 62
     3
100
AcDbCircle
 10
537.771794
 20
525.354217
 30
0.0
 40
6.0
  0
CIRCLE
  5
106
100
AcDbEntity
  8
LAY-1
  6
CONTINUOUS
 62
     3
100
AcDbCircle
 10
537.771794
 20
525.354217
 30
0.0
 40
3.35
  0
CIRCLE
  5
107
100
AcDbEntity
  8
LAY-1
  6
DASHED2
 62
     3
100
AcDbCircle
 10
390.771794
 20
543.354187
 30
0.0
 40
6.0
  0
CIRCLE
  5
108
100
AcDbEntity
  8
LAY-1
  6
CONTINUOUS
 62
     3
100
AcDbCircle
 10
390.771794
 20
543.354187
 30
0.0
 40
3.35
  0
CIRCLE
  5
109
100
AcDbEntity
  8
LAY-1
  6
DASHED2
 62
     3
100
AcDbCircle
 10
537.771794
 20
543.354187
 30
0.0
 40
6.0
  0
CIRCLE
  5
10A
100
AcDbEntity
  8
LAY-1
  6
CONTINUOUS
 62
     3
100
AcDbCircle
 10
537.771794
 20
543.354187
 30
0.0
 40
3.35
  0
CIRCLE
  5
10B
100
AcDbEntity
  8
LAY-1
  6
CONTINUOUS
 62
     3
100
AcDbCircle
 10
415.771794
 20
534.354187
 30
0.0
 40
6.25
  0
LINE
  5
10C
100
AcDbEntity
  8
LAY-1
  6
CONTINUOUS
 62
     3
100
AcDbLine
 10
527.771794
 20
532.104187
 30
0.0
 11
527.771794
 21
536.604187
 31
0.0
  0
LINE
  5
10D
100
AcDbEntity
  8
LAY-1
  6
CONTINUOUS
 62
     3
100
AcDbLine
 10
425.00147
 20
536.604187
 30
0.0
 11
527.771794
 21
536.604187
 31
0.0
  0
LINE
  5
10E
100
AcDbEntity
  8
LAY-1
  6
CONTINUOUS
 62
     3
100
AcDbLine
 10
425.00147
 20
532.104187
 30
0.0
 11
527.771794
 21
532.104187
 31
0.0
  0
ARC
  5
10F
100
AcDbEntity
  8
LAY-1
  6
CONTINUOUS
 62
     3
100
AcDbCircle
 10
475.771794
 20
534.354187
 30
0.0
 40
5.0
100
AcDbArc
 50
26.743665
 51
153.256355
  0
ARC
  5
110
100
AcDbEntity
  8
LAY-1
  6
CONTINUOUS
 62
     3
100
AcDbCircle
 10
475.771794
 20
534.354187
 30
0.0
 40
5.0
100
AcDbArc
 50
205.468338
 51
331.882709
  0
ARC
  5
111
100
AcDbEntity
  8
LAY-1
  6
CONTINUOUS
 62
     3
100
AcDbCircle
 10
516.771794
 20
534.354187
 30
0.0
 40
6.0
100
AcDbArc
 50
22.024383
 51
156.514709
  0
ARC
  5
112
100
AcDbEntity
  8
LAY-1
  6
CONTINUOUS
 62
     3
100
AcDbCircle
 10
516.771794
 20
534.354187
 30
0.0
 40
6.0
100
AcDbArc
 50
203.485273
 51
337.366545
  0
LINE
  5
113
100
AcDbEntity
  8
LAY-1
  6
CONTINUOUS
 62
     3
100
AcDbLine
 10
501.771794
 20
531.80426
 30
0.0
 11
489.771794
 21
531.80426
 31
0.0
  0
LINE
  5
114
100
AcDbEntity
  8
LAY-1
  6
CONTINUOUS
 62
     3
100
AcDbLine
 10
501.771794
 20
536.904236
 30
0.0
 11
489.771794
 21
536.904236
 31
0.0
  0
LINE
  5
115
100
AcDbEntity
  8
LAY-1
  6
CONTINUOUS
 62
     3
100
AcDbLine
 10
501.771794
 20
540.104248
 30
0.0
 11
489.771794
 21
540.104248
 31
0.0
  0
LINE
  5
116
100
AcDbEntity
  8
LAY-1
  6
CONTINUOUS
 62
     3
100
AcDbLine
 10
489.771794
 20
528.604248
 30
0.0
 11
501.771794
 21
528.604248
 31
0.0
  0
LINE
  5
117
100
AcDbEntity
  8
LAY-1
  6
CONTINUOUS
 62
     3
100
AcDbLine
 10
501.771794
 20
540.104248
 30
0.0
 11
501.771794
 21
536.904236
 31
0.0
  0
LINE
  5
118
100
AcDbEntity
  8
LAY-1
  6
CONTINUOUS
 62
     3
100
AcDbLine
 10
489.771794
 20
540.104248
 30
0.0
 11
489.771794
 21
536.904236
 31
0.0
  0
LINE
  5
119
100
AcDbEntity
  8
LAY-1
  6
CONTINUOUS
 62
     3
100
AcDbLine
 10
501.771794
 20
528.604248
 30
0.0
 11
501.771794
 21
531.80426
 31
0.0
  0
LINE
  5
11A
100
AcDbEntity
  8
LAY-1
  6
CONTINUOUS
 62
     3
100
AcDbLine
 10
489.771794
 20
528.604248
 30
0.0
 11
489.771794
 21
531.804138
 31
0.0
  0
LINE
  5
11B
100
AcDbEntity
  8
LAY-1
  6
CONTINUOUS
 62
     3
100
AcDbLine
 10
499.271794
 20
536.904236
 30
0.0
 11
499.271794
 21
536.604187
 31
0.0
  0
LINE
  5
11C
100
AcDbEntity
  8
LAY-1
  6
CONTINUOUS
 62
     3
100
AcDbLine
 10
492.271794
 20
536.904236
 30
0.0
 11
492.271794
 21
536.604187
 31
0.0
  0
LINE
  5
11D
100
AcDbEntity
  8
LAY-1
  6
CONTINUOUS
 62
     3
100
AcDbLine
 10
499.271794
 20
532.104187
 30
0.0
 11
499.271794
 21
531.80426
 31
0.0
  0
LINE
  5
11E
100
AcDbEntity
  8
LAY-1
  6
CONTINUOUS
 62
     3
100
AcDbLine
 10
492.271794
 20
532.104187
 30
0.0
 11
492.271794
 21
531.80426
 31
0.0
  0
CIRCLE
  5
11F
100
AcDbEntity
  8
LAY-1
  6
CONTINUOUS
 62
     3
100
AcDbCircle
 10
415.771794
 20
534.354126
 30
0.0
 40
9.45
  0
LINE
  5
120
100
AcDbEntity
  8
LAY-1
  6
CONTINUOUS
 62
     3
100
AcDbLine
 10
699.29979
 20
497.570953
 30
0.0
 11
699.29979
 21
495.370941
 31
0.0
  0
LINE
  5
121
100
AcDbEntity
  8
LAY-1
  6
CONTINUOUS
 62
     3
100
AcDbLine
 10
686.79979
 20
497.570953
 30
0.0
 11
686.79979
 21
495.370941
 31
0.0
  0
LINE
  5
122
100
AcDbEntity
  8
LAY-1
  6
CONTINUOUS
 62
     3
100
AcDbLine
 10
683.599824
 20
504.371002
 30
0.0
 11
683.599824
 21
536.371002
 31
0.0
  0
LINE
  5
123
100
AcDbEntity
  8
LAY-1
  6
CONTINUOUS
 62
     3
100
AcDbLine
 10
702.499818
 20
504.371002
 30
0.0
 11
702.499818
 21
536.371002
 31
0.0
  0
LINE
  5
124
100
AcDbEntity
  8
LAY-1
  6
CONTINUOUS
 62
     3
100
AcDbLine
 10
683.599824
 20
536.371002
 30
0.0
 11
702.499818
 21
536.371002
 31
0.0
  0
LINE
  5
125
100
AcDbEntity
  8
LAY-1
  6
CONTINUOUS
 62
     3
100
AcDbLine
 10
677.04979
 20
504.370972
 30
0.0
 11
709.04982
 21
504.370972
 31
0.0
  0
LINE
  5
126
100
AcDbEntity
  8
LAY-1
  6
CONTINUOUS
 62
     3
100
AcDbLine
 10
677.04979
 20
498.370972
 30
0.0
 11
677.04979
 21
504.370972
 31
0.0
  0
LINE
  5
127
100
AcDbEntity
  8
LAY-1
  6
CONTINUOUS
 62
     3
100
AcDbLine
 10
709.04982
 20
498.370972
 30
0.0
 11
709.04982
 21
504.370972
 31
0.0
  0
LINE
  5
128
100
AcDbEntity
  8
LAY-1
  6
CONTINUOUS
 62
     3
100
AcDbLine
 10
711.549805
 20
497.570984
 30
0.0
 11
711.549805
 21
498.370972
 31
0.0
  0
LINE
  5
129
100
AcDbEntity
  8
LAY-1
  6
CONTINUOUS
 62
     3
100
AcDbLine
 10
674.549805
 20
497.570984
 30
0.0
 11
674.549805
 21
498.370972
 31
0.0
  0
LINE
  5
12A
100
AcDbEntity
  8
LAY-1
  6
CONTINUOUS
 62
     3
100
AcDbLine
 10
711.549805
 20
497.570984
 30
0.0
 11
674.549805
 21
497.570984
 31
0.0
  0
LINE
  5
12B
100
AcDbEntity
  8
LAY-1
  6
CONTINUOUS
 62
     3
100
AcDbLine
 10
711.549805
 20
498.370972
 30
0.0
 11
674.549805
 21
498.370972
 31
0.0
  0
LINE
  5
12C
100
AcDbEntity
  8
LAY-2
  6
CONTINUOUS
 62
     3
100
AcDbLine
 10
257.221313
 20
495.370941
 30
0.0
 11
106.221298
 21
495.370941
 31
0.0
  0
LINE
  5
12D
100
AcDbEntity
  8
LAY-2
  6
CONTINUOUS
 62
     3
100
AcDbLine
 10
257.221313
 20
489.370941
 30
0.0
 11
106.221298
 21
489.370941
 31
0.0
  0
LINE
  5
12E
100
AcDbEntity
  8
LAY-2
  6
CONTINUOUS
 62
     3
100
AcDbLine
 10
257.221313
 20
495.370941
 30
0.0
 11
257.221313
 21
489.370941
 31
0.0
  0
LINE
  5
12F
100
AcDbEntity
  8
LAY-2
  6
CONTINUOUS
 62
     3
100
AcDbLine
 10
106.221298
 20
495.370941
 30
0.0
 11
106.221298
 21
489.370941
 31
0.0
  0
ARC
  5
130
100
AcDbEntity
  8
LAY-2
  6
CONTINUOUS
 62
     3
100
AcDbCircle
 10
125.521313
 20
479.570941
 30
0.0
 40
5.2
100
AcDbArc
 50
270.0
 51
0.0
  0
LINE
  5
131
100
AcDbEntity
  8
LAY-2
  6
CONTINUOUS
 62
     3
100
AcDbLine
 10
118.921313
 20
474.370941
 30
0.0
 11
125.521313
 21
474.370941
 31
0.0
  0
ARC
  5
132
100
AcDbEntity
  8
LAY-2
  6
CONTINUOUS
 62
     3
100
AcDbCircle
 10
118.921313
 20
479.570941
 30
0.0
 40
5.2
100
AcDbArc
 50
180.0
 51
270.0
  0
LINE
  5
133
100
AcDbEntity
  8
LAY-2
  6
CONTINUOUS
 62
     3
100
AcDbLine
 10
136.221313
 20
489.370941
 30
0.0
 11
136.221313
 21
488.170941
 31
0.0
  0
LINE
  5
134
100
AcDbEntity
  8
LAY-2
  6
CONTINUOUS
 62
     3
100
AcDbLine
 10
108.221313
 20
489.370941
 30
0.0
 11
108.221313
 21
488.170941
 31
0.0
  0
LINE
  5
135
100
AcDbEntity
  8
LAY-2
  6
CONTINUOUS
 62
     3
100
AcDbLine
 10
136.221313
 20
488.170941
 30
0.0
 11
108.221313
 21
488.170941
 31
0.0
  0
ARC
  5
136
100
AcDbEntity
  8
LAY-2
  6
CONTINUOUS
 62
     3
100
AcDbCircle
 10
134.071313
 20
488.170941
 30
0.0
 40
1.0
100
AcDbArc
 50
270.0
 51
0.0
  0
LINE
  5
137
100
AcDbEntity
  8
LAY-2
  6
CONTINUOUS
 62
     3
100
AcDbLine
 10
134.071313
 20
487.170941
 30
0.0
 11
110.371313
 21
487.170941
 31
0.0
  0
ARC
  5
138
100
AcDbEntity
  8
LAY-2
  6
CONTINUOUS
 62
     3
100
AcDbCircle
 10
110.371313
 20
488.170941
 30
0.0
 40
1.0
100
AcDbArc
 50
180.0
 51
270.0
  0
ARC
  5
139
100
AcDbEntity
  8
LAY-2
  6
CONTINUOUS
 62
     3
100
AcDbCircle
 10
131.221313
 20
486.670941
 30
0.0
 40
0.5
100
AcDbArc
 50
90.0
 51
180.0
  0
ARC
  5
13A
100
AcDbEntity
  8
LAY-2
  6
CONTINUOUS
 62
     3
100
AcDbCircle
 10
113.221313
 20
486.670941
 30
0.0
 40
0.5
100
AcDbArc
 50
0.0
 51
90.0
  0
LINE
  5
13B
100
AcDbEntity
  8
LAY-2
  6
CONTINUOUS
 62
     3
100
AcDbLine
 10
113.721313
 20
486.670941
 30
0.0
 11
113.721313
 21
479.570941
 31
0.0
  0
LINE
  5
13C
100
AcDbEntity
  8
LAY-2
  6
CONTINUOUS
 62
     3
100
AcDbLine
 10
130.721313
 20
486.670941
 30
0.0
 11
130.721313
 21
479.570941
 31
0.0
  0
LINE
  5
13D
100
AcDbEntity
  8
LAY-2
  6
DASHED2
 62
     3
100
AcDbLine
 10
146.221298
 20
494.970947
 30
0.0
 11
146.221298
 21
495.370941
 31
0.0
  0
LINE
  5
13E
100
AcDbEntity
  8
LAY-2
  6
DASHED2
 62
     3
100
AcDbLine
 10
146.221298
 20
494.970947
 30
0.0
 11
152.221298
 21
494.970947
 31
0.0
  0
LINE
  5
13F
100
AcDbEntity
  8
LAY-2
  6
DASHED2
 62
     3
100
AcDbLine
 10
149.221298
 20
491.970947
 30
0.0
 11
149.221298
 21
484.870941
 31
0.0
  0
LINE
  5
140
100
AcDbEntity
  8
LAY-2
  6
DASHED2
 62
     3
100
AcDbLine
 10
149.221298
 20
491.970947
 30
0.0
 11
152.221298
 21
491.970947
 31
0.0
  0
LINE
  5
141
100
AcDbEntity
  8
LAY-2
  6
DASHED2
 62
     3
100
AcDbLine
 10
146.221298
 20
494.970947
 30
0.0
 11
149.221298
 21
491.970947
 31
0.0
  0
LINE
  5
142
100
AcDbEntity
  8
LAY-2
  6
CONTINUOUS
 62
     3
100
AcDbLine
 10
152.221298
 20
479.370941
 30
0.0
 11
149.221298
 21
479.370941
 31
0.0
  0
LINE
  5
143
100
AcDbEntity
  8
LAY-2
  6
CONTINUOUS
 62
     3
100
AcDbLine
 10
149.221298
 20
484.870941
 30
0.0
 11
149.221298
 21
479.370941
 31
0.0
  0
LINE
  5
144
100
AcDbEntity
  8
LAY-2
  6
CONTINUOUS
 62
     1
100
AcDbLine
 10
149.721298
 20
484.870941
 30
0.0
 11
149.721298
 21
479.370941
 31
0.0
  0
LINE
  5
145
100
AcDbEntity
  8
LAY-2
  6
DASHED2
 62
     1
100
AcDbLine
 10
149.721298
 20
491.970947
 30
0.0
 11
149.721298
 21
484.870941
 31
0.0
  0
LINE
  5
146
100
AcDbEntity
  8
LAY-2
  6
DASHED2
 62
     3
100
AcDbLine
 10
155.221298
 20
491.970947
 30
0.0
 11
152.221298
 21
491.970947
 31
0.0
  0
LINE
  5
147
100
AcDbEntity
  8
LAY-2
  6
DASHED2
 62
     3
100
AcDbLine
 10
158.221298
 20
494.970947
 30
0.0
 11
155.221298
 21
491.970947
 31
0.0
  0
LINE
  5
148
100
AcDbEntity
  8
LAY-2
  6
DASHED2
 62
     3
100
AcDbLine
 10
158.221298
 20
494.970947
 30
0.0
 11
152.221298
 21
494.970947
 31
0.0
  0
LINE
  5
149
100
AcDbEntity
  8
LAY-2
  6
DASHED2
 62
     3
100
AcDbLine
 10
158.221298
 20
494.970947
 30
0.0
 11
158.221298
 21
495.370941
 31
0.0
  0
LINE
  5
14A
100
AcDbEntity
  8
LAY-2
  6
DASHED2
 62
     3
100
AcDbLine
 10
155.221298
 20
491.970947
 30
0.0
 11
155.221298
 21
484.870941
 31
0.0
  0
LINE
  5
14B
100
AcDbEntity
  8
LAY-2
  6
DASHED2
 62
     1
100
AcDbLine
 10
154.721298
 20
491.970947
 30
0.0
 11
154.721298
 21
484.870941
 31
0.0
  0
LINE
  5
14C
100
AcDbEntity
  8
LAY-2
  6
CONTINUOUS
 62
     1
100
AcDbLine
 10
154.721298
 20
484.870941
 30
0.0
 11
154.721298
 21
479.370941
 31
0.0
  0
LINE
  5
14D
100
AcDbEntity
  8
LAY-2
  6
CONTINUOUS
 62
     3
100
AcDbLine
 10
155.221298
 20
484.870941
 30
0.0
 11
155.221298
 21
479.370941
 31
0.0
  0
LINE
  5
14E
100
AcDbEntity
  8
LAY-2
  6
CONTINUOUS
 62
     3
100
AcDbLine
 10
152.221298
 20
479.370941
 30
0.0
 11
155.221298
 21
479.370941
 31
0.0
  0
LINE
  5
14F
100
AcDbEntity
  8
LAY-2
  6
DASHED2
 62
     3
100
AcDbLine
 10
192.221313
 20
494.970947
 30
0.0
 11
192.221313
 21
495.370941
 31
0.0
  0
LINE
  5
150
100
AcDbEntity
  8
LAY-2
  6
DASHED2
 62
     3
100
AcDbLine
 10
192.221313
 20
494.970947
 30
0.0
 11
198.221313
 21
494.970947
 31
0.0
  0
LINE
  5
151
100
AcDbEntity
  8
LAY-2
  6
DASHED2
 62
     3
100
AcDbLine
 10
195.221313
 20
491.970947
 30
0.0
 11
195.221313
 21
484.870941
 31
0.0
  0
LINE
  5
152
100
AcDbEntity
  8
LAY-2
  6
DASHED2
 62
     3
100
AcDbLine
 10
195.221313
 20
491.970947
 30
0.0
 11
198.221313
 21
491.970947
 31
0.0
  0
LINE
  5
153
100
AcDbEntity
  8
LAY-2
  6
DASHED2
 62
     3
100
AcDbLine
 10
192.221313
 20
494.970947
 30
0.0
 11
195.221313
 21
491.970947
 31
0.0
  0
LINE
  5
154
100
AcDbEntity
  8
LAY-2
  6
CONTINUOUS
 62
     3
100
AcDbLine
 10
198.221313
 20
479.370941
 30
0.0
 11
195.221313
 21
479.370941
 31
0.0
  0
LINE
  5
155
100
AcDbEntity
  8
LAY-2
  6
CONTINUOUS
 62
     3
100
AcDbLine
 10
195.221313
 20
484.870941
 30
0.0
 11
195.221313
 21
479.370941
 31
0.0
  0
LINE
  5
156
100
AcDbEntity
  8
LAY-2
  6
CONTINUOUS
 62
     1
100
AcDbLine
 10
195.721313
 20
484.870941
 30
0.0
 11
195.721313
 21
479.370941
 31
0.0
  0
LINE
  5
157
100
AcDbEntity
  8
LAY-2
  6
DASHED2
 62
     1
100
AcDbLine
 10
195.721313
 20
491.970947
 30
0.0
 11
195.721313
 21
484.870941
 31
0.0
  0
LINE
  5
158
100
AcDbEntity
  8
LAY-2
  6
DASHED2
 62
     3
100
AcDbLine
 10
201.221313
 20
491.970947
 30
0.0
 11
198.221313
 21
491.970947
 31
0.0
  0
LINE
  5
159
100
AcDbEntity
  8
LAY-2
  6
DASHED2
 62
     3
100
AcDbLine
 10
204.221313
 20
494.970947
 30
0.0
 11
201.221313
 21
491.970947
 31
0.0
  0
LINE
  5
15A
100
AcDbEntity
  8
LAY-2
  6
DASHED2
 62
     3
100
AcDbLine
 10
204.221313
 20
494.970947
 30
0.0
 11
198.221313
 21
494.970947
 31
0.0
  0
LINE
  5
15B
100
AcDbEntity
  8
LAY-2
  6
DASHED2
 62
     3
100
AcDbLine
 10
204.221313
 20
494.970947
 30
0.0
 11
204.221313
 21
495.370941
 31
0.0
  0
LINE
  5
15C
100
AcDbEntity
  8
LAY-2
  6
DASHED2
 62
     3
100
AcDbLine
 10
201.221313
 20
491.970947
 30
0.0
 11
201.221313
 21
484.870941
 31
0.0
  0
LINE
  5
15D
100
AcDbEntity
  8
LAY-2
  6
DASHED2
 62
     1
100
AcDbLine
 10
200.721313
 20
491.970947
 30
0.0
 11
200.721313
 21
484.870941
 31
0.0
  0
LINE
  5
15E
100
AcDbEntity
  8
LAY-2
  6
CONTINUOUS
 62
     1
100
AcDbLine
 10
200.721313
 20
484.870941
 30
0.0
 11
200.721313
 21
479.370941
 31
0.0
  0
LINE
  5
15F
100
AcDbEntity
  8
LAY-2
  6
CONTINUOUS
 62
     3
100
AcDbLine
 10
201.221313
 20
484.870941
 30
0.0
 11
201.221313
 21
479.370941
 31
0.0
  0
LINE
  5
160
100
AcDbEntity
  8
LAY-2
  6
CONTINUOUS
 62
     3
100
AcDbLine
 10
198.221313
 20
479.370941
 30
0.0
 11
201.221313
 21
479.370941
 31
0.0
  0
LINE
  5
161
100
AcDbEntity
  8
LAY-2
  6
DASHED2
 62
     3
100
AcDbLine
 10
238.221313
 20
494.970947
 30
0.0
 11
238.221313
 21
495.370941
 31
0.0
  0
LINE
  5
162
100
AcDbEntity
  8
LAY-2
  6
DASHED2
 62
     3
100
AcDbLine
 10
238.221313
 20
494.970947
 30
0.0
 11
244.221313
 21
494.970947
 31
0.0
  0
LINE
  5
163
100
AcDbEntity
  8
LAY-2
  6
DASHED2
 62
     3
100
AcDbLine
 10
241.221313
 20
491.970947
 30
0.0
 11
241.221313
 21
484.870941
 31
0.0
  0
LINE
  5
164
100
AcDbEntity
  8
LAY-2
  6
DASHED2
 62
     3
100
AcDbLine
 10
241.221313
 20
491.970947
 30
0.0
 11
244.221313
 21
491.970947
 31
0.0
  0
LINE
  5
165
100
AcDbEntity
  8
LAY-2
  6
DASHED2
 62
     3
100
AcDbLine
 10
238.221313
 20
494.970947
 30
0.0
 11
241.221313
 21
491.970947
 31
0.0
  0
LINE
  5
166
100
AcDbEntity
  8
LAY-2
  6
CONTINUOUS
 62
     3
100
AcDbLine
 10
244.221313
 20
479.370941
 30
0.0
 11
241.221313
 21
479.370941
 31
0.0
  0
LINE
  5
167
100
AcDbEntity
  8
LAY-2
  6
CONTINUOUS
 62
     3
100
AcDbLine
 10
241.221313
 20
484.870941
 30
0.0
 11
241.221313
 21
479.370941
 31
0.0
  0
LINE
  5
168
100
AcDbEntity
  8
LAY-2
  6
CONTINUOUS
 62
     1
100
AcDbLine
 10
241.721313
 20
484.870941
 30
0.0
 11
241.721313
 21
479.370941
 31
0.0
  0
LINE
  5
169
100
AcDbEntity
  8
LAY-2
  6
DASHED2
 62
     1
100
AcDbLine
 10
241.721313
 20
491.970947
 30
0.0
 11
241.721313
 21
484.870941
 31
0.0
  0
LINE
  5
16A
100
AcDbEntity
  8
LAY-2
  6
DASHED2
 62
     3
100
AcDbLine
 10
247.221313
 20
491.970947
 30
0.0
 11
244.221313
 21
491.970947
 31
0.0
  0
LINE
  5
16B
100
AcDbEntity
  8
LAY-2
  6
DASHED2
 62
     3
100
AcDbLine
 10
250.221313
 20
494.970947
 30
0.0
 11
247.221313
 21
491.970947
 31
0.0
  0
LINE
  5
16C
100
AcDbEntity
  8
LAY-2
  6
DASHED2
 62
     3
100
AcDbLine
 10
250.221313
 20
494.970947
 30
0.0
 11
244.221313
 21
494.970947
 31
0.0
  0
LINE
  5
16D
100
AcDbEntity
  8
LAY-2
  6
DASHED2
 62
     3
100
AcDbLine
 10
250.221313
 20
494.970947
 30
0.0
 11
250.221313
 21
495.370941
 31
0.0
  0
LINE
  5
16E
100
AcDbEntity
  8
LAY-2
  6
DASHED2
 62
     3
100
AcDbLine
 10
247.221313
 20
491.970947
 30
0.0
 11
247.221313
 21
484.870941
 31
0.0
  0
LINE
  5
16F
100
AcDbEntity
  8
LAY-2
  6
DASHED2
 62
     1
100
AcDbLine
 10
246.721313
 20
491.970947
 30
0.0
 11
246.721313
 21
484.870941
 31
0.0
  0
LINE
  5
170
100
AcDbEntity
  8
LAY-2
  6
CONTINUOUS
 62
     1
100
AcDbLine
 10
246.721313
 20
484.870941
 30
0.0
 11
246.721313
 21
479.370941
 31
0.0
  0
LINE
  5
171
100
AcDbEntity
  8
LAY-2
  6
CONTINUOUS
 62
     3
100
AcDbLine
 10
247.221313
 20
484.870941
 30
0.0
 11
247.221313
 21
479.370941
 31
0.0
  0
LINE
  5
172
100
AcDbEntity
  8
LAY-2
  6
CONTINUOUS
 62
     3
100
AcDbLine
 10
244.221313
 20
479.370941
 30
0.0
 11
247.221313
 21
479.370941
 31
0.0
  0
LINE
  5
173
100
AcDbEntity
  8
LAY-2
  6
CONTINUOUS
 62
     3
100
AcDbLine
 10
550.771794
 20
450.68421
 30
0.0
 11
399.771794
 21
450.68421
 31
0.0
  0
LINE
  5
174
100
AcDbEntity
  8
LAY-2
  6
CONTINUOUS
 62
     3
100
AcDbLine
 10
550.771794
 20
482.68421
 30
0.0
 11
399.771794
 21
482.68421
 31
0.0
  0
LINE
  5
175
100
AcDbEntity
  8
LAY-2
  6
CONTINUOUS
 62
     3
100
AcDbLine
 10
550.771794
 20
482.68421
 30
0.0
 11
550.771794
 21
450.68421
 31
0.0
  0
LINE
  5
176
100
AcDbEntity
  8
LAY-2
  6
CONTINUOUS
 62
     3
100
AcDbLine
 10
399.771794
 20
482.68421
 30
0.0
 11
399.771794
 21
450.68421
 31
0.0
  0
CIRCLE
  5
177
100
AcDbEntity
  8
LAY-2
  6
CONTINUOUS
 62
     3
100
AcDbCircle
 10
415.771794
 20
466.68418
 30
0.0
 40
6.25
  0
CIRCLE
  5
178
100
AcDbEntity
  8
LAY-2
  6
CONTINUOUS
 62
     3
100
AcDbCircle
 10
415.771794
 20
466.68418
 30
0.0
 40
11.9
  0
CIRCLE
  5
179
100
AcDbEntity
  8
LAY-2
  6
CONTINUOUS
 62
     3
100
AcDbCircle
 10
445.771794
 20
474.68421
 30
0.0
 40
6.0
  0
CIRCLE
  5
17A
100
AcDbEntity
  8
LAY-2
  6
CONTINUOUS
 62
     3
100
AcDbCircle
 10
445.771794
 20
474.68421
 30
0.0
 40
3.35
  0
CIRCLE
  5
17B
100
AcDbEntity
  8
LAY-2
  6
CONTINUOUS
 62
     3
100
AcDbCircle
 10
491.771794
 20
458.68421
 30
0.0
 40
6.0
  0
CIRCLE
  5
17C
100
AcDbEntity
  8
LAY-2
  6
CONTINUOUS
 62
     3
100
AcDbCircle
 10
491.771794
 20
458.68421
 30
0.0
 40
3.35
  0
CIRCLE
  5
17D
100
AcDbEntity
  8
LAY-2
  6
CONTINUOUS
 62
     3
100
AcDbCircle
 10
537.771794
 20
474.68421
 30
0.0
 40
6.0
  0
CIRCLE
  5
17E
100
AcDbEntity
  8
LAY-2
  6
CONTINUOUS
 62
     3
100
AcDbCircle
 10
537.771794
 20
474.68421
 30
0.0
 40
3.35
  0
LINE
  5
17F
100
AcDbEntity
  8
LAY-2
  6
CONTINUOUS
 62
     3
100
AcDbLine
 10
677.04979
 20
495.370941
 30
0.0
 11
677.04979
 21
489.370941
 31
0.0
  0
ARC
  5
180
100
AcDbEntity
  8
LAY-2
  6
CONTINUOUS
 62
     3
100
AcDbCircle
 10
696.349805
 20
479.570941
 30
0.0
 40
5.2
100
AcDbArc
 50
270.0
 51
0.0
  0
LINE
  5
181
100
AcDbEntity
  8
LAY-2
  6
CONTINUOUS
 62
     3
100
AcDbLine
 10
689.749805
 20
474.370941
 30
0.0
 11
696.349805
 21
474.370941
 31
0.0
  0
ARC
  5
182
100
AcDbEntity
  8
LAY-2
  6
CONTINUOUS
 62
     3
100
AcDbCircle
 10
689.749805
 20
479.570941
 30
0.0
 40
5.2
100
AcDbArc
 50
180.0
 51
270.0
  0
LINE
  5
183
100
AcDbEntity
  8
LAY-2
  6
CONTINUOUS
 62
     3
100
AcDbLine
 10
707.049805
 20
489.370941
 30
0.0
 11
707.049805
 21
488.170941
 31
0.0
  0
LINE
  5
184
100
AcDbEntity
  8
LAY-2
  6
CONTINUOUS
 62
     3
100
AcDbLine
 10
679.049805
 20
489.370941
 30
0.0
 11
679.049805
 21
488.170941
 31
0.0
  0
LINE
  5
185
100
AcDbEntity
  8
LAY-2
  6
CONTINUOUS
 62
     3
100
AcDbLine
 10
707.049805
 20
488.170941
 30
0.0
 11
679.049805
 21
488.170941
 31
0.0
  0
ARC
  5
186
100
AcDbEntity
  8
LAY-2
  6
CONTINUOUS
 62
     3
100
AcDbCircle
 10
704.899805
 20
488.170941
 30
0.0
 40
1.0
100
AcDbArc
 50
270.0
 51
0.0
  0
LINE
  5
187
100
AcDbEntity
  8
LAY-2
  6
CONTINUOUS
 62
     3
100
AcDbLine
 10
704.899805
 20
487.170941
 30
0.0
 11
681.199805
 21
487.170941
 31
0.0
  0
ARC
  5
188
100
AcDbEntity
  8
LAY-2
  6
CONTINUOUS
 62
     3
100
AcDbCircle
 10
681.199805
 20
488.170941
 30
0.0
 40
1.0
100
AcDbArc
 50
180.0
 51
270.0
  0
ARC
  5
189
100
AcDbEntity
  8
LAY-2
  6
CONTINUOUS
 62
     3
100
AcDbCircle
 10
702.049805
 20
486.670941
 30
0.0
 40
0.5
100
AcDbArc
 50
90.0
 51
180.0
  0
ARC
  5
18A
100
AcDbEntity
  8
LAY-2
  6
CONTINUOUS
 62
     3
100
AcDbCircle
 10
684.049805
 20
486.670941
 30
0.0
 40
0.5
100
AcDbArc
 50
0.0
 51
90.0
  0
LINE
  5
18B
100
AcDbEntity
  8
LAY-2
  6
CONTINUOUS
 62
     3
100
AcDbLine
 10
684.549805
 20
486.670941
 30
0.0
 11
684.549805
 21
479.570941
 31
0.0
  0
LINE
  5
18C
100
AcDbEntity
  8
LAY-2
  6
CONTINUOUS
 62
     3
100
AcDbLine
 10
701.549805
 20
486.670941
 30
0.0
 11
701.549805
 21
479.570941
 31
0.0
  0
LINE
  5
18D
100
AcDbEntity
  8
LAY-2
  6
CONTINUOUS
 62
     3
100
AcDbLine
 10
709.04982
 20
495.370941
 30
0.0
 11
709.04982
 21
489.370941
 31
0.0
  0
LINE
  5
18E
100
AcDbEntity
  8
LAY-2
  6
CONTINUOUS
 62
     3
100
AcDbLine
 10
709.04982
 20
489.370941
 30
0.0
 11
677.04979
 21
489.370941
 31
0.0
  0
LINE
  5
18F
100
AcDbEntity
  8
LAY-2
  6
CONTINUOUS
 62
     3
100
AcDbLine
 10
709.04982
 20
495.370941
 30
0.0
 11
677.04979
 21
495.370941
 31
0.0
  0
LINE
  5
190
100
AcDbEntity
  8
LAY-3
  6
CONTINUOUS
 62
     3
100
AcDbLine
 10
596.88031
 20
168.052032
 30
0.0
 11
689.861084
 21
168.052032
 31
0.0
  0
LINE
  5
191
100
AcDbEntity
  8
LAY-3
  6
CONTINUOUS
 62
     3
100
AcDbLine
 10
596.88031
 20
138.052048
 30
0.0
 11
689.861084
 21
138.052048
 31
0.0
  0
LINE
  5
192
100
AcDbEntity
  8
LAY-3
  6
CONTINUOUS
 62
     3
100
AcDbLine
 10
689.861084
 20
168.052032
 30
0.0
 11
689.861084
 21
138.052048
 31
0.0
  0
ARC
  5
193
100
AcDbEntity
  8
LAY-3
  6
CONTINUOUS
 62
     3
100
AcDbCircle
 10
622.861084
 20
153.052048
 30
0.0
 40
30.0
100
AcDbArc
 50
149.99995
 51
209.999975
  0
LINE
  5
194
100
AcDbEntity
  8
LAY-3
  6
CONTINUOUS
 62
     3
100
AcDbLine
 10
624.861084
 20
146.052048
 30
0.0
 11
654.861084
 21
146.052048
 31
0.0
  0
LINE
  5
195
100
AcDbEntity
  8
LAY-3
  6
CONTINUOUS
 62
     3
100
AcDbLine
 10
654.861084
 20
146.052048
 30
0.0
 11
654.861084
 21
160.052048
 31
0.0
  0
LINE
  5
196
100
AcDbEntity
  8
LAY-3
  6
CONTINUOUS
 62
     3
100
AcDbLine
 10
654.861084
 20
160.052048
 30
0.0
 11
624.861084
 21
160.052048
 31
0.0
  0
LINE
  5
197
100
AcDbEntity
  8
LAY-3
  6
CONTINUOUS
 62
     3
100
AcDbLine
 10
624.861084
 20
160.052048
 30
0.0
 11
624.861084
 21
146.052048
 31
0.0
  0
ARC
  5
198
100
AcDbEntity
  8
LAY-3
  6
DASHED2
 62
     3
100
AcDbCircle
 10
599.861084
 20
160.552048
 30
0.0
 40
6.0
100
AcDbArc
 50
178.158205
 51
145.720851
  0
CIRCLE
  5
199
100
AcDbEntity
  8
LAY-3
  6
CONTINUOUS
 62
     3
100
AcDbCircle
 10
599.861084
 20
160.552048
 30
0.0
 40
3.0
  0
CIRCLE
  5
19A
100
AcDbEntity
  8
LAY-3
  6
CONTINUOUS
 62
     3
100
AcDbCircle
 10
599.861084
 20
145.552078
 30
0.0
 40
3.0
  0
ARC
  5
19B
100
AcDbEntity
  8
LAY-3
  6
DASHED2
 62
     3
100
AcDbCircle
 10
599.861084
 20
145.552078
 30
0.0
 40
6.0
100
AcDbArc
 50
214.278688
 51
181.842121
  0
CIRCLE
  5
19C
100
AcDbEntity
  8
LAY-3
  6
DASHED2
 62
     3
100
AcDbCircle
 10
679.861084
 20
160.552063
 30
0.0
 40
6.0
  0
CIRCLE
  5
19D
100
AcDbEntity
  8
LAY-3
  6
DASHED2
 62
     3
100
AcDbCircle
 10
679.861084
 20
145.552048
 30
0.0
 40
6.0
  0
CIRCLE
  5
19E
100
AcDbEntity
  8
LAY-3
  6
CONTINUOUS
 62
     3
100
AcDbCircle
 10
679.861084
 20
160.552063
 30
0.0
 40
3.0
  0
CIRCLE
  5
19F
100
AcDbEntity
  8
LAY-3
  6
CONTINUOUS
 62
     3
100
AcDbCircle
 10
679.861084
 20
145.552048
 30
0.0
 40
3.0
  0
CIRCLE
  5
1A0
100
AcDbEntity
  8
LAY-3
  6
DASHED2
 62
     3
100
AcDbCircle
 10
614.861084
 20
153.052048
 30
0.0
 40
4.5
  0
LINE
  5
1A1
100
AcDbEntity
  8
LAY-3
  6
CONTINUOUS
 62
     3
100
AcDbLine
 10
689.861084
 20
101.786606
 30
0.0
 11
592.861084
 21
101.786606
 31
0.0
  0
LINE
  5
1A2
100
AcDbEntity
  8
LAY-3
  6
CONTINUOUS
 62
     3
100
AcDbLine
 10
689.861084
 20
96.786606
 30
0.0
 11
592.861084
 21
96.786606
 31
0.0
  0
LINE
  5
1A3
100
AcDbEntity
  8
LAY-3
  6
CONTINUOUS
 62
     3
100
AcDbLine
 10
592.861084
 20
96.786606
 30
0.0
 11
592.861084
 21
101.786606
 31
0.0
  0
LINE
  5
1A4
100
AcDbEntity
  8
LAY-3
  6
CONTINUOUS
 62
     3
100
AcDbLine
 10
689.861084
 20
101.786606
 30
0.0
 11
689.861084
 21
96.786606
 31
0.0
  0
LINE
  5
1A5
100
AcDbEntity
  8
LAY-3
  6
DASHED2
 62
     3
100
AcDbLine
 10
624.861084
 20
101.786606
 30
0.0
 11
624.861084
 21
96.786606
 31
0.0
  0
LINE
  5
1A6
100
AcDbEntity
  8
LAY-3
  6
DASHED2
 62
     3
100
AcDbLine
 10
654.861084
 20
101.786606
 30
0.0
 11
654.861084
 21
96.786606
 31
0.0
  0
LINE
  5
1A7
100
AcDbEntity
  8
LAY-3
  6
DASHED2
 62
     3
100
AcDbLine
 10
596.861084
 20
100.1866
 30
0.0
 11
602.861084
 21
100.1866
 31
0.0
  0
LINE
  5
1A8
100
AcDbEntity
  8
LAY-3
  6
DASHED2
 62
     3
100
AcDbLine
 10
605.861084
 20
97.1866
 30
0.0
 11
593.861084
 21
97.1866
 31
0.0
  0
LINE
  5
1A9
100
AcDbEntity
  8
LAY-3
  6
DASHED2
 62
     3
100
AcDbLine
 10
593.861084
 20
96.786606
 30
0.0
 11
593.861084
 21
97.1866
 31
0.0
  0
LINE
  5
1AA
100
AcDbEntity
  8
LAY-3
  6
DASHED2
 62
     3
100
AcDbLine
 10
605.861084
 20
97.1866
 30
0.0
 11
605.861084
 21
96.786606
 31
0.0
  0
LINE
  5
1AB
100
AcDbEntity
  8
LAY-3
  6
DASHED2
 62
     3
100
AcDbLine
 10
605.861084
 20
97.1866
 30
0.0
 11
602.861114
 21
100.1866
 31
0.0
  0
LINE
  5
1AC
100
AcDbEntity
  8
LAY-3
  6
DASHED2
 62
     3
100
AcDbLine
 10
593.861084
 20
97.1866
 30
0.0
 11
596.861084
 21
100.1866
 31
0.0
  0
LINE
  5
1AD
100
AcDbEntity
  8
LAY-3
  6
DASHED2
 62
     3
100
AcDbLine
 10
619.361084
 20
100.786545
 30
0.0
 11
619.361084
 21
96.786575
 31
0.0
  0
LINE
  5
1AE
100
AcDbEntity
  8
LAY-3
  6
DASHED2
 62
     3
100
AcDbLine
 10
610.361084
 20
100.786545
 30
0.0
 11
610.361084
 21
96.786575
 31
0.0
  0
LINE
  5
1AF
100
AcDbEntity
  8
LAY-3
  6
DASHED2
 62
     3
100
AcDbLine
 10
610.361084
 20
100.786545
 30
0.0
 11
619.361084
 21
100.786545
 31
0.0
  0
LINE
  5
1B0
100
AcDbEntity
  8
LAY-3
  6
DASHED2
 62
     3
100
AcDbLine
 10
619.361084
 20
100.786545
 30
0.0
 11
620.361084
 21
101.786575
 31
0.0
  0
LINE
  5
1B1
100
AcDbEntity
  8
LAY-3
  6
DASHED2
 62
     3
100
AcDbLine
 10
610.361084
 20
100.786545
 30
0.0
 11
609.361084
 21
101.786575
 31
0.0
  0
LINE
  5
1B2
100
AcDbEntity
  8
LAY-3
  6
CONTINUOUS
 62
     3
100
AcDbLine
 10
620.861084
 20
96.786545
 30
0.0
 11
620.861084
 21
82.086563
 31
0.0
  0
LINE
  5
1B3
100
AcDbEntity
  8
LAY-3
  6
CONTINUOUS
 62
     3
100
AcDbLine
 10
620.061096
 20
81.286545
 30
0.0
 11
609.661072
 21
81.286545
 31
0.0
  0
LINE
  5
1B4
100
AcDbEntity
  8
LAY-3
  6
CONTINUOUS
 62
     3
100
AcDbLine
 10
608.861084
 20
82.086563
 30
0.0
 11
608.861084
 21
96.786575
 31
0.0
  0
LINE
  5
1B5
100
AcDbEntity
  8
LAY-3
  6
CONTINUOUS
 62
     3
100
AcDbLine
 10
620.861084
 20
82.086563
 30
0.0
 11
608.861084
 21
82.086563
 31
0.0
  0
LINE
  5
1B6
100
AcDbEntity
  8
LAY-3
  6
CONTINUOUS
 62
     3
100
AcDbLine
 10
620.861084
 20
82.086563
 30
0.0
 11
620.061096
 21
81.286545
 31
0.0
  0
LINE
  5
1B7
100
AcDbEntity
  8
LAY-3
  6
CONTINUOUS
 62
     3
100
AcDbLine
 10
609.661072
 20
81.286545
 30
0.0
 11
608.861084
 21
82.086563
 31
0.0
  0
LINE
  5
1B8
100
AcDbEntity
  8
LAY-3
  6
DASHED2
 62
     3
100
AcDbLine
 10
627.361084
 20
96.786575
 30
0.0
 11
603.861084
 21
96.786575
 31
0.0
  0
LINE
  5
1B9
100
AcDbEntity
  8
LAY-3
  6
CONTINUOUS
 62
     3
100
AcDbLine
 10
627.361084
 20
96.786575
 30
0.0
 11
592.861084
 21
96.786575
 31
0.0
  0
LINE
  5
1BA
100
AcDbEntity
  8
LAY-3
  6
DASHED2
 62
     3
100
AcDbLine
 10
596.861084
 20
100.1866
 30
0.0
 11
596.861084
 21
101.786606
 31
0.0
  0
LINE
  5
1BB
100
AcDbEntity
  8
LAY-3
  6
DASHED2
 62
     3
100
AcDbLine
 10
602.861084
 20
100.1866
 30
0.0
 11
602.861084
 21
101.786606
 31
0.0
  0
LINE
  5
1BC
100
AcDbEntity
  8
LAY-3
  6
DASHED2
 62
     3
100
AcDbLine
 10
676.861084
 20
100.1866
 30
0.0
 11
682.861084
 21
100.1866
 31
0.0
  0
LINE
  5
1BD
100
AcDbEntity
  8
LAY-3
  6
DASHED2
 62
     3
100
AcDbLine
 10
685.861084
 20
97.1866
 30
0.0
 11
673.861084
 21
97.1866
 31
0.0
  0
LINE
  5
1BE
100
AcDbEntity
  8
LAY-3
  6
DASHED2
 62
     3
100
AcDbLine
 10
673.861084
 20
96.786606
 30
0.0
 11
673.861084
 21
97.1866
 31
0.0
  0
LINE
  5
1BF
100
AcDbEntity
  8
LAY-3
  6
DASHED2
 62
     3
100
AcDbLine
 10
685.861084
 20
97.1866
 30
0.0
 11
685.861084
 21
96.786606
 31
0.0
  0
LINE
  5
1C0
100
AcDbEntity
  8
LAY-3
  6
DASHED2
 62
     3
100
AcDbLine
 10
685.861084
 20
97.1866
 30
0.0
 11
682.861114
 21
100.1866
 31
0.0
  0
LINE
  5
1C1
100
AcDbEntity
  8
LAY-3
  6
DASHED2
 62
     3
100
AcDbLine
 10
673.861084
 20
97.1866
 30
0.0
 11
676.861084
 21
100.1866
 31
0.0
  0
LINE
  5
1C2
100
AcDbEntity
  8
LAY-3
  6
DASHED2
 62
     3
100
AcDbLine
 10
676.861084
 20
100.1866
 30
0.0
 11
676.861084
 21
101.786606
 31
0.0
  0
LINE
  5
1C3
100
AcDbEntity
  8
LAY-3
  6
DASHED2
 62
     3
100
AcDbLine
 10
682.861084
 20
100.1866
 30
0.0
 11
682.861084
 21
101.786606
 31
0.0
  0
LINE
  5
1C4
100
AcDbEntity
  8
LAY-3
  6
CONTINUOUS
 62
     3
100
AcDbLine
 10
86.221329
 20
373.302032
 30
0.0
 11
86.221329
 21
389.302032
 31
0.0
  0
LINE
  5
1C5
100
AcDbEntity
  8
LAY-3
  6
CONTINUOUS
 62
     3
100
AcDbLine
 10
407.942078
 20
394.302032
 30
0.0
 11
434.790161
 21
394.302032
 31
0.0
  0
LINE
  5
1C6
100
AcDbEntity
  8
LAY-3
  6
CONTINUOUS
 62
     3
100
AcDbLine
 10
435.787659
 20
393.373261
 30
0.0
 11
436.221313
 21
387.302032
 31
0.0
  0
LINE
  5
1C7
100
AcDbEntity
  8
LAY-3
  6
CONTINUOUS
 62
     3
100
AcDbLine
 10
436.221313
 20
387.302032
 30
0.0
 11
435.755737
 21
374.266327
 31
0.0
  0
ARC
  5
1C8
100
AcDbEntity
  8
LAY-3
  6
CONTINUOUS
 62
     3
100
AcDbCircle
 10
434.790161
 20
393.302032
 30
0.0
 40
1.0
100
AcDbArc
 50
4.08559
 51
89.999981
  0
ARC
  5
1C9
100
AcDbEntity
  8
LAY-3
  6
CONTINUOUS
 62
     3
100
AcDbCircle
 10
434.756348
 20
374.302032
 30
0.0
 40
1.0
100
AcDbArc
 50
270.000001
 51
357.95458
  0
LINE
  5
1CA
100
AcDbEntity
  8
LAY-3
  6
CONTINUOUS
 62
     3
100
AcDbLine
 10
406.993408
 20
393.618256
 30
0.0
 11
404.221313
 21
385.302032
 31
0.0
  0
ARC
  5
1CB
100
AcDbEntity
  8
LAY-3
  6
CONTINUOUS
 62
     3
100
AcDbCircle
 10
407.942078
 20
393.302032
 30
0.0
 40
1.0
100
AcDbArc
 50
89.999981
 51
161.564874
  0
LINE
  5
1CC
100
AcDbEntity
  8
LAY-3
  6
CONTINUOUS
 62
     3
100
AcDbLine
 10
152.221329
 20
389.302032
 30
0.0
 11
404.221313
 21
385.302032
 31
0.0
  0
LINE
  5
1CD
100
AcDbEntity
  8
LAY-3
  6
DASHED2
 62
     3
100
AcDbLine
 10
386.221313
 20
376.302032
 30
0.0
 11
153.221344
 21
376.302032
 31
0.0
  0
LINE
  5
1CE
100
AcDbEntity
  8
LAY-3
  6
DASHED2
 62
     3
100
AcDbLine
 10
152.221344
 20
375.302032
 30
0.0
 11
152.221344
 21
373.302032
 31
0.0
  0
ARC
  5
1CF
100
AcDbEntity
  8
LAY-3
  6
DASHED2
 62
     3
100
AcDbCircle
 10
153.221344
 20
375.302032
 30
0.0
 40
1.0
100
AcDbArc
 50
89.999981
 51
180.00002
  0
LINE
  5
1D0
100
AcDbEntity
  8
LAY-3
  6
DASHED2
 62
     3
100
AcDbLine
 10
387.221313
 20
375.302032
 30
0.0
 11
387.221313
 21
373.302032
 31
0.0
  0
ARC
  5
1D1
100
AcDbEntity
  8
LAY-3
  6
DASHED2
 62
     3
100
AcDbCircle
 10
386.221313
 20
375.302032
 30
0.0
 40
1.0
100
AcDbArc
 50
0.0
 51
89.999981
  0
CIRCLE
  5
1D2
100
AcDbEntity
  8
LAY-3
  6
CONTINUOUS
 62
     1
100
AcDbCircle
 10
417.221313
 20
387.302032
 30
0.0
 40
3.96875
  0
CIRCLE
  5
1D3
100
AcDbEntity
  8
LAY-3
  6
CONTINUOUS
 62
     1
100
AcDbCircle
 10
427.221313
 20
387.302032
 30
0.0
 40
3.96875
  0
CIRCLE
  5
1D4
100
AcDbEntity
  8
LAY-3
  6
CONTINUOUS
 62
     3
100
AcDbCircle
 10
417.221313
 20
387.302032
 30
0.0
 40
3.16875
  0
CIRCLE
  5
1D5
100
AcDbEntity
  8
LAY-3
  6
CONTINUOUS
 62
     3
100
AcDbCircle
 10
427.221313
 20
387.302032
 30
0.0
 40
3.16875
  0
LINE
  5
1D6
100
AcDbEntity
  8
LAY-3
  6
CONTINUOUS
 62
     3
100
AcDbLine
 10
112.721329
 20
371.302032
 30
0.0
 11
111.221329
 21
391.302032
 31
0.0
  0
LINE
  5
1D7
100
AcDbEntity
  8
LAY-3
  6
CONTINUOUS
 62
     3
100
AcDbLine
 10
131.721329
 20
371.302032
 30
0.0
 11
133.221329
 21
391.302032
 31
0.0
  0
LINE
  5
1D8
100
AcDbEntity
  8
LAY-3
  6
CONTINUOUS
 62
     3
100
AcDbLine
 10
172.221329
 20
394.302032
 30
0.0
 11
172.221329
 21
389.302032
 31
0.0
  0
LINE
  5
1D9
100
AcDbEntity
  8
LAY-3
  6
CONTINUOUS
 62
     3
100
AcDbLine
 10
75.221313
 20
389.302032
 30
0.0
 11
75.221313
 21
394.302032
 31
0.0
  0
LINE
  5
1DA
100
AcDbEntity
  8
LAY-3
  6
CONTINUOUS
 62
     3
100
AcDbLine
 10
75.221313
 20
394.302032
 30
0.0
 11
172.221329
 21
394.302032
 31
0.0
  0
LINE
  5
1DB
100
AcDbEntity
  8
LAY-3
  6
DASHED2
 62
     3
100
AcDbLine
 10
76.221313
 20
389.302002
 30
0.0
 11
76.221313
 21
389.701996
 31
0.0
  0
LINE
  5
1DC
100
AcDbEntity
  8
LAY-3
  6
DASHED2
 62
     3
100
AcDbLine
 10
76.221313
 20
389.701996
 30
0.0
 11
79.221313
 21
392.701996
 31
0.0
  0
LINE
  5
1DD
100
AcDbEntity
  8
LAY-3
  6
CONTINUOUS
 62
     3
100
AcDbLine
 10
79.221313
 20
404.302032
 30
0.0
 11
85.221313
 21
404.302032
 31
0.0
  0
LINE
  5
1DE
100
AcDbEntity
  8
LAY-3
  6
CONTINUOUS
 62
     3
100
AcDbLine
 10
101.721329
 20
393.302002
 30
0.0
 11
101.721329
 21
389.302032
 31
0.0
  0
LINE
  5
1DF
100
AcDbEntity
  8
LAY-3
  6
CONTINUOUS
 62
     3
100
AcDbLine
 10
92.721329
 20
393.302002
 30
0.0
 11
92.721329
 21
389.302032
 31
0.0
  0
LINE
  5
1E0
100
AcDbEntity
  8
LAY-3
  6
CONTINUOUS
 62
     3
100
AcDbLine
 10
92.721329
 20
393.302002
 30
0.0
 11
101.721329
 21
393.302002
 31
0.0
  0
LINE
  5
1E1
100
AcDbEntity
  8
LAY-3
  6
CONTINUOUS
 62
     3
100
AcDbLine
 10
101.721329
 20
393.302002
 30
0.0
 11
102.721359
 21
394.302032
 31
0.0
  0
LINE
  5
1E2
100
AcDbEntity
  8
LAY-3
  6
CONTINUOUS
 62
     3
100
AcDbLine
 10
92.721329
 20
393.302002
 30
0.0
 11
91.721313
 21
394.302032
 31
0.0
  0
LINE
  5
1E3
100
AcDbEntity
  8
LAY-3
  6
CONTINUOUS
 62
     3
100
AcDbLine
 10
103.221329
 20
389.302002
 30
0.0
 11
103.221329
 21
374.60202
 31
0.0
  0
LINE
  5
1E4
100
AcDbEntity
  8
LAY-3
  6
CONTINUOUS
 62
     3
100
AcDbLine
 10
102.421326
 20
373.802002
 30
0.0
 11
92.021332
 21
373.802002
 31
0.0
  0
LINE
  5
1E5
100
AcDbEntity
  8
LAY-3
  6
CONTINUOUS
 62
     3
100
AcDbLine
 10
91.221329
 20
374.60202
 30
0.0
 11
91.221329
 21
389.302032
 31
0.0
  0
LINE
  5
1E6
100
AcDbEntity
  8
LAY-3
  6
CONTINUOUS
 62
     3
100
AcDbLine
 10
103.221329
 20
374.60202
 30
0.0
 11
91.221329
 21
374.60202
 31
0.0
  0
LINE
  5
1E7
100
AcDbEntity
  8
LAY-3
  6
CONTINUOUS
 62
     3
100
AcDbLine
 10
103.221329
 20
374.60202
 30
0.0
 11
102.421326
 21
373.802002
 31
0.0
  0
LINE
  5
1E8
100
AcDbEntity
  8
LAY-3
  6
CONTINUOUS
 62
     3
100
AcDbLine
 10
92.021332
 20
373.802002
 30
0.0
 11
91.221329
 21
374.60202
 31
0.0
  0
LINE
  5
1E9
100
AcDbEntity
  8
LAY-3
  6
CONTINUOUS
 62
     3
100
AcDbLine
 10
133.221329
 20
391.302002
 30
0.0
 11
111.221329
 21
391.302002
 31
0.0
  0
LINE
  5
1EA
100
AcDbEntity
  8
LAY-3
  6
CONTINUOUS
 62
     3
100
AcDbLine
 10
109.721335
 20
394.302032
 30
0.0
 11
109.721335
 21
371.302002
 31
0.0
  0
LINE
  5
1EB
100
AcDbEntity
  8
LAY-3
  6
CONTINUOUS
 62
     3
100
AcDbLine
 10
134.721338
 20
394.302032
 30
0.0
 11
134.721338
 21
371.302002
 31
0.0
  0
LINE
  5
1EC
100
AcDbEntity
  8
LAY-3
  6
CONTINUOUS
 62
     3
100
AcDbLine
 10
109.621329
 20
366.302063
 30
0.0
 11
109.621329
 21
371.302002
 31
0.0
  0
LINE
  5
1ED
100
AcDbEntity
  8
LAY-3
  6
CONTINUOUS
 62
     3
100
AcDbLine
 10
134.821329
 20
366.302063
 30
0.0
 11
134.821329
 21
371.302002
 31
0.0
  0
LINE
  5
1EE
100
AcDbEntity
  8
LAY-3
  6
CONTINUOUS
 62
     3
100
AcDbLine
 10
109.621329
 20
389.302032
 30
0.0
 11
86.221329
 21
389.302032
 31
0.0
  0
LINE
  5
1EF
100
AcDbEntity
  8
LAY-3
  6
CONTINUOUS
 62
     3
100
AcDbLine
 10
134.821329
 20
389.302032
 30
0.0
 11
152.221329
 21
389.302032
 31
0.0
  0
LINE
  5
1F0
100
AcDbEntity
  8
LAY-3
  6
CONTINUOUS
 62
     3
100
AcDbLine
 10
109.621313
 20
389.302032
 30
0.0
 11
75.221313
 21
389.302032
 31
0.0
  0
LINE
  5
1F1
100
AcDbEntity
  8
LAY-3
  6
CONTINUOUS
 62
     3
100
AcDbLine
 10
134.821313
 20
389.302032
 30
0.0
 11
172.221329
 21
389.302032
 31
0.0
  0
LINE
  5
1F2
100
AcDbEntity
  8
LAY-3
  6
CONTINUOUS
 62
     3
100
AcDbLine
 10
109.621329
 20
373.302032
 30
0.0
 11
86.221329
 21
373.302032
 31
0.0
  0
LINE
  5
1F3
100
AcDbEntity
  8
LAY-3
  6
CONTINUOUS
 62
     3
100
AcDbLine
 10
134.821329
 20
373.302032
 30
0.0
 11
434.756348
 21
373.302032
 31
0.0
  0
LINE
  5
1F4
100
AcDbEntity
  8
LAY-3
  6
CONTINUOUS
 62
     3
100
AcDbLine
 10
109.621329
 20
371.302002
 30
0.0
 11
109.721335
 21
371.302002
 31
0.0
  0
LINE
  5
1F5
100
AcDbEntity
  8
LAY-3
  6
CONTINUOUS
 62
     3
100
AcDbLine
 10
134.821329
 20
371.302002
 30
0.0
 11
134.721338
 21
371.302002
 31
0.0
  0
LINE
  5
1F6
100
AcDbEntity
  8
LAY-3
  6
CONTINUOUS
 62
     3
100
AcDbLine
 10
112.721329
 20
371.302032
 30
0.0
 11
131.721329
 21
371.302032
 31
0.0
  0
CIRCLE
  5
1F7
100
AcDbEntity
  8
LAY-3
  6
DASHED2
 62
     3
100
AcDbCircle
 10
427.221283
 20
387.302032
 30
0.0
 40
7.75
  0
CIRCLE
  5
1F8
100
AcDbEntity
  8
LAY-3
  6
DIVIDE
 62
     3
100
AcDbCircle
 10
427.221344
 20
387.302063
 30
0.0
 40
12.5
  0
LINE
  5
1F9
100
AcDbEntity
  8
LAY-3
  6
CONTINUOUS
 62
     3
100
AcDbLine
 10
678.049805
 20
388.302063
 30
0.0
 11
678.049805
 21
374.302063
 31
0.0
  0
LINE
  5
1FA
100
AcDbEntity
  8
LAY-3
  6
CONTINUOUS
 62
     3
100
AcDbLine
 10
708.049805
 20
388.302063
 30
0.0
 11
708.049805
 21
374.302063
 31
0.0
  0
ARC
  5
1FB
100
AcDbEntity
  8
LAY-3
  6
CONTINUOUS
 62
     3
100
AcDbCircle
 10
679.049805
 20
388.302063
 30
0.0
 40
1.0
100
AcDbArc
 50
89.999981
 51
180.00002
  0
ARC
  5
1FC
100
AcDbEntity
  8
LAY-3
  6
CONTINUOUS
 62
     3
100
AcDbCircle
 10
679.049805
 20
374.302063
 30
0.0
 40
1.0
100
AcDbArc
 50
180.00002
 51
270.000001
  0
ARC
  5
1FD
100
AcDbEntity
  8
LAY-3
  6
CONTINUOUS
 62
     3
100
AcDbCircle
 10
707.049805
 20
388.302063
 30
0.0
 40
1.0
100
AcDbArc
 50
0.0
 51
89.999981
  0
ARC
  5
1FE
100
AcDbEntity
  8
LAY-3
  6
CONTINUOUS
 62
     3
100
AcDbCircle
 10
707.049805
 20
374.302063
 30
0.0
 40
1.0
100
AcDbArc
 50
270.000001
 51
359.999982
  0
LINE
  5
1FF
100
AcDbEntity
  8
LAY-3
  6
CONTINUOUS
 62
     3
100
AcDbLine
 10
698.800049
 20
391.302063
 30
0.0
 11
687.299561
 21
391.302063
 31
0.0
  0
LINE
  5
200
100
AcDbEntity
  8
LAY-3
  6
CONTINUOUS
 62
     3
100
AcDbLine
 10
680.549805
 20
366.302063
 30
0.0
 11
680.549805
 21
371.302063
 31
0.0
  0
LINE
  5
201
100
AcDbEntity
  8
LAY-3
  6
CONTINUOUS
 62
     3
100
AcDbLine
 10
705.549805
 20
366.302063
 30
0.0
 11
705.549805
 21
371.302063
 31
0.0
  0
LINE
  5
202
100
AcDbEntity
  8
LAY-3
  6
CONTINUOUS
 62
     3
100
AcDbLine
 10
685.629639
 20
372.214905
 30
0.0
 11
687.299561
 21
391.302063
 31
0.0
  0
LINE
  5
203
100
AcDbEntity
  8
LAY-3
  6
CONTINUOUS
 62
     3
100
AcDbLine
 10
700.469971
 20
372.214905
 30
0.0
 11
698.800049
 21
391.302063
 31
0.0
  0
ARC
  5
204
100
AcDbEntity
  8
LAY-3
  6
CONTINUOUS
 62
     3
100
AcDbCircle
 10
684.633484
 20
372.302063
 30
0.0
 40
1.0
100
AcDbArc
 50
270.000001
 51
354.999952
  0
ARC
  5
205
100
AcDbEntity
  8
LAY-3
  6
CONTINUOUS
 62
     3
100
AcDbCircle
 10
701.466125
 20
372.302063
 30
0.0
 40
1.0
100
AcDbArc
 50
184.999993
 51
270.000001
  0
LINE
  5
206
100
AcDbEntity
  8
LAY-3
  6
CONTINUOUS
 62
     3
100
AcDbLine
 10
684.633484
 20
371.302063
 30
0.0
 11
680.549805
 21
371.302063
 31
0.0
  0
LINE
  5
207
100
AcDbEntity
  8
LAY-3
  6
CONTINUOUS
 62
     3
100
AcDbLine
 10
701.466125
 20
371.302063
 30
0.0
 11
705.549805
 21
371.302063
 31
0.0
  0
LINE
  5
208
100
AcDbEntity
  8
LAY-3
  6
CONTINUOUS
 62
     3
100
AcDbLine
 10
685.724731
 20
373.302063
 30
0.0
 11
679.049805
 21
373.302063
 31
0.0
  0
LINE
  5
209
100
AcDbEntity
  8
LAY-3
  6
CONTINUOUS
 62
     3
100
AcDbLine
 10
700.374817
 20
373.302063
 30
0.0
 11
707.049805
 21
373.302063
 31
0.0
  0
LINE
  5
20A
100
AcDbEntity
  8
LAY-3
  6
CONTINUOUS
 62
     3
100
AcDbLine
 10
687.124573
 20
389.302063
 30
0.0
 11
679.049805
 21
389.302063
 31
0.0
  0
LINE
  5
20B
100
AcDbEntity
  8
LAY-3
  6
CONTINUOUS
 62
     3
100
AcDbLine
 10
698.975037
 20
389.302063
 30
0.0
 11
707.049805
 21
389.302063
 31
0.0
  0
LINE
  5
20C
100
AcDbEntity
  8
LAY-3
  6
CONTINUOUS
 62
     3
100
AcDbLine
 10
700.549805
 20
394.302063
 30
0.0
 11
700.549805
 21
389.302063
 31
0.0
  0
LINE
  5
20D
100
AcDbEntity
  8
LAY-3
  6
CONTINUOUS
 62
     3
100
AcDbLine
 10
678.049805
 20
388.302063
 30
0.0
 11
678.049805
 21
393.302063
 31
0.0
  0
LINE
  5
20E
100
AcDbEntity
  8
LAY-3
  6
CONTINUOUS
 62
     3
100
AcDbLine
 10
708.049805
 20
393.302063
 30
0.0
 11
708.049805
 21
388.302063
 31
0.0
  0
ARC
  5
20F
100
AcDbEntity
  8
LAY-3
  6
CONTINUOUS
 62
     3
100
AcDbCircle
 10
679.049805
 20
393.302063
 30
0.0
 40
1.0
100
AcDbArc
 50
89.999981
 51
180.00002
  0
ARC
  5
210
100
AcDbEntity
  8
LAY-3
  6
CONTINUOUS
 62
     3
100
AcDbCircle
 10
707.049805
 20
393.302063
 30
0.0
 40
1.0
100
AcDbArc
 50
0.0
 51
89.999981
  0
LINE
  5
211
100
AcDbEntity
  8
LAY-3
  6
CONTINUOUS
 62
     3
100
AcDbLine
 10
685.549805
 20
389.302063
 30
0.0
 11
685.549805
 21
394.302063
 31
0.0
  0
LINE
  5
212
100
AcDbEntity
  8
LAY-3
  6
CONTINUOUS
 62
     1
100
AcDbLine
 10
708.049805
 20
394.302063
 30
0.0
 11
678.049805
 21
394.302063
 31
0.0
  0
LINE
  5
213
100
AcDbEntity
  8
LAY-3
  6
DASHED2
 62
     3
100
AcDbLine
 10
712.449829
 20
390.902039
 30
0.0
 11
712.449829
 21
382.702087
 31
0.0
  0
LINE
  5
214
100
AcDbEntity
  8
LAY-3
  6
DASHED2
 62
     3
100
AcDbLine
 10
713.049866
 20
391.387756
 30
0.0
 11
712.449829
 21
390.902039
 31
0.0
  0
LINE
  5
215
100
AcDbEntity
  8
LAY-3
  6
DASHED2
 62
     3
100
AcDbLine
 10
713.049805
 20
382.21637
 30
0.0
 11
712.449829
 21
382.702087
 31
0.0
  0
LINE
  5
216
100
AcDbEntity
  8
LAY-3
  6
CONTINUOUS
 62
     3
100
AcDbLine
 10
714.549805
 20
374.302063
 30
0.0
 11
713.049805
 21
374.302063
 31
0.0
  0
LINE
  5
217
100
AcDbEntity
  8
LAY-3
  6
CONTINUOUS
 62
     3
100
AcDbLine
 10
717.049805
 20
376.802063
 30
0.0
 11
717.049805
 21
377.785584
 31
0.0
  0
ARC
  5
218
100
AcDbEntity
  8
LAY-3
  6
CONTINUOUS
 62
     3
100
AcDbCircle
 10
714.549805
 20
376.802063
 30
0.0
 40
2.5
100
AcDbArc
 50
270.000001
 51
359.999982
  0
LINE
  5
219
100
AcDbEntity
  8
LAY-3
  6
CONTINUOUS
 62
     3
100
AcDbLine
 10
714.549866
 20
399.302124
 30
0.0
 11
713.049805
 21
399.302124
 31
0.0
  0
ARC
  5
21A
100
AcDbEntity
  8
LAY-3
  6
CONTINUOUS
 62
     3
100
AcDbCircle
 10
714.549866
 20
396.802124
 30
0.0
 40
2.5
100
AcDbArc
 50
0.000172
 51
89.999981
  0
LINE
  5
21B
100
AcDbEntity
  8
LAY-3
  6
CONTINUOUS
 62
     3
100
AcDbLine
 10
717.049866
 20
396.802124
 30
0.0
 11
717.049866
 21
395.818542
 31
0.0
  0
LINE
  5
21C
100
AcDbEntity
  8
LAY-3
  6
CONTINUOUS
 62
     3
100
AcDbLine
 10
713.049866
 20
391.387756
 30
0.0
 11
713.049866
 21
399.302124
 31
0.0
  0
LINE
  5
21D
100
AcDbEntity
  8
LAY-3
  6
CONTINUOUS
 62
     3
100
AcDbLine
 10
713.049805
 20
391.387756
 30
0.0
 11
713.049805
 21
374.302063
 31
0.0
  0
LINE
  5
21E
100
AcDbEntity
  8
LAY-3
  6
CONTINUOUS
 62
     3
100
AcDbLine
 10
717.049805
 20
377.785584
 30
0.0
 11
717.049866
 21
395.818542
 31
0.0
  0
LINE
  5
21F
100
AcDbEntity
  8
LAY-3
  6
DASHED2
 62
     3
100
AcDbLine
 10
673.64978
 20
390.902039
 30
0.0
 11
673.64978
 21
382.702087
 31
0.0
  0
LINE
  5
220
100
AcDbEntity
  8
LAY-3
  6
DASHED2
 62
     3
100
AcDbLine
 10
673.049744
 20
391.387756
 30
0.0
 11
673.64978
 21
390.902039
 31
0.0
  0
LINE
  5
221
100
AcDbEntity
  8
LAY-3
  6
DASHED2
 62
     3
100
AcDbLine
 10
673.049805
 20
382.21637
 30
0.0
 11
673.64978
 21
382.702087
 31
0.0
  0
LINE
  5
222
100
AcDbEntity
  8
LAY-3
  6
CONTINUOUS
 62
     3
100
AcDbLine
 10
671.549805
 20
374.302063
 30
0.0
 11
673.049805
 21
374.302063
 31
0.0
  0
LINE
  5
223
100
AcDbEntity
  8
LAY-3
  6
CONTINUOUS
 62
     3
100
AcDbLine
 10
669.049805
 20
376.802063
 30
0.0
 11
669.049805
 21
377.785584
 31
0.0
  0
ARC
  5
224
100
AcDbEntity
  8
LAY-3
  6
CONTINUOUS
 62
     3
100
AcDbCircle
 10
671.549805
 20
376.802063
 30
0.0
 40
2.5
100
AcDbArc
 50
180.00002
 51
270.000001
  0
LINE
  5
225
100
AcDbEntity
  8
LAY-3
  6
CONTINUOUS
 62
     3
100
AcDbLine
 10
671.549744
 20
399.302124
 30
0.0
 11
673.049805
 21
399.302124
 31
0.0
  0
ARC
  5
226
100
AcDbEntity
  8
LAY-3
  6
CONTINUOUS
 62
     3
100
AcDbCircle
 10
671.549744
 20
396.802124
 30
0.0
 40
2.5
100
AcDbArc
 50
89.999981
 51
180.00002
  0
LINE
  5
227
100
AcDbEntity
  8
LAY-3
  6
CONTINUOUS
 62
     3
100
AcDbLine
 10
669.049744
 20
396.802124
 30
0.0
 11
669.049744
 21
395.818542
 31
0.0
  0
LINE
  5
228
100
AcDbEntity
  8
LAY-3
  6
CONTINUOUS
 62
     3
100
AcDbLine
 10
673.049744
 20
391.387756
 30
0.0
 11
673.049744
 21
399.302124
 31
0.0
  0
LINE
  5
229
100
AcDbEntity
  8
LAY-3
  6
CONTINUOUS
 62
     3
100
AcDbLine
 10
673.049805
 20
391.387756
 30
0.0
 11
673.049805
 21
374.302063
 31
0.0
  0
LINE
  5
22A
100
AcDbEntity
  8
LAY-3
  6
CONTINUOUS
 62
     3
100
AcDbLine
 10
669.049805
 20
377.785584
 30
0.0
 11
669.049744
 21
395.818542
 31
0.0
  0
LINE
  5
22B
100
AcDbEntity
  8
LAY-3
  6
CONTINUOUS
 62
     3
100
AcDbLine
 10
86.221313
 20
143.052078
 30
0.0
 11
86.221313
 21
163.052078
 31
0.0
  0
LINE
  5
22C
100
AcDbEntity
  8
LAY-3
  6
CONTINUOUS
 62
     3
100
AcDbLine
 10
152.221313
 20
167.552078
 30
0.0
 11
110.221313
 21
167.552078
 31
0.0
  0
LINE
  5
22D
100
AcDbEntity
  8
LAY-3
  6
CONTINUOUS
 62
     3
100
AcDbLine
 10
110.221313
 20
167.552078
 30
0.0
 11
86.221313
 21
163.052078
 31
0.0
  0
LINE
  5
22E
100
AcDbEntity
  8
LAY-3
  6
CONTINUOUS
 62
     3
100
AcDbLine
 10
435.221313
 20
160.552063
 30
0.0
 11
408.221313
 21
160.552063
 31
0.0
  0
LINE
  5
22F
100
AcDbEntity
  8
LAY-3
  6
CONTINUOUS
 62
     3
100
AcDbLine
 10
408.220551
 20
160.524628
 30
0.0
 11
152.221313
 21
167.552078
 31
0.0
  0
LINE
  5
230
100
AcDbEntity
  8
LAY-3
  6
CONTINUOUS
 62
     3
100
AcDbLine
 10
436.221313
 20
146.552063
 30
0.0
 11
436.221313
 21
159.552063
 31
0.0
  0
LINE
  5
231
100
AcDbEntity
  8
LAY-3
  6
CONTINUOUS
 62
     3
100
AcDbLine
 10
152.221313
 20
138.552078
 30
0.0
 11
110.221313
 21
138.552078
 31
0.0
  0
LINE
  5
232
100
AcDbEntity
  8
LAY-3
  6
CONTINUOUS
 62
     3
100
AcDbLine
 10
110.221313
 20
138.552078
 30
0.0
 11
86.221313
 21
143.052078
 31
0.0
  0
LINE
  5
233
100
AcDbEntity
  8
LAY-3
  6
CONTINUOUS
 62
     3
100
AcDbLine
 10
408.220551
 20
145.579521
 30
0.0
 11
152.221313
 21
138.552078
 31
0.0
  0
LINE
  5
234
100
AcDbEntity
  8
LAY-3
  6
CONTINUOUS
 62
     3
100
AcDbLine
 10
435.221313
 20
145.552063
 30
0.0
 11
408.221313
 21
145.552063
 31
0.0
  0
LINE
  5
235
100
AcDbEntity
  8
LAY-3
  6
DASHED2
 62
     3
100
AcDbLine
 10
383.129883
 20
157.211884
 30
0.0
 11
153.248749
 21
163.522369
 31
0.0
  0
LINE
  5
236
100
AcDbEntity
  8
LAY-3
  6
DASHED2
 62
     3
100
AcDbLine
 10
381.494568
 20
148.847366
 30
0.0
 11
153.248749
 21
142.581772
 31
0.0
  0
LINE
  5
237
100
AcDbEntity
  8
LAY-3
  6
DASHED2
 62
     3
100
AcDbLine
 10
152.221313
 20
162.522751
 30
0.0
 11
152.221313
 21
143.58139
 31
0.0
  0
ARC
  5
238
100
AcDbEntity
  8
LAY-3
  6
DASHED2
 62
     3
100
AcDbCircle
 10
153.221313
 20
143.58139
 30
0.0
 40
1.0
100
AcDbArc
 50
180.00002
 51
271.572426
  0
LINE
  5
239
100
AcDbEntity
  8
LAY-3
  6
CONTINUOUS
 62
     3
100
AcDbLine
 10
407.221313
 20
146.552063
 30
0.0
 11
407.221313
 21
159.552063
 31
0.0
  0
ARC
  5
23A
100
AcDbEntity
  8
LAY-3
  6
DASHED2
 62
     3
100
AcDbCircle
 10
383.060913
 20
153.052063
 30
0.0
 40
4.160387
100
AcDbArc
 50
272.208925
 51
87.791097
  0
CIRCLE
  5
23B
100
AcDbEntity
  8
LAY-3
  6
CONTINUOUS
 62
     3
100
AcDbCircle
 10
97.221313
 20
153.052063
 30
0.0
 40
6.0
  0
LINE
  5
23C
100
AcDbEntity
  8
LAY-3
  6
DASHED2
 62
     3
100
AcDbLine
 10
112.571091
 20
160.552078
 30
0.0
 11
131.871552
 21
160.552078
 31
0.0
  0
LINE
  5
23D
100
AcDbEntity
  8
LAY-3
  6
DASHED2
 62
     3
100
AcDbLine
 10
112.571091
 20
145.552078
 30
0.0
 11
131.871552
 21
145.552078
 31
0.0
  0
ARC
  5
23E
100
AcDbEntity
  8
LAY-3
  6
CONTINUOUS
 62
     3
100
AcDbCircle
 10
123.018341
 20
153.052078
 30
0.0
 40
11.602989
100
AcDbArc
 50
319.730446
 51
40.269576
  0
ARC
  5
23F
100
AcDbEntity
  8
LAY-3
  6
CONTINUOUS
 62
     3
100
AcDbCircle
 10
121.424393
 20
153.052078
 30
0.0
 40
11.603059
100
AcDbArc
 50
139.730713
 51
220.269327
  0
LINE
  5
240
100
AcDbEntity
  8
LAY-3
  6
CONTINUOUS
 62
     3
100
AcDbLine
 10
133.082459
 20
158.802292
 30
0.0
 11
111.316803
 21
158.802292
 31
0.0
  0
LINE
  5
241
100
AcDbEntity
  8
LAY-3
  6
CONTINUOUS
 62
     3
100
AcDbLine
 10
111.329453
 20
147.301865
 30
0.0
 11
133.171677
 21
147.301865
 31
0.0
  0
ARC
  5
242
100
AcDbEntity
  8
LAY-3
  6
DASHED2
 62
     3
100
AcDbCircle
 10
153.221313
 20
162.522736
 30
0.0
 40
1.0
100
AcDbArc
 50
88.427556
 51
180.00002
  0
LINE
  5
243
100
AcDbEntity
  8
LAY-3
  6
CONTINUOUS
 62
     3
100
AcDbLine
 10
431.321289
 20
142.052063
 30
0.0
 11
423.121338
 21
142.052063
 31
0.0
  0
LINE
  5
244
100
AcDbEntity
  8
LAY-3
  6
DASHED2
 62
     3
100
AcDbLine
 10
423.121338
 20
172.452072
 30
0.0
 11
431.321289
 21
172.452072
 31
0.0
  0
LINE
  5
245
100
AcDbEntity
  8
LAY-3
  6
DASHED2
 62
     3
100
AcDbLine
 10
431.321289
 20
160.552063
 30
0.0
 11
431.32135
 21
145.552063
 31
0.0
  0
LINE
  5
246
100
AcDbEntity
  8
LAY-3
  6
DASHED2
 62
     3
100
AcDbLine
 10
423.121338
 20
160.552063
 30
0.0
 11
423.121338
 21
145.552063
 31
0.0
  0
LINE
  5
247
100
AcDbEntity
  8
LAY-3
  6
DASHED2
 62
     1
100
AcDbLine
 10
430.721313
 20
160.552063
 30
0.0
 11
430.721313
 21
145.552063
 31
0.0
  0
LINE
  5
248
100
AcDbEntity
  8
LAY-3
  6
DASHED2
 62
     1
100
AcDbLine
 10
423.721313
 20
160.552063
 30
0.0
 11
423.721313
 21
145.552063
 31
0.0
  0
LINE
  5
249
100
AcDbEntity
  8
LAY-3
  6
CONTINUOUS
 62
     3
100
AcDbLine
 10
431.32132
 20
145.552063
 30
0.0
 11
431.321289
 21
142.052063
 31
0.0
  0
LINE
  5
24A
100
AcDbEntity
  8
LAY-3
  6
CONTINUOUS
 62
     3
100
AcDbLine
 10
423.121338
 20
145.552063
 30
0.0
 11
423.121338
 21
142.052063
 31
0.0
  0
LINE
  5
24B
100
AcDbEntity
  8
LAY-3
  6
CONTINUOUS
 62
     1
100
AcDbLine
 10
430.721313
 20
145.552063
 30
0.0
 11
430.721313
 21
142.052063
 31
0.0
  0
LINE
  5
24C
100
AcDbEntity
  8
LAY-3
  6
CONTINUOUS
 62
     1
100
AcDbLine
 10
423.721313
 20
145.552063
 30
0.0
 11
423.721313
 21
142.052063
 31
0.0
  0
LINE
  5
24D
100
AcDbEntity
  8
LAY-3
  6
CONTINUOUS
 62
     3
100
AcDbLine
 10
419.721313
 20
177.052063
 30
0.0
 11
419.721313
 21
176.652069
 31
0.0
  0
LINE
  5
24E
100
AcDbEntity
  8
LAY-3
  6
CONTINUOUS
 62
     3
100
AcDbLine
 10
434.721313
 20
177.052063
 30
0.0
 11
434.721313
 21
176.652069
 31
0.0
  0
LINE
  5
24F
100
AcDbEntity
  8
LAY-3
  6
CONTINUOUS
 62
     3
100
AcDbLine
 10
435.06897
 20
175.495865
 30
0.0
 11
433.090698
 21
173.052063
 31
0.0
  0
LINE
  5
250
100
AcDbEntity
  8
LAY-3
  6
CONTINUOUS
 62
     3
100
AcDbLine
 10
421.351929
 20
173.052078
 30
0.0
 11
419.373657
 21
175.49585
 31
0.0
  0
LINE
  5
251
100
AcDbEntity
  8
LAY-3
  6
CONTINUOUS
 62
     3
100
AcDbLine
 10
438.721313
 20
174.552094
 30
0.0
 11
438.721313
 21
173.052063
 31
0.0
  0
LINE
  5
252
100
AcDbEntity
  8
LAY-3
  6
CONTINUOUS
 62
     3
100
AcDbLine
 10
432.315186
 20
173.67981
 30
0.0
 11
433.090698
 21
173.052063
 31
0.0
  0
LINE
  5
253
100
AcDbEntity
  8
LAY-3
  6
CONTINUOUS
 62
     3
100
AcDbLine
 10
422.127319
 20
173.67981
 30
0.0
 11
421.351929
 21
173.052063
 31
0.0
  0
LINE
  5
254
100
AcDbEntity
  8
LAY-3
  6
CONTINUOUS
 62
     3
100
AcDbLine
 10
437.221313
 20
176.052063
 30
0.0
 11
436.234863
 21
176.052063
 31
0.0
  0
LINE
  5
255
100
AcDbEntity
  8
LAY-3
  6
CONTINUOUS
 62
     3
100
AcDbLine
 10
439.721313
 20
174.552063
 30
0.0
 11
439.721313
 21
173.052048
 31
0.0
  0
LINE
  5
256
100
AcDbEntity
  8
LAY-3
  6
CONTINUOUS
 62
     3
100
AcDbLine
 10
437.221313
 20
177.052063
 30
0.0
 11
436.237793
 21
177.052063
 31
0.0
  0
ARC
  5
257
100
AcDbEntity
  8
LAY-3
  6
CONTINUOUS
 62
     3
100
AcDbCircle
 10
437.221313
 20
174.552063
 30
0.0
 40
2.5
100
AcDbArc
 50
0.0
 51
89.999809
  0
ARC
  5
258
100
AcDbEntity
  8
LAY-3
  6
CONTINUOUS
 62
     3
100
AcDbCircle
 10
436.237793
 20
174.552063
 30
0.0
 40
2.5
100
AcDbArc
 50
89.999981
 51
141.008924
  0
ARC
  5
259
100
AcDbEntity
  8
LAY-3
  6
CONTINUOUS
 62
     3
100
AcDbCircle
 10
437.221313
 20
174.552063
 30
0.0
 40
1.5
100
AcDbArc
 50
0.001146
 51
89.999981
  0
ARC
  5
25A
100
AcDbEntity
  8
LAY-3
  6
CONTINUOUS
 62
     3
100
AcDbCircle
 10
436.234863
 20
174.552063
 30
0.0
 40
1.5
100
AcDbArc
 50
89.999981
 51
141.009153
  0
LINE
  5
25B
100
AcDbEntity
  8
LAY-3
  6
CONTINUOUS
 62
     3
100
AcDbLine
 10
414.721283
 20
174.552063
 30
0.0
 11
414.721283
 21
173.052048
 31
0.0
  0
ARC
  5
25C
100
AcDbEntity
  8
LAY-3
  6
CONTINUOUS
 62
     3
100
AcDbCircle
 10
417.221283
 20
174.552063
 30
0.0
 40
2.5
100
AcDbArc
 50
90.000153
 51
180.00002
  0
LINE
  5
25D
100
AcDbEntity
  8
LAY-3
  6
CONTINUOUS
 62
     3
100
AcDbLine
 10
417.221283
 20
177.052063
 30
0.0
 11
418.204834
 21
177.052063
 31
0.0
  0
LINE
  5
25E
100
AcDbEntity
  8
LAY-3
  6
CONTINUOUS
 62
     3
100
AcDbLine
 10
415.721283
 20
174.552094
 30
0.0
 11
415.721252
 21
173.052063
 31
0.0
  0
ARC
  5
25F
100
AcDbEntity
  8
LAY-3
  6
CONTINUOUS
 62
     3
100
AcDbCircle
 10
417.221283
 20
174.552063
 30
0.0
 40
1.5
100
AcDbArc
 50
89.999981
 51
179.998817
  0
LINE
  5
260
100
AcDbEntity
  8
LAY-3
  6
CONTINUOUS
 62
     3
100
AcDbLine
 10
417.221283
 20
176.052063
 30
0.0
 11
418.207764
 21
176.052063
 31
0.0
  0
ARC
  5
261
100
AcDbEntity
  8
LAY-3
  6
CONTINUOUS
 62
     3
100
AcDbCircle
 10
418.204834
 20
174.552063
 30
0.0
 40
2.5
100
AcDbArc
 50
38.990981
 51
89.999981
  0
ARC
  5
262
100
AcDbEntity
  8
LAY-3
  6
CONTINUOUS
 62
     3
100
AcDbCircle
 10
418.207764
 20
174.552063
 30
0.0
 40
1.5
100
AcDbArc
 50
38.990408
 51
89.999981
  0
LINE
  5
263
100
AcDbEntity
  8
LAY-3
  6
CONTINUOUS
 62
     3
100
AcDbLine
 10
414.721283
 20
173.052063
 30
0.0
 11
415.721252
 21
173.052063
 31
0.0
  0
LINE
  5
264
100
AcDbEntity
  8
LAY-3
  6
CONTINUOUS
 62
     3
100
AcDbLine
 10
438.721313
 20
173.052063
 30
0.0
 11
439.721313
 21
173.052063
 31
0.0
  0
LINE
  5
265
100
AcDbEntity
  8
LAY-3
  6
CONTINUOUS
 62
     3
100
AcDbLine
 10
413.121338
 20
164.052063
 30
0.0
 11
421.32135
 21
164.052063
 31
0.0
  0
LINE
  5
266
100
AcDbEntity
  8
LAY-3
  6
DASHED2
 62
     3
100
AcDbLine
 10
421.32135
 20
133.652054
 30
0.0
 11
413.121338
 21
133.652054
 31
0.0
  0
LINE
  5
267
100
AcDbEntity
  8
LAY-3
  6
DASHED2
 62
     3
100
AcDbLine
 10
413.121338
 20
145.552063
 30
0.0
 11
413.121277
 21
160.552063
 31
0.0
  0
LINE
  5
268
100
AcDbEntity
  8
LAY-3
  6
DASHED2
 62
     3
100
AcDbLine
 10
421.32135
 20
145.552063
 30
0.0
 11
421.32135
 21
160.552063
 31
0.0
  0
LINE
  5
269
100
AcDbEntity
  8
LAY-3
  6
DASHED2
 62
     1
100
AcDbLine
 10
413.721313
 20
145.552063
 30
0.0
 11
413.721313
 21
160.552063
 31
0.0
  0
LINE
  5
26A
100
AcDbEntity
  8
LAY-3
  6
DASHED2
 62
     1
100
AcDbLine
 10
420.721313
 20
145.552063
 30
0.0
 11
420.721313
 21
160.552063
 31
0.0
  0
LINE
  5
26B
100
AcDbEntity
  8
LAY-3
  6
CONTINUOUS
 62
     3
100
AcDbLine
 10
413.121307
 20
160.552063
 30
0.0
 11
413.121338
 21
164.052063
 31
0.0
  0
LINE
  5
26C
100
AcDbEntity
  8
LAY-3
  6
CONTINUOUS
 62
     3
100
AcDbLine
 10
421.32132
 20
160.552063
 30
0.0
 11
421.32135
 21
164.052063
 31
0.0
  0
LINE
  5
26D
100
AcDbEntity
  8
LAY-3
  6
CONTINUOUS
 62
     1
100
AcDbLine
 10
413.721313
 20
160.552063
 30
0.0
 11
413.721313
 21
164.052063
 31
0.0
  0
LINE
  5
26E
100
AcDbEntity
  8
LAY-3
  6
CONTINUOUS
 62
     1
100
AcDbLine
 10
420.721313
 20
160.552063
 30
0.0
 11
420.721313
 21
164.052063
 31
0.0
  0
LINE
  5
26F
100
AcDbEntity
  8
LAY-3
  6
CONTINUOUS
 62
     3
100
AcDbLine
 10
411.352051
 20
133.052063
 30
0.0
 11
409.373718
 21
130.608276
 31
0.0
  0
LINE
  5
270
100
AcDbEntity
  8
LAY-3
  6
CONTINUOUS
 62
     3
100
AcDbLine
 10
423.09082
 20
133.052063
 30
0.0
 11
425.069031
 21
130.608292
 31
0.0
  0
LINE
  5
271
100
AcDbEntity
  8
LAY-3
  6
CONTINUOUS
 62
     3
100
AcDbLine
 10
412.127502
 20
132.424316
 30
0.0
 11
411.352051
 21
133.052063
 31
0.0
  0
LINE
  5
272
100
AcDbEntity
  8
LAY-3
  6
CONTINUOUS
 62
     3
100
AcDbLine
 10
422.315369
 20
132.424316
 30
0.0
 11
423.09082
 21
133.052063
 31
0.0
  0
LINE
  5
273
100
AcDbEntity
  8
LAY-3
  6
CONTINUOUS
 62
     3
100
AcDbLine
 10
424.721313
 20
129.052063
 30
0.0
 11
424.721313
 21
129.452057
 31
0.0
  0
LINE
  5
274
100
AcDbEntity
  8
LAY-3
  6
CONTINUOUS
 62
     3
100
AcDbLine
 10
409.721313
 20
129.052063
 30
0.0
 11
409.721313
 21
129.452057
 31
0.0
  0
LINE
  5
275
100
AcDbEntity
  8
LAY-3
  6
CONTINUOUS
 62
     3
100
AcDbLine
 10
405.721375
 20
131.552048
 30
0.0
 11
405.721313
 21
133.052078
 31
0.0
  0
LINE
  5
276
100
AcDbEntity
  8
LAY-3
  6
CONTINUOUS
 62
     3
100
AcDbLine
 10
407.221375
 20
130.052078
 30
0.0
 11
408.207886
 21
130.052078
 31
0.0
  0
LINE
  5
277
100
AcDbEntity
  8
LAY-3
  6
CONTINUOUS
 62
     3
100
AcDbLine
 10
404.721375
 20
131.552078
 30
0.0
 11
404.721375
 21
133.052094
 31
0.0
  0
LINE
  5
278
100
AcDbEntity
  8
LAY-3
  6
CONTINUOUS
 62
     3
100
AcDbLine
 10
407.221375
 20
129.052078
 30
0.0
 11
408.204834
 21
129.052078
 31
0.0
  0
ARC
  5
279
100
AcDbEntity
  8
LAY-3
  6
CONTINUOUS
 62
     3
100
AcDbCircle
 10
407.221375
 20
131.552078
 30
0.0
 40
2.5
100
AcDbArc
 50
180.00002
 51
269.999829
  0
ARC
  5
27A
100
AcDbEntity
  8
LAY-3
  6
CONTINUOUS
 62
     3
100
AcDbCircle
 10
407.221375
 20
131.552078
 30
0.0
 40
1.5
100
AcDbArc
 50
180.001166
 51
270.000001
  0
LINE
  5
27B
100
AcDbEntity
  8
LAY-3
  6
CONTINUOUS
 62
     3
100
AcDbLine
 10
429.721375
 20
131.552078
 30
0.0
 11
429.721375
 21
133.052094
 31
0.0
  0
ARC
  5
27C
100
AcDbEntity
  8
LAY-3
  6
CONTINUOUS
 62
     3
100
AcDbCircle
 10
427.221375
 20
131.552078
 30
0.0
 40
2.5
100
AcDbArc
 50
270.000173
 51
359.999982
  0
LINE
  5
27D
100
AcDbEntity
  8
LAY-3
  6
CONTINUOUS
 62
     3
100
AcDbLine
 10
427.221375
 20
129.052078
 30
0.0
 11
426.237793
 21
129.052078
 31
0.0
  0
LINE
  5
27E
100
AcDbEntity
  8
LAY-3
  6
CONTINUOUS
 62
     3
100
AcDbLine
 10
428.721375
 20
131.552048
 30
0.0
 11
428.721375
 21
133.052078
 31
0.0
  0
ARC
  5
27F
100
AcDbEntity
  8
LAY-3
  6
CONTINUOUS
 62
     3
100
AcDbCircle
 10
427.221375
 20
131.552078
 30
0.0
 40
1.5
100
AcDbArc
 50
270.000001
 51
359.998836
  0
LINE
  5
280
100
AcDbEntity
  8
LAY-3
  6
CONTINUOUS
 62
     3
100
AcDbLine
 10
427.221375
 20
130.052078
 30
0.0
 11
426.234924
 21
130.052078
 31
0.0
  0
ARC
  5
281
100
AcDbEntity
  8
LAY-3
  6
CONTINUOUS
 62
     3
100
AcDbCircle
 10
408.207886
 20
131.552078
 30
0.0
 40
1.5
100
AcDbArc
 50
270.000001
 51
321.009116
  0
ARC
  5
282
100
AcDbEntity
  8
LAY-3
  6
CONTINUOUS
 62
     3
100
AcDbCircle
 10
408.204834
 20
131.552078
 30
0.0
 40
2.5
100
AcDbArc
 50
270.000001
 51
321.009059
  0
ARC
  5
283
100
AcDbEntity
  8
LAY-3
  6
CONTINUOUS
 62
     3
100
AcDbCircle
 10
426.234924
 20
131.552078
 30
0.0
 40
1.5
100
AcDbArc
 50
218.990428
 51
270.000001
  0
ARC
  5
284
100
AcDbEntity
  8
LAY-3
  6
CONTINUOUS
 62
     3
100
AcDbCircle
 10
426.237793
 20
131.552078
 30
0.0
 40
2.5
100
AcDbArc
 50
218.991001
 51
270.000001
  0
LINE
  5
285
100
AcDbEntity
  8
LAY-3
  6
CONTINUOUS
 62
     3
100
AcDbLine
 10
404.721375
 20
133.052094
 30
0.0
 11
405.721313
 21
133.052094
 31
0.0
  0
LINE
  5
286
100
AcDbEntity
  8
LAY-3
  6
CONTINUOUS
 62
     3
100
AcDbLine
 10
429.721375
 20
133.052094
 30
0.0
 11
428.721375
 21
133.052094
 31
0.0
  0
ARC
  5
287
100
AcDbEntity
  8
LAY-3
  6
CONTINUOUS
 62
     3
100
AcDbCircle
 10
408.221313
 20
159.552063
 30
0.0
 40
1.0
100
AcDbArc
 50
89.999981
 51
180.00002
  0
ARC
  5
288
100
AcDbEntity
  8
LAY-3
  6
CONTINUOUS
 62
     3
100
AcDbCircle
 10
408.221313
 20
146.552063
 30
0.0
 40
1.0
100
AcDbArc
 50
180.00002
 51
270.000001
  0
ARC
  5
289
100
AcDbEntity
  8
LAY-3
  6
CONTINUOUS
 62
     3
100
AcDbCircle
 10
435.221313
 20
159.552063
 30
0.0
 40
1.0
100
AcDbArc
 50
0.0
 51
89.999981
  0
ARC
  5
28A
100
AcDbEntity
  8
LAY-3
  6
CONTINUOUS
 62
     3
100
AcDbCircle
 10
435.221313
 20
146.552063
 30
0.0
 40
1.0
100
AcDbArc
 50
270.000001
 51
359.999982
  0
LINE
  5
28B
100
AcDbEntity
  8
LAY-3
  6
CONTINUOUS
 62
     3
100
AcDbLine
 10
404.221313
 20
146.552063
 30
0.0
 11
404.221313
 21
159.552063
 31
0.0
  0
LINE
  5
28C
100
AcDbEntity
  8
LAY-3
  6
CONTINUOUS
 62
     3
100
AcDbLine
 10
427.971344
 20
177.052078
 30
0.0
 11
427.971344
 21
176.052078
 31
0.0
  0
LINE
  5
28D
100
AcDbEntity
  8
LAY-3
  6
CONTINUOUS
 62
     3
100
AcDbLine
 10
427.971344
 20
176.052078
 30
0.0
 11
426.471344
 21
176.052078
 31
0.0
  0
LINE
  5
28E
100
AcDbEntity
  8
LAY-3
  6
CONTINUOUS
 62
     3
100
AcDbLine
 10
426.471344
 20
176.052078
 30
0.0
 11
426.471344
 21
177.052078
 31
0.0
  0
LINE
  5
28F
100
AcDbEntity
  8
LAY-3
  6
CONTINUOUS
 62
     3
100
AcDbLine
 10
419.721313
 20
177.052063
 30
0.0
 11
426.471375
 21
177.052063
 31
0.0
  0
LINE
  5
290
100
AcDbEntity
  8
LAY-3
  6
CONTINUOUS
 62
     3
100
AcDbLine
 10
427.971375
 20
177.052063
 30
0.0
 11
434.721313
 21
177.052063
 31
0.0
  0
LINE
  5
291
100
AcDbEntity
  8
LAY-3
  6
CONTINUOUS
 62
     3
100
AcDbLine
 10
419.721313
 20
176.652069
 30
0.0
 11
426.471375
 21
176.652069
 31
0.0
  0
LINE
  5
292
100
AcDbEntity
  8
LAY-3
  6
CONTINUOUS
 62
     3
100
AcDbLine
 10
427.971375
 20
176.652069
 30
0.0
 11
434.721313
 21
176.652069
 31
0.0
  0
LINE
  5
293
100
AcDbEntity
  8
LAY-3
  6
CONTINUOUS
 62
     3
100
AcDbLine
 10
417.971344
 20
129.052063
 30
0.0
 11
417.971344
 21
130.052063
 31
0.0
  0
LINE
  5
294
100
AcDbEntity
  8
LAY-3
  6
CONTINUOUS
 62
     3
100
AcDbLine
 10
417.971344
 20
130.052063
 30
0.0
 11
416.471344
 21
130.052063
 31
0.0
  0
LINE
  5
295
100
AcDbEntity
  8
LAY-3
  6
CONTINUOUS
 62
     3
100
AcDbLine
 10
416.471344
 20
130.052063
 30
0.0
 11
416.471344
 21
129.052063
 31
0.0
  0
LINE
  5
296
100
AcDbEntity
  8
LAY-3
  6
CONTINUOUS
 62
     3
100
AcDbLine
 10
424.721313
 20
129.052063
 30
0.0
 11
417.971375
 21
129.052063
 31
0.0
  0
LINE
  5
297
100
AcDbEntity
  8
LAY-3
  6
CONTINUOUS
 62
     3
100
AcDbLine
 10
416.471375
 20
129.052063
 30
0.0
 11
409.721313
 21
129.052063
 31
0.0
  0
LINE
  5
298
100
AcDbEntity
  8
LAY-3
  6
CONTINUOUS
 62
     3
100
AcDbLine
 10
424.721313
 20
129.452057
 30
0.0
 11
417.971375
 21
129.452057
 31
0.0
  0
LINE
  5
299
100
AcDbEntity
  8
LAY-3
  6
CONTINUOUS
 62
     3
100
AcDbLine
 10
416.471375
 20
129.452057
 30
0.0
 11
409.721313
 21
129.452057
 31
0.0
  0
LINE
  5
29A
100
AcDbEntity
  8
LAY-3
  6
CONTINUOUS
 62
     3
100
AcDbLine
 10
679.049805
 20
394.302063
 30
0.0
 11
707.049805
 21
394.302063
 31
0.0
  0
LINE
  5
29B
100
AcDbEntity
  8
LAY-3
  6
CONTINUOUS
 62
     3
100
AcDbLine
 10
420.147949
 20
176.125061
 30
0.0
 11
422.635628
 21
173.052063
 31
0.0
  0
LINE
  5
29C
100
AcDbEntity
  8
LAY-3
  6
DASHED2
 62
     3
100
AcDbLine
 10
422.635628
 20
173.052063
 30
0.0
 11
423.121338
 21
172.452072
 31
0.0
  0
LINE
  5
29D
100
AcDbEntity
  8
LAY-3
  6
CONTINUOUS
 62
     3
100
AcDbLine
 10
423.121338
 20
160.552063
 30
0.0
 11
423.121338
 21
171.452063
 31
0.0
  0
LINE
  5
29E
100
AcDbEntity
  8
LAY-3
  6
DASHED2
 62
     3
100
AcDbLine
 10
423.121338
 20
171.452063
 30
0.0
 11
423.121338
 21
172.452072
 31
0.0
  0
LINE
  5
29F
100
AcDbEntity
  8
LAY-3
  6
CONTINUOUS
 62
     1
100
AcDbLine
 10
423.721313
 20
160.552063
 30
0.0
 11
423.721313
 21
171.452063
 31
0.0
  0
LINE
  5
2A0
100
AcDbEntity
  8
LAY-3
  6
DASHED2
 62
     1
100
AcDbLine
 10
423.721313
 20
171.452063
 30
0.0
 11
423.721313
 21
172.452072
 31
0.0
  0
LINE
  5
2A1
100
AcDbEntity
  8
LAY-3
  6
CONTINUOUS
 62
     1
100
AcDbLine
 10
430.721313
 20
160.552063
 30
0.0
 11
430.721313
 21
171.452063
 31
0.0
  0
LINE
  5
2A2
100
AcDbEntity
  8
LAY-3
  6
DASHED2
 62
     1
100
AcDbLine
 10
430.721313
 20
171.452063
 30
0.0
 11
430.721313
 21
172.452072
 31
0.0
  0
LINE
  5
2A3
100
AcDbEntity
  8
LAY-3
  6
CONTINUOUS
 62
     3
100
AcDbLine
 10
431.321289
 20
160.552063
 30
0.0
 11
431.321289
 21
171.452063
 31
0.0
  0
LINE
  5
2A4
100
AcDbEntity
  8
LAY-3
  6
DASHED2
 62
     3
100
AcDbLine
 10
431.321289
 20
171.452063
 30
0.0
 11
431.321289
 21
172.452072
 31
0.0
  0
LINE
  5
2A5
100
AcDbEntity
  8
LAY-3
  6
CONTINUOUS
 62
     3
100
AcDbLine
 10
434.294678
 20
176.125061
 30
0.0
 11
431.806999
 21
173.052063
 31
0.0
  0
LINE
  5
2A6
100
AcDbEntity
  8
LAY-3
  6
DASHED2
 62
     3
100
AcDbLine
 10
431.806999
 20
173.052063
 30
0.0
 11
431.321289
 21
172.452072
 31
0.0
  0
LINE
  5
2A7
100
AcDbEntity
  8
LAY-3
  6
CONTINUOUS
 62
     3
100
AcDbLine
 10
413.121338
 20
145.552071
 30
0.0
 11
413.121338
 21
134.652063
 31
0.0
  0
LINE
  5
2A8
100
AcDbEntity
  8
LAY-3
  6
DASHED2
 62
     3
100
AcDbLine
 10
413.121338
 20
134.652063
 30
0.0
 11
413.121338
 21
133.652054
 31
0.0
  0
LINE
  5
2A9
100
AcDbEntity
  8
LAY-3
  6
CONTINUOUS
 62
     1
100
AcDbLine
 10
413.721313
 20
145.552071
 30
0.0
 11
413.721313
 21
134.652063
 31
0.0
  0
LINE
  5
2AA
100
AcDbEntity
  8
LAY-3
  6
DASHED2
 62
     1
100
AcDbLine
 10
413.721313
 20
134.652063
 30
0.0
 11
413.721313
 21
133.652054
 31
0.0
  0
LINE
  5
2AB
100
AcDbEntity
  8
LAY-3
  6
CONTINUOUS
 62
     1
100
AcDbLine
 10
420.721313
 20
145.552071
 30
0.0
 11
420.721313
 21
134.652063
 31
0.0
  0
LINE
  5
2AC
100
AcDbEntity
  8
LAY-3
  6
DASHED2
 62
     1
100
AcDbLine
 10
420.721313
 20
134.652063
 30
0.0
 11
420.721313
 21
133.652054
 31
0.0
  0
LINE
  5
2AD
100
AcDbEntity
  8
LAY-3
  6
CONTINUOUS
 62
     3
100
AcDbLine
 10
421.32135
 20
145.552071
 30
0.0
 11
421.32135
 21
134.652063
 31
0.0
  0
LINE
  5
2AE
100
AcDbEntity
  8
LAY-3
  6
DASHED2
 62
     3
100
AcDbLine
 10
421.32135
 20
134.652063
 30
0.0
 11
421.32135
 21
133.652054
 31
0.0
  0
LINE
  5
2AF
100
AcDbEntity
  8
LAY-3
  6
CONTINUOUS
 62
     3
100
AcDbLine
 10
424.294678
 20
129.97908
 30
0.0
 11
421.807052
 21
133.052063
 31
0.0
  0
LINE
  5
2B0
100
AcDbEntity
  8
LAY-3
  6
DASHED2
 62
     3
100
AcDbLine
 10
421.807052
 20
133.052063
 30
0.0
 11
421.32135
 21
133.652054
 31
0.0
  0
LINE
  5
2B1
100
AcDbEntity
  8
LAY-3
  6
CONTINUOUS
 62
     3
100
AcDbLine
 10
410.147949
 20
129.97908
 30
0.0
 11
412.635626
 21
133.052063
 31
0.0
  0
LINE
  5
2B2
100
AcDbEntity
  8
LAY-3
  6
DASHED2
 62
     3
100
AcDbLine
 10
412.635626
 20
133.052063
 30
0.0
 11
413.121338
 21
133.652054
 31
0.0
  0
LINE
  5
2B3
100
AcDbEntity
  8
LAY-3
  6
DASHED2
 62
     3
100
AcDbLine
 10
673.64978
 20
390.902039
 30
0.0
 11
676.949805
 21
390.902039
 31
0.0
  0
LINE
  5
2B4
100
AcDbEntity
  8
LAY-3
  6
CONTINUOUS
 62
     3
100
AcDbLine
 10
676.949805
 20
390.902039
 30
0.0
 11
678.049805
 21
390.902039
 31
0.0
  0
LINE
  5
2B5
100
AcDbEntity
  8
LAY-3
  6
CONTINUOUS
 62
     1
100
AcDbLine
 10
678.049805
 20
390.302032
 30
0.0
 11
676.949805
 21
390.302032
 31
0.0
  0
LINE
  5
2B6
100
AcDbEntity
  8
LAY-3
  6
DASHED2
 62
     1
100
AcDbLine
 10
676.949805
 20
390.302032
 30
0.0
 11
673.64978
 21
390.302032
 31
0.0
  0
LINE
  5
2B7
100
AcDbEntity
  8
LAY-3
  6
DASHED2
 62
     1
100
AcDbLine
 10
673.64978
 20
383.302094
 30
0.0
 11
676.949805
 21
383.302094
 31
0.0
  0
LINE
  5
2B8
100
AcDbEntity
  8
LAY-3
  6
CONTINUOUS
 62
     1
100
AcDbLine
 10
676.949805
 20
383.302094
 30
0.0
 11
678.049805
 21
383.302094
 31
0.0
  0
LINE
  5
2B9
100
AcDbEntity
  8
LAY-3
  6
DASHED2
 62
     3
100
AcDbLine
 10
673.64978
 20
382.702087
 30
0.0
 11
676.949805
 21
382.702087
 31
0.0
  0
LINE
  5
2BA
100
AcDbEntity
  8
LAY-3
  6
CONTINUOUS
 62
     3
100
AcDbLine
 10
676.949805
 20
382.702087
 30
0.0
 11
678.049805
 21
382.702087
 31
0.0
  0
LINE
  5
2BB
100
AcDbEntity
  8
LAY-3
  6
DASHED2
 62
     3
100
AcDbLine
 10
712.449829
 20
390.902039
 30
0.0
 11
709.149805
 21
390.902039
 31
0.0
  0
LINE
  5
2BC
100
AcDbEntity
  8
LAY-3
  6
CONTINUOUS
 62
     3
100
AcDbLine
 10
709.149805
 20
390.902039
 30
0.0
 11
708.049805
 21
390.902039
 31
0.0
  0
LINE
  5
2BD
100
AcDbEntity
  8
LAY-3
  6
CONTINUOUS
 62
     1
100
AcDbLine
 10
708.049805
 20
390.302032
 30
0.0
 11
709.149805
 21
390.302032
 31
0.0
  0
LINE
  5
2BE
100
AcDbEntity
  8
LAY-3
  6
DASHED2
 62
     1
100
AcDbLine
 10
709.149805
 20
390.302032
 30
0.0
 11
712.449829
 21
390.302032
 31
0.0
  0
LINE
  5
2BF
100
AcDbEntity
  8
LAY-3
  6
DASHED2
 62
     1
100
AcDbLine
 10
712.449829
 20
383.302094
 30
0.0
 11
709.149805
 21
383.302094
 31
0.0
  0
LINE
  5
2C0
100
AcDbEntity
  8
LAY-3
  6
CONTINUOUS
 62
     1
100
AcDbLine
 10
709.149805
 20
383.302094
 30
0.0
 11
708.049805
 21
383.302094
 31
0.0
  0
LINE
  5
2C1
100
AcDbEntity
  8
LAY-3
  6
DASHED2
 62
     3
100
AcDbLine
 10
712.449829
 20
382.702087
 30
0.0
 11
709.149805
 21
382.702087
 31
0.0
  0
LINE
  5
2C2
100
AcDbEntity
  8
LAY-3
  6
CONTINUOUS
 62
     3
100
AcDbLine
 10
709.149805
 20
382.702087
 30
0.0
 11
708.049805
 21
382.702087
 31
0.0
  0
LINE
  5
2C3
100
AcDbEntity
  8
LAY-3
  6
DASHED2
 62
     3
100
AcDbLine
 10
82.221313
 20
389.701996
 30
0.0
 11
76.221313
 21
389.701996
 31
0.0
  0
LINE
  5
2C4
100
AcDbEntity
  8
LAY-3
  6
DASHED2
 62
     3
100
AcDbLine
 10
79.221313
 20
392.701996
 30
0.0
 11
82.221313
 21
392.701996
 31
0.0
  0
LINE
  5
2C5
100
AcDbEntity
  8
LAY-3
  6
DASHED2
 62
     3
100
AcDbLine
 10
79.221313
 20
392.701996
 30
0.0
 11
79.221313
 21
401.102063
 31
0.0
  0
LINE
  5
2C6
100
AcDbEntity
  8
LAY-3
  6
CONTINUOUS
 62
     3
100
AcDbLine
 10
79.221313
 20
404.302032
 30
0.0
 11
79.221313
 21
401.102063
 31
0.0
  0
LINE
  5
2C7
100
AcDbEntity
  8
LAY-3
  6
DASHED2
 62
     1
100
AcDbLine
 10
79.721313
 20
392.701996
 30
0.0
 11
79.721313
 21
401.102063
 31
0.0
  0
LINE
  5
2C8
100
AcDbEntity
  8
LAY-3
  6
CONTINUOUS
 62
     1
100
AcDbLine
 10
79.721313
 20
404.302032
 30
0.0
 11
79.721313
 21
401.102063
 31
0.0
  0
LINE
  5
2C9
100
AcDbEntity
  8
LAY-3
  6
CONTINUOUS
 62
     1
100
AcDbLine
 10
84.721313
 20
404.302032
 30
0.0
 11
84.721313
 21
401.102063
 31
0.0
  0
LINE
  5
2CA
100
AcDbEntity
  8
LAY-3
  6
CONTINUOUS
 62
     3
100
AcDbLine
 10
85.221313
 20
404.302032
 30
0.0
 11
85.221313
 21
401.102063
 31
0.0
  0
LINE
  5
2CB
100
AcDbEntity
  8
LAY-3
  6
DASHED2
 62
     3
100
AcDbLine
 10
85.221313
 20
392.701996
 30
0.0
 11
85.221313
 21
401.102063
 31
0.0
  0
LINE
  5
2CC
100
AcDbEntity
  8
LAY-3
  6
DASHED2
 62
     1
100
AcDbLine
 10
84.721313
 20
392.701996
 30
0.0
 11
84.721313
 21
401.102063
 31
0.0
  0
LINE
  5
2CD
100
AcDbEntity
  8
LAY-3
  6
DASHED2
 62
     3
100
AcDbLine
 10
85.221313
 20
392.701996
 30
0.0
 11
82.221313
 21
392.701996
 31
0.0
  0
LINE
  5
2CE
100
AcDbEntity
  8
LAY-3
  6
DASHED2
 62
     3
100
AcDbLine
 10
88.221313
 20
389.701996
 30
0.0
 11
85.221313
 21
392.701996
 31
0.0
  0
LINE
  5
2CF
100
AcDbEntity
  8
LAY-3
  6
DASHED2
 62
     3
100
AcDbLine
 10
82.221313
 20
389.701996
 30
0.0
 11
88.221313
 21
389.701996
 31
0.0
  0
LINE
  5
2D0
100
AcDbEntity
  8
LAY-3
  6
DASHED2
 62
     3
100
AcDbLine
 10
88.221313
 20
389.302002
 30
0.0
 11
88.221313
 21
389.701996
 31
0.0
  0
LINE
  5
2D1
100
AcDbEntity
  8
LAY-3
  6
DASHED2
 62
     3
100
AcDbLine
 10
156.221329
 20
389.302002
 30
0.0
 11
156.221329
 21
389.701996
 31
0.0
  0
LINE
  5
2D2
100
AcDbEntity
  8
LAY-3
  6
DASHED2
 62
     3
100
AcDbLine
 10
156.221329
 20
389.701996
 30
0.0
 11
159.221329
 21
392.701996
 31
0.0
  0
LINE
  5
2D3
100
AcDbEntity
  8
LAY-3
  6
CONTINUOUS
 62
     3
100
AcDbLine
 10
159.221329
 20
404.302032
 30
0.0
 11
165.221329
 21
404.302032
 31
0.0
  0
LINE
  5
2D4
100
AcDbEntity
  8
LAY-3
  6
DASHED2
 62
     3
100
AcDbLine
 10
162.221329
 20
389.701996
 30
0.0
 11
156.221329
 21
389.701996
 31
0.0
  0
LINE
  5
2D5
100
AcDbEntity
  8
LAY-3
  6
DASHED2
 62
     3
100
AcDbLine
 10
159.221329
 20
392.701996
 30
0.0
 11
162.221329
 21
392.701996
 31
0.0
  0
LINE
  5
2D6
100
AcDbEntity
  8
LAY-3
  6
DASHED2
 62
     3
100
AcDbLine
 10
159.221329
 20
392.701996
 30
0.0
 11
159.221329
 21
401.102063
 31
0.0
  0
LINE
  5
2D7
100
AcDbEntity
  8
LAY-3
  6
CONTINUOUS
 62
     3
100
AcDbLine
 10
159.221329
 20
404.302032
 30
0.0
 11
159.221329
 21
401.102063
 31
0.0
  0
LINE
  5
2D8
100
AcDbEntity
  8
LAY-3
  6
DASHED2
 62
     1
100
AcDbLine
 10
159.721329
 20
392.701996
 30
0.0
 11
159.721329
 21
401.102063
 31
0.0
  0
LINE
  5
2D9
100
AcDbEntity
  8
LAY-3
  6
CONTINUOUS
 62
     1
100
AcDbLine
 10
159.721329
 20
404.302032
 30
0.0
 11
159.721329
 21
401.102063
 31
0.0
  0
LINE
  5
2DA
100
AcDbEntity
  8
LAY-3
  6
CONTINUOUS
 62
     1
100
AcDbLine
 10
164.721329
 20
404.302032
 30
0.0
 11
164.721329
 21
401.102063
 31
0.0
  0
LINE
  5
2DB
100
AcDbEntity
  8
LAY-3
  6
CONTINUOUS
 62
     3
100
AcDbLine
 10
165.221329
 20
404.302032
 30
0.0
 11
165.221329
 21
401.102063
 31
0.0
  0
LINE
  5
2DC
100
AcDbEntity
  8
LAY-3
  6
DASHED2
 62
     3
100
AcDbLine
 10
165.221329
 20
392.701996
 30
0.0
 11
165.221329
 21
401.102063
 31
0.0
  0
LINE
  5
2DD
100
AcDbEntity
  8
LAY-3
  6
DASHED2
 62
     1
100
AcDbLine
 10
164.721329
 20
392.701996
 30
0.0
 11
164.721329
 21
401.102063
 31
0.0
  0
LINE
  5
2DE
100
AcDbEntity
  8
LAY-3
  6
DASHED2
 62
     3
100
AcDbLine
 10
165.221329
 20
392.701996
 30
0.0
 11
162.221329
 21
392.701996
 31
0.0
  0
LINE
  5
2DF
100
AcDbEntity
  8
LAY-3
  6
DASHED2
 62
     3
100
AcDbLine
 10
168.221329
 20
389.701996
 30
0.0
 11
165.221329
 21
392.701996
 31
0.0
  0
LINE
  5
2E0
100
AcDbEntity
  8
LAY-3
  6
DASHED2
 62
     3
100
AcDbLine
 10
162.221329
 20
389.701996
 30
0.0
 11
168.221329
 21
389.701996
 31
0.0
  0
LINE
  5
2E1
100
AcDbEntity
  8
LAY-3
  6
DASHED2
 62
     3
100
AcDbLine
 10
168.221329
 20
389.302002
 30
0.0
 11
168.221329
 21
389.701996
 31
0.0
  0
LINE
  5
2E2
100
AcDbEntity
  8
LAY-3
  6
CONTINUOUS
 62
     3
100
AcDbLine
 10
670.549805
 20
364.702057
 30
0.0
 11
670.549805
 21
358.802063
 31
0.0
  0
ARC
  5
2E3
100
AcDbEntity
  8
LAY-3
  6
CONTINUOUS
 62
     3
100
AcDbCircle
 10
672.14978
 20
364.702057
 30
0.0
 40
1.6
100
AcDbArc
 50
89.999981
 51
180.00002
  0
LINE
  5
2E4
100
AcDbEntity
  8
LAY-3
  6
CONTINUOUS
 62
     3
100
AcDbLine
 10
715.549805
 20
364.702057
 30
0.0
 11
715.549805
 21
358.802063
 31
0.0
  0
ARC
  5
2E5
100
AcDbEntity
  8
LAY-3
  6
CONTINUOUS
 62
     3
100
AcDbCircle
 10
713.949829
 20
364.702057
 30
0.0
 40
1.6
100
AcDbArc
 50
0.0
 51
89.999981
  0
LINE
  5
2E6
100
AcDbEntity
  8
LAY-3
  6
CONTINUOUS
 62
     3
100
AcDbLine
 10
672.14978
 20
366.302063
 30
0.0
 11
713.949829
 21
366.302063
 31
0.0
  0
ARC
  5
2E7
100
AcDbEntity
  8
LAY-3
  6
CONTINUOUS
 62
     3
100
AcDbCircle
 10
101.321304
 20
364.702057
 30
0.0
 40
1.6
100
AcDbArc
 50
89.999981
 51
180.00002
  0
LINE
  5
2E8
100
AcDbEntity
  8
LAY-3
  6
CONTINUOUS
 62
     3
100
AcDbLine
 10
99.721313
 20
364.702057
 30
0.0
 11
99.721313
 21
358.802063
 31
0.0
  0
ARC
  5
2E9
100
AcDbEntity
  8
LAY-3
  6
CONTINUOUS
 62
     3
100
AcDbCircle
 10
143.121307
 20
364.702057
 30
0.0
 40
1.6
100
AcDbArc
 50
0.0
 51
89.999981
  0
LINE
  5
2EA
100
AcDbEntity
  8
LAY-3
  6
CONTINUOUS
 62
     3
100
AcDbLine
 10
144.721313
 20
364.702057
 30
0.0
 11
144.721313
 21
358.802063
 31
0.0
  0
LINE
  5
2EB
100
AcDbEntity
  8
LAY-3
  6
CONTINUOUS
 62
     3
100
AcDbLine
 10
101.321304
 20
366.302063
 30
0.0
 11
143.121307
 21
366.302063
 31
0.0
  0
LINE
  5
2EC
100
AcDbEntity
  8
LAY-4
  6
CONTINUOUS
 62
     3
100
AcDbLine
 10
760.549854
 20
252.30209
 30
0.0
 11
625.549878
 21
252.30209
 31
0.0
  0
ARC
  5
2ED
100
AcDbEntity
  8
LAY-4
  6
CONTINUOUS
 62
     3
100
AcDbCircle
 10
760.549854
 20
257.30209
 30
0.0
 40
5.0
100
AcDbArc
 50
270.000001
 51
359.999982
  0
ARC
  5
2EE
100
AcDbEntity
  8
LAY-4
  6
CONTINUOUS
 62
     3
100
AcDbCircle
 10
625.549878
 20
257.30209
 30
0.0
 40
5.0
100
AcDbArc
 50
180.00002
 51
270.000001
  0
LINE
  5
2EF
100
AcDbEntity
  8
LAY-4
  6
CONTINUOUS
 62
     3
100
AcDbLine
 10
765.549854
 20
357.302063
 30
0.0
 11
765.549854
 21
257.30209
 31
0.0
  0
LINE
  5
2F0
100
AcDbEntity
  8
LAY-4
  6
CONTINUOUS
 62
     3
100
AcDbLine
 10
620.549878
 20
357.302063
 30
0.0
 11
620.549878
 21
257.30209
 31
0.0
  0
LINE
  5
2F1
100
AcDbEntity
  8
LAY-4
  6
CONTINUOUS
 62
     3
100
AcDbLine
 10
61.221344
 20
358.802032
 30
0.0
 11
61.221344
 21
357.302032
 31
0.0
  0
LINE
  5
2F2
100
AcDbEntity
  8
LAY-4
  6
CONTINUOUS
 62
     3
100
AcDbLine
 10
496.221313
 20
358.802032
 30
0.0
 11
496.221313
 21
357.302032
 31
0.0
  0
LINE
  5
2F3
100
AcDbEntity
  8
LAY-4
  6
CONTINUOUS
 62
     3
100
AcDbLine
 10
67.221326
 20
252.302106
 30
0.0
 11
480.221362
 21
252.302106
 31
0.0
  0
ARC
  5
2F4
100
AcDbEntity
  8
LAY-4
  6
CONTINUOUS
 62
     3
100
AcDbCircle
 10
67.221326
 20
257.302106
 30
0.0
 40
5.0
100
AcDbArc
 50
180.00002
 51
270.000001
  0
ARC
  5
2F5
100
AcDbEntity
  8
LAY-4
  6
CONTINUOUS
 62
     3
100
AcDbCircle
 10
480.221362
 20
257.302106
 30
0.0
 40
5.0
100
AcDbArc
 50
270.000001
 51
359.999982
  0
LINE
  5
2F6
100
AcDbEntity
  8
LAY-4
  6
CONTINUOUS
 62
     3
100
AcDbLine
 10
485.221362
 20
357.302124
 30
0.0
 11
485.221362
 21
257.302106
 31
0.0
  0
LINE
  5
2F7
100
AcDbEntity
  8
LAY-4
  6
CONTINUOUS
 62
     3
100
AcDbLine
 10
62.221326
 20
357.302124
 30
0.0
 11
62.221326
 21
257.302106
 31
0.0
  0
LINE
  5
2F8
100
AcDbEntity
  8
LAY-4
  6
CONTINUOUS
 62
     3
100
AcDbLine
 10
61.221313
 20
233.052063
 30
0.0
 11
61.221313
 21
73.052063
 31
0.0
  0
LINE
  5
2F9
100
AcDbEntity
  8
LAY-4
  6
CONTINUOUS
 62
     3
100
AcDbLine
 10
61.221313
 20
73.052063
 30
0.0
 11
496.221313
 21
73.052063
 31
0.0
  0
LINE
  5
2FA
100
AcDbEntity
  8
LAY-4
  6
CONTINUOUS
 62
     3
100
AcDbLine
 10
496.221313
 20
233.052063
 30
0.0
 11
61.221313
 21
233.052063
 31
0.0
  0
LINE
  5
2FB
100
AcDbEntity
  8
LAY-4
  6
DASHED2
 62
     3
100
AcDbLine
 10
62.921326
 20
225.352081
 30
0.0
 11
62.921326
 21
80.75206
 31
0.0
  0
LINE
  5
2FC
100
AcDbEntity
  8
LAY-4
  6
DASHED2
 62
     3
100
AcDbLine
 10
484.521362
 20
225.352081
 30
0.0
 11
62.921326
 21
225.352081
 31
0.0
  0
LINE
  5
2FD
100
AcDbEntity
  8
LAY-4
  6
DASHED2
 62
     3
100
AcDbLine
 10
62.921326
 20
80.75206
 30
0.0
 11
484.521362
 21
80.75206
 31
0.0
  0
LINE
  5
2FE
100
AcDbEntity
  8
LAY-4
  6
DASHED2
 62
     3
100
AcDbLine
 10
484.521362
 20
80.75206
 30
0.0
 11
484.521362
 21
225.352081
 31
0.0
  0
LINE
  5
2FF
100
AcDbEntity
  8
LAY-4
  6
CONTINUOUS
 62
     3
100
AcDbLine
 10
111.221329
 20
391.302002
 30
0.0
 11
109.821335
 21
390.270917
 31
0.0
  0
LINE
  5
300
100
AcDbEntity
  8
LAY-4
  6
CONTINUOUS
 62
     3
100
AcDbLine
 10
133.221297
 20
391.302002
 30
0.0
 11
134.621291
 21
390.270917
 31
0.0
  0
INSERT
  5
301
100
AcDbEntity
  8
LAY-4
  6
CONTINUOUS
 62
     0
100
AcDbBlockReference
  2
SYM-1
 10
97.221329
 20
90.052063
 30
0.0
  0
INSERT
  5
302
100
AcDbEntity
  8
LAY-4
  6
CONTINUOUS
 62
     0
100
AcDbBlockReference
  2
SYM-1
 10
171.221329
 20
90.052063
 30
0.0
  0
INSERT
  5
303
100
AcDbEntity
  8
LAY-4
  6
CONTINUOUS
 62
     0
100
AcDbBlockReference
  2
SYM-1
 10
191.221344
 20
90.052071
 30
0.0
  0
INSERT
  5
304
100
AcDbEntity
  8
LAY-4
  6
CONTINUOUS
 62
     0
100
AcDbBlockReference
  2
SYM-1
 10
97.221329
 20
216.052078
 30
0.0
  0
INSERT
  5
305
100
AcDbEntity
  8
LAY-4
  6
CONTINUOUS
 62
     0
100
AcDbBlockReference
  2
SYM-1
 10
171.221329
 20
216.052078
 30
0.0
  0
INSERT
  5
306
100
AcDbEntity
  8
LAY-4
  6
CONTINUOUS
 62
     0
100
AcDbBlockReference
  2
SYM-1
 10
191.221329
 20
216.052078
 30
0.0
  0
INSERT
  5
307
100
AcDbEntity
  8
LAY-4
  6
CONTINUOUS
 62
     0
100
AcDbBlockReference
  2
SYM-1
 10
450.221344
 20
90.052063
 30
0.0
  0
INSERT
  5
308
100
AcDbEntity
  8
LAY-4
  6
CONTINUOUS
 62
     0
100
AcDbBlockReference
  2
SYM-1
 10
450.221344
 20
216.052078
 30
0.0
  0
LINE
  5
309
100
AcDbEntity
  8
LAY-4
  6
CONTINUOUS
 62
     3
100
AcDbLine
 10
773.049866
 20
358.802063
 30
0.0
 11
773.049866
 21
357.302063
 31
0.0
  0
LINE
  5
30A
100
AcDbEntity
  8
LAY-4
  6
CONTINUOUS
 62
     3
100
AcDbLine
 10
613.049866
 20
358.802063
 30
0.0
 11
613.049866
 21
357.302063
 31
0.0
  0
LINE
  5
30B
100
AcDbEntity
  8
LAY-4
  6
CONTINUOUS
 62
     3
100
AcDbLine
 10
773.049866
 20
358.802063
 30
0.0
 11
613.049866
 21
358.802063
 31
0.0
  0
LINE
  5
30C
100
AcDbEntity
  8
LAY-4
  6
CONTINUOUS
 62
     3
100
AcDbLine
 10
773.049866
 20
357.302063
 30
0.0
 11
613.049866
 21
357.302063
 31
0.0
  0
LINE
  5
30D
100
AcDbEntity
  8
LAY-4
  6
CONTINUOUS
 62
     3
100
AcDbLine
 10
496.221313
 20
358.802032
 30
0.0
 11
61.221344
 21
358.802032
 31
0.0
  0
LINE
  5
30E
100
AcDbEntity
  8
LAY-4
  6
CONTINUOUS
 62
     3
100
AcDbLine
 10
496.221313
 20
357.302032
 30
0.0
 11
61.221344
 21
357.302032
 31
0.0
  0
ARC
  5
30F
100
AcDbEntity
  8
LAY-4
  6
CONTINUOUS
 62
     3
100
AcDbCircle
 10
122.221313
 20
153.052063
 30
0.0
 40
22.5
100
AcDbArc
 50
62.733956
 51
117.266044
  0
ARC
  5
310
100
AcDbEntity
  8
LAY-4
  6
CONTINUOUS
 62
     3
100
AcDbCircle
 10
122.221313
 20
153.052063
 30
0.0
 40
22.5
100
AcDbArc
 50
242.733956
 51
297.266044
  0
ARC
  5
311
100
AcDbEntity
  8
LAY-4
  6
DASHED2
 62
     3
100
AcDbCircle
 10
122.221313
 20
153.052063
 30
0.0
 40
22.5
100
AcDbArc
 50
297.266044
 51
62.733956
  0
ARC
  5
312
100
AcDbEntity
  8
LAY-4
  6
DASHED2
 62
     3
100
AcDbCircle
 10
122.221313
 20
153.052063
 30
0.0
 40
22.5
100
AcDbArc
 50
117.266044
 51
242.733956
  0
LINE
  5
313
100
AcDbEntity
  8
LAY-4
  6
CONTINUOUS
 62
     3
100
AcDbLine
 10
181.221313
 20
173.052063
 30
0.0
 11
181.221313
 21
233.052063
 31
0.0
  0
LINE
  5
314
100
AcDbEntity
  8
LAY-4
  6
CONTINUOUS
 62
     3
100
AcDbLine
 10
181.221313
 20
133.052063
 30
0.0
 11
181.221313
 21
73.052063
 31
0.0
  0
LINE
  5
315
100
AcDbEntity
  8
LAY-4
  6
DASHED2
 62
     3
100
AcDbLine
 10
181.221313
 20
173.052063
 30
0.0
 11
181.221313
 21
133.052063
 31
0.0
  0
LINE
  5
316
100
AcDbEntity
  8
LAY-4
  6
CONTINUOUS
 62
     3
100
AcDbLine
 10
496.221313
 20
173.052063
 30
0.0
 11
496.221313
 21
233.052063
 31
0.0
  0
LINE
  5
317
100
AcDbEntity
  8
LAY-4
  6
CONTINUOUS
 62
     3
100
AcDbLine
 10
496.221313
 20
73.052063
 30
0.0
 11
496.221313
 21
133.052063
 31
0.0
  0
LINE
  5
318
100
AcDbEntity
  8
LAY-4
  6
DASHED2
 62
     3
100
AcDbLine
 10
496.221313
 20
173.052063
 30
0.0
 11
496.221313
 21
133.052063
 31
0.0
  0
LINE
  5
319
100
AcDbEntity
  8
LAY-5
  6
DASHDOT
 62
     1
100
AcDbLine
 10
122.221313
 20
542.92218
 30
0.0
 11
122.221313
 21
469.3
 31
0.0
  0
LINE
  5
31A
100
AcDbEntity
  8
LAY-5
  6
DASHDOT
 62
     1
100
AcDbLine
 10
210.851501
 20
515.870941
 30
0.0
 11
193.243866
 21
515.870941
 31
0.0
  0
LINE
  5
31B
100
AcDbEntity
  8
LAY-5
  6
DASHDOT
 62
     1
100
AcDbLine
 10
202.221283
 20
524.7
 30
0.0
 11
202.221283
 21
502.104492
 31
0.0
  0
LINE
  5
31C
100
AcDbEntity
  8
LAY-5
  6
DASHDOT
 62
     1
100
AcDbLine
 10
223.221283
 20
502.104492
 30
0.0
 11
223.221283
 21
531.317139
 31
0.0
  0
LINE
  5
31D
100
AcDbEntity
  8
LAY-5
  6
DASHDOT
 62
     1
100
AcDbLine
 10
214.953278
 20
519.870941
 30
0.0
 11
232.06073
 21
519.870941
 31
0.0
  0
LINE
  5
31E
100
AcDbEntity
  8
LAY-5
  6
DASHDOT
 62
     1
100
AcDbLine
 10
122.221313
 20
400.7
 30
0.0
 11
122.221313
 21
248.657516
 31
0.0
  0
LINE
  5
31F
100
AcDbEntity
  8
LAY-5
  6
DASHDOT
 62
     1
100
AcDbLine
 10
97.221329
 20
369.061554
 30
0.0
 11
97.221329
 21
397.694763
 31
0.0
  0
LINE
  5
320
100
AcDbEntity
  8
LAY-5
  6
DASHDOT
 62
     1
100
AcDbLine
 10
417.221313
 20
380.968414
 30
0.0
 11
417.221313
 21
393.273743
 31
0.0
  0
LINE
  5
321
100
AcDbEntity
  8
LAY-5
  6
DASHDOT
 62
     1
100
AcDbLine
 10
427.221313
 20
369.51709
 30
0.0
 11
427.221313
 21
401.36554
 31
0.0
  0
LINE
  5
322
100
AcDbEntity
  8
LAY-5
  6
DASHDOT
 62
     1
100
AcDbLine
 10
443.313629
 20
387.302032
 30
0.0
 11
409.866699
 21
387.302032
 31
0.0
  0
LINE
  5
323
100
AcDbEntity
  8
LAY-5
  6
DASHDOT
 62
     1
100
AcDbLine
 10
122.221313
 20
240.451782
 30
0.0
 11
122.221313
 21
72.818634
 31
0.0
  0
LINE
  5
324
100
AcDbEntity
  8
LAY-5
  6
DASHDOT
 62
     1
100
AcDbLine
 10
97.221313
 20
144.017395
 30
0.0
 11
97.221313
 21
162.017776
 31
0.0
  0
LINE
  5
325
100
AcDbEntity
  8
LAY-5
  6
DASHDOT
 62
     1
100
AcDbLine
 10
427.221313
 20
180.628693
 30
0.0
 11
427.221313
 21
137.509987
 31
0.0
  0
LINE
  5
326
100
AcDbEntity
  8
LAY-5
  6
DASHDOT
 62
     1
100
AcDbLine
 10
417.221344
 20
167.222885
 30
0.0
 11
417.221344
 21
124.004128
 31
0.0
  0
LINE
  5
327
100
AcDbEntity
  8
LAY-5
  6
DASHDOT
 62
     1
100
AcDbLine
 10
103.444656
 20
216.052078
 30
0.0
 11
90.444656
 21
216.052078
 31
0.0
  0
LINE
  5
328
100
AcDbEntity
  8
LAY-5
  6
DASHDOT
 62
     1
100
AcDbLine
 10
97.221329
 20
210.172089
 30
0.0
 11
97.221329
 21
222.172089
 31
0.0
  0
LINE
  5
329
100
AcDbEntity
  8
LAY-5
  6
DASHDOT
 62
     1
100
AcDbLine
 10
177.444656
 20
216.052078
 30
0.0
 11
164.444656
 21
216.052078
 31
0.0
  0
LINE
  5
32A
100
AcDbEntity
  8
LAY-5
  6
DASHDOT
 62
     1
100
AcDbLine
 10
171.221329
 20
210.172089
 30
0.0
 11
171.221329
 21
222.172089
 31
0.0
  0
LINE
  5
32B
100
AcDbEntity
  8
LAY-5
  6
DASHDOT
 62
     1
100
AcDbLine
 10
197.444656
 20
216.052078
 30
0.0
 11
184.444656
 21
216.052078
 31
0.0
  0
LINE
  5
32C
100
AcDbEntity
  8
LAY-5
  6
DASHDOT
 62
     1
100
AcDbLine
 10
191.221329
 20
210.172089
 30
0.0
 11
191.221329
 21
222.172089
 31
0.0
  0
LINE
  5
32D
100
AcDbEntity
  8
LAY-5
  6
DASHDOT
 62
     1
100
AcDbLine
 10
103.444656
 20
90.052063
 30
0.0
 11
90.444656
 21
90.052063
 31
0.0
  0
LINE
  5
32E
100
AcDbEntity
  8
LAY-5
  6
DASHDOT
 62
     1
100
AcDbLine
 10
97.221329
 20
84.172073
 30
0.0
 11
97.221329
 21
96.172073
 31
0.0
  0
LINE
  5
32F
100
AcDbEntity
  8
LAY-5
  6
DASHDOT
 62
     1
100
AcDbLine
 10
177.444656
 20
90.052063
 30
0.0
 11
164.444656
 21
90.052063
 31
0.0
  0
LINE
  5
330
100
AcDbEntity
  8
LAY-5
  6
DASHDOT
 62
     1
100
AcDbLine
 10
171.221329
 20
84.172073
 30
0.0
 11
171.221329
 21
96.172073
 31
0.0
  0
LINE
  5
331
100
AcDbEntity
  8
LAY-5
  6
DASHDOT
 62
     1
100
AcDbLine
 10
197.444672
 20
90.052071
 30
0.0
 11
184.444672
 21
90.052071
 31
0.0
  0
LINE
  5
332
100
AcDbEntity
  8
LAY-5
  6
DASHDOT
 62
     1
100
AcDbLine
 10
191.221344
 20
84.172073
 30
0.0
 11
191.221344
 21
96.172081
 31
0.0
  0
LINE
  5
333
100
AcDbEntity
  8
LAY-5
  6
DASHDOT
 62
     1
100
AcDbLine
 10
456.950531
 20
216.052078
 30
0.0
 11
443.444672
 21
216.052078
 31
0.0
  0
LINE
  5
334
100
AcDbEntity
  8
LAY-5
  6
DASHDOT
 62
     1
100
AcDbLine
 10
450.221344
 20
209.966797
 30
0.0
 11
450.221344
 21
222.172089
 31
0.0
  0
LINE
  5
335
100
AcDbEntity
  8
LAY-5
  6
DASHDOT
 62
     1
100
AcDbLine
 10
456.444672
 20
90.052063
 30
0.0
 11
443.444672
 21
90.052063
 31
0.0
  0
LINE
  5
336
100
AcDbEntity
  8
LAY-5
  6
DASHDOT
 62
     1
100
AcDbLine
 10
450.221344
 20
84.172073
 30
0.0
 11
450.221344
 21
96.172073
 31
0.0
  0
LINE
  5
337
100
AcDbEntity
  8
LAY-5
  6
DASHDOT
 62
     1
100
AcDbLine
 10
695.0
 20
153.052063
 30
0.0
 11
583.528564
 21
153.052063
 31
0.0
  0
LINE
  5
338
100
AcDbEntity
  8
LAY-5
  6
DASHDOT
 62
     1
100
AcDbLine
 10
639.861084
 20
132.328499
 30
0.0
 11
639.861084
 21
173.346283
 31
0.0
  0
LINE
  5
339
100
AcDbEntity
  8
LAY-5
  6
DASHDOT
 62
     1
100
AcDbLine
 10
599.861084
 20
132.328499
 30
0.0
 11
599.861084
 21
173.346283
 31
0.0
  0
LINE
  5
33A
100
AcDbEntity
  8
LAY-5
  6
DASHDOT
 62
     1
100
AcDbLine
 10
679.861084
 20
132.128403
 30
0.0
 11
679.861084
 21
173.346283
 31
0.0
  0
LINE
  5
33B
100
AcDbEntity
  8
LAY-5
  6
DASHDOT
 62
     1
100
AcDbLine
 10
592.06781
 20
160.552063
 30
0.0
 11
607.167603
 21
160.552063
 31
0.0
  0
LINE
  5
33C
100
AcDbEntity
  8
LAY-5
  6
DASHDOT
 62
     1
100
AcDbLine
 10
592.217773
 20
145.552063
 30
0.0
 11
607.667603
 21
145.552063
 31
0.0
  0
LINE
  5
33D
100
AcDbEntity
  8
LAY-5
  6
DASHDOT
 62
     1
100
AcDbLine
 10
671.268921
 20
160.552063
 30
0.0
 11
688.918762
 21
160.552063
 31
0.0
  0
LINE
  5
33E
100
AcDbEntity
  8
LAY-5
  6
DASHDOT
 62
     1
100
AcDbLine
 10
670.868896
 20
145.552063
 30
0.0
 11
688.318726
 21
145.552063
 31
0.0
  0
LINE
  5
33F
100
AcDbEntity
  8
LAY-5
  6
DASHDOT
 62
     1
100
AcDbLine
 10
614.861084
 20
159.533829
 30
0.0
 11
614.861084
 21
146.233551
 31
0.0
  0
LINE
  5
340
100
AcDbEntity
  8
LAY-5
  6
DASHDOT
 62
     1
100
AcDbLine
 10
639.861084
 20
106.488647
 30
0.0
 11
639.861084
 21
85.879707
 31
0.0
  0
LINE
  5
341
100
AcDbEntity
  8
LAY-5
  6
DASHDOT
 62
     1
100
AcDbLine
 10
599.861084
 20
103.387299
 30
0.0
 11
599.861084
 21
94.883606
 31
0.0
  0
LINE
  5
342
100
AcDbEntity
  8
LAY-5
  6
DASHDOT
 62
     1
100
AcDbLine
 10
97.221329
 20
369.061554
 30
0.0
 11
97.221329
 21
397.694763
 31
0.0
  0
LINE
  5
343
100
AcDbEntity
  8
LAY-5
  6
DASHDOT
 62
     1
100
AcDbLine
 10
427.221313
 20
369.51709
 30
0.0
 11
427.221313
 21
401.36554
 31
0.0
  0
LINE
  5
344
100
AcDbEntity
  8
LAY-5
  6
DASHDOT
 62
     1
100
AcDbLine
 10
443.313629
 20
387.302032
 30
0.0
 11
409.866699
 21
387.302032
 31
0.0
  0
LINE
  5
345
100
AcDbEntity
  8
LAY-5
  6
DASHDOT
 62
     1
100
AcDbLine
 10
417.221313
 20
380.968414
 30
0.0
 11
417.221313
 21
393.273743
 31
0.0
  0
LINE
  5
346
100
AcDbEntity
  8
LAY-5
  6
DASHDOT
 62
     1
100
AcDbLine
 10
614.861084
 20
76.546097
 30
0.0
 11
614.861084
 21
105.179306
 31
0.0
  0
LINE
  5
347
100
AcDbEntity
  8
LAY-5
  6
DASHDOT
 62
     1
100
AcDbLine
 10
679.861084
 20
103.387299
 30
0.0
 11
679.861084
 21
94.883606
 31
0.0
  0
LINE
  5
348
100
AcDbEntity
  8
LAY-5
  6
DASHDOT
 62
     1
100
AcDbLine
 10
447.0
 20
153.052063
 30
0.0
 11
253.0
 21
153.052063
 31
0.0
  0
LINE
  5
349
100
AcDbEntity
  8
LAY-5
  6
DASHDOT
 62
     1
100
AcDbLine
 10
233.0
 20
153.052063
 30
0.0
 11
45.049438
 21
153.052063
 31
0.0
  0
LINE
  5
34A
100
AcDbEntity
  8
LAY-5
  6
DASHDOT
 62
     1
100
AcDbLine
 10
244.221313
 20
496.1
 30
0.0
 11
244.221313
 21
477.8
 31
0.0
  0
LINE
  5
34B
100
AcDbEntity
  8
LAY-5
  6
DASHDOT
 62
     1
100
AcDbLine
 10
244.221283
 20
497.12
 30
0.0
 11
244.221283
 21
516.2
 31
0.0
  0
LINE
  5
34C
100
AcDbEntity
  8
LAY-5
  6
DASHDOT
 62
     1
100
AcDbLine
 10
152.221298
 20
496.4
 30
0.0
 11
152.221298
 21
478.4
 31
0.0
  0
LINE
  5
34D
100
AcDbEntity
  8
LAY-5
  6
DASHDOT
 62
     1
100
AcDbLine
 10
198.221313
 20
496.5
 30
0.0
 11
198.221313
 21
478.4
 31
0.0
  0
LINE
  5
34E
100
AcDbEntity
  8
LAY-5
  6
DASHDOT
 62
     1
100
AcDbLine
 10
97.221313
 20
496.7
 30
0.0
 11
97.221313
 21
515.6
 31
0.0
  0
LINE
  5
34F
100
AcDbEntity
  8
LAY-5
  6
DASHDOT
 62
     1
100
AcDbLine
 10
162.221329
 20
388.32
 30
0.0
 11
162.221329
 21
407.29892
 31
0.0
  0
LINE
  5
350
100
AcDbEntity
  8
LAY-5
  6
DASHDOT
 62
     1
100
AcDbLine
 10
162.221329
 20
386.742798
 30
0.0
 11
162.221329
 21
405.54
 31
0.0
  0
LINE
  5
351
100
AcDbEntity
  8
LAY-5
  6
DASHDOT
 62
     1
100
AcDbLine
 10
82.221313
 20
388.2
 30
0.0
 11
82.221313
 21
406.27
 31
0.0
  0
LINE
  5
352
100
AcDbEntity
  8
LAY-5
  6
DASHDOT
 62
     1
100
AcDbLine
 10
82.221313
 20
388.25
 30
0.0
 11
82.221313
 21
406.0
 31
0.0
  0
LINE
  5
353
100
AcDbEntity
  8
LAY-5
  6
DASHDOT
 62
     1
100
AcDbLine
 10
537.771794
 20
550.354248
 30
0.0
 11
537.771794
 21
534.770081
 31
0.0
  0
LINE
  5
354
100
AcDbEntity
  8
LAY-5
  6
DASHDOT
 62
     1
100
AcDbLine
 10
537.771794
 20
518.354279
 30
0.0
 11
537.771794
 21
533.186707
 31
0.0
  0
LINE
  5
355
100
AcDbEntity
  8
LAY-5
  6
DASHDOT
 62
     1
100
AcDbLine
 10
528.673345
 20
543.354187
 30
0.0
 11
546.450481
 21
543.354187
 31
0.0
  0
LINE
  5
356
100
AcDbEntity
  8
LAY-5
  6
DASHDOT
 62
     1
100
AcDbLine
 10
528.673345
 20
525.354187
 30
0.0
 11
546.450481
 21
525.354187
 31
0.0
  0
LINE
  5
357
100
AcDbEntity
  8
LAY-5
  6
DASHDOT
 62
     1
100
AcDbLine
 10
390.771794
 20
550.354248
 30
0.0
 11
390.771794
 21
535.109375
 31
0.0
  0
LINE
  5
358
100
AcDbEntity
  8
LAY-5
  6
DASHDOT
 62
     1
100
AcDbLine
 10
390.771794
 20
518.354279
 30
0.0
 11
390.771794
 21
533.073608
 31
0.0
  0
LINE
  5
359
100
AcDbEntity
  8
LAY-5
  6
DASHDOT
 62
     1
100
AcDbLine
 10
382.550664
 20
543.354187
 30
0.0
 11
399.741582
 21
543.354187
 31
0.0
  0
LINE
  5
35A
100
AcDbEntity
  8
LAY-5
  6
DASHDOT
 62
     1
100
AcDbLine
 10
399.741582
 20
525.354187
 30
0.0
 11
382.550664
 21
525.354187
 31
0.0
  0
LINE
  5
35B
100
AcDbEntity
  8
LAY-5
  6
DASHDOT
 62
     1
100
AcDbLine
 10
368.074132
 20
534.354187
 30
0.0
 11
563.05512
 21
534.354187
 31
0.0
  0
LINE
  5
35C
100
AcDbEntity
  8
LAY-5
  6
DASHDOT
 62
     1
100
AcDbLine
 10
415.771794
 20
511.213269
 30
0.0
 11
415.771794
 21
557.013269
 31
0.0
  0
LINE
  5
35D
100
AcDbEntity
  8
LAY-5
  6
DASHDOT
 62
     1
100
AcDbLine
 10
516.771794
 20
523.347198
 30
0.0
 11
516.771794
 21
544.663269
 31
0.0
  0
LINE
  5
35E
100
AcDbEntity
  8
LAY-5
  6
DASHDOT
 62
     1
100
AcDbLine
 10
495.771794
 20
523.347198
 30
0.0
 11
495.771794
 21
544.663269
 31
0.0
  0
LINE
  5
35F
100
AcDbEntity
  8
LAY-5
  6
DASHDOT
 62
     1
100
AcDbLine
 10
475.771794
 20
523.347198
 30
0.0
 11
475.771794
 21
544.663269
 31
0.0
  0
LINE
  5
360
100
AcDbEntity
  8
LAY-5
  6
DASHDOT
 62
     1
100
AcDbLine
 10
437.063909
 20
474.68421
 30
0.0
 11
454.550481
 21
474.68421
 31
0.0
  0
LINE
  5
361
100
AcDbEntity
  8
LAY-5
  6
DASHDOT
 62
     1
100
AcDbLine
 10
483.550481
 20
458.68421
 30
0.0
 11
500.964299
 21
458.68421
 31
0.0
  0
LINE
  5
362
100
AcDbEntity
  8
LAY-5
  6
DASHDOT
 62
     1
100
AcDbLine
 10
528.673345
 20
474.68421
 30
0.0
 11
546.995183
 21
474.68421
 31
0.0
  0
LINE
  5
363
100
AcDbEntity
  8
LAY-5
  6
DASHDOT
 62
     1
100
AcDbLine
 10
391.73908
 20
466.68421
 30
0.0
 11
556.103826
 21
466.68421
 31
0.0
  0
LINE
  5
364
100
AcDbEntity
  8
LAY-5
  6
DASHDOT
 62
     1
100
AcDbLine
 10
445.771794
 20
482.68421
 30
0.0
 11
445.771794
 21
466.613269
 31
0.0
  0
LINE
  5
365
100
AcDbEntity
  8
LAY-5
  6
DASHDOT
 62
     1
100
AcDbLine
 10
491.771794
 20
466.68421
 30
0.0
 11
491.771794
 21
447.813269
 31
0.0
  0
LINE
  5
366
100
AcDbEntity
  8
LAY-5
  6
DASHDOT
 62
     1
100
AcDbLine
 10
537.771794
 20
482.68421
 30
0.0
 11
537.771794
 21
466.613269
 31
0.0
  0
LINE
  5
367
100
AcDbEntity
  8
LAY-5
  6
DASHDOT
 62
     1
100
AcDbLine
 10
415.771794
 20
487.182013
 30
0.0
 11
415.771794
 21
447.813269
 31
0.0
  0
LINE
  5
368
100
AcDbEntity
  8
LAY-5
  6
DASHDOT
 62
     1
100
AcDbLine
 10
693.049805
 20
245.849289
 30
0.0
 11
693.049805
 21
565.0
 31
0.0
  0
TEXT
  5
369
100
AcDbEntity
  8
LAY-6
  6
CONTINUOUS
 62
     2
100
AcDbText
 10
94.221313
 20
546.4
 30
0.0
 40
5.0
  1
２０
 41
0.672
  7
EXCADSTD
 72
     5
 11
101.554113
 21
546.4
 31
0.0
100
AcDbText
  0
LINE
  5
36A
100
AcDbEntity
  8
LAY-6
  6
CONTINUOUS
 62
     1
100
AcDbLine
 10
88.221313
 20
508.870972
 30
0.0
 11
88.221313
 21
547.4
 31
0.0
  0
LINE
  5
36B
100
AcDbEntity
  8
LAY-6
  6
CONTINUOUS
 62
     1
100
AcDbLine
 10
108.221313
 20
508.870972
 30
0.0
 11
108.221313
 21
547.4
 31
0.0
  0
LINE
  5
36C
100
AcDbEntity
  8
LAY-6
  6
CONTINUOUS
 62
     1
100
AcDbLine
 10
88.221313
 20
545.9
 30
0.0
 11
108.221313
 21
545.9
 31
0.0
  0
LINE
  5
36D
100
AcDbEntity
  8
LAY-6
  6
CONTINUOUS
 62
     1
100
AcDbLine
 10
91.221313
 20
546.4
 30
0.0
 11
88.221313
 21
545.9
 31
0.0
  0
LINE
  5
36E
100
AcDbEntity
  8
LAY-6
  6
CONTINUOUS
 62
     1
100
AcDbLine
 10
88.221313
 20
545.9
 30
0.0
 11
91.221313
 21
545.4
 31
0.0
  0
LINE
  5
36F
100
AcDbEntity
  8
LAY-6
  6
CONTINUOUS
 62
     1
100
AcDbLine
 10
105.221313
 20
545.4
 30
0.0
 11
108.221313
 21
545.9
 31
0.0
  0
LINE
  5
370
100
AcDbEntity
  8
LAY-6
  6
CONTINUOUS
 62
     1
100
AcDbLine
 10
108.221313
 20
545.9
 30
0.0
 11
105.221313
 21
546.4
 31
0.0
  0
TEXT
  5
371
100
AcDbEntity
  8
LAY-6
  6
CONTINUOUS
 62
     2
100
AcDbText
 10
112.121313
 20
546.2
 30
0.0
 40
5.0
  1
１４
 41
0.672
  7
EXCADSTD
 72
     5
 11
119.454113
 21
546.2
 31
0.0
100
AcDbText
  0
LINE
  5
372
100
AcDbEntity
  8
LAY-6
  6
CONTINUOUS
 62
     1
100
AcDbLine
 10
122.221313
 20
542.92218
 30
0.0
 11
122.221313
 21
547.4
 31
0.0
  0
LINE
  5
373
100
AcDbEntity
  8
LAY-6
  6
CONTINUOUS
 62
     1
100
AcDbLine
 10
108.221313
 20
545.9
 30
0.0
 11
122.221313
 21
545.9
 31
0.0
  0
LINE
  5
374
100
AcDbEntity
  8
LAY-6
  6
CONTINUOUS
 62
     1
100
AcDbLine
 10
111.221313
 20
546.4
 30
0.0
 11
108.221313
 21
545.9
 31
0.0
  0
LINE
  5
375
100
AcDbEntity
  8
LAY-6
  6
CONTINUOUS
 62
     1
100
AcDbLine
 10
108.221313
 20
545.9
 30
0.0
 11
111.221313
 21
545.4
 31
0.0
  0
LINE
  5
376
100
AcDbEntity
  8
LAY-6
  6
CONTINUOUS
 62
     1
100
AcDbLine
 10
119.221313
 20
545.4
 30
0.0
 11
122.221313
 21
545.9
 31
0.0
  0
LINE
  5
377
100
AcDbEntity
  8
LAY-6
  6
CONTINUOUS
 62
     1
100
AcDbLine
 10
122.221313
 20
545.9
 30
0.0
 11
119.221313
 21
546.4
 31
0.0
  0
LINE
  5
378
100
AcDbEntity
  8
LAY-6
  6
CONTINUOUS
 62
     1
100
AcDbLine
 10
238.221313
 20
508.870972
 30
0.0
 11
238.221313
 21
547.4
 31
0.0
  0
LINE
  5
379
100
AcDbEntity
  8
LAY-6
  6
CONTINUOUS
 62
     1
100
AcDbLine
 10
122.221313
 20
545.9
 30
0.0
 11
238.221313
 21
545.9
 31
0.0
  0
LINE
  5
37A
100
AcDbEntity
  8
LAY-6
  6
CONTINUOUS
 62
     1
100
AcDbLine
 10
125.221313
 20
546.4
 30
0.0
 11
122.221313
 21
545.9
 31
0.0
  0
LINE
  5
37B
100
AcDbEntity
  8
LAY-6
  6
CONTINUOUS
 62
     1
100
AcDbLine
 10
122.221313
 20
545.9
 30
0.0
 11
125.221313
 21
545.4
 31
0.0
  0
LINE
  5
37C
100
AcDbEntity
  8
LAY-6
  6
CONTINUOUS
 62
     1
100
AcDbLine
 10
235.221313
 20
545.4
 30
0.0
 11
238.221313
 21
545.9
 31
0.0
  0
LINE
  5
37D
100
AcDbEntity
  8
LAY-6
  6
CONTINUOUS
 62
     1
100
AcDbLine
 10
238.221313
 20
545.9
 30
0.0
 11
235.221313
 21
546.4
 31
0.0
  0
TEXT
  5
37E
100
AcDbEntity
  8
LAY-6
  6
CONTINUOUS
 62
     2
100
AcDbText
 10
174.221313
 20
546.4
 30
0.0
 40
5.0
  1
１１６
 41
0.672
  7
EXCADSTD
 72
     5
 11
186.221313
 21
546.4
 31
0.0
100
AcDbText
  0
LINE
  5
37F
100
AcDbEntity
  8
LAY-6
  6
CONTINUOUS
 62
     1
100
AcDbLine
 10
257.221313
 20
508.870972
 30
0.0
 11
257.221313
 21
547.4
 31
0.0
  0
LINE
  5
380
100
AcDbEntity
  8
LAY-6
  6
CONTINUOUS
 62
     1
100
AcDbLine
 10
238.221313
 20
545.9
 30
0.0
 11
257.221313
 21
545.9
 31
0.0
  0
LINE
  5
381
100
AcDbEntity
  8
LAY-6
  6
CONTINUOUS
 62
     1
100
AcDbLine
 10
241.221313
 20
546.4
 30
0.0
 11
238.221313
 21
545.9
 31
0.0
  0
LINE
  5
382
100
AcDbEntity
  8
LAY-6
  6
CONTINUOUS
 62
     1
100
AcDbLine
 10
238.221313
 20
545.9
 30
0.0
 11
241.221313
 21
545.4
 31
0.0
  0
LINE
  5
383
100
AcDbEntity
  8
LAY-6
  6
CONTINUOUS
 62
     1
100
AcDbLine
 10
254.221313
 20
545.4
 30
0.0
 11
257.221313
 21
545.9
 31
0.0
  0
LINE
  5
384
100
AcDbEntity
  8
LAY-6
  6
CONTINUOUS
 62
     1
100
AcDbLine
 10
257.221313
 20
545.9
 30
0.0
 11
254.221313
 21
546.4
 31
0.0
  0
TEXT
  5
385
100
AcDbEntity
  8
LAY-6
  6
CONTINUOUS
 62
     2
100
AcDbText
 10
243.721313
 20
546.4
 30
0.0
 40
5.0
  1
１９
 41
0.672
  7
EXCADSTD
 72
     5
 11
251.054113
 21
546.4
 31
0.0
100
AcDbText
  0
TEXT
  5
386
100
AcDbEntity
  8
LAY-6
  6
CONTINUOUS
 62
     2
100
AcDbText
 10
110.221306
 20
463.6
 30
0.0
 40
5.0
  1
１６
 41
0.672
  7
EXCADSTD
 72
     5
 11
117.554106
 21
463.6
 31
0.0
100
AcDbText
  0
LINE
  5
387
100
AcDbEntity
  8
LAY-6
  6
CONTINUOUS
 62
     1
100
AcDbLine
 10
106.221298
 20
489.370941
 30
0.0
 11
106.221298
 21
461.6
 31
0.0
  0
LINE
  5
388
100
AcDbEntity
  8
LAY-6
  6
CONTINUOUS
 62
     1
100
AcDbLine
 10
122.221313
 20
469.3
 30
0.0
 11
122.221313
 21
461.6
 31
0.0
  0
LINE
  5
389
100
AcDbEntity
  8
LAY-6
  6
CONTINUOUS
 62
     1
100
AcDbLine
 10
106.221298
 20
463.1
 30
0.0
 11
122.221313
 21
463.1
 31
0.0
  0
LINE
  5
38A
100
AcDbEntity
  8
LAY-6
  6
CONTINUOUS
 62
     1
100
AcDbLine
 10
109.221298
 20
463.6
 30
0.0
 11
106.221298
 21
463.1
 31
0.0
  0
LINE
  5
38B
100
AcDbEntity
  8
LAY-6
  6
CONTINUOUS
 62
     1
100
AcDbLine
 10
106.221298
 20
463.1
 30
0.0
 11
109.221298
 21
462.6
 31
0.0
  0
LINE
  5
38C
100
AcDbEntity
  8
LAY-6
  6
CONTINUOUS
 62
     1
100
AcDbLine
 10
119.221313
 20
462.6
 30
0.0
 11
122.221313
 21
463.1
 31
0.0
  0
LINE
  5
38D
100
AcDbEntity
  8
LAY-6
  6
CONTINUOUS
 62
     1
100
AcDbLine
 10
122.221313
 20
463.1
 30
0.0
 11
119.221313
 21
463.6
 31
0.0
  0
TEXT
  5
38E
100
AcDbEntity
  8
LAY-6
  6
CONTINUOUS
 62
     2
100
AcDbText
 10
127.521313
 20
463.6
 30
0.0
 40
5.0
  1
２０
 41
0.672
  7
EXCADSTD
 72
     5
 11
134.854113
 21
463.6
 31
0.0
100
AcDbText
  0
LINE
  5
38F
100
AcDbEntity
  8
LAY-6
  6
CONTINUOUS
 62
     1
100
AcDbLine
 10
142.221313
 20
484.870941
 30
0.0
 11
142.221313
 21
461.6
 31
0.0
  0
LINE
  5
390
100
AcDbEntity
  8
LAY-6
  6
CONTINUOUS
 62
     1
100
AcDbLine
 10
122.221313
 20
463.1
 30
0.0
 11
142.221313
 21
463.1
 31
0.0
  0
LINE
  5
391
100
AcDbEntity
  8
LAY-6
  6
CONTINUOUS
 62
     1
100
AcDbLine
 10
125.221313
 20
463.6
 30
0.0
 11
122.221313
 21
463.1
 31
0.0
  0
LINE
  5
392
100
AcDbEntity
  8
LAY-6
  6
CONTINUOUS
 62
     1
100
AcDbLine
 10
122.221313
 20
463.1
 30
0.0
 11
125.221313
 21
462.6
 31
0.0
  0
LINE
  5
393
100
AcDbEntity
  8
LAY-6
  6
CONTINUOUS
 62
     1
100
AcDbLine
 10
139.221313
 20
462.6
 30
0.0
 11
142.221313
 21
463.1
 31
0.0
  0
LINE
  5
394
100
AcDbEntity
  8
LAY-6
  6
CONTINUOUS
 62
     1
100
AcDbLine
 10
142.221313
 20
463.1
 30
0.0
 11
139.221313
 21
463.6
 31
0.0
  0
LINE
  5
395
100
AcDbEntity
  8
LAY-6
  6
CONTINUOUS
 62
     1
100
AcDbLine
 10
257.221313
 20
484.870941
 30
0.0
 11
257.221313
 21
461.6
 31
0.0
  0
LINE
  5
396
100
AcDbEntity
  8
LAY-6
  6
CONTINUOUS
 62
     1
100
AcDbLine
 10
142.221313
 20
463.1
 30
0.0
 11
257.221313
 21
463.1
 31
0.0
  0
LINE
  5
397
100
AcDbEntity
  8
LAY-6
  6
CONTINUOUS
 62
     1
100
AcDbLine
 10
145.221313
 20
463.6
 30
0.0
 11
142.221313
 21
463.1
 31
0.0
  0
LINE
  5
398
100
AcDbEntity
  8
LAY-6
  6
CONTINUOUS
 62
     1
100
AcDbLine
 10
142.221313
 20
463.1
 30
0.0
 11
145.221313
 21
462.6
 31
0.0
  0
LINE
  5
399
100
AcDbEntity
  8
LAY-6
  6
CONTINUOUS
 62
     1
100
AcDbLine
 10
254.221313
 20
462.6
 30
0.0
 11
257.221313
 21
463.1
 31
0.0
  0
LINE
  5
39A
100
AcDbEntity
  8
LAY-6
  6
CONTINUOUS
 62
     1
100
AcDbLine
 10
257.221313
 20
463.1
 30
0.0
 11
254.221313
 21
463.6
 31
0.0
  0
TEXT
  5
39B
100
AcDbEntity
  8
LAY-6
  6
CONTINUOUS
 62
     2
100
AcDbText
 10
193.721313
 20
463.6
 30
0.0
 40
5.0
  1
１１５
 41
0.672
  7
EXCADSTD
 72
     5
 11
205.721313
 21
463.6
 31
0.0
100
AcDbText
  0
LINE
  5
39C
100
AcDbEntity
  8
LAY-6
  6
CONTINUOUS
 62
     1
100
AcDbLine
 10
257.221313
 20
489.370941
 30
0.0
 11
276.0
 21
489.370941
 31
0.0
  0
TEXT
  5
39D
100
AcDbEntity
  8
LAY-6
  6
CONTINUOUS
 62
     2
100
AcDbText
 10
274.0
 20
490.370941
 30
0.0
 40
5.0
  1
６
 50
90.0
 41
0.672
  7
EXCADSTD
 72
     5
 11
274.0
 21
493.570941
 31
0.0
100
AcDbText
  0
LINE
  5
39E
100
AcDbEntity
  8
LAY-6
  6
CONTINUOUS
 62
     1
100
AcDbLine
 10
274.5
 20
489.370941
 30
0.0
 11
274.5
 21
495.370941
 31
0.0
  0
LINE
  5
39F
100
AcDbEntity
  8
LAY-6
  6
CONTINUOUS
 62
     1
100
AcDbLine
 10
274.033333
 20
492.170941
 30
0.0
 11
274.5
 21
489.370941
 31
0.0
  0
LINE
  5
3A0
100
AcDbEntity
  8
LAY-6
  6
CONTINUOUS
 62
     1
100
AcDbLine
 10
274.5
 20
489.370941
 30
0.0
 11
274.966667
 21
492.170941
 31
0.0
  0
LINE
  5
3A1
100
AcDbEntity
  8
LAY-6
  6
CONTINUOUS
 62
     1
100
AcDbLine
 10
274.966667
 20
492.570941
 30
0.0
 11
274.5
 21
495.370941
 31
0.0
  0
LINE
  5
3A2
100
AcDbEntity
  8
LAY-6
  6
CONTINUOUS
 62
     1
100
AcDbLine
 10
274.5
 20
495.370941
 30
0.0
 11
274.033333
 21
492.570941
 31
0.0
  0
LINE
  5
3A3
100
AcDbEntity
  8
LAY-6
  6
CONTINUOUS
 62
     1
100
AcDbLine
 10
257.221313
 20
504.370972
 30
0.0
 11
276.0
 21
504.370972
 31
0.0
  0
TEXT
  5
3A4
100
AcDbEntity
  8
LAY-6
  6
CONTINUOUS
 62
     2
100
AcDbText
 10
274.0
 20
499.370972
 30
0.0
 40
5.0
  1
６
 50
90.0
 41
0.672
  7
EXCADSTD
 72
     5
 11
274.0
 21
502.570972
 31
0.0
100
AcDbText
  0
LINE
  5
3A5
100
AcDbEntity
  8
LAY-6
  6
CONTINUOUS
 62
     1
100
AcDbLine
 10
274.5
 20
498.370972
 30
0.0
 11
274.5
 21
504.370972
 31
0.0
  0
LINE
  5
3A6
100
AcDbEntity
  8
LAY-6
  6
CONTINUOUS
 62
     1
100
AcDbLine
 10
274.033333
 20
501.170972
 30
0.0
 11
274.5
 21
498.370972
 31
0.0
  0
LINE
  5
3A7
100
AcDbEntity
  8
LAY-6
  6
CONTINUOUS
 62
     1
100
AcDbLine
 10
274.5
 20
498.370972
 30
0.0
 11
274.966667
 21
501.170972
 31
0.0
  0
LINE
  5
3A8
100
AcDbEntity
  8
LAY-6
  6
CONTINUOUS
 62
     1
100
AcDbLine
 10
274.966667
 20
501.570972
 30
0.0
 11
274.5
 21
504.370972
 31
0.0
  0
LINE
  5
3A9
100
AcDbEntity
  8
LAY-6
  6
CONTINUOUS
 62
     1
100
AcDbLine
 10
274.5
 20
504.370972
 30
0.0
 11
274.033333
 21
501.570972
 31
0.0
  0
POLYLINE
  5
3AA
100
AcDbEntity
  8
LAY-6
  6
CONTINUOUS
 62
     1
100
AcDb2dPolyline
 66
     1
 10
0.0
 20
0.0
 30
0.0
 70
   128
  0
VERTEX
  5
3AB
100
AcDbEntity
  8
LAY-6
  6
CONTINUOUS
 62
     1
100
AcDbVertex
100
AcDb2dVertex
 10
244.221283
 20
514.370953
 30
0.0
  0
VERTEX
  5
3AC
100
AcDbEntity
  8
LAY-6
  6
CONTINUOUS
 62
     1
100
AcDbVertex
100
AcDb2dVertex
 10
277.4
 20
546.5
 30
0.0
  0
VERTEX
  5
3AD
100
AcDbEntity
  8
LAY-6
  6
CONTINUOUS
 62
     1
100
AcDbVertex
100
AcDb2dVertex
 10
325.3
 20
546.5
 30
0.0
  0
SEQEND
  5
3AE
100
AcDbEntity
  8
LAY-6
  6
CONTINUOUS
 62
     1
  0
LINE
  5
3AF
100
AcDbEntity
  8
LAY-6
  6
CONTINUOUS
 62
     1
100
AcDbLine
 10
245.908107
 20
516.654022
 30
0.0
 11
244.221283
 21
514.370953
 31
0.0
  0
LINE
  5
3B0
100
AcDbEntity
  8
LAY-6
  6
CONTINUOUS
 62
     1
100
AcDbLine
 10
244.221283
 20
514.370953
 30
0.0
 11
246.557382
 21
515.983535
 31
0.0
  0
TEXT
  5
3B1
100
AcDbEntity
  8
LAY-6
  6
CONTINUOUS
 62
     2
100
AcDbText
 10
278.4
 20
546.9
 30
0.0
 40
5.0
  1
４－Ｍ６×１６皿小ネジ
 41
0.672
  7
EXCADSTD
 72
     5
 11
322.4
 21
546.9
 31
0.0
100
AcDbText
  0
POLYLINE
  5
3B2
100
AcDbEntity
  8
LAY-6
  6
CONTINUOUS
 62
     1
100
AcDb2dPolyline
 66
     1
 10
0.0
 20
0.0
 30
0.0
 70
   128
  0
VERTEX
  5
3B3
100
AcDbEntity
  8
LAY-6
  6
CONTINUOUS
 62
     1
100
AcDbVertex
100
AcDb2dVertex
 10
244.221313
 20
479.370941
 30
0.0
  0
VERTEX
  5
3B4
100
AcDbEntity
  8
LAY-6
  6
CONTINUOUS
 62
     1
100
AcDbVertex
100
AcDb2dVertex
 10
276.7
 20
462.3
 30
0.0
  0
VERTEX
  5
3B5
100
AcDbEntity
  8
LAY-6
  6
CONTINUOUS
 62
     1
100
AcDbVertex
100
AcDb2dVertex
 10
324.6
 20
462.3
 30
0.0
  0
SEQEND
  5
3B6
100
AcDbEntity
  8
LAY-6
  6
CONTINUOUS
 62
     1
  0
LINE
  5
3B7
100
AcDbEntity
  8
LAY-6
  6
CONTINUOUS
 62
     1
100
AcDbLine
 10
246.916928
 20
478.481315
 30
0.0
 11
244.221313
 21
479.370941
 31
0.0
  0
LINE
  5
3B8
100
AcDbEntity
  8
LAY-6
  6
CONTINUOUS
 62
     1
100
AcDbLine
 10
244.221313
 20
479.370941
 30
0.0
 11
246.482692
 21
477.655149
 31
0.0
  0
TEXT
  5
3B9
100
AcDbEntity
  8
LAY-6
  6
CONTINUOUS
 62
     2
100
AcDbText
 10
277.0
 20
462.3
 30
0.0
 40
5.0
  1
３－Ｍ６×１６皿小ネジ
 41
0.672
  7
EXCADSTD
 72
     5
 11
321.0
 21
462.3
 31
0.0
100
AcDbText
  0
LINE
  5
3BA
100
AcDbEntity
  8
LAY-6
  6
CONTINUOUS
 62
     1
100
AcDbLine
 10
97.221329
 20
397.694763
 30
0.0
 11
97.221329
 21
413.0
 31
0.0
  0
LINE
  5
3BB
100
AcDbEntity
  8
LAY-6
  6
CONTINUOUS
 62
     1
100
AcDbLine
 10
122.221313
 20
400.7
 30
0.0
 11
122.221313
 21
413.0
 31
0.0
  0
LINE
  5
3BC
100
AcDbEntity
  8
LAY-6
  6
CONTINUOUS
 62
     1
100
AcDbLine
 10
97.221329
 20
411.5
 30
0.0
 11
122.221313
 21
411.5
 31
0.0
  0
LINE
  5
3BD
100
AcDbEntity
  8
LAY-6
  6
CONTINUOUS
 62
     1
100
AcDbLine
 10
100.221329
 20
412.0
 30
0.0
 11
97.221329
 21
411.5
 31
0.0
  0
LINE
  5
3BE
100
AcDbEntity
  8
LAY-6
  6
CONTINUOUS
 62
     1
100
AcDbLine
 10
97.221329
 20
411.5
 30
0.0
 11
100.221329
 21
411.0
 31
0.0
  0
LINE
  5
3BF
100
AcDbEntity
  8
LAY-6
  6
CONTINUOUS
 62
     1
100
AcDbLine
 10
119.221313
 20
411.0
 30
0.0
 11
122.221313
 21
411.5
 31
0.0
  0
LINE
  5
3C0
100
AcDbEntity
  8
LAY-6
  6
CONTINUOUS
 62
     1
100
AcDbLine
 10
122.221313
 20
411.5
 30
0.0
 11
119.221313
 21
412.0
 31
0.0
  0
TEXT
  5
3C1
100
AcDbEntity
  8
LAY-6
  6
CONTINUOUS
 62
     2
100
AcDbText
 10
105.721321
 20
412.0
 30
0.0
 40
5.0
  1
２５
 41
0.672
  7
EXCADSTD
 72
     5
 11
113.054121
 21
412.0
 31
0.0
100
AcDbText
  0
LINE
  5
3C2
100
AcDbEntity
  8
LAY-6
  6
CONTINUOUS
 62
     1
100
AcDbLine
 10
417.221313
 20
393.273743
 30
0.0
 11
417.221313
 21
413.0
 31
0.0
  0
LINE
  5
3C3
100
AcDbEntity
  8
LAY-6
  6
CONTINUOUS
 62
     1
100
AcDbLine
 10
122.221313
 20
411.5
 30
0.0
 11
417.221313
 21
411.5
 31
0.0
  0
LINE
  5
3C4
100
AcDbEntity
  8
LAY-6
  6
CONTINUOUS
 62
     1
100
AcDbLine
 10
125.221313
 20
412.0
 30
0.0
 11
122.221313
 21
411.5
 31
0.0
  0
LINE
  5
3C5
100
AcDbEntity
  8
LAY-6
  6
CONTINUOUS
 62
     1
100
AcDbLine
 10
122.221313
 20
411.5
 30
0.0
 11
125.221313
 21
411.0
 31
0.0
  0
LINE
  5
3C6
100
AcDbEntity
  8
LAY-6
  6
CONTINUOUS
 62
     1
100
AcDbLine
 10
414.221313
 20
411.0
 30
0.0
 11
417.221313
 21
411.5
 31
0.0
  0
LINE
  5
3C7
100
AcDbEntity
  8
LAY-6
  6
CONTINUOUS
 62
     1
100
AcDbLine
 10
417.221313
 20
411.5
 30
0.0
 11
414.221313
 21
412.0
 31
0.0
  0
TEXT
  5
3C8
100
AcDbEntity
  8
LAY-6
  6
CONTINUOUS
 62
     2
100
AcDbText
 10
263.721313
 20
412.0
 30
0.0
 40
5.0
  1
２９５
 41
0.672
  7
EXCADSTD
 72
     5
 11
275.721313
 21
412.0
 31
0.0
100
AcDbText
  0
LINE
  5
3C9
100
AcDbEntity
  8
LAY-6
  6
CONTINUOUS
 62
     1
100
AcDbLine
 10
427.221313
 20
401.36554
 30
0.0
 11
427.221313
 21
413.0
 31
0.0
  0
LINE
  5
3CA
100
AcDbEntity
  8
LAY-6
  6
CONTINUOUS
 62
     1
100
AcDbLine
 10
417.221313
 20
411.5
 30
0.0
 11
427.221313
 21
411.5
 31
0.0
  0
LINE
  5
3CB
100
AcDbEntity
  8
LAY-6
  6
CONTINUOUS
 62
     1
100
AcDbLine
 10
420.221313
 20
412.0
 30
0.0
 11
417.221313
 21
411.5
 31
0.0
  0
LINE
  5
3CC
100
AcDbEntity
  8
LAY-6
  6
CONTINUOUS
 62
     1
100
AcDbLine
 10
417.221313
 20
411.5
 30
0.0
 11
420.221313
 21
411.0
 31
0.0
  0
LINE
  5
3CD
100
AcDbEntity
  8
LAY-6
  6
CONTINUOUS
 62
     1
100
AcDbLine
 10
424.221313
 20
411.0
 30
0.0
 11
427.221313
 21
411.5
 31
0.0
  0
LINE
  5
3CE
100
AcDbEntity
  8
LAY-6
  6
CONTINUOUS
 62
     1
100
AcDbLine
 10
427.221313
 20
411.5
 30
0.0
 11
424.221313
 21
412.0
 31
0.0
  0
TEXT
  5
3CF
100
AcDbEntity
  8
LAY-6
  6
CONTINUOUS
 62
     2
100
AcDbText
 10
418.221313
 20
412.0
 30
0.0
 40
5.0
  1
１０
 41
0.672
  7
EXCADSTD
 72
     5
 11
425.554113
 21
412.0
 31
0.0
100
AcDbText
  0
LINE
  5
3D0
100
AcDbEntity
  8
LAY-6
  6
CONTINUOUS
 62
     1
100
AcDbLine
 10
109.721335
 20
371.302002
 30
0.0
 11
109.721335
 21
380.6
 31
0.0
  0
LINE
  5
3D1
100
AcDbEntity
  8
LAY-6
  6
CONTINUOUS
 62
     1
100
AcDbLine
 10
134.721338
 20
371.302002
 30
0.0
 11
134.721338
 21
380.6
 31
0.0
  0
LINE
  5
3D2
100
AcDbEntity
  8
LAY-6
  6
CONTINUOUS
 62
     1
100
AcDbLine
 10
109.721335
 20
379.1
 30
0.0
 11
134.721338
 21
379.1
 31
0.0
  0
LINE
  5
3D3
100
AcDbEntity
  8
LAY-6
  6
CONTINUOUS
 62
     1
100
AcDbLine
 10
112.721335
 20
379.6
 30
0.0
 11
109.721335
 21
379.1
 31
0.0
  0
LINE
  5
3D4
100
AcDbEntity
  8
LAY-6
  6
CONTINUOUS
 62
     1
100
AcDbLine
 10
109.721335
 20
379.1
 30
0.0
 11
112.721335
 21
378.6
 31
0.0
  0
LINE
  5
3D5
100
AcDbEntity
  8
LAY-6
  6
CONTINUOUS
 62
     1
100
AcDbLine
 10
131.721338
 20
378.6
 30
0.0
 11
134.721338
 21
379.1
 31
0.0
  0
LINE
  5
3D6
100
AcDbEntity
  8
LAY-6
  6
CONTINUOUS
 62
     1
100
AcDbLine
 10
134.721338
 20
379.1
 30
0.0
 11
131.721338
 21
379.6
 31
0.0
  0
TEXT
  5
3D7
100
AcDbEntity
  8
LAY-6
  6
CONTINUOUS
 62
     2
100
AcDbText
 10
118.221337
 20
379.6
 30
0.0
 40
5.0
  1
２５
 41
0.672
  7
EXCADSTD
 72
     5
 11
125.554137
 21
379.6
 31
0.0
100
AcDbText
  0
LINE
  5
3D8
100
AcDbEntity
  8
LAY-6
  6
CONTINUOUS
 62
     1
100
AcDbLine
 10
443.313629
 20
387.302032
 30
0.0
 11
452.1
 21
387.302032
 31
0.0
  0
TEXT
  5
3D9
100
AcDbEntity
  8
LAY-6
  6
CONTINUOUS
 62
     2
100
AcDbText
 10
450.1
 20
371.052048
 30
0.0
 40
5.0
  1
１８.５
 50
90.0
 41
0.616
  7
EXCADSTD
 72
     5
 11
450.1
 21
385.052048
 31
0.0
100
AcDbText
  0
LINE
  5
3DA
100
AcDbEntity
  8
LAY-6
  6
CONTINUOUS
 62
     1
100
AcDbLine
 10
530.0
 20
368.802063
 30
0.0
 11
451.1
 21
368.802063
 31
0.0
  0
LINE
  5
3DB
100
AcDbEntity
  8
LAY-6
  6
CONTINUOUS
 62
     1
100
AcDbLine
 10
450.6
 20
387.302032
 30
0.0
 11
450.6
 21
368.802063
 31
0.0
  0
LINE
  5
3DC
100
AcDbEntity
  8
LAY-6
  6
CONTINUOUS
 62
     1
100
AcDbLine
 10
451.1
 20
384.302032
 30
0.0
 11
450.6
 21
387.302032
 31
0.0
  0
LINE
  5
3DD
100
AcDbEntity
  8
LAY-6
  6
CONTINUOUS
 62
     1
100
AcDbLine
 10
450.6
 20
387.302032
 30
0.0
 11
450.1
 21
384.302032
 31
0.0
  0
LINE
  5
3DE
100
AcDbEntity
  8
LAY-6
  6
CONTINUOUS
 62
     1
100
AcDbLine
 10
450.1
 20
371.802063
 30
0.0
 11
450.6
 21
368.802063
 31
0.0
  0
LINE
  5
3DF
100
AcDbEntity
  8
LAY-6
  6
CONTINUOUS
 62
     1
100
AcDbLine
 10
450.6
 20
368.802063
 30
0.0
 11
451.1
 21
371.802063
 31
0.0
  0
TEXT
  5
3E0
100
AcDbEntity
  8
LAY-6
  6
CONTINUOUS
 62
     2
100
AcDbText
 10
462.5
 20
359.802048
 30
0.0
 40
5.0
  1
１０
 50
90.0
 41
0.672
  7
EXCADSTD
 72
     5
 11
462.5
 21
367.134848
 31
0.0
100
AcDbText
  0
LINE
  5
3E1
100
AcDbEntity
  8
LAY-6
  6
CONTINUOUS
 62
     1
100
AcDbLine
 10
496.221313
 20
358.802032
 30
0.0
 11
461.5
 21
358.802032
 31
0.0
  0
LINE
  5
3E2
100
AcDbEntity
  8
LAY-6
  6
CONTINUOUS
 62
     1
100
AcDbLine
 10
530.0
 20
368.802063
 30
0.0
 11
461.5
 21
368.802063
 31
0.0
  0
LINE
  5
3E3
100
AcDbEntity
  8
LAY-6
  6
CONTINUOUS
 62
     1
100
AcDbLine
 10
463.0
 20
358.802032
 30
0.0
 11
463.0
 21
368.802063
 31
0.0
  0
LINE
  5
3E4
100
AcDbEntity
  8
LAY-6
  6
CONTINUOUS
 62
     1
100
AcDbLine
 10
462.5
 20
361.802032
 30
0.0
 11
463.0
 21
358.802032
 31
0.0
  0
LINE
  5
3E5
100
AcDbEntity
  8
LAY-6
  6
CONTINUOUS
 62
     1
100
AcDbLine
 10
463.0
 20
358.802032
 30
0.0
 11
463.5
 21
361.802032
 31
0.0
  0
LINE
  5
3E6
100
AcDbEntity
  8
LAY-6
  6
CONTINUOUS
 62
     1
100
AcDbLine
 10
463.5
 20
365.802063
 30
0.0
 11
463.0
 21
368.802063
 31
0.0
  0
LINE
  5
3E7
100
AcDbEntity
  8
LAY-6
  6
CONTINUOUS
 62
     1
100
AcDbLine
 10
463.0
 20
368.802063
 30
0.0
 11
462.5
 21
365.802063
 31
0.0
  0
TEXT
  5
3E8
100
AcDbEntity
  8
LAY-6
  6
CONTINUOUS
 62
     2
100
AcDbText
 10
462.5
 20
374.552063
 30
0.0
 40
5.0
  1
２５.５
 50
90.0
 41
0.616
  7
EXCADSTD
 72
     5
 11
462.5
 21
388.552063
 31
0.0
100
AcDbText
  0
LINE
  5
3E9
100
AcDbEntity
  8
LAY-6
  6
CONTINUOUS
 62
     1
100
AcDbLine
 10
531.205409
 20
394.302063
 30
0.0
 11
461.5
 21
394.302063
 31
0.0
  0
LINE
  5
3EA
100
AcDbEntity
  8
LAY-6
  6
CONTINUOUS
 62
     1
100
AcDbLine
 10
463.0
 20
368.802063
 30
0.0
 11
463.0
 21
394.302063
 31
0.0
  0
LINE
  5
3EB
100
AcDbEntity
  8
LAY-6
  6
CONTINUOUS
 62
     1
100
AcDbLine
 10
462.5
 20
371.802063
 30
0.0
 11
463.0
 21
368.802063
 31
0.0
  0
LINE
  5
3EC
100
AcDbEntity
  8
LAY-6
  6
CONTINUOUS
 62
     1
100
AcDbLine
 10
463.0
 20
368.802063
 30
0.0
 11
463.5
 21
371.802063
 31
0.0
  0
LINE
  5
3ED
100
AcDbEntity
  8
LAY-6
  6
CONTINUOUS
 62
     1
100
AcDbLine
 10
463.5
 20
391.302063
 30
0.0
 11
463.0
 21
394.302063
 31
0.0
  0
LINE
  5
3EE
100
AcDbEntity
  8
LAY-6
  6
CONTINUOUS
 62
     1
100
AcDbLine
 10
463.0
 20
394.302063
 30
0.0
 11
462.5
 21
391.302063
 31
0.0
  0
POLYLINE
  5
3EF
100
AcDbEntity
  8
LAY-6
  6
CONTINUOUS
 62
     1
100
AcDb2dPolyline
 66
     1
 10
0.0
 20
0.0
 30
0.0
 70
   128
  0
VERTEX
  5
3F0
100
AcDbEntity
  8
LAY-6
  6
CONTINUOUS
 62
     1
100
AcDbVertex
100
AcDb2dVertex
 10
82.221313
 20
404.302032
 30
0.0
  0
VERTEX
  5
3F1
100
AcDbEntity
  8
LAY-6
  6
CONTINUOUS
 62
     1
100
AcDbVertex
100
AcDb2dVertex
 10
97.2
 20
425.7
 30
0.0
  0
VERTEX
  5
3F2
100
AcDbEntity
  8
LAY-6
  6
CONTINUOUS
 62
     1
100
AcDbVertex
100
AcDb2dVertex
 10
145.0
 20
425.7
 30
0.0
  0
SEQEND
  5
3F3
100
AcDbEntity
  8
LAY-6
  6
CONTINUOUS
 62
     1
  0
LINE
  5
3F4
100
AcDbEntity
  8
LAY-6
  6
CONTINUOUS
 62
     1
100
AcDbLine
 10
83.444708
 20
406.863493
 30
0.0
 11
82.221313
 21
404.302032
 31
0.0
  0
LINE
  5
3F5
100
AcDbEntity
  8
LAY-6
  6
CONTINUOUS
 62
     1
100
AcDbLine
 10
82.221313
 20
404.302032
 30
0.0
 11
84.209323
 21
406.328259
 31
0.0
  0
TEXT
  5
3F6
100
AcDbEntity
  8
LAY-6
  6
CONTINUOUS
 62
     2
100
AcDbText
 10
101.0
 20
425.7
 30
0.0
 40
5.0
  1
４－Ｍ６×１６皿小ネジ
 41
0.672
  7
EXCADSTD
 72
     5
 11
145.0
 21
425.7
 31
0.0
100
AcDbText
  0
POLYLINE
  5
3F7
100
AcDbEntity
  8
LAY-6
  6
CONTINUOUS
 62
     1
100
AcDb2dPolyline
 66
     1
 10
0.0
 20
0.0
 30
0.0
 70
   128
  0
VERTEX
  5
3F8
100
AcDbEntity
  8
LAY-6
  6
CONTINUOUS
 62
     1
100
AcDbVertex
100
AcDb2dVertex
 10
139.4
 20
392.0
 30
0.0
  0
VERTEX
  5
3F9
100
AcDbEntity
  8
LAY-6
  6
CONTINUOUS
 62
     1
100
AcDbVertex
100
AcDb2dVertex
 10
155.3
 20
425.7
 30
0.0
  0
VERTEX
  5
3FA
100
AcDbEntity
  8
LAY-6
  6
CONTINUOUS
 62
     1
100
AcDbVertex
100
AcDb2dVertex
 10
183.0
 20
425.7
 30
0.0
  0
SEQEND
  5
3FB
100
AcDbEntity
  8
LAY-6
  6
CONTINUOUS
 62
     1
  0
LINE
  5
3FC
100
AcDbEntity
  8
LAY-6
  6
CONTINUOUS
 62
     1
100
AcDbLine
 10
140.172714
 20
394.731426
 30
0.0
 11
139.4
 21
392.0
 31
0.0
  0
LINE
  5
3FD
100
AcDbEntity
  8
LAY-6
  6
CONTINUOUS
 62
     1
100
AcDbLine
 10
139.4
 20
392.0
 30
0.0
 11
141.016814
 21
394.333172
 31
0.0
  0
TEXT
  5
3FE
100
AcDbEntity
  8
LAY-6
  6
CONTINUOUS
 62
     2
100
AcDbText
 10
155.0
 20
425.7
 30
0.0
 40
5.0
  1
アームプレート
 41
0.672
  7
EXCADSTD
 72
     5
 11
183.0
 21
425.7
 31
0.0
100
AcDbText
  0
LINE
  5
3FF
100
AcDbEntity
  8
LAY-6
  6
CONTINUOUS
 62
     1
100
AcDbLine
 10
546.450481
 20
543.354187
 30
0.0
 11
568.750481
 21
543.354187
 31
0.0
  0
LINE
  5
400
100
AcDbEntity
  8
LAY-6
  6
CONTINUOUS
 62
     1
100
AcDbLine
 10
546.450481
 20
525.354187
 30
0.0
 11
568.750481
 21
525.354187
 31
0.0
  0
TEXT
  5
401
100
AcDbEntity
  8
LAY-6
  6
CONTINUOUS
 62
     2
100
AcDbText
 10
566.750481
 20
530.354187
 30
0.0
 40
5.0
  1
１８
 50
90.0
 41
0.672
  7
EXCADSTD
 72
     5
 11
566.750481
 21
537.686987
 31
0.0
100
AcDbText
  0
LINE
  5
402
100
AcDbEntity
  8
LAY-6
  6
CONTINUOUS
 62
     1
100
AcDbLine
 10
567.250481
 20
543.354187
 30
0.0
 11
567.250481
 21
525.354187
 31
0.0
  0
LINE
  5
403
100
AcDbEntity
  8
LAY-6
  6
CONTINUOUS
 62
     1
100
AcDbLine
 10
567.750481
 20
540.354187
 30
0.0
 11
567.250481
 21
543.354187
 31
0.0
  0
LINE
  5
404
100
AcDbEntity
  8
LAY-6
  6
CONTINUOUS
 62
     1
100
AcDbLine
 10
567.250481
 20
543.354187
 30
0.0
 11
566.750481
 21
540.354187
 31
0.0
  0
LINE
  5
405
100
AcDbEntity
  8
LAY-6
  6
CONTINUOUS
 62
     1
100
AcDbLine
 10
566.750481
 20
528.354187
 30
0.0
 11
567.250481
 21
525.354187
 31
0.0
  0
LINE
  5
406
100
AcDbEntity
  8
LAY-6
  6
CONTINUOUS
 62
     1
100
AcDbLine
 10
567.250481
 20
525.354187
 30
0.0
 11
567.750481
 21
528.354187
 31
0.0
  0
LINE
  5
407
100
AcDbEntity
  8
LAY-6
  6
CONTINUOUS
 62
     1
100
AcDbLine
 10
550.771794
 20
550.354187
 30
0.0
 11
576.3
 21
550.354187
 31
0.0
  0
LINE
  5
408
100
AcDbEntity
  8
LAY-6
  6
CONTINUOUS
 62
     1
100
AcDbLine
 10
550.771794
 20
518.354217
 30
0.0
 11
576.3
 21
518.354217
 31
0.0
  0
TEXT
  5
409
100
AcDbEntity
  8
LAY-6
  6
CONTINUOUS
 62
     2
100
AcDbText
 10
574.3
 20
530.354202
 30
0.0
 40
5.0
  1
３２
 50
90.0
 41
0.672
  7
EXCADSTD
 72
     5
 11
574.3
 21
537.687002
 31
0.0
100
AcDbText
  0
LINE
  5
40A
100
AcDbEntity
  8
LAY-6
  6
CONTINUOUS
 62
     1
100
AcDbLine
 10
574.8
 20
550.354187
 30
0.0
 11
574.8
 21
518.354217
 31
0.0
  0
LINE
  5
40B
100
AcDbEntity
  8
LAY-6
  6
CONTINUOUS
 62
     1
100
AcDbLine
 10
575.3
 20
547.354187
 30
0.0
 11
574.8
 21
550.354187
 31
0.0
  0
LINE
  5
40C
100
AcDbEntity
  8
LAY-6
  6
CONTINUOUS
 62
     1
100
AcDbLine
 10
574.8
 20
550.354187
 30
0.0
 11
574.3
 21
547.354187
 31
0.0
  0
LINE
  5
40D
100
AcDbEntity
  8
LAY-6
  6
CONTINUOUS
 62
     1
100
AcDbLine
 10
574.3
 20
521.354217
 30
0.0
 11
574.8
 21
518.354217
 31
0.0
  0
LINE
  5
40E
100
AcDbEntity
  8
LAY-6
  6
CONTINUOUS
 62
     1
100
AcDbLine
 10
574.8
 20
518.354217
 30
0.0
 11
575.3
 21
521.354217
 31
0.0
  0
LINE
  5
40F
100
AcDbEntity
  8
LAY-6
  6
CONTINUOUS
 62
     1
100
AcDbLine
 10
374.771794
 20
552.854187
 30
0.0
 11
360.450481
 21
552.854187
 31
0.0
  0
LINE
  5
410
100
AcDbEntity
  8
LAY-6
  6
CONTINUOUS
 62
     1
100
AcDbLine
 10
374.771794
 20
515.854187
 30
0.0
 11
360.450481
 21
515.854187
 31
0.0
  0
TEXT
  5
411
100
AcDbEntity
  8
LAY-6
  6
CONTINUOUS
 62
     2
100
AcDbText
 10
361.450481
 20
533.354187
 30
0.0
 40
5.0
  1
３７
 50
90.0
 41
0.672
  7
EXCADSTD
 72
     5
 11
361.450481
 21
540.686987
 31
0.0
100
AcDbText
  0
LINE
  5
412
100
AcDbEntity
  8
LAY-6
  6
CONTINUOUS
 62
     1
100
AcDbLine
 10
361.950481
 20
552.854187
 30
0.0
 11
361.950481
 21
515.854187
 31
0.0
  0
LINE
  5
413
100
AcDbEntity
  8
LAY-6
  6
CONTINUOUS
 62
     1
100
AcDbLine
 10
362.450481
 20
549.854187
 30
0.0
 11
361.950481
 21
552.854187
 31
0.0
  0
LINE
  5
414
100
AcDbEntity
  8
LAY-6
  6
CONTINUOUS
 62
     1
100
AcDbLine
 10
361.950481
 20
552.854187
 30
0.0
 11
361.450481
 21
549.854187
 31
0.0
  0
LINE
  5
415
100
AcDbEntity
  8
LAY-6
  6
CONTINUOUS
 62
     1
100
AcDbLine
 10
361.450481
 20
518.854187
 30
0.0
 11
361.950481
 21
515.854187
 31
0.0
  0
LINE
  5
416
100
AcDbEntity
  8
LAY-6
  6
CONTINUOUS
 62
     1
100
AcDbLine
 10
361.950481
 20
515.854187
 30
0.0
 11
362.450481
 21
518.854187
 31
0.0
  0
LINE
  5
417
100
AcDbEntity
  8
LAY-6
  6
CONTINUOUS
 62
     1
100
AcDbLine
 10
374.771794
 20
552.854187
 30
0.0
 11
374.771794
 21
563.313269
 31
0.0
  0
LINE
  5
418
100
AcDbEntity
  8
LAY-6
  6
CONTINUOUS
 62
     1
100
AcDbLine
 10
415.771794
 20
557.013269
 30
0.0
 11
415.771794
 21
563.313269
 31
0.0
  0
TEXT
  5
419
100
AcDbEntity
  8
LAY-6
  6
CONTINUOUS
 62
     2
100
AcDbText
 10
394.271794
 20
562.313269
 30
0.0
 40
5.0
  1
４１
 41
0.672
  7
EXCADSTD
 72
     5
 11
401.604594
 21
562.313269
 31
0.0
100
AcDbText
  0
LINE
  5
41A
100
AcDbEntity
  8
LAY-6
  6
CONTINUOUS
 62
     1
100
AcDbLine
 10
374.771794
 20
561.813269
 30
0.0
 11
415.771794
 21
561.813269
 31
0.0
  0
LINE
  5
41B
100
AcDbEntity
  8
LAY-6
  6
CONTINUOUS
 62
     1
100
AcDbLine
 10
377.771794
 20
562.313269
 30
0.0
 11
374.771794
 21
561.813269
 31
0.0
  0
LINE
  5
41C
100
AcDbEntity
  8
LAY-6
  6
CONTINUOUS
 62
     1
100
AcDbLine
 10
374.771794
 20
561.813269
 30
0.0
 11
377.771794
 21
561.313269
 31
0.0
  0
LINE
  5
41D
100
AcDbEntity
  8
LAY-6
  6
CONTINUOUS
 62
     1
100
AcDbLine
 10
412.771794
 20
561.313269
 30
0.0
 11
415.771794
 21
561.813269
 31
0.0
  0
LINE
  5
41E
100
AcDbEntity
  8
LAY-6
  6
CONTINUOUS
 62
     1
100
AcDbLine
 10
415.771794
 20
561.813269
 30
0.0
 11
412.771794
 21
562.313269
 31
0.0
  0
LINE
  5
41F
100
AcDbEntity
  8
LAY-6
  6
CONTINUOUS
 62
     1
100
AcDbLine
 10
556.771794
 20
552.854187
 30
0.0
 11
556.771794
 21
563.313269
 31
0.0
  0
TEXT
  5
420
100
AcDbEntity
  8
LAY-6
  6
CONTINUOUS
 62
     2
100
AcDbText
 10
482.271794
 20
562.313269
 30
0.0
 40
5.0
  1
１４１
 41
0.672
  7
EXCADSTD
 72
     5
 11
494.271794
 21
562.313269
 31
0.0
100
AcDbText
  0
LINE
  5
421
100
AcDbEntity
  8
LAY-6
  6
CONTINUOUS
 62
     1
100
AcDbLine
 10
415.771794
 20
561.813269
 30
0.0
 11
556.771794
 21
561.813269
 31
0.0
  0
LINE
  5
422
100
AcDbEntity
  8
LAY-6
  6
CONTINUOUS
 62
     1
100
AcDbLine
 10
418.771794
 20
562.313269
 30
0.0
 11
415.771794
 21
561.813269
 31
0.0
  0
LINE
  5
423
100
AcDbEntity
  8
LAY-6
  6
CONTINUOUS
 62
     1
100
AcDbLine
 10
415.771794
 20
561.813269
 30
0.0
 11
418.771794
 21
561.313269
 31
0.0
  0
LINE
  5
424
100
AcDbEntity
  8
LAY-6
  6
CONTINUOUS
 62
     1
100
AcDbLine
 10
553.771794
 20
561.313269
 30
0.0
 11
556.771794
 21
561.813269
 31
0.0
  0
LINE
  5
425
100
AcDbEntity
  8
LAY-6
  6
CONTINUOUS
 62
     1
100
AcDbLine
 10
556.771794
 20
561.813269
 30
0.0
 11
553.771794
 21
562.313269
 31
0.0
  0
LINE
  5
426
100
AcDbEntity
  8
LAY-6
  6
CONTINUOUS
 62
     1
100
AcDbLine
 10
415.771794
 20
511.213269
 30
0.0
 11
415.771794
 21
504.113269
 31
0.0
  0
TEXT
  5
427
100
AcDbEntity
  8
LAY-6
  6
CONTINUOUS
 62
     2
100
AcDbText
 10
399.271794
 20
506.113269
 30
0.0
 40
5.0
  1
２５
 41
0.672
  7
EXCADSTD
 72
     5
 11
406.604594
 21
506.113269
 31
0.0
100
AcDbText
  0
LINE
  5
428
100
AcDbEntity
  8
LAY-6
  6
CONTINUOUS
 62
     1
100
AcDbLine
 10
390.771794
 20
505.613269
 30
0.0
 11
415.771794
 21
505.613269
 31
0.0
  0
LINE
  5
429
100
AcDbEntity
  8
LAY-6
  6
CONTINUOUS
 62
     1
100
AcDbLine
 10
393.771794
 20
506.113269
 30
0.0
 11
390.771794
 21
505.613269
 31
0.0
  0
LINE
  5
42A
100
AcDbEntity
  8
LAY-6
  6
CONTINUOUS
 62
     1
100
AcDbLine
 10
390.771794
 20
505.613269
 30
0.0
 11
393.771794
 21
505.113269
 31
0.0
  0
LINE
  5
42B
100
AcDbEntity
  8
LAY-6
  6
CONTINUOUS
 62
     1
100
AcDbLine
 10
412.771794
 20
505.113269
 30
0.0
 11
415.771794
 21
505.613269
 31
0.0
  0
LINE
  5
42C
100
AcDbEntity
  8
LAY-6
  6
CONTINUOUS
 62
     1
100
AcDbLine
 10
415.771794
 20
505.613269
 30
0.0
 11
412.771794
 21
506.113269
 31
0.0
  0
LINE
  5
42D
100
AcDbEntity
  8
LAY-6
  6
CONTINUOUS
 62
     1
100
AcDbLine
 10
537.771794
 20
518.354279
 30
0.0
 11
537.771794
 21
504.113269
 31
0.0
  0
TEXT
  5
42E
100
AcDbEntity
  8
LAY-6
  6
CONTINUOUS
 62
     2
100
AcDbText
 10
470.771794
 20
506.113269
 30
0.0
 40
5.0
  1
１２２
 41
0.672
  7
EXCADSTD
 72
     5
 11
482.771794
 21
506.113269
 31
0.0
100
AcDbText
  0
LINE
  5
42F
100
AcDbEntity
  8
LAY-6
  6
CONTINUOUS
 62
     1
100
AcDbLine
 10
415.771794
 20
505.613269
 30
0.0
 11
537.771794
 21
505.613269
 31
0.0
  0
LINE
  5
430
100
AcDbEntity
  8
LAY-6
  6
CONTINUOUS
 62
     1
100
AcDbLine
 10
418.771794
 20
506.113269
 30
0.0
 11
415.771794
 21
505.613269
 31
0.0
  0
LINE
  5
431
100
AcDbEntity
  8
LAY-6
  6
CONTINUOUS
 62
     1
100
AcDbLine
 10
415.771794
 20
505.613269
 30
0.0
 11
418.771794
 21
505.113269
 31
0.0
  0
LINE
  5
432
100
AcDbEntity
  8
LAY-6
  6
CONTINUOUS
 62
     1
100
AcDbLine
 10
534.771794
 20
505.113269
 30
0.0
 11
537.771794
 21
505.613269
 31
0.0
  0
LINE
  5
433
100
AcDbEntity
  8
LAY-6
  6
CONTINUOUS
 62
     1
100
AcDbLine
 10
537.771794
 20
505.613269
 30
0.0
 11
534.771794
 21
506.113269
 31
0.0
  0
LINE
  5
434
100
AcDbEntity
  8
LAY-6
  6
CONTINUOUS
 62
     1
100
AcDbLine
 10
381.771794
 20
518.354216
 30
0.0
 11
381.771794
 21
494.313269
 31
0.0
  0
LINE
  5
435
100
AcDbEntity
  8
LAY-6
  6
CONTINUOUS
 62
     1
100
AcDbLine
 10
415.771794
 20
511.213269
 30
0.0
 11
415.771794
 21
494.313269
 31
0.0
  0
TEXT
  5
436
100
AcDbEntity
  8
LAY-6
  6
CONTINUOUS
 62
     2
100
AcDbText
 10
394.771794
 20
496.313269
 30
0.0
 40
5.0
  1
３４
 41
0.672
  7
EXCADSTD
 72
     5
 11
402.104594
 21
496.313269
 31
0.0
100
AcDbText
  0
LINE
  5
437
100
AcDbEntity
  8
LAY-6
  6
CONTINUOUS
 62
     1
100
AcDbLine
 10
381.771794
 20
495.813269
 30
0.0
 11
415.771794
 21
495.813269
 31
0.0
  0
LINE
  5
438
100
AcDbEntity
  8
LAY-6
  6
CONTINUOUS
 62
     1
100
AcDbLine
 10
384.771794
 20
496.313269
 30
0.0
 11
381.771794
 21
495.813269
 31
0.0
  0
LINE
  5
439
100
AcDbEntity
  8
LAY-6
  6
CONTINUOUS
 62
     1
100
AcDbLine
 10
381.771794
 20
495.813269
 30
0.0
 11
384.771794
 21
495.313269
 31
0.0
  0
LINE
  5
43A
100
AcDbEntity
  8
LAY-6
  6
CONTINUOUS
 62
     1
100
AcDbLine
 10
412.771794
 20
495.313269
 30
0.0
 11
415.771794
 21
495.813269
 31
0.0
  0
LINE
  5
43B
100
AcDbEntity
  8
LAY-6
  6
CONTINUOUS
 62
     1
100
AcDbLine
 10
415.771794
 20
495.813269
 30
0.0
 11
412.771794
 21
496.313269
 31
0.0
  0
LINE
  5
43C
100
AcDbEntity
  8
LAY-6
  6
CONTINUOUS
 62
     1
100
AcDbLine
 10
550.771794
 20
518.354216
 30
0.0
 11
550.771794
 21
494.313269
 31
0.0
  0
TEXT
  5
43D
100
AcDbEntity
  8
LAY-6
  6
CONTINUOUS
 62
     2
100
AcDbText
 10
477.271794
 20
496.313269
 30
0.0
 40
5.0
  1
１３５
 41
0.672
  7
EXCADSTD
 72
     5
 11
489.271794
 21
496.313269
 31
0.0
100
AcDbText
  0
LINE
  5
43E
100
AcDbEntity
  8
LAY-6
  6
CONTINUOUS
 62
     1
100
AcDbLine
 10
415.771794
 20
495.813269
 30
0.0
 11
550.771794
 21
495.813269
 31
0.0
  0
LINE
  5
43F
100
AcDbEntity
  8
LAY-6
  6
CONTINUOUS
 62
     1
100
AcDbLine
 10
418.771794
 20
496.313269
 30
0.0
 11
415.771794
 21
495.813269
 31
0.0
  0
LINE
  5
440
100
AcDbEntity
  8
LAY-6
  6
CONTINUOUS
 62
     1
100
AcDbLine
 10
415.771794
 20
495.813269
 30
0.0
 11
418.771794
 21
495.313269
 31
0.0
  0
LINE
  5
441
100
AcDbEntity
  8
LAY-6
  6
CONTINUOUS
 62
     1
100
AcDbLine
 10
547.771794
 20
495.313269
 30
0.0
 11
550.771794
 21
495.813269
 31
0.0
  0
LINE
  5
442
100
AcDbEntity
  8
LAY-6
  6
CONTINUOUS
 62
     1
100
AcDbLine
 10
550.771794
 20
495.813269
 30
0.0
 11
547.771794
 21
496.313269
 31
0.0
  0
LINE
  5
443
100
AcDbEntity
  8
LAY-6
  6
CONTINUOUS
 62
     1
100
AcDbLine
 10
415.771794
 20
447.813269
 30
0.0
 11
415.771794
 21
436.413269
 31
0.0
  0
LINE
  5
444
100
AcDbEntity
  8
LAY-6
  6
CONTINUOUS
 62
     1
100
AcDbLine
 10
445.771794
 20
466.613269
 30
0.0
 11
445.771794
 21
436.413269
 31
0.0
  0
TEXT
  5
445
100
AcDbEntity
  8
LAY-6
  6
CONTINUOUS
 62
     2
100
AcDbText
 10
426.771794
 20
438.413269
 30
0.0
 40
5.0
  1
３０
 41
0.672
  7
EXCADSTD
 72
     5
 11
434.104594
 21
438.413269
 31
0.0
100
AcDbText
  0
LINE
  5
446
100
AcDbEntity
  8
LAY-6
  6
CONTINUOUS
 62
     1
100
AcDbLine
 10
415.771794
 20
437.913269
 30
0.0
 11
445.771794
 21
437.913269
 31
0.0
  0
LINE
  5
447
100
AcDbEntity
  8
LAY-6
  6
CONTINUOUS
 62
     1
100
AcDbLine
 10
418.771794
 20
438.413269
 30
0.0
 11
415.771794
 21
437.913269
 31
0.0
  0
LINE
  5
448
100
AcDbEntity
  8
LAY-6
  6
CONTINUOUS
 62
     1
100
AcDbLine
 10
415.771794
 20
437.913269
 30
0.0
 11
418.771794
 21
437.413269
 31
0.0
  0
LINE
  5
449
100
AcDbEntity
  8
LAY-6
  6
CONTINUOUS
 62
     1
100
AcDbLine
 10
442.771794
 20
437.413269
 30
0.0
 11
445.771794
 21
437.913269
 31
0.0
  0
LINE
  5
44A
100
AcDbEntity
  8
LAY-6
  6
CONTINUOUS
 62
     1
100
AcDbLine
 10
445.771794
 20
437.913269
 30
0.0
 11
442.771794
 21
438.413269
 31
0.0
  0
LINE
  5
44B
100
AcDbEntity
  8
LAY-6
  6
CONTINUOUS
 62
     1
100
AcDbLine
 10
491.771794
 20
447.813269
 30
0.0
 11
491.771794
 21
436.413269
 31
0.0
  0
TEXT
  5
44C
100
AcDbEntity
  8
LAY-6
  6
CONTINUOUS
 62
     2
100
AcDbText
 10
464.771794
 20
438.413269
 30
0.0
 40
5.0
  1
４６
 41
0.672
  7
EXCADSTD
 72
     5
 11
472.104594
 21
438.413269
 31
0.0
100
AcDbText
  0
LINE
  5
44D
100
AcDbEntity
  8
LAY-6
  6
CONTINUOUS
 62
     1
100
AcDbLine
 10
445.771794
 20
437.913269
 30
0.0
 11
491.771794
 21
437.913269
 31
0.0
  0
LINE
  5
44E
100
AcDbEntity
  8
LAY-6
  6
CONTINUOUS
 62
     1
100
AcDbLine
 10
448.771794
 20
438.413269
 30
0.0
 11
445.771794
 21
437.913269
 31
0.0
  0
LINE
  5
44F
100
AcDbEntity
  8
LAY-6
  6
CONTINUOUS
 62
     1
100
AcDbLine
 10
445.771794
 20
437.913269
 30
0.0
 11
448.771794
 21
437.413269
 31
0.0
  0
LINE
  5
450
100
AcDbEntity
  8
LAY-6
  6
CONTINUOUS
 62
     1
100
AcDbLine
 10
488.771794
 20
437.413269
 30
0.0
 11
491.771794
 21
437.913269
 31
0.0
  0
LINE
  5
451
100
AcDbEntity
  8
LAY-6
  6
CONTINUOUS
 62
     1
100
AcDbLine
 10
491.771794
 20
437.913269
 30
0.0
 11
488.771794
 21
438.413269
 31
0.0
  0
LINE
  5
452
100
AcDbEntity
  8
LAY-6
  6
CONTINUOUS
 62
     1
100
AcDbLine
 10
537.771794
 20
474.68421
 30
0.0
 11
537.771794
 21
436.413269
 31
0.0
  0
TEXT
  5
453
100
AcDbEntity
  8
LAY-6
  6
CONTINUOUS
 62
     2
100
AcDbText
 10
510.771794
 20
438.413269
 30
0.0
 40
5.0
  1
４６
 41
0.672
  7
EXCADSTD
 72
     5
 11
518.104594
 21
438.413269
 31
0.0
100
AcDbText
  0
LINE
  5
454
100
AcDbEntity
  8
LAY-6
  6
CONTINUOUS
 62
     1
100
AcDbLine
 10
491.771794
 20
437.913269
 30
0.0
 11
537.771794
 21
437.913269
 31
0.0
  0
LINE
  5
455
100
AcDbEntity
  8
LAY-6
  6
CONTINUOUS
 62
     1
100
AcDbLine
 10
494.771794
 20
438.413269
 30
0.0
 11
491.771794
 21
437.913269
 31
0.0
  0
LINE
  5
456
100
AcDbEntity
  8
LAY-6
  6
CONTINUOUS
 62
     1
100
AcDbLine
 10
491.771794
 20
437.913269
 30
0.0
 11
494.771794
 21
437.413269
 31
0.0
  0
LINE
  5
457
100
AcDbEntity
  8
LAY-6
  6
CONTINUOUS
 62
     1
100
AcDbLine
 10
534.771794
 20
437.413269
 30
0.0
 11
537.771794
 21
437.913269
 31
0.0
  0
LINE
  5
458
100
AcDbEntity
  8
LAY-6
  6
CONTINUOUS
 62
     1
100
AcDbLine
 10
537.771794
 20
437.913269
 30
0.0
 11
534.771794
 21
438.413269
 31
0.0
  0
LINE
  5
459
100
AcDbEntity
  8
LAY-6
  6
CONTINUOUS
 62
     1
100
AcDbLine
 10
399.771794
 20
450.68421
 30
0.0
 11
399.771794
 21
425.913269
 31
0.0
  0
LINE
  5
45A
100
AcDbEntity
  8
LAY-6
  6
CONTINUOUS
 62
     1
100
AcDbLine
 10
415.771794
 20
436.413269
 30
0.0
 11
415.771794
 21
425.913269
 31
0.0
  0
TEXT
  5
45B
100
AcDbEntity
  8
LAY-6
  6
CONTINUOUS
 62
     2
100
AcDbText
 10
403.771794
 20
427.913269
 30
0.0
 40
5.0
  1
１６
 41
0.672
  7
EXCADSTD
 72
     5
 11
411.104594
 21
427.913269
 31
0.0
100
AcDbText
  0
LINE
  5
45C
100
AcDbEntity
  8
LAY-6
  6
CONTINUOUS
 62
     1
100
AcDbLine
 10
399.771794
 20
427.413269
 30
0.0
 11
415.771794
 21
427.413269
 31
0.0
  0
LINE
  5
45D
100
AcDbEntity
  8
LAY-6
  6
CONTINUOUS
 62
     1
100
AcDbLine
 10
402.771794
 20
427.913269
 30
0.0
 11
399.771794
 21
427.413269
 31
0.0
  0
LINE
  5
45E
100
AcDbEntity
  8
LAY-6
  6
CONTINUOUS
 62
     1
100
AcDbLine
 10
399.771794
 20
427.413269
 30
0.0
 11
402.771794
 21
426.913269
 31
0.0
  0
LINE
  5
45F
100
AcDbEntity
  8
LAY-6
  6
CONTINUOUS
 62
     1
100
AcDbLine
 10
412.771794
 20
426.913269
 30
0.0
 11
415.771794
 21
427.413269
 31
0.0
  0
LINE
  5
460
100
AcDbEntity
  8
LAY-6
  6
CONTINUOUS
 62
     1
100
AcDbLine
 10
415.771794
 20
427.413269
 30
0.0
 11
412.771794
 21
427.913269
 31
0.0
  0
LINE
  5
461
100
AcDbEntity
  8
LAY-6
  6
CONTINUOUS
 62
     1
100
AcDbLine
 10
550.771794
 20
450.684209
 30
0.0
 11
550.771794
 21
425.913269
 31
0.0
  0
TEXT
  5
462
100
AcDbEntity
  8
LAY-6
  6
CONTINUOUS
 62
     2
100
AcDbText
 10
477.271794
 20
427.913269
 30
0.0
 40
5.0
  1
１３５
 41
0.672
  7
EXCADSTD
 72
     5
 11
489.271794
 21
427.913269
 31
0.0
100
AcDbText
  0
LINE
  5
463
100
AcDbEntity
  8
LAY-6
  6
CONTINUOUS
 62
     1
100
AcDbLine
 10
415.771794
 20
427.413269
 30
0.0
 11
550.771794
 21
427.413269
 31
0.0
  0
LINE
  5
464
100
AcDbEntity
  8
LAY-6
  6
CONTINUOUS
 62
     1
100
AcDbLine
 10
418.771794
 20
427.913269
 30
0.0
 11
415.771794
 21
427.413269
 31
0.0
  0
LINE
  5
465
100
AcDbEntity
  8
LAY-6
  6
CONTINUOUS
 62
     1
100
AcDbLine
 10
415.771794
 20
427.413269
 30
0.0
 11
418.771794
 21
426.913269
 31
0.0
  0
LINE
  5
466
100
AcDbEntity
  8
LAY-6
  6
CONTINUOUS
 62
     1
100
AcDbLine
 10
547.771794
 20
426.913269
 30
0.0
 11
550.771794
 21
427.413269
 31
0.0
  0
LINE
  5
467
100
AcDbEntity
  8
LAY-6
  6
CONTINUOUS
 62
     1
100
AcDbLine
 10
550.771794
 20
427.413269
 30
0.0
 11
547.771794
 21
427.913269
 31
0.0
  0
LINE
  5
468
100
AcDbEntity
  8
LAY-6
  6
CONTINUOUS
 62
     1
100
AcDbLine
 10
550.771794
 20
482.68421
 30
0.0
 11
568.750481
 21
482.68421
 31
0.0
  0
LINE
  5
469
100
AcDbEntity
  8
LAY-6
  6
CONTINUOUS
 62
     1
100
AcDbLine
 10
550.771794
 20
450.68421
 30
0.0
 11
568.750481
 21
450.68421
 31
0.0
  0
TEXT
  5
46A
100
AcDbEntity
  8
LAY-6
  6
CONTINUOUS
 62
     2
100
AcDbText
 10
566.750481
 20
462.68421
 30
0.0
 40
5.0
  1
３２
 50
90.0
 41
0.672
  7
EXCADSTD
 72
     5
 11
566.750481
 21
470.01701
 31
0.0
100
AcDbText
  0
LINE
  5
46B
100
AcDbEntity
  8
LAY-6
  6
CONTINUOUS
 62
     1
100
AcDbLine
 10
567.250481
 20
482.68421
 30
0.0
 11
567.250481
 21
450.68421
 31
0.0
  0
LINE
  5
46C
100
AcDbEntity
  8
LAY-6
  6
CONTINUOUS
 62
     1
100
AcDbLine
 10
567.750481
 20
479.68421
 30
0.0
 11
567.250481
 21
482.68421
 31
0.0
  0
LINE
  5
46D
100
AcDbEntity
  8
LAY-6
  6
CONTINUOUS
 62
     1
100
AcDbLine
 10
567.250481
 20
482.68421
 30
0.0
 11
566.750481
 21
479.68421
 31
0.0
  0
LINE
  5
46E
100
AcDbEntity
  8
LAY-6
  6
CONTINUOUS
 62
     1
100
AcDbLine
 10
566.750481
 20
453.68421
 30
0.0
 11
567.250481
 21
450.68421
 31
0.0
  0
LINE
  5
46F
100
AcDbEntity
  8
LAY-6
  6
CONTINUOUS
 62
     1
100
AcDbLine
 10
567.250481
 20
450.68421
 30
0.0
 11
567.750481
 21
453.68421
 31
0.0
  0
LINE
  5
470
100
AcDbEntity
  8
LAY-6
  6
CONTINUOUS
 62
     1
100
AcDbLine
 10
483.550481
 20
458.68421
 30
0.0
 11
469.150481
 21
458.68421
 31
0.0
  0
LINE
  5
471
100
AcDbEntity
  8
LAY-6
  6
CONTINUOUS
 62
     1
100
AcDbLine
 10
471.450481
 20
466.68421
 30
0.0
 11
469.150481
 21
466.68421
 31
0.0
  0
TEXT
  5
472
100
AcDbEntity
  8
LAY-6
  6
CONTINUOUS
 62
     2
100
AcDbText
 10
470.150481
 20
460.68421
 30
0.0
 40
5.0
  1
８
 50
90.0
 41
0.672
  7
EXCADSTD
 72
     5
 11
470.150481
 21
463.88421
 31
0.0
100
AcDbText
  0
LINE
  5
473
100
AcDbEntity
  8
LAY-6
  6
CONTINUOUS
 62
     1
100
AcDbLine
 10
470.650481
 20
458.68421
 30
0.0
 11
470.650481
 21
466.68421
 31
0.0
  0
LINE
  5
474
100
AcDbEntity
  8
LAY-6
  6
CONTINUOUS
 62
     1
100
AcDbLine
 10
470.150481
 20
461.68421
 30
0.0
 11
470.650481
 21
458.68421
 31
0.0
  0
LINE
  5
475
100
AcDbEntity
  8
LAY-6
  6
CONTINUOUS
 62
     1
100
AcDbLine
 10
470.650481
 20
458.68421
 30
0.0
 11
471.150481
 21
461.68421
 31
0.0
  0
LINE
  5
476
100
AcDbEntity
  8
LAY-6
  6
CONTINUOUS
 62
     1
100
AcDbLine
 10
471.150481
 20
463.68421
 30
0.0
 11
470.650481
 21
466.68421
 31
0.0
  0
LINE
  5
477
100
AcDbEntity
  8
LAY-6
  6
CONTINUOUS
 62
     1
100
AcDbLine
 10
470.650481
 20
466.68421
 30
0.0
 11
470.150481
 21
463.68421
 31
0.0
  0
LINE
  5
478
100
AcDbEntity
  8
LAY-6
  6
CONTINUOUS
 62
     1
100
AcDbLine
 10
454.550481
 20
474.68421
 30
0.0
 11
472.150481
 21
474.68421
 31
0.0
  0
TEXT
  5
479
100
AcDbEntity
  8
LAY-6
  6
CONTINUOUS
 62
     2
100
AcDbText
 10
470.150481
 20
468.68421
 30
0.0
 40
5.0
  1
８
 50
90.0
 41
0.672
  7
EXCADSTD
 72
     5
 11
470.150481
 21
471.88421
 31
0.0
100
AcDbText
  0
LINE
  5
47A
100
AcDbEntity
  8
LAY-6
  6
CONTINUOUS
 62
     1
100
AcDbLine
 10
470.650481
 20
466.68421
 30
0.0
 11
470.650481
 21
474.68421
 31
0.0
  0
LINE
  5
47B
100
AcDbEntity
  8
LAY-6
  6
CONTINUOUS
 62
     1
100
AcDbLine
 10
470.150481
 20
469.68421
 30
0.0
 11
470.650481
 21
466.68421
 31
0.0
  0
LINE
  5
47C
100
AcDbEntity
  8
LAY-6
  6
CONTINUOUS
 62
     1
100
AcDbLine
 10
470.650481
 20
466.68421
 30
0.0
 11
471.150481
 21
469.68421
 31
0.0
  0
LINE
  5
47D
100
AcDbEntity
  8
LAY-6
  6
CONTINUOUS
 62
     1
100
AcDbLine
 10
471.150481
 20
471.68421
 30
0.0
 11
470.650481
 21
474.68421
 31
0.0
  0
LINE
  5
47E
100
AcDbEntity
  8
LAY-6
  6
CONTINUOUS
 62
     1
100
AcDbLine
 10
470.650481
 20
474.68421
 30
0.0
 11
470.150481
 21
471.68421
 31
0.0
  0
LINE
  5
47F
100
AcDbEntity
  8
LAY-6
  6
CONTINUOUS
 62
     1
100
AcDbLine
 10
773.049866
 20
357.302063
 30
0.0
 11
773.049866
 21
324.0
 31
0.0
  0
LINE
  5
480
100
AcDbEntity
  8
LAY-6
  6
CONTINUOUS
 62
     1
100
AcDbLine
 10
613.049866
 20
357.302063
 30
0.0
 11
613.049866
 21
324.0
 31
0.0
  0
TEXT
  5
481
100
AcDbEntity
  8
LAY-6
  6
CONTINUOUS
 62
     2
100
AcDbText
 10
689.449866
 20
326.0
 30
0.0
 40
5.0
  1
１６０
 41
0.672
  7
EXCADSTD
 72
     5
 11
701.449866
 21
326.0
 31
0.0
100
AcDbText
  0
LINE
  5
482
100
AcDbEntity
  8
LAY-6
  6
CONTINUOUS
 62
     1
100
AcDbLine
 10
613.049866
 20
325.5
 30
0.0
 11
773.049866
 21
325.5
 31
0.0
  0
LINE
  5
483
100
AcDbEntity
  8
LAY-6
  6
CONTINUOUS
 62
     1
100
AcDbLine
 10
616.049866
 20
326.0
 30
0.0
 11
613.049866
 21
325.5
 31
0.0
  0
LINE
  5
484
100
AcDbEntity
  8
LAY-6
  6
CONTINUOUS
 62
     1
100
AcDbLine
 10
613.049866
 20
325.5
 30
0.0
 11
616.049866
 21
325.0
 31
0.0
  0
LINE
  5
485
100
AcDbEntity
  8
LAY-6
  6
CONTINUOUS
 62
     1
100
AcDbLine
 10
770.049866
 20
325.0
 30
0.0
 11
773.049866
 21
325.5
 31
0.0
  0
LINE
  5
486
100
AcDbEntity
  8
LAY-6
  6
CONTINUOUS
 62
     1
100
AcDbLine
 10
773.049866
 20
325.5
 30
0.0
 11
770.049866
 21
326.0
 31
0.0
  0
LINE
  5
487
100
AcDbEntity
  8
LAY-6
  6
CONTINUOUS
 62
     1
100
AcDbLine
 10
620.549878
 20
357.302063
 30
0.0
 11
620.549878
 21
309.7
 31
0.0
  0
TEXT
  5
488
100
AcDbEntity
  8
LAY-6
  6
CONTINUOUS
 62
     2
100
AcDbText
 10
689.449866
 20
311.7
 30
0.0
 40
5.0
  1
１４５
 41
0.672
  7
EXCADSTD
 72
     5
 11
701.449866
 21
311.7
 31
0.0
100
AcDbText
  0
LINE
  5
489
100
AcDbEntity
  8
LAY-6
  6
CONTINUOUS
 62
     1
100
AcDbLine
 10
765.549854
 20
257.30209
 30
0.0
 11
765.549854
 21
312.7
 31
0.0
  0
LINE
  5
48A
100
AcDbEntity
  8
LAY-6
  6
CONTINUOUS
 62
     1
100
AcDbLine
 10
765.549854
 20
311.2
 30
0.0
 11
620.549878
 21
311.2
 31
0.0
  0
LINE
  5
48B
100
AcDbEntity
  8
LAY-6
  6
CONTINUOUS
 62
     1
100
AcDbLine
 10
762.549854
 20
310.7
 30
0.0
 11
765.549854
 21
311.2
 31
0.0
  0
LINE
  5
48C
100
AcDbEntity
  8
LAY-6
  6
CONTINUOUS
 62
     1
100
AcDbLine
 10
765.549854
 20
311.2
 30
0.0
 11
762.549854
 21
311.7
 31
0.0
  0
LINE
  5
48D
100
AcDbEntity
  8
LAY-6
  6
CONTINUOUS
 62
     1
100
AcDbLine
 10
623.549878
 20
311.7
 30
0.0
 11
620.549878
 21
311.2
 31
0.0
  0
LINE
  5
48E
100
AcDbEntity
  8
LAY-6
  6
CONTINUOUS
 62
     1
100
AcDbLine
 10
620.549878
 20
311.2
 30
0.0
 11
623.549878
 21
310.7
 31
0.0
  0
LINE
  5
48F
100
AcDbEntity
  8
LAY-6
  6
CONTINUOUS
 62
     1
100
AcDbLine
 10
760.549854
 20
252.30209
 30
0.0
 11
781.2
 21
252.30209
 31
0.0
  0
TEXT
  5
490
100
AcDbEntity
  8
LAY-6
  6
CONTINUOUS
 62
     2
100
AcDbText
 10
779.2
 20
298.802077
 30
0.0
 40
5.0
  1
１０５
 50
90.0
 41
0.672
  7
EXCADSTD
 72
     5
 11
779.2
 21
310.802077
 31
0.0
100
AcDbText
  0
LINE
  5
491
100
AcDbEntity
  8
LAY-6
  6
CONTINUOUS
 62
     1
100
AcDbLine
 10
773.049866
 20
357.302063
 30
0.0
 11
781.2
 21
357.302063
 31
0.0
  0
LINE
  5
492
100
AcDbEntity
  8
LAY-6
  6
CONTINUOUS
 62
     1
100
AcDbLine
 10
779.7
 20
252.30209
 30
0.0
 11
779.7
 21
357.302063
 31
0.0
  0
LINE
  5
493
100
AcDbEntity
  8
LAY-6
  6
CONTINUOUS
 62
     1
100
AcDbLine
 10
779.2
 20
255.30209
 30
0.0
 11
779.7
 21
252.30209
 31
0.0
  0
LINE
  5
494
100
AcDbEntity
  8
LAY-6
  6
CONTINUOUS
 62
     1
100
AcDbLine
 10
779.7
 20
252.30209
 30
0.0
 11
780.2
 21
255.30209
 31
0.0
  0
LINE
  5
495
100
AcDbEntity
  8
LAY-6
  6
CONTINUOUS
 62
     1
100
AcDbLine
 10
780.2
 20
354.302063
 30
0.0
 11
779.7
 21
357.302063
 31
0.0
  0
LINE
  5
496
100
AcDbEntity
  8
LAY-6
  6
CONTINUOUS
 62
     1
100
AcDbLine
 10
779.7
 20
357.302063
 30
0.0
 11
779.2
 21
354.302063
 31
0.0
  0
TEXT
  5
497
100
AcDbEntity
  8
LAY-6
  6
CONTINUOUS
 62
     2
100
AcDbText
 10
779.2
 20
365.452063
 30
0.0
 40
5.0
  1
１.５
 50
90.0
 41
0.595556
  7
EXCADSTD
 72
     5
 11
779.2
 21
375.452063
 31
0.0
100
AcDbText
  0
TEXT
  5
498
100
AcDbEntity
  8
LAY-6
  6
CONTINUOUS
 62
     2
100
AcDbText
 10
779.2
 20
375.452063
 30
0.0
 40
5.0
  1
ｔ
 50
90.0
 41
0.672
  7
EXCADSTD
 72
     5
 11
779.2
 21
378.652063
 31
0.0
100
AcDbText
  0
LINE
  5
499
100
AcDbEntity
  8
LAY-6
  6
CONTINUOUS
 62
     1
100
AcDbLine
 10
773.049866
 20
358.802063
 30
0.0
 11
781.2
 21
358.802063
 31
0.0
  0
LINE
  5
49A
100
AcDbEntity
  8
LAY-6
  6
CONTINUOUS
 62
     1
100
AcDbLine
 10
779.7
 20
352.302063
 30
0.0
 11
779.7
 21
363.802063
 31
0.0
  0
LINE
  5
49B
100
AcDbEntity
  8
LAY-6
  6
CONTINUOUS
 62
     1
100
AcDbLine
 10
780.2
 20
354.302063
 30
0.0
 11
779.7
 21
357.302063
 31
0.0
  0
LINE
  5
49C
100
AcDbEntity
  8
LAY-6
  6
CONTINUOUS
 62
     1
100
AcDbLine
 10
779.7
 20
357.302063
 30
0.0
 11
779.2
 21
354.302063
 31
0.0
  0
LINE
  5
49D
100
AcDbEntity
  8
LAY-6
  6
CONTINUOUS
 62
     1
100
AcDbLine
 10
779.2
 20
361.802063
 30
0.0
 11
779.7
 21
358.802063
 31
0.0
  0
LINE
  5
49E
100
AcDbEntity
  8
LAY-6
  6
CONTINUOUS
 62
     1
100
AcDbLine
 10
779.7
 20
358.802063
 30
0.0
 11
780.2
 21
361.802063
 31
0.0
  0
INSERT
  5
49F
100
AcDbEntity
  8
LAY-6
  6
CONTINUOUS
 62
     0
100
AcDbBlockReference
  2
SYM-2
 10
778.3
 20
364.7
 30
0.0
 50
90.0
  0
LINE
  5
4A0
100
AcDbEntity
  8
LAY-6
  6
CONTINUOUS
 62
     1
100
AcDbLine
 10
711.449805
 20
368.802063
 30
0.0
 11
731.4
 21
368.802063
 31
0.0
  0
TEXT
  5
4A1
100
AcDbEntity
  8
LAY-6
  6
CONTINUOUS
 62
     2
100
AcDbText
 10
729.4
 20
359.802063
 30
0.0
 40
5.0
  1
１０
 50
90.0
 41
0.672
  7
EXCADSTD
 72
     5
 11
729.4
 21
367.134863
 31
0.0
100
AcDbText
  0
LINE
  5
4A2
100
AcDbEntity
  8
LAY-6
  6
CONTINUOUS
 62
     1
100
AcDbLine
 10
773.049866
 20
358.802063
 30
0.0
 11
728.4
 21
358.802063
 31
0.0
  0
LINE
  5
4A3
100
AcDbEntity
  8
LAY-6
  6
CONTINUOUS
 62
     1
100
AcDbLine
 10
729.9
 20
358.802063
 30
0.0
 11
729.9
 21
368.802063
 31
0.0
  0
LINE
  5
4A4
100
AcDbEntity
  8
LAY-6
  6
CONTINUOUS
 62
     1
100
AcDbLine
 10
729.4
 20
361.802063
 30
0.0
 11
729.9
 21
358.802063
 31
0.0
  0
LINE
  5
4A5
100
AcDbEntity
  8
LAY-6
  6
CONTINUOUS
 62
     1
100
AcDbLine
 10
729.9
 20
358.802063
 30
0.0
 11
730.4
 21
361.802063
 31
0.0
  0
LINE
  5
4A6
100
AcDbEntity
  8
LAY-6
  6
CONTINUOUS
 62
     1
100
AcDbLine
 10
730.4
 20
365.802063
 30
0.0
 11
729.9
 21
368.802063
 31
0.0
  0
LINE
  5
4A7
100
AcDbEntity
  8
LAY-6
  6
CONTINUOUS
 62
     1
100
AcDbLine
 10
729.9
 20
368.802063
 30
0.0
 11
729.4
 21
365.802063
 31
0.0
  0
LINE
  5
4A8
100
AcDbEntity
  8
LAY-6
  6
CONTINUOUS
 62
     1
100
AcDbLine
 10
708.549805
 20
394.302063
 30
0.0
 11
731.4
 21
394.302063
 31
0.0
  0
LINE
  5
4A9
100
AcDbEntity
  8
LAY-6
  6
CONTINUOUS
 62
     1
100
AcDbLine
 10
729.9
 20
368.802063
 30
0.0
 11
729.9
 21
394.302063
 31
0.0
  0
LINE
  5
4AA
100
AcDbEntity
  8
LAY-6
  6
CONTINUOUS
 62
     1
100
AcDbLine
 10
729.4
 20
371.802063
 30
0.0
 11
729.9
 21
368.802063
 31
0.0
  0
LINE
  5
4AB
100
AcDbEntity
  8
LAY-6
  6
CONTINUOUS
 62
     1
100
AcDbLine
 10
729.9
 20
368.802063
 30
0.0
 11
730.4
 21
371.802063
 31
0.0
  0
LINE
  5
4AC
100
AcDbEntity
  8
LAY-6
  6
CONTINUOUS
 62
     1
100
AcDbLine
 10
730.4
 20
391.302063
 30
0.0
 11
729.9
 21
394.302063
 31
0.0
  0
LINE
  5
4AD
100
AcDbEntity
  8
LAY-6
  6
CONTINUOUS
 62
     1
100
AcDbLine
 10
729.9
 20
394.302063
 30
0.0
 11
729.4
 21
391.302063
 31
0.0
  0
TEXT
  5
4AE
100
AcDbEntity
  8
LAY-6
  6
CONTINUOUS
 62
     2
100
AcDbText
 10
729.4
 20
374.552063
 30
0.0
 40
5.0
  1
２５.５
 50
90.0
 41
0.616
  7
EXCADSTD
 72
     5
 11
729.4
 21
388.552063
 31
0.0
100
AcDbText
  0
TEXT
  5
4AF
100
AcDbEntity
  8
LAY-6
  6
CONTINUOUS
 62
     2
100
AcDbText
 10
662.5
 20
358.752063
 30
0.0
 40
5.0
  1
７.５
 50
90.0
 41
0.595556
  7
EXCADSTD
 72
     5
 11
662.5
 21
368.752063
 31
0.0
100
AcDbText
  0
LINE
  5
4B0
100
AcDbEntity
  8
LAY-6
  6
CONTINUOUS
 62
     1
100
AcDbLine
 10
613.049866
 20
358.802063
 30
0.0
 11
664.7
 21
358.802063
 31
0.0
  0
LINE
  5
4B1
100
AcDbEntity
  8
LAY-6
  6
CONTINUOUS
 62
     1
100
AcDbLine
 10
672.14978
 20
366.302063
 30
0.0
 11
661.7
 21
366.302063
 31
0.0
  0
LINE
  5
4B2
100
AcDbEntity
  8
LAY-6
  6
CONTINUOUS
 62
     1
100
AcDbLine
 10
663.2
 20
358.802063
 30
0.0
 11
663.2
 21
366.302063
 31
0.0
  0
LINE
  5
4B3
100
AcDbEntity
  8
LAY-6
  6
CONTINUOUS
 62
     1
100
AcDbLine
 10
662.7
 20
361.802063
 30
0.0
 11
663.2
 21
358.802063
 31
0.0
  0
LINE
  5
4B4
100
AcDbEntity
  8
LAY-6
  6
CONTINUOUS
 62
     1
100
AcDbLine
 10
663.2
 20
358.802063
 30
0.0
 11
663.7
 21
361.802063
 31
0.0
  0
LINE
  5
4B5
100
AcDbEntity
  8
LAY-6
  6
CONTINUOUS
 62
     1
100
AcDbLine
 10
663.7
 20
363.302063
 30
0.0
 11
663.2
 21
366.302063
 31
0.0
  0
LINE
  5
4B6
100
AcDbEntity
  8
LAY-6
  6
CONTINUOUS
 62
     1
100
AcDbLine
 10
663.2
 20
366.302063
 30
0.0
 11
662.7
 21
363.302063
 31
0.0
  0
LINE
  5
4B7
100
AcDbEntity
  8
LAY-6
  6
CONTINUOUS
 62
     1
100
AcDbLine
 10
679.049805
 20
373.302063
 30
0.0
 11
649.3
 21
373.302063
 31
0.0
  0
TEXT
  5
4B8
100
AcDbEntity
  8
LAY-6
  6
CONTINUOUS
 62
     2
100
AcDbText
 10
650.3
 20
359.052063
 30
0.0
 40
5.0
  1
１４.５
 50
90.0
 41
0.616
  7
EXCADSTD
 72
     5
 11
650.3
 21
373.052063
 31
0.0
100
AcDbText
  0
LINE
  5
4B9
100
AcDbEntity
  8
LAY-6
  6
CONTINUOUS
 62
     1
100
AcDbLine
 10
613.049866
 20
358.802063
 30
0.0
 11
652.3
 21
358.802063
 31
0.0
  0
LINE
  5
4BA
100
AcDbEntity
  8
LAY-6
  6
CONTINUOUS
 62
     1
100
AcDbLine
 10
650.8
 20
358.802063
 30
0.0
 11
650.8
 21
373.302063
 31
0.0
  0
LINE
  5
4BB
100
AcDbEntity
  8
LAY-6
  6
CONTINUOUS
 62
     1
100
AcDbLine
 10
650.3
 20
361.802063
 30
0.0
 11
650.8
 21
358.802063
 31
0.0
  0
LINE
  5
4BC
100
AcDbEntity
  8
LAY-6
  6
CONTINUOUS
 62
     1
100
AcDbLine
 10
650.8
 20
358.802063
 30
0.0
 11
651.3
 21
361.802063
 31
0.0
  0
LINE
  5
4BD
100
AcDbEntity
  8
LAY-6
  6
CONTINUOUS
 62
     1
100
AcDbLine
 10
651.3
 20
370.302063
 30
0.0
 11
650.8
 21
373.302063
 31
0.0
  0
LINE
  5
4BE
100
AcDbEntity
  8
LAY-6
  6
CONTINUOUS
 62
     1
100
AcDbLine
 10
650.8
 20
373.302063
 30
0.0
 11
650.3
 21
370.302063
 31
0.0
  0
LINE
  5
4BF
100
AcDbEntity
  8
LAY-6
  6
CONTINUOUS
 62
     1
100
AcDbLine
 10
679.049805
 20
389.302063
 30
0.0
 11
649.3
 21
389.302063
 31
0.0
  0
LINE
  5
4C0
100
AcDbEntity
  8
LAY-6
  6
CONTINUOUS
 62
     1
100
AcDbLine
 10
650.8
 20
373.302063
 30
0.0
 11
650.8
 21
389.302063
 31
0.0
  0
LINE
  5
4C1
100
AcDbEntity
  8
LAY-6
  6
CONTINUOUS
 62
     1
100
AcDbLine
 10
650.3
 20
376.302063
 30
0.0
 11
650.8
 21
373.302063
 31
0.0
  0
LINE
  5
4C2
100
AcDbEntity
  8
LAY-6
  6
CONTINUOUS
 62
     1
100
AcDbLine
 10
650.8
 20
373.302063
 30
0.0
 11
651.3
 21
376.302063
 31
0.0
  0
LINE
  5
4C3
100
AcDbEntity
  8
LAY-6
  6
CONTINUOUS
 62
     1
100
AcDbLine
 10
651.3
 20
386.302063
 30
0.0
 11
650.8
 21
389.302063
 31
0.0
  0
LINE
  5
4C4
100
AcDbEntity
  8
LAY-6
  6
CONTINUOUS
 62
     1
100
AcDbLine
 10
650.8
 20
389.302063
 30
0.0
 11
650.3
 21
386.302063
 31
0.0
  0
TEXT
  5
4C5
100
AcDbEntity
  8
LAY-6
  6
CONTINUOUS
 62
     2
100
AcDbText
 10
650.3
 20
377.302063
 30
0.0
 40
5.0
  1
１６
 50
90.0
 41
0.672
  7
EXCADSTD
 72
     5
 11
650.3
 21
384.634863
 31
0.0
100
AcDbText
  0
TEXT
  5
4C6
100
AcDbEntity
  8
LAY-6
  6
CONTINUOUS
 62
     2
100
AcDbText
 10
650.3
 20
389.802063
 30
0.0
 40
5.0
  1
５
 50
90.0
 41
0.672
  7
EXCADSTD
 72
     5
 11
650.3
 21
393.002063
 31
0.0
100
AcDbText
  0
LINE
  5
4C7
100
AcDbEntity
  8
LAY-6
  6
CONTINUOUS
 62
     1
100
AcDbLine
 10
677.549805
 20
394.302063
 30
0.0
 11
649.3
 21
394.302063
 31
0.0
  0
LINE
  5
4C8
100
AcDbEntity
  8
LAY-6
  6
CONTINUOUS
 62
     1
100
AcDbLine
 10
650.8
 20
384.302063
 30
0.0
 11
650.8
 21
399.302063
 31
0.0
  0
LINE
  5
4C9
100
AcDbEntity
  8
LAY-6
  6
CONTINUOUS
 62
     1
100
AcDbLine
 10
651.3
 20
386.302063
 30
0.0
 11
650.8
 21
389.302063
 31
0.0
  0
LINE
  5
4CA
100
AcDbEntity
  8
LAY-6
  6
CONTINUOUS
 62
     1
100
AcDbLine
 10
650.8
 20
389.302063
 30
0.0
 11
650.3
 21
386.302063
 31
0.0
  0
LINE
  5
4CB
100
AcDbEntity
  8
LAY-6
  6
CONTINUOUS
 62
     1
100
AcDbLine
 10
650.3
 20
397.302063
 30
0.0
 11
650.8
 21
394.302063
 31
0.0
  0
LINE
  5
4CC
100
AcDbEntity
  8
LAY-6
  6
CONTINUOUS
 62
     1
100
AcDbLine
 10
650.8
 20
394.302063
 30
0.0
 11
651.3
 21
397.302063
 31
0.0
  0
LINE
  5
4CD
100
AcDbEntity
  8
LAY-6
  6
CONTINUOUS
 62
     1
100
AcDbLine
 10
678.049805
 20
374.302063
 30
0.0
 11
678.049805
 21
380.9
 31
0.0
  0
LINE
  5
4CE
100
AcDbEntity
  8
LAY-6
  6
CONTINUOUS
 62
     1
100
AcDbLine
 10
708.049805
 20
374.302063
 30
0.0
 11
708.049805
 21
380.9
 31
0.0
  0
LINE
  5
4CF
100
AcDbEntity
  8
LAY-6
  6
CONTINUOUS
 62
     1
100
AcDbLine
 10
678.049805
 20
379.4
 30
0.0
 11
708.049805
 21
379.4
 31
0.0
  0
LINE
  5
4D0
100
AcDbEntity
  8
LAY-6
  6
CONTINUOUS
 62
     1
100
AcDbLine
 10
681.049805
 20
379.9
 30
0.0
 11
678.049805
 21
379.4
 31
0.0
  0
LINE
  5
4D1
100
AcDbEntity
  8
LAY-6
  6
CONTINUOUS
 62
     1
100
AcDbLine
 10
678.049805
 20
379.4
 30
0.0
 11
681.049805
 21
378.9
 31
0.0
  0
LINE
  5
4D2
100
AcDbEntity
  8
LAY-6
  6
CONTINUOUS
 62
     1
100
AcDbLine
 10
705.049805
 20
378.9
 30
0.0
 11
708.049805
 21
379.4
 31
0.0
  0
LINE
  5
4D3
100
AcDbEntity
  8
LAY-6
  6
CONTINUOUS
 62
     1
100
AcDbLine
 10
708.049805
 20
379.4
 30
0.0
 11
705.049805
 21
379.9
 31
0.0
  0
TEXT
  5
4D4
100
AcDbEntity
  8
LAY-6
  6
CONTINUOUS
 62
     2
100
AcDbText
 10
689.049805
 20
379.9
 30
0.0
 40
5.0
  1
３０
 41
0.672
  7
EXCADSTD
 72
     5
 11
696.382605
 21
379.9
 31
0.0
100
AcDbText
  0
LINE
  5
4D5
100
AcDbEntity
  8
LAY-6
  6
CONTINUOUS
 62
     1
100
AcDbLine
 10
592.861084
 20
153.052063
 30
0.0
 11
592.861084
 21
126.0
 31
0.0
  0
LINE
  5
4D6
100
AcDbEntity
  8
LAY-6
  6
CONTINUOUS
 62
     1
100
AcDbLine
 10
599.861084
 20
132.328499
 30
0.0
 11
599.861084
 21
126.0
 31
0.0
  0
LINE
  5
4D7
100
AcDbEntity
  8
LAY-6
  6
CONTINUOUS
 62
     1
100
AcDbLine
 10
592.861084
 20
127.5
 30
0.0
 11
599.861084
 21
127.5
 31
0.0
  0
LINE
  5
4D8
100
AcDbEntity
  8
LAY-6
  6
CONTINUOUS
 62
     1
100
AcDbLine
 10
595.861084
 20
128.0
 30
0.0
 11
592.861084
 21
127.5
 31
0.0
  0
LINE
  5
4D9
100
AcDbEntity
  8
LAY-6
  6
CONTINUOUS
 62
     1
100
AcDbLine
 10
592.861084
 20
127.5
 30
0.0
 11
595.861084
 21
127.0
 31
0.0
  0
LINE
  5
4DA
100
AcDbEntity
  8
LAY-6
  6
CONTINUOUS
 62
     1
100
AcDbLine
 10
596.861084
 20
127.0
 30
0.0
 11
599.861084
 21
127.5
 31
0.0
  0
LINE
  5
4DB
100
AcDbEntity
  8
LAY-6
  6
CONTINUOUS
 62
     1
100
AcDbLine
 10
599.861084
 20
127.5
 30
0.0
 11
596.861084
 21
128.0
 31
0.0
  0
TEXT
  5
4DC
100
AcDbEntity
  8
LAY-6
  6
CONTINUOUS
 62
     2
100
AcDbText
 10
594.361084
 20
128.0
 30
0.0
 40
5.0
  1
７
 41
0.672
  7
EXCADSTD
 72
     5
 11
597.561084
 21
128.0
 31
0.0
100
AcDbText
  0
LINE
  5
4DD
100
AcDbEntity
  8
LAY-6
  6
CONTINUOUS
 62
     1
100
AcDbLine
 10
639.861084
 20
132.328499
 30
0.0
 11
639.861084
 21
126.0
 31
0.0
  0
LINE
  5
4DE
100
AcDbEntity
  8
LAY-6
  6
CONTINUOUS
 62
     1
100
AcDbLine
 10
599.861084
 20
127.5
 30
0.0
 11
639.861084
 21
127.5
 31
0.0
  0
LINE
  5
4DF
100
AcDbEntity
  8
LAY-6
  6
CONTINUOUS
 62
     1
100
AcDbLine
 10
602.861084
 20
128.0
 30
0.0
 11
599.861084
 21
127.5
 31
0.0
  0
LINE
  5
4E0
100
AcDbEntity
  8
LAY-6
  6
CONTINUOUS
 62
     1
100
AcDbLine
 10
599.861084
 20
127.5
 30
0.0
 11
602.861084
 21
127.0
 31
0.0
  0
LINE
  5
4E1
100
AcDbEntity
  8
LAY-6
  6
CONTINUOUS
 62
     1
100
AcDbLine
 10
636.861084
 20
127.0
 30
0.0
 11
639.861084
 21
127.5
 31
0.0
  0
LINE
  5
4E2
100
AcDbEntity
  8
LAY-6
  6
CONTINUOUS
 62
     1
100
AcDbLine
 10
639.861084
 20
127.5
 30
0.0
 11
636.861084
 21
128.0
 31
0.0
  0
TEXT
  5
4E3
100
AcDbEntity
  8
LAY-6
  6
CONTINUOUS
 62
     2
100
AcDbText
 10
615.861084
 20
128.0
 30
0.0
 40
5.0
  1
４０
 41
0.672
  7
EXCADSTD
 72
     5
 11
623.193884
 21
128.0
 31
0.0
100
AcDbText
  0
LINE
  5
4E4
100
AcDbEntity
  8
LAY-6
  6
CONTINUOUS
 62
     1
100
AcDbLine
 10
679.861084
 20
132.128403
 30
0.0
 11
679.861084
 21
126.0
 31
0.0
  0
LINE
  5
4E5
100
AcDbEntity
  8
LAY-6
  6
CONTINUOUS
 62
     1
100
AcDbLine
 10
639.861084
 20
127.5
 30
0.0
 11
679.861084
 21
127.5
 31
0.0
  0
LINE
  5
4E6
100
AcDbEntity
  8
LAY-6
  6
CONTINUOUS
 62
     1
100
AcDbLine
 10
642.861084
 20
128.0
 30
0.0
 11
639.861084
 21
127.5
 31
0.0
  0
LINE
  5
4E7
100
AcDbEntity
  8
LAY-6
  6
CONTINUOUS
 62
     1
100
AcDbLine
 10
639.861084
 20
127.5
 30
0.0
 11
642.861084
 21
127.0
 31
0.0
  0
LINE
  5
4E8
100
AcDbEntity
  8
LAY-6
  6
CONTINUOUS
 62
     1
100
AcDbLine
 10
676.861084
 20
127.0
 30
0.0
 11
679.861084
 21
127.5
 31
0.0
  0
LINE
  5
4E9
100
AcDbEntity
  8
LAY-6
  6
CONTINUOUS
 62
     1
100
AcDbLine
 10
679.861084
 20
127.5
 30
0.0
 11
676.861084
 21
128.0
 31
0.0
  0
TEXT
  5
4EA
100
AcDbEntity
  8
LAY-6
  6
CONTINUOUS
 62
     2
100
AcDbText
 10
655.861084
 20
128.0
 30
0.0
 40
5.0
  1
４０
 41
0.672
  7
EXCADSTD
 72
     5
 11
663.193884
 21
128.0
 31
0.0
100
AcDbText
  0
LINE
  5
4EB
100
AcDbEntity
  8
LAY-6
  6
CONTINUOUS
 62
     1
100
AcDbLine
 10
689.861084
 20
138.052048
 30
0.0
 11
689.861084
 21
126.0
 31
0.0
  0
LINE
  5
4EC
100
AcDbEntity
  8
LAY-6
  6
CONTINUOUS
 62
     1
100
AcDbLine
 10
679.861084
 20
127.5
 30
0.0
 11
689.861084
 21
127.5
 31
0.0
  0
LINE
  5
4ED
100
AcDbEntity
  8
LAY-6
  6
CONTINUOUS
 62
     1
100
AcDbLine
 10
682.861084
 20
128.0
 30
0.0
 11
679.861084
 21
127.5
 31
0.0
  0
LINE
  5
4EE
100
AcDbEntity
  8
LAY-6
  6
CONTINUOUS
 62
     1
100
AcDbLine
 10
679.861084
 20
127.5
 30
0.0
 11
682.861084
 21
127.0
 31
0.0
  0
LINE
  5
4EF
100
AcDbEntity
  8
LAY-6
  6
CONTINUOUS
 62
     1
100
AcDbLine
 10
686.861084
 20
127.0
 30
0.0
 11
689.861084
 21
127.5
 31
0.0
  0
LINE
  5
4F0
100
AcDbEntity
  8
LAY-6
  6
CONTINUOUS
 62
     1
100
AcDbLine
 10
689.861084
 20
127.5
 30
0.0
 11
686.861084
 21
128.0
 31
0.0
  0
TEXT
  5
4F1
100
AcDbEntity
  8
LAY-6
  6
CONTINUOUS
 62
     2
100
AcDbText
 10
680.861084
 20
128.0
 30
0.0
 40
5.0
  1
１０
 41
0.672
  7
EXCADSTD
 72
     5
 11
688.193884
 21
128.0
 31
0.0
100
AcDbText
  0
LINE
  5
4F2
100
AcDbEntity
  8
LAY-6
  6
CONTINUOUS
 62
     1
100
AcDbLine
 10
592.861084
 20
126.0
 30
0.0
 11
592.861084
 21
116.1
 31
0.0
  0
LINE
  5
4F3
100
AcDbEntity
  8
LAY-6
  6
CONTINUOUS
 62
     1
100
AcDbLine
 10
689.861084
 20
126.0
 30
0.0
 11
689.861084
 21
116.1
 31
0.0
  0
LINE
  5
4F4
100
AcDbEntity
  8
LAY-6
  6
CONTINUOUS
 62
     1
100
AcDbLine
 10
592.861084
 20
117.6
 30
0.0
 11
689.861084
 21
117.6
 31
0.0
  0
LINE
  5
4F5
100
AcDbEntity
  8
LAY-6
  6
CONTINUOUS
 62
     1
100
AcDbLine
 10
595.861084
 20
118.1
 30
0.0
 11
592.861084
 21
117.6
 31
0.0
  0
LINE
  5
4F6
100
AcDbEntity
  8
LAY-6
  6
CONTINUOUS
 62
     1
100
AcDbLine
 10
592.861084
 20
117.6
 30
0.0
 11
595.861084
 21
117.1
 31
0.0
  0
LINE
  5
4F7
100
AcDbEntity
  8
LAY-6
  6
CONTINUOUS
 62
     1
100
AcDbLine
 10
686.861084
 20
117.1
 30
0.0
 11
689.861084
 21
117.6
 31
0.0
  0
LINE
  5
4F8
100
AcDbEntity
  8
LAY-6
  6
CONTINUOUS
 62
     1
100
AcDbLine
 10
689.861084
 20
117.6
 30
0.0
 11
686.861084
 21
118.1
 31
0.0
  0
TEXT
  5
4F9
100
AcDbEntity
  8
LAY-6
  6
CONTINUOUS
 62
     2
100
AcDbText
 10
637.361084
 20
118.1
 30
0.0
 40
5.0
  1
９７
 41
0.672
  7
EXCADSTD
 72
     5
 11
644.693884
 21
118.1
 31
0.0
100
AcDbText
  0
LINE
  5
4FA
100
AcDbEntity
  8
LAY-6
  6
CONTINUOUS
 62
     1
100
AcDbLine
 10
688.918762
 20
160.552063
 30
0.0
 11
704.7
 21
160.552063
 31
0.0
  0
LINE
  5
4FB
100
AcDbEntity
  8
LAY-6
  6
CONTINUOUS
 62
     1
100
AcDbLine
 10
688.318726
 20
145.552063
 30
0.0
 11
704.7
 21
145.552063
 31
0.0
  0
LINE
  5
4FC
100
AcDbEntity
  8
LAY-6
  6
CONTINUOUS
 62
     1
100
AcDbLine
 10
703.2
 20
160.552063
 30
0.0
 11
703.2
 21
145.552063
 31
0.0
  0
LINE
  5
4FD
100
AcDbEntity
  8
LAY-6
  6
CONTINUOUS
 62
     1
100
AcDbLine
 10
703.7
 20
157.552063
 30
0.0
 11
703.2
 21
160.552063
 31
0.0
  0
LINE
  5
4FE
100
AcDbEntity
  8
LAY-6
  6
CONTINUOUS
 62
     1
100
AcDbLine
 10
703.2
 20
160.552063
 30
0.0
 11
702.7
 21
157.552063
 31
0.0
  0
LINE
  5
4FF
100
AcDbEntity
  8
LAY-6
  6
CONTINUOUS
 62
     1
100
AcDbLine
 10
702.7
 20
148.552063
 30
0.0
 11
703.2
 21
145.552063
 31
0.0
  0
LINE
  5
500
100
AcDbEntity
  8
LAY-6
  6
CONTINUOUS
 62
     1
100
AcDbLine
 10
703.2
 20
145.552063
 30
0.0
 11
703.7
 21
148.552063
 31
0.0
  0
TEXT
  5
501
100
AcDbEntity
  8
LAY-6
  6
CONTINUOUS
 62
     2
100
AcDbText
 10
702.7
 20
149.052063
 30
0.0
 40
5.0
  1
１５
 50
90.0
 41
0.672
  7
EXCADSTD
 72
     5
 11
702.7
 21
156.384863
 31
0.0
100
AcDbText
  0
LINE
  5
502
100
AcDbEntity
  8
LAY-6
  6
CONTINUOUS
 62
     1
100
AcDbLine
 10
689.861084
 20
168.052032
 30
0.0
 11
714.6
 21
168.052032
 31
0.0
  0
LINE
  5
503
100
AcDbEntity
  8
LAY-6
  6
CONTINUOUS
 62
     1
100
AcDbLine
 10
689.861084
 20
138.052048
 30
0.0
 11
714.6
 21
138.052048
 31
0.0
  0
LINE
  5
504
100
AcDbEntity
  8
LAY-6
  6
CONTINUOUS
 62
     1
100
AcDbLine
 10
713.1
 20
168.052032
 30
0.0
 11
713.1
 21
138.052048
 31
0.0
  0
LINE
  5
505
100
AcDbEntity
  8
LAY-6
  6
CONTINUOUS
 62
     1
100
AcDbLine
 10
713.6
 20
165.052032
 30
0.0
 11
713.1
 21
168.052032
 31
0.0
  0
LINE
  5
506
100
AcDbEntity
  8
LAY-6
  6
CONTINUOUS
 62
     1
100
AcDbLine
 10
713.1
 20
168.052032
 30
0.0
 11
712.6
 21
165.052032
 31
0.0
  0
LINE
  5
507
100
AcDbEntity
  8
LAY-6
  6
CONTINUOUS
 62
     1
100
AcDbLine
 10
712.6
 20
141.052048
 30
0.0
 11
713.1
 21
138.052048
 31
0.0
  0
LINE
  5
508
100
AcDbEntity
  8
LAY-6
  6
CONTINUOUS
 62
     1
100
AcDbLine
 10
713.1
 20
138.052048
 30
0.0
 11
713.6
 21
141.052048
 31
0.0
  0
TEXT
  5
509
100
AcDbEntity
  8
LAY-6
  6
CONTINUOUS
 62
     2
100
AcDbText
 10
712.6
 20
149.05204
 30
0.0
 40
5.0
  1
３０
 50
90.0
 41
0.672
  7
EXCADSTD
 72
     5
 11
712.6
 21
156.38484
 31
0.0
100
AcDbText
  0
TEXT
  5
50A
100
AcDbEntity
  8
LAY-6
  6
CONTINUOUS
 62
     2
100
AcDbText
 10
702.7
 20
97.286606
 30
0.0
 40
5.0
  1
５
 50
90.0
 41
0.672
  7
EXCADSTD
 72
     5
 11
702.7
 21
100.486606
 31
0.0
100
AcDbText
  0
LINE
  5
50B
100
AcDbEntity
  8
LAY-6
  6
CONTINUOUS
 62
     1
100
AcDbLine
 10
689.861084
 20
101.786606
 30
0.0
 11
704.7
 21
101.786606
 31
0.0
  0
LINE
  5
50C
100
AcDbEntity
  8
LAY-6
  6
CONTINUOUS
 62
     1
100
AcDbLine
 10
689.861084
 20
96.786606
 30
0.0
 11
704.7
 21
96.786606
 31
0.0
  0
LINE
  5
50D
100
AcDbEntity
  8
LAY-6
  6
CONTINUOUS
 62
     1
100
AcDbLine
 10
703.2
 20
106.786606
 30
0.0
 11
703.2
 21
91.786606
 31
0.0
  0
LINE
  5
50E
100
AcDbEntity
  8
LAY-6
  6
CONTINUOUS
 62
     1
100
AcDbLine
 10
702.7
 20
104.786606
 30
0.0
 11
703.2
 21
101.786606
 31
0.0
  0
LINE
  5
50F
100
AcDbEntity
  8
LAY-6
  6
CONTINUOUS
 62
     1
100
AcDbLine
 10
703.2
 20
101.786606
 30
0.0
 11
703.7
 21
104.786606
 31
0.0
  0
LINE
  5
510
100
AcDbEntity
  8
LAY-6
  6
CONTINUOUS
 62
     1
100
AcDbLine
 10
703.7
 20
93.786606
 30
0.0
 11
703.2
 21
96.786606
 31
0.0
  0
LINE
  5
511
100
AcDbEntity
  8
LAY-6
  6
CONTINUOUS
 62
     1
100
AcDbLine
 10
703.2
 20
96.786606
 30
0.0
 11
702.7
 21
93.786606
 31
0.0
  0
LINE
  5
512
100
AcDbEntity
  8
LAY-6
  6
CONTINUOUS
 62
     1
100
AcDbLine
 10
620.861084
 20
96.786545
 30
0.0
 11
620.861084
 21
85.7
 31
0.0
  0
LINE
  5
513
100
AcDbEntity
  8
LAY-6
  6
CONTINUOUS
 62
     1
100
AcDbLine
 10
608.861084
 20
96.786575
 30
0.0
 11
608.861084
 21
85.7
 31
0.0
  0
LINE
  5
514
100
AcDbEntity
  8
LAY-6
  6
CONTINUOUS
 62
     1
100
AcDbLine
 10
620.861084
 20
87.2
 30
0.0
 11
608.861084
 21
87.2
 31
0.0
  0
LINE
  5
515
100
AcDbEntity
  8
LAY-6
  6
CONTINUOUS
 62
     1
100
AcDbLine
 10
617.861084
 20
86.7
 30
0.0
 11
620.861084
 21
87.2
 31
0.0
  0
LINE
  5
516
100
AcDbEntity
  8
LAY-6
  6
CONTINUOUS
 62
     1
100
AcDbLine
 10
620.861084
 20
87.2
 30
0.0
 11
617.861084
 21
87.7
 31
0.0
  0
LINE
  5
517
100
AcDbEntity
  8
LAY-6
  6
CONTINUOUS
 62
     1
100
AcDbLine
 10
611.861084
 20
87.7
 30
0.0
 11
608.861084
 21
87.2
 31
0.0
  0
LINE
  5
518
100
AcDbEntity
  8
LAY-6
  6
CONTINUOUS
 62
     1
100
AcDbLine
 10
608.861084
 20
87.2
 30
0.0
 11
611.861084
 21
86.7
 31
0.0
  0
TEXT
  5
519
100
AcDbEntity
  8
LAY-6
  6
CONTINUOUS
 62
     2
100
AcDbText
 10
596.561084
 20
87.2
 30
0.0
 40
5.0
  1
φ１２
 41
0.672
  7
EXCADSTD
 72
     5
 11
608.561084
 21
87.2
 31
0.0
100
AcDbText
  0
LINE
  5
51A
100
AcDbEntity
  8
LAY-6
  6
CONTINUOUS
 62
     1
100
AcDbLine
 10
608.861084
 20
87.2
 30
0.0
 11
596.5
 21
87.2
 31
0.0
  0
LINE
  5
51B
100
AcDbEntity
  8
LAY-6
  6
CONTINUOUS
 62
     1
100
AcDbLine
 10
614.861084
 20
76.546097
 30
0.0
 11
614.861084
 21
71.2
 31
0.0
  0
LINE
  5
51C
100
AcDbEntity
  8
LAY-6
  6
CONTINUOUS
 62
     1
100
AcDbLine
 10
639.861084
 20
85.879707
 30
0.0
 11
639.861084
 21
71.2
 31
0.0
  0
LINE
  5
51D
100
AcDbEntity
  8
LAY-6
  6
CONTINUOUS
 62
     1
100
AcDbLine
 10
614.861084
 20
72.7
 30
0.0
 11
639.861084
 21
72.7
 31
0.0
  0
LINE
  5
51E
100
AcDbEntity
  8
LAY-6
  6
CONTINUOUS
 62
     1
100
AcDbLine
 10
617.861084
 20
73.2
 30
0.0
 11
614.861084
 21
72.7
 31
0.0
  0
LINE
  5
51F
100
AcDbEntity
  8
LAY-6
  6
CONTINUOUS
 62
     1
100
AcDbLine
 10
614.861084
 20
72.7
 30
0.0
 11
617.861084
 21
72.2
 31
0.0
  0
LINE
  5
520
100
AcDbEntity
  8
LAY-6
  6
CONTINUOUS
 62
     1
100
AcDbLine
 10
636.861084
 20
72.2
 30
0.0
 11
639.861084
 21
72.7
 31
0.0
  0
LINE
  5
521
100
AcDbEntity
  8
LAY-6
  6
CONTINUOUS
 62
     1
100
AcDbLine
 10
639.861084
 20
72.7
 30
0.0
 11
636.861084
 21
73.2
 31
0.0
  0
TEXT
  5
522
100
AcDbEntity
  8
LAY-6
  6
CONTINUOUS
 62
     2
100
AcDbText
 10
623.361084
 20
73.2
 30
0.0
 40
5.0
  1
２５
 41
0.672
  7
EXCADSTD
 72
     5
 11
630.693884
 21
73.2
 31
0.0
100
AcDbText
  0
LINE
  5
523
100
AcDbEntity
  8
LAY-6
  6
CONTINUOUS
 62
     1
100
AcDbLine
 10
496.221313
 20
233.052063
 30
0.0
 11
517.5
 21
233.052063
 31
0.0
  0
LINE
  5
524
100
AcDbEntity
  8
LAY-6
  6
CONTINUOUS
 62
     1
100
AcDbLine
 10
496.221313
 20
73.052063
 30
0.0
 11
517.5
 21
73.052063
 31
0.0
  0
LINE
  5
525
100
AcDbEntity
  8
LAY-6
  6
CONTINUOUS
 62
     1
100
AcDbLine
 10
516.0
 20
233.052063
 30
0.0
 11
516.0
 21
73.052063
 31
0.0
  0
LINE
  5
526
100
AcDbEntity
  8
LAY-6
  6
CONTINUOUS
 62
     1
100
AcDbLine
 10
516.5
 20
230.052063
 30
0.0
 11
516.0
 21
233.052063
 31
0.0
  0
LINE
  5
527
100
AcDbEntity
  8
LAY-6
  6
CONTINUOUS
 62
     1
100
AcDbLine
 10
516.0
 20
233.052063
 30
0.0
 11
515.5
 21
230.052063
 31
0.0
  0
LINE
  5
528
100
AcDbEntity
  8
LAY-6
  6
CONTINUOUS
 62
     1
100
AcDbLine
 10
515.5
 20
76.052063
 30
0.0
 11
516.0
 21
73.052063
 31
0.0
  0
LINE
  5
529
100
AcDbEntity
  8
LAY-6
  6
CONTINUOUS
 62
     1
100
AcDbLine
 10
516.0
 20
73.052063
 30
0.0
 11
516.5
 21
76.052063
 31
0.0
  0
TEXT
  5
52A
100
AcDbEntity
  8
LAY-6
  6
CONTINUOUS
 62
     2
100
AcDbText
 10
515.5
 20
147.052063
 30
0.0
 40
5.0
  1
１６０
 50
90.0
 41
0.672
  7
EXCADSTD
 72
     5
 11
515.5
 21
159.052063
 31
0.0
100
AcDbText
  0
LINE
  5
52B
100
AcDbEntity
  8
LAY-6
  6
CONTINUOUS
 62
     1
100
AcDbLine
 10
61.221313
 20
233.052063
 30
0.0
 11
61.221313
 21
242.5
 31
0.0
  0
LINE
  5
52C
100
AcDbEntity
  8
LAY-6
  6
CONTINUOUS
 62
     1
100
AcDbLine
 10
181.221313
 20
233.052063
 30
0.0
 11
181.221313
 21
242.5
 31
0.0
  0
LINE
  5
52D
100
AcDbEntity
  8
LAY-6
  6
CONTINUOUS
 62
     1
100
AcDbLine
 10
61.221313
 20
241.0
 30
0.0
 11
181.221313
 21
241.0
 31
0.0
  0
LINE
  5
52E
100
AcDbEntity
  8
LAY-6
  6
CONTINUOUS
 62
     1
100
AcDbLine
 10
64.221313
 20
241.5
 30
0.0
 11
61.221313
 21
241.0
 31
0.0
  0
LINE
  5
52F
100
AcDbEntity
  8
LAY-6
  6
CONTINUOUS
 62
     1
100
AcDbLine
 10
61.221313
 20
241.0
 30
0.0
 11
64.221313
 21
240.5
 31
0.0
  0
LINE
  5
530
100
AcDbEntity
  8
LAY-6
  6
CONTINUOUS
 62
     1
100
AcDbLine
 10
178.221313
 20
240.5
 30
0.0
 11
181.221313
 21
241.0
 31
0.0
  0
LINE
  5
531
100
AcDbEntity
  8
LAY-6
  6
CONTINUOUS
 62
     1
100
AcDbLine
 10
181.221313
 20
241.0
 30
0.0
 11
178.221313
 21
241.5
 31
0.0
  0
TEXT
  5
532
100
AcDbEntity
  8
LAY-6
  6
CONTINUOUS
 62
     2
100
AcDbText
 10
115.221313
 20
241.5
 30
0.0
 40
5.0
  1
１２０
 41
0.672
  7
EXCADSTD
 72
     5
 11
127.221313
 21
241.5
 31
0.0
100
AcDbText
  0
LINE
  5
533
100
AcDbEntity
  8
LAY-6
  6
CONTINUOUS
 62
     1
100
AcDbLine
 10
496.221313
 20
233.052063
 30
0.0
 11
496.221313
 21
242.5
 31
0.0
  0
LINE
  5
534
100
AcDbEntity
  8
LAY-6
  6
CONTINUOUS
 62
     1
100
AcDbLine
 10
181.221313
 20
241.0
 30
0.0
 11
496.221313
 21
241.0
 31
0.0
  0
LINE
  5
535
100
AcDbEntity
  8
LAY-6
  6
CONTINUOUS
 62
     1
100
AcDbLine
 10
184.221313
 20
241.5
 30
0.0
 11
181.221313
 21
241.0
 31
0.0
  0
LINE
  5
536
100
AcDbEntity
  8
LAY-6
  6
CONTINUOUS
 62
     1
100
AcDbLine
 10
181.221313
 20
241.0
 30
0.0
 11
184.221313
 21
240.5
 31
0.0
  0
LINE
  5
537
100
AcDbEntity
  8
LAY-6
  6
CONTINUOUS
 62
     1
100
AcDbLine
 10
493.221313
 20
240.5
 30
0.0
 11
496.221313
 21
241.0
 31
0.0
  0
LINE
  5
538
100
AcDbEntity
  8
LAY-6
  6
CONTINUOUS
 62
     1
100
AcDbLine
 10
496.221313
 20
241.0
 30
0.0
 11
493.221313
 21
241.5
 31
0.0
  0
TEXT
  5
539
100
AcDbEntity
  8
LAY-6
  6
CONTINUOUS
 62
     2
100
AcDbText
 10
332.721313
 20
241.5
 30
0.0
 40
5.0
  1
３１５
 41
0.672
  7
EXCADSTD
 72
     5
 11
344.721313
 21
241.5
 31
0.0
100
AcDbText
  0
LINE
  5
53A
100
AcDbEntity
  8
LAY-6
  6
CONTINUOUS
 62
     1
100
AcDbLine
 10
61.221313
 20
73.052063
 30
0.0
 11
61.221313
 21
58.5
 31
0.0
  0
LINE
  5
53B
100
AcDbEntity
  8
LAY-6
  6
CONTINUOUS
 62
     1
100
AcDbLine
 10
122.221313
 20
72.818634
 30
0.0
 11
122.221313
 21
58.5
 31
0.0
  0
LINE
  5
53C
100
AcDbEntity
  8
LAY-6
  6
CONTINUOUS
 62
     1
100
AcDbLine
 10
61.221313
 20
60.0
 30
0.0
 11
122.221313
 21
60.0
 31
0.0
  0
LINE
  5
53D
100
AcDbEntity
  8
LAY-6
  6
CONTINUOUS
 62
     1
100
AcDbLine
 10
64.221313
 20
60.5
 30
0.0
 11
61.221313
 21
60.0
 31
0.0
  0
LINE
  5
53E
100
AcDbEntity
  8
LAY-6
  6
CONTINUOUS
 62
     1
100
AcDbLine
 10
61.221313
 20
60.0
 30
0.0
 11
64.221313
 21
59.5
 31
0.0
  0
LINE
  5
53F
100
AcDbEntity
  8
LAY-6
  6
CONTINUOUS
 62
     1
100
AcDbLine
 10
119.221313
 20
59.5
 30
0.0
 11
122.221313
 21
60.0
 31
0.0
  0
LINE
  5
540
100
AcDbEntity
  8
LAY-6
  6
CONTINUOUS
 62
     1
100
AcDbLine
 10
122.221313
 20
60.0
 30
0.0
 11
119.221313
 21
60.5
 31
0.0
  0
TEXT
  5
541
100
AcDbEntity
  8
LAY-6
  6
CONTINUOUS
 62
     2
100
AcDbText
 10
87.721313
 20
60.5
 30
0.0
 40
5.0
  1
６１
 41
0.672
  7
EXCADSTD
 72
     5
 11
95.054113
 21
60.5
 31
0.0
100
AcDbText
  0
LINE
  5
542
100
AcDbEntity
  8
LAY-6
  6
CONTINUOUS
 62
     1
100
AcDbLine
 10
496.221313
 20
73.052063
 30
0.0
 11
496.221313
 21
58.5
 31
0.0
  0
LINE
  5
543
100
AcDbEntity
  8
LAY-6
  6
CONTINUOUS
 62
     1
100
AcDbLine
 10
122.221313
 20
60.0
 30
0.0
 11
496.221313
 21
60.0
 31
0.0
  0
LINE
  5
544
100
AcDbEntity
  8
LAY-6
  6
CONTINUOUS
 62
     1
100
AcDbLine
 10
125.221313
 20
60.5
 30
0.0
 11
122.221313
 21
60.0
 31
0.0
  0
LINE
  5
545
100
AcDbEntity
  8
LAY-6
  6
CONTINUOUS
 62
     1
100
AcDbLine
 10
122.221313
 20
60.0
 30
0.0
 11
125.221313
 21
59.5
 31
0.0
  0
LINE
  5
546
100
AcDbEntity
  8
LAY-6
  6
CONTINUOUS
 62
     1
100
AcDbLine
 10
493.221313
 20
59.5
 30
0.0
 11
496.221313
 21
60.0
 31
0.0
  0
LINE
  5
547
100
AcDbEntity
  8
LAY-6
  6
CONTINUOUS
 62
     1
100
AcDbLine
 10
496.221313
 20
60.0
 30
0.0
 11
493.221313
 21
60.5
 31
0.0
  0
TEXT
  5
548
100
AcDbEntity
  8
LAY-6
  6
CONTINUOUS
 62
     2
100
AcDbText
 10
303.221313
 20
60.5
 30
0.0
 40
5.0
  1
３７４
 41
0.672
  7
EXCADSTD
 72
     5
 11
315.221313
 21
60.5
 31
0.0
100
AcDbText
  0
LINE
  5
549
100
AcDbEntity
  8
LAY-6
  6
CONTINUOUS
 62
     1
100
AcDbLine
 10
61.221313
 20
58.5
 30
0.0
 11
61.221313
 21
45.5
 31
0.0
  0
LINE
  5
54A
100
AcDbEntity
  8
LAY-6
  6
CONTINUOUS
 62
     1
100
AcDbLine
 10
496.221313
 20
73.052063
 30
0.0
 11
496.221313
 21
45.5
 31
0.0
  0
LINE
  5
54B
100
AcDbEntity
  8
LAY-6
  6
CONTINUOUS
 62
     1
100
AcDbLine
 10
61.221313
 20
47.0
 30
0.0
 11
496.221313
 21
47.0
 31
0.0
  0
LINE
  5
54C
100
AcDbEntity
  8
LAY-6
  6
CONTINUOUS
 62
     1
100
AcDbLine
 10
64.221313
 20
47.5
 30
0.0
 11
61.221313
 21
47.0
 31
0.0
  0
LINE
  5
54D
100
AcDbEntity
  8
LAY-6
  6
CONTINUOUS
 62
     1
100
AcDbLine
 10
61.221313
 20
47.0
 30
0.0
 11
64.221313
 21
46.5
 31
0.0
  0
LINE
  5
54E
100
AcDbEntity
  8
LAY-6
  6
CONTINUOUS
 62
     1
100
AcDbLine
 10
493.221313
 20
46.5
 30
0.0
 11
496.221313
 21
47.0
 31
0.0
  0
LINE
  5
54F
100
AcDbEntity
  8
LAY-6
  6
CONTINUOUS
 62
     1
100
AcDbLine
 10
496.221313
 20
47.0
 30
0.0
 11
493.221313
 21
47.5
 31
0.0
  0
TEXT
  5
550
100
AcDbEntity
  8
LAY-6
  6
CONTINUOUS
 62
     2
100
AcDbText
 10
272.721313
 20
47.5
 30
0.0
 40
5.0
  1
４３５
 41
0.672
  7
EXCADSTD
 72
     5
 11
284.721313
 21
47.5
 31
0.0
100
AcDbText
  0
LINE
  5
551
100
AcDbEntity
  8
LAY-6
  6
CONTINUOUS
 62
     1
100
AcDbLine
 10
152.221313
 20
167.552078
 30
0.0
 11
145.6
 21
167.552078
 31
0.0
  0
LINE
  5
552
100
AcDbEntity
  8
LAY-6
  6
CONTINUOUS
 62
     1
100
AcDbLine
 10
152.221313
 20
138.552078
 30
0.0
 11
145.6
 21
138.552078
 31
0.0
  0
LINE
  5
553
100
AcDbEntity
  8
LAY-6
  6
CONTINUOUS
 62
     1
100
AcDbLine
 10
147.1
 20
167.552078
 30
0.0
 11
147.1
 21
138.552078
 31
0.0
  0
LINE
  5
554
100
AcDbEntity
  8
LAY-6
  6
CONTINUOUS
 62
     1
100
AcDbLine
 10
147.6
 20
164.552078
 30
0.0
 11
147.1
 21
167.552078
 31
0.0
  0
LINE
  5
555
100
AcDbEntity
  8
LAY-6
  6
CONTINUOUS
 62
     1
100
AcDbLine
 10
147.1
 20
167.552078
 30
0.0
 11
146.6
 21
164.552078
 31
0.0
  0
LINE
  5
556
100
AcDbEntity
  8
LAY-6
  6
CONTINUOUS
 62
     1
100
AcDbLine
 10
146.6
 20
141.552078
 30
0.0
 11
147.1
 21
138.552078
 31
0.0
  0
LINE
  5
557
100
AcDbEntity
  8
LAY-6
  6
CONTINUOUS
 62
     1
100
AcDbLine
 10
147.1
 20
138.552078
 30
0.0
 11
147.6
 21
141.552078
 31
0.0
  0
TEXT
  5
558
100
AcDbEntity
  8
LAY-6
  6
CONTINUOUS
 62
     2
100
AcDbText
 10
146.6
 20
149.052078
 30
0.0
 40
5.0
  1
３０
 50
90.0
 41
0.672
  7
EXCADSTD
 72
     5
 11
146.6
 21
156.384878
 31
0.0
100
AcDbText
  0
TEXT
  5
559
100
AcDbEntity
  8
LAY-6
  6
CONTINUOUS
 62
     2
100
AcDbText
 10
68.5
 20
558.6
 30
0.0
 40
6.0
  1
トップピボット
 41
0.672
  7
EXCADSTD
 72
     5
 11
102.100001
 21
558.6
 31
0.0
100
AcDbText
  0
TEXT
  5
55A
100
AcDbEntity
  8
LAY-6
  6
CONTINUOUS
 62
     2
100
AcDbText
 10
436.200049
 20
261.300058
 30
0.0
 40
6.0
  1
セメントケース
 41
0.672
  7
EXCADSTD
 72
     5
 11
469.80005
 21
261.300058
 31
0.0
100
AcDbText
  0
TEXT
  5
55B
100
AcDbEntity
  8
LAY-6
  6
CONTINUOUS
 62
     2
100
AcDbText
 10
235.8
 20
150.3
 30
0.0
 40
6.0
  1
アーム
 41
0.672
  7
EXCADSTD
 72
     5
 11
250.200001
 21
150.3
 31
0.0
100
AcDbText
  0
TEXT
  5
55C
100
AcDbEntity
  8
LAY-6
  6
CONTINUOUS
 62
     2
100
AcDbText
 10
577.3
 20
183.2
 30
0.0
 40
6.0
  1
アームプレート
 41
0.672
  7
EXCADSTD
 72
     5
 11
610.900001
 21
183.2
 31
0.0
100
AcDbText
  0
TEXT
  5
55D
100
AcDbEntity
  8
LAY-6
  6
CONTINUOUS
 62
     2
100
AcDbText
 10
505.150481
 20
570.713269
 30
0.0
 40
5.0
  1
トッププレート　０．８ｔ
 41
0.672
  7
EXCADSTD
 72
     5
 11
553.150481
 21
570.713269
 31
0.0
100
AcDbText
  0
POLYLINE
  5
55E
100
AcDbEntity
  8
LAY-6
  6
CONTINUOUS
 62
     1
100
AcDb2dPolyline
 66
     1
 10
0.0
 20
0.0
 30
0.0
 70
   128
  0
VERTEX
  5
55F
100
AcDbEntity
  8
LAY-6
  6
CONTINUOUS
 62
     1
100
AcDbVertex
100
AcDb2dVertex
 10
494.4
 20
552.854187
 30
0.0
  0
VERTEX
  5
560
100
AcDbEntity
  8
LAY-6
  6
CONTINUOUS
 62
     1
100
AcDbVertex
100
AcDb2dVertex
 10
504.750481
 20
570.713269
 30
0.0
  0
VERTEX
  5
561
100
AcDbEntity
  8
LAY-6
  6
CONTINUOUS
 62
     1
100
AcDbVertex
100
AcDb2dVertex
 10
552.850481
 20
570.713269
 30
0.0
  0
SEQEND
  5
562
100
AcDbEntity
  8
LAY-6
  6
CONTINUOUS
 62
     1
  0
LINE
  5
563
100
AcDbEntity
  8
LAY-6
  6
CONTINUOUS
 62
     1
100
AcDbLine
 10
495.400263
 20
555.510736
 30
0.0
 11
494.4
 21
552.854187
 31
0.0
  0
LINE
  5
564
100
AcDbEntity
  8
LAY-6
  6
CONTINUOUS
 62
     1
100
AcDbLine
 10
494.4
 20
552.854187
 30
0.0
 11
496.207778
 21
555.042729
 31
0.0
  0
TEXT
  5
565
100
AcDbEntity
  8
LAY-6
  6
CONTINUOUS
 62
     2
100
AcDbText
 10
310.7
 20
503.5
 30
0.0
 40
6.0
  1
上　枠
 41
0.672
  7
EXCADSTD
 72
     5
 11
325.100001
 21
503.5
 31
0.0
100
AcDbText
  0
TEXT
  5
566
100
AcDbEntity
  8
LAY-6
  6
CONTINUOUS
 62
     2
100
AcDbText
 10
311.1
 20
483.4
 30
0.0
 40
6.0
  1
ド　ア
 41
0.672
  7
EXCADSTD
 72
     5
 11
325.500001
 21
483.4
 31
0.0
100
AcDbText
  0
TEXT
  5
567
100
AcDbEntity
  8
LAY-6
  6
CONTINUOUS
 62
     2
100
AcDbText
 10
46.4
 20
480.0
 30
0.0
 40
6.0
  1
竪　枠
 41
0.8
  7
EXCADVERT
 72
     3
 11
46.4
 21
462.0
 31
0.0
100
AcDbText
  0
TEXT
  5
568
100
AcDbEntity
  8
LAY-6
  6
CONTINUOUS
 62
     2
100
AcDbText
 10
52.4
 20
357.852048
 30
0.0
 40
5.0
  1
４.５
 50
90.0
 41
0.595556
  7
EXCADSTD
 72
     5
 11
52.4
 21
367.852048
 31
0.0
100
AcDbText
  0
LINE
  5
569
100
AcDbEntity
  8
LAY-6
  6
CONTINUOUS
 62
     1
100
AcDbLine
 10
70.221313
 20
368.802063
 30
0.0
 11
51.5
 21
368.802063
 31
0.0
  0
LINE
  5
56A
100
AcDbEntity
  8
LAY-6
  6
CONTINUOUS
 62
     1
100
AcDbLine
 10
86.221329
 20
373.302032
 30
0.0
 11
51.5
 21
373.302032
 31
0.0
  0
LINE
  5
56B
100
AcDbEntity
  8
LAY-6
  6
CONTINUOUS
 62
     1
100
AcDbLine
 10
53.0
 20
363.802063
 30
0.0
 11
53.0
 21
378.302032
 31
0.0
  0
LINE
  5
56C
100
AcDbEntity
  8
LAY-6
  6
CONTINUOUS
 62
     1
100
AcDbLine
 10
53.5
 20
365.802063
 30
0.0
 11
53.0
 21
368.802063
 31
0.0
  0
LINE
  5
56D
100
AcDbEntity
  8
LAY-6
  6
CONTINUOUS
 62
     1
100
AcDbLine
 10
53.0
 20
368.802063
 30
0.0
 11
52.5
 21
365.802063
 31
0.0
  0
LINE
  5
56E
100
AcDbEntity
  8
LAY-6
  6
CONTINUOUS
 62
     1
100
AcDbLine
 10
52.5
 20
376.302032
 30
0.0
 11
53.0
 21
373.302032
 31
0.0
  0
LINE
  5
56F
100
AcDbEntity
  8
LAY-6
  6
CONTINUOUS
 62
     1
100
AcDbLine
 10
53.0
 20
373.302032
 30
0.0
 11
53.5
 21
376.302032
 31
0.0
  0
LINE
  5
570
100
AcDbEntity
  8
LAY-6
  6
CONTINUOUS
 62
     1
100
AcDbLine
 10
75.221313
 20
389.302032
 30
0.0
 11
51.5
 21
389.302032
 31
0.0
  0
LINE
  5
571
100
AcDbEntity
  8
LAY-6
  6
CONTINUOUS
 62
     1
100
AcDbLine
 10
53.0
 20
373.302032
 30
0.0
 11
53.0
 21
389.302032
 31
0.0
  0
LINE
  5
572
100
AcDbEntity
  8
LAY-6
  6
CONTINUOUS
 62
     1
100
AcDbLine
 10
52.5
 20
376.302032
 30
0.0
 11
53.0
 21
373.302032
 31
0.0
  0
LINE
  5
573
100
AcDbEntity
  8
LAY-6
  6
CONTINUOUS
 62
     1
100
AcDbLine
 10
53.0
 20
373.302032
 30
0.0
 11
53.5
 21
376.302032
 31
0.0
  0
LINE
  5
574
100
AcDbEntity
  8
LAY-6
  6
CONTINUOUS
 62
     1
100
AcDbLine
 10
53.5
 20
386.302032
 30
0.0
 11
53.0
 21
389.302032
 31
0.0
  0
LINE
  5
575
100
AcDbEntity
  8
LAY-6
  6
CONTINUOUS
 62
     1
100
AcDbLine
 10
53.0
 20
389.302032
 30
0.0
 11
52.5
 21
386.302032
 31
0.0
  0
TEXT
  5
576
100
AcDbEntity
  8
LAY-6
  6
CONTINUOUS
 62
     2
100
AcDbText
 10
52.5
 20
377.302032
 30
0.0
 40
5.0
  1
１６
 50
90.0
 41
0.672
  7
EXCADSTD
 72
     5
 11
52.5
 21
384.634832
 31
0.0
100
AcDbText
  0
TEXT
  5
577
100
AcDbEntity
  8
LAY-6
  6
CONTINUOUS
 62
     2
100
AcDbText
 10
52.5
 20
389.802032
 30
0.0
 40
5.0
  1
５
 50
90.0
 41
0.672
  7
EXCADSTD
 72
     5
 11
52.5
 21
393.002032
 31
0.0
100
AcDbText
  0
LINE
  5
578
100
AcDbEntity
  8
LAY-6
  6
CONTINUOUS
 62
     1
100
AcDbLine
 10
53.0
 20
384.302032
 30
0.0
 11
53.0
 21
399.302032
 31
0.0
  0
LINE
  5
579
100
AcDbEntity
  8
LAY-6
  6
CONTINUOUS
 62
     1
100
AcDbLine
 10
53.5
 20
386.302032
 30
0.0
 11
53.0
 21
389.302032
 31
0.0
  0
LINE
  5
57A
100
AcDbEntity
  8
LAY-6
  6
CONTINUOUS
 62
     1
100
AcDbLine
 10
53.0
 20
389.302032
 30
0.0
 11
52.5
 21
386.302032
 31
0.0
  0
LINE
  5
57B
100
AcDbEntity
  8
LAY-6
  6
CONTINUOUS
 62
     1
100
AcDbLine
 10
52.5
 20
397.302032
 30
0.0
 11
53.0
 21
394.302032
 31
0.0
  0
LINE
  5
57C
100
AcDbEntity
  8
LAY-6
  6
CONTINUOUS
 62
     1
100
AcDbLine
 10
53.0
 20
394.302032
 30
0.0
 11
53.5
 21
397.302032
 31
0.0
  0
LINE
  5
57D
100
AcDbEntity
  8
LAY-6
  6
CONTINUOUS
 62
     1
100
AcDbLine
 10
53.0
 20
368.802063
 30
0.0
 11
53.0
 21
357.7
 31
0.0
  0
LINE
  5
57E
100
AcDbEntity
  8
LAY-6
  6
CONTINUOUS
 62
     1
100
AcDbLine
 10
62.221326
 20
357.302124
 30
0.0
 11
62.221326
 21
320.8
 31
0.0
  0
LINE
  5
57F
100
AcDbEntity
  8
LAY-6
  6
CONTINUOUS
 62
     1
100
AcDbLine
 10
62.221326
 20
322.3
 30
0.0
 11
122.221313
 21
322.3
 31
0.0
  0
LINE
  5
580
100
AcDbEntity
  8
LAY-6
  6
CONTINUOUS
 62
     1
100
AcDbLine
 10
65.221326
 20
322.8
 30
0.0
 11
62.221326
 21
322.3
 31
0.0
  0
LINE
  5
581
100
AcDbEntity
  8
LAY-6
  6
CONTINUOUS
 62
     1
100
AcDbLine
 10
62.221326
 20
322.3
 30
0.0
 11
65.221326
 21
321.8
 31
0.0
  0
LINE
  5
582
100
AcDbEntity
  8
LAY-6
  6
CONTINUOUS
 62
     1
100
AcDbLine
 10
119.221313
 20
321.8
 30
0.0
 11
122.221313
 21
322.3
 31
0.0
  0
LINE
  5
583
100
AcDbEntity
  8
LAY-6
  6
CONTINUOUS
 62
     1
100
AcDbLine
 10
122.221313
 20
322.3
 30
0.0
 11
119.221313
 21
322.8
 31
0.0
  0
TEXT
  5
584
100
AcDbEntity
  8
LAY-6
  6
CONTINUOUS
 62
     2
100
AcDbText
 10
88.22132
 20
322.8
 30
0.0
 40
5.0
  1
６０
 41
0.672
  7
EXCADSTD
 72
     5
 11
95.55412
 21
322.8
 31
0.0
100
AcDbText
  0
LINE
  5
585
100
AcDbEntity
  8
LAY-6
  6
CONTINUOUS
 62
     1
100
AcDbLine
 10
485.221362
 20
357.302124
 30
0.0
 11
485.221362
 21
320.8
 31
0.0
  0
LINE
  5
586
100
AcDbEntity
  8
LAY-6
  6
CONTINUOUS
 62
     1
100
AcDbLine
 10
122.221313
 20
322.3
 30
0.0
 11
485.221362
 21
322.3
 31
0.0
  0
LINE
  5
587
100
AcDbEntity
  8
LAY-6
  6
CONTINUOUS
 62
     1
100
AcDbLine
 10
125.221313
 20
322.8
 30
0.0
 11
122.221313
 21
322.3
 31
0.0
  0
LINE
  5
588
100
AcDbEntity
  8
LAY-6
  6
CONTINUOUS
 62
     1
100
AcDbLine
 10
122.221313
 20
322.3
 30
0.0
 11
125.221313
 21
321.8
 31
0.0
  0
LINE
  5
589
100
AcDbEntity
  8
LAY-6
  6
CONTINUOUS
 62
     1
100
AcDbLine
 10
482.221362
 20
321.8
 30
0.0
 11
485.221362
 21
322.3
 31
0.0
  0
LINE
  5
58A
100
AcDbEntity
  8
LAY-6
  6
CONTINUOUS
 62
     1
100
AcDbLine
 10
485.221362
 20
322.3
 30
0.0
 11
482.221362
 21
322.8
 31
0.0
  0
TEXT
  5
58B
100
AcDbEntity
  8
LAY-6
  6
CONTINUOUS
 62
     2
100
AcDbText
 10
297.721338
 20
322.8
 30
0.0
 40
5.0
  1
３６３
 41
0.672
  7
EXCADSTD
 72
     5
 11
309.721338
 21
322.8
 31
0.0
100
AcDbText
  0
TEXT
  5
58C
100
AcDbEntity
  8
LAY-6
  6
CONTINUOUS
 62
     2
100
AcDbText
 10
267.721344
 20
304.8
 30
0.0
 40
5.0
  1
４２３
 41
0.672
  7
EXCADSTD
 72
     5
 11
279.721344
 21
304.8
 31
0.0
100
AcDbText
  0
LINE
  5
58D
100
AcDbEntity
  8
LAY-6
  6
CONTINUOUS
 62
     1
100
AcDbLine
 10
62.221326
 20
257.302106
 30
0.0
 11
62.221326
 21
305.8
 31
0.0
  0
LINE
  5
58E
100
AcDbEntity
  8
LAY-6
  6
CONTINUOUS
 62
     1
100
AcDbLine
 10
485.221362
 20
257.302106
 30
0.0
 11
485.221362
 21
305.8
 31
0.0
  0
LINE
  5
58F
100
AcDbEntity
  8
LAY-6
  6
CONTINUOUS
 62
     1
100
AcDbLine
 10
62.221326
 20
304.3
 30
0.0
 11
485.221362
 21
304.3
 31
0.0
  0
LINE
  5
590
100
AcDbEntity
  8
LAY-6
  6
CONTINUOUS
 62
     1
100
AcDbLine
 10
65.221326
 20
304.8
 30
0.0
 11
62.221326
 21
304.3
 31
0.0
  0
LINE
  5
591
100
AcDbEntity
  8
LAY-6
  6
CONTINUOUS
 62
     1
100
AcDbLine
 10
62.221326
 20
304.3
 30
0.0
 11
65.221326
 21
303.8
 31
0.0
  0
LINE
  5
592
100
AcDbEntity
  8
LAY-6
  6
CONTINUOUS
 62
     1
100
AcDbLine
 10
482.221362
 20
303.8
 30
0.0
 11
485.221362
 21
304.3
 31
0.0
  0
LINE
  5
593
100
AcDbEntity
  8
LAY-6
  6
CONTINUOUS
 62
     1
100
AcDbLine
 10
485.221362
 20
304.3
 30
0.0
 11
482.221362
 21
304.8
 31
0.0
  0
TEXT
  5
594
100
AcDbEntity
  8
LAY-6
  6
CONTINUOUS
 62
     2
100
AcDbText
 10
510.3
 20
348.5
 30
0.0
 40
6.0
  1
床　面
 41
0.672
  7
EXCADSTD
 72
     5
 11
524.700001
 21
348.5
 31
0.0
100
AcDbText
  0
TEXT
  5
595
100
AcDbEntity
  8
LAY-6
  6
CONTINUOUS
 62
     2
100
AcDbText
 10
36.0
 20
162.5
 30
0.0
 40
6.0
  1
竪　枠
 41
0.8
  7
EXCADVERT
 72
     3
 11
36.0
 21
144.5
 31
0.0
100
AcDbText
  0
TEXT
  5
596
100
AcDbEntity
  8
LAY-6
  6
CONTINUOUS
 62
     2
100
AcDbText
 10
453.615106
 20
150.2
 30
0.0
 40
6.0
  1
ド　ア
 41
0.672
  7
EXCADSTD
 72
     5
 11
468.015107
 21
150.2
 31
0.0
100
AcDbText
  0
TEXT
  5
597
100
AcDbEntity
  8
LAY-6
  6
CONTINUOUS
 62
     2
100
AcDbText
 10
511.3
 20
253.6
 30
0.0
 40
5.0
  1
ドア召合せ調整ネジ
 41
0.672
  7
EXCADSTD
 72
     5
 11
547.3
 21
253.6
 31
0.0
100
AcDbText
  0
POLYLINE
  5
598
100
AcDbEntity
  8
LAY-6
  6
CONTINUOUS
 62
     1
100
AcDb2dPolyline
 66
     1
 10
0.0
 20
0.0
 30
0.0
 70
   128
  0
VERTEX
  5
599
100
AcDbEntity
  8
LAY-6
  6
CONTINUOUS
 62
     1
100
AcDbVertex
100
AcDb2dVertex
 10
431.6
 20
177.052063
 30
0.0
  0
VERTEX
  5
59A
100
AcDbEntity
  8
LAY-6
  6
CONTINUOUS
 62
     1
100
AcDbVertex
100
AcDb2dVertex
 10
511.2
 20
253.6
 30
0.0
  0
VERTEX
  5
59B
100
AcDbEntity
  8
LAY-6
  6
CONTINUOUS
 62
     1
100
AcDbVertex
100
AcDb2dVertex
 10
602.833494
 20
253.6
 30
0.0
  0
SEQEND
  5
59C
100
AcDbEntity
  8
LAY-6
  6
CONTINUOUS
 62
     1
  0
LINE
  5
59D
100
AcDbEntity
  8
LAY-6
  6
CONTINUOUS
 62
     1
100
AcDbLine
 10
433.415794
 20
179.491918
 30
0.0
 11
431.6
 21
177.052063
 31
0.0
  0
LINE
  5
59E
100
AcDbEntity
  8
LAY-6
  6
CONTINUOUS
 62
     1
100
AcDbLine
 10
431.6
 20
177.052063
 30
0.0
 11
434.108947
 21
178.771128
 31
0.0
  0
TEXT
  5
59F
100
AcDbEntity
  8
LAY-6
  6
CONTINUOUS
 62
     2
100
AcDbText
 10
274.0
 20
525.6
 30
0.0
 40
5.0
  1
裏板４．５ｔ以上（別途）
 41
0.672
  7
EXCADSTD
 72
     5
 11
322.0
 21
525.6
 31
0.0
100
AcDbText
  0
POLYLINE
  5
5A0
100
AcDbEntity
  8
LAY-6
  6
CONTINUOUS
 62
     1
100
AcDb2dPolyline
 66
     1
 10
0.0
 20
0.0
 30
0.0
 70
   128
  0
VERTEX
  5
5A1
100
AcDbEntity
  8
LAY-6
  6
CONTINUOUS
 62
     1
100
AcDbVertex
100
AcDb2dVertex
 10
257.221313
 20
508.870972
 30
0.0
  0
VERTEX
  5
5A2
100
AcDbEntity
  8
LAY-6
  6
CONTINUOUS
 62
     1
100
AcDbVertex
100
AcDb2dVertex
 10
274.0
 20
525.6
 30
0.0
  0
VERTEX
  5
5A3
100
AcDbEntity
  8
LAY-6
  6
CONTINUOUS
 62
     1
100
AcDbVertex
100
AcDb2dVertex
 10
323.1
 20
525.6
 30
0.0
  0
SEQEND
  5
5A4
100
AcDbEntity
  8
LAY-6
  6
CONTINUOUS
 62
     1
  0
LINE
  5
5A5
100
AcDbEntity
  8
LAY-6
  6
CONTINUOUS
 62
     1
100
AcDbLine
 10
258.402268
 20
510.519139
 30
0.0
 11
257.221313
 21
508.870972
 31
0.0
  0
LINE
  5
5A6
100
AcDbEntity
  8
LAY-6
  6
CONTINUOUS
 62
     1
100
AcDbLine
 10
257.221313
 20
508.870972
 30
0.0
 11
258.872974
 21
510.047037
 31
0.0
  0
TEXT
  5
5A7
100
AcDbEntity
  8
LAY-6
  6
CONTINUOUS
 62
     2
100
AcDbText
 10
276.1
 20
472.6
 30
0.0
 40
5.0
  1
裏板４．５ｔ以上（別途）
 41
0.672
  7
EXCADSTD
 72
     5
 11
324.1
 21
472.6
 31
0.0
100
AcDbText
  0
POLYLINE
  5
5A8
100
AcDbEntity
  8
LAY-6
  6
CONTINUOUS
 62
     1
100
AcDb2dPolyline
 66
     1
 10
0.0
 20
0.0
 30
0.0
 70
   128
  0
VERTEX
  5
5A9
100
AcDbEntity
  8
LAY-6
  6
CONTINUOUS
 62
     1
100
AcDbVertex
100
AcDb2dVertex
 10
257.221313
 20
485.607605
 30
0.0
  0
VERTEX
  5
5AA
100
AcDbEntity
  8
LAY-6
  6
CONTINUOUS
 62
     1
100
AcDbVertex
100
AcDb2dVertex
 10
275.5
 20
472.1
 30
0.0
  0
VERTEX
  5
5AB
100
AcDbEntity
  8
LAY-6
  6
CONTINUOUS
 62
     1
100
AcDbVertex
100
AcDb2dVertex
 10
322.5
 20
472.1
 30
0.0
  0
SEQEND
  5
5AC
100
AcDbEntity
  8
LAY-6
  6
CONTINUOUS
 62
     1
  0
LINE
  5
5AD
100
AcDbEntity
  8
LAY-6
  6
CONTINUOUS
 62
     1
100
AcDbLine
 10
259.027885
 20
484.687056
 30
0.0
 11
257.221313
 21
485.607605
 31
0.0
  0
LINE
  5
5AE
100
AcDbEntity
  8
LAY-6
  6
CONTINUOUS
 62
     1
100
AcDbLine
 10
257.221313
 20
485.607605
 30
0.0
 11
258.631676
 21
484.1509
 31
0.0
  0
LINE
  5
5AF
100
AcDbEntity
  8
LAY-6
  6
CONTINUOUS
 62
     1
100
AcDbLine
 10
75.221313
 20
394.302032
 30
0.0
 11
51.5
 21
394.302032
 31
0.0
  0
TEXT
  5
5B0
100
AcDbEntity
  8
LAY-6
  6
CONTINUOUS
 62
     2
100
AcDbText
 10
116.221329
 20
554.9
 30
0.0
 40
5.0
  1
φ
 41
0.672
  7
EXCADSTD
 72
     5
 11
119.421329
 21
554.9
 31
0.0
100
AcDbText
  0
TEXT
  5
5B1
100
AcDbEntity
  8
LAY-6
  6
CONTINUOUS
 62
     2
100
AcDbText
 10
120.221329
 20
554.9
 30
0.0
 40
5.0
  1
１９
 41
0.672
  7
EXCADSTD
 72
     5
 11
127.554129
 21
554.9
 31
0.0
100
AcDbText
  0
LINE
  5
5B2
100
AcDbEntity
  8
LAY-6
  6
CONTINUOUS
 62
     1
100
AcDbLine
 10
112.771332
 20
536.871002
 30
0.0
 11
112.771332
 21
555.4
 31
0.0
  0
LINE
  5
5B3
100
AcDbEntity
  8
LAY-6
  6
CONTINUOUS
 62
     1
100
AcDbLine
 10
131.671326
 20
536.871002
 30
0.0
 11
131.671326
 21
555.4
 31
0.0
  0
LINE
  5
5B4
100
AcDbEntity
  8
LAY-6
  6
CONTINUOUS
 62
     1
100
AcDbLine
 10
112.771332
 20
554.4
 30
0.0
 11
131.671326
 21
554.4
 31
0.0
  0
LINE
  5
5B5
100
AcDbEntity
  8
LAY-6
  6
CONTINUOUS
 62
     1
100
AcDbLine
 10
115.771332
 20
554.9
 30
0.0
 11
112.771332
 21
554.4
 31
0.0
  0
LINE
  5
5B6
100
AcDbEntity
  8
LAY-6
  6
CONTINUOUS
 62
     1
100
AcDbLine
 10
112.771332
 20
554.4
 30
0.0
 11
115.771332
 21
553.9
 31
0.0
  0
LINE
  5
5B7
100
AcDbEntity
  8
LAY-6
  6
CONTINUOUS
 62
     1
100
AcDbLine
 10
128.671326
 20
553.9
 30
0.0
 11
131.671326
 21
554.4
 31
0.0
  0
LINE
  5
5B8
100
AcDbEntity
  8
LAY-6
  6
CONTINUOUS
 62
     1
100
AcDbLine
 10
131.671326
 20
554.4
 30
0.0
 11
128.671326
 21
554.9
 31
0.0
  0
TEXT
  5
5B9
100
AcDbEntity
  8
LAY-6
  6
CONTINUOUS
 62
     2
100
AcDbText
 10
133.021313
 20
454.0
 30
0.0
 40
5.0
  1
φ
 41
0.672
  7
EXCADSTD
 72
     5
 11
136.221313
 21
454.0
 31
0.0
100
AcDbText
  0
TEXT
  5
5BA
100
AcDbEntity
  8
LAY-6
  6
CONTINUOUS
 62
     2
100
AcDbText
 10
137.021313
 20
454.0
 30
0.0
 40
5.0
  1
１７．５
 41
0.672
  7
EXCADSTD
 72
     5
 11
153.021313
 21
454.0
 31
0.0
100
AcDbText
  0
LINE
  5
5BB
100
AcDbEntity
  8
LAY-6
  6
CONTINUOUS
 62
     1
100
AcDbLine
 10
113.721313
 20
479.070941
 30
0.0
 11
113.721313
 21
452.2
 31
0.0
  0
LINE
  5
5BC
100
AcDbEntity
  8
LAY-6
  6
CONTINUOUS
 62
     1
100
AcDbLine
 10
130.721313
 20
479.070941
 30
0.0
 11
130.721313
 21
452.2
 31
0.0
  0
LINE
  5
5BD
100
AcDbEntity
  8
LAY-6
  6
CONTINUOUS
 62
     1
100
AcDbLine
 10
108.9
 20
453.2
 30
0.0
 11
153.700002
 21
453.2
 31
0.0
  0
LINE
  5
5BE
100
AcDbEntity
  8
LAY-6
  6
CONTINUOUS
 62
     1
100
AcDbLine
 10
110.721313
 20
452.7
 30
0.0
 11
113.721313
 21
453.2
 31
0.0
  0
LINE
  5
5BF
100
AcDbEntity
  8
LAY-6
  6
CONTINUOUS
 62
     1
100
AcDbLine
 10
113.721313
 20
453.2
 30
0.0
 11
110.721313
 21
453.7
 31
0.0
  0
LINE
  5
5C0
100
AcDbEntity
  8
LAY-6
  6
CONTINUOUS
 62
     1
100
AcDbLine
 10
133.721313
 20
453.7
 30
0.0
 11
130.721313
 21
453.2
 31
0.0
  0
LINE
  5
5C1
100
AcDbEntity
  8
LAY-6
  6
CONTINUOUS
 62
     1
100
AcDbLine
 10
130.721313
 20
453.2
 30
0.0
 11
133.721313
 21
452.7
 31
0.0
  0
TEXT
  5
5C2
100
AcDbEntity
  8
LAY-6
  6
CONTINUOUS
 62
     2
100
AcDbText
 10
266.787216
 20
377.994637
 30
0.0
 40
5.0
  1
アーム
 41
0.672
  7
EXCADSTD
 72
     5
 11
278.787216
 21
377.994637
 31
0.0
100
AcDbText
  0
TEXT
  5
5C3
100
AcDbEntity
  8
LAY-6
  6
CONTINUOUS
 62
     2
100
AcDbText
 10
73.5
 20
513.370987
 30
0.0
 40
5.0
  1
３８
 50
90.0
 41
0.672
  7
EXCADSTD
 72
     5
 11
73.5
 21
520.703787
 31
0.0
100
AcDbText
  0
LINE
  5
5C4
100
AcDbEntity
  8
LAY-6
  6
CONTINUOUS
 62
     1
100
AcDbLine
 10
79.721313
 20
498.370972
 30
0.0
 11
72.5
 21
498.370972
 31
0.0
  0
LINE
  5
5C5
100
AcDbEntity
  8
LAY-6
  6
CONTINUOUS
 62
     1
100
AcDbLine
 10
111.271332
 20
536.371002
 30
0.0
 11
72.5
 21
536.371002
 31
0.0
  0
LINE
  5
5C6
100
AcDbEntity
  8
LAY-6
  6
CONTINUOUS
 62
     1
100
AcDbLine
 10
74.0
 20
498.370972
 30
0.0
 11
74.0
 21
536.371002
 31
0.0
  0
LINE
  5
5C7
100
AcDbEntity
  8
LAY-6
  6
CONTINUOUS
 62
     1
100
AcDbLine
 10
73.5
 20
501.370972
 30
0.0
 11
74.0
 21
498.370972
 31
0.0
  0
LINE
  5
5C8
100
AcDbEntity
  8
LAY-6
  6
CONTINUOUS
 62
     1
100
AcDbLine
 10
74.0
 20
498.370972
 30
0.0
 11
74.5
 21
501.370972
 31
0.0
  0
LINE
  5
5C9
100
AcDbEntity
  8
LAY-6
  6
CONTINUOUS
 62
     1
100
AcDbLine
 10
74.5
 20
533.371002
 30
0.0
 11
74.0
 21
536.371002
 31
0.0
  0
LINE
  5
5CA
100
AcDbEntity
  8
LAY-6
  6
CONTINUOUS
 62
     1
100
AcDbLine
 10
74.0
 20
536.371002
 30
0.0
 11
73.5
 21
533.371002
 31
0.0
  0
TEXT
  5
5CB
100
AcDbEntity
  8
LAY-6
  6
CONTINUOUS
 62
     2
100
AcDbText
 10
73.1
 20
480.870941
 30
0.0
 40
5.0
  1
２１
 50
90.0
 41
0.672
  7
EXCADSTD
 72
     5
 11
73.1
 21
488.203741
 31
0.0
100
AcDbText
  0
LINE
  5
5CC
100
AcDbEntity
  8
LAY-6
  6
CONTINUOUS
 62
     1
100
AcDbLine
 10
104.721298
 20
495.370941
 30
0.0
 11
72.1
 21
495.370941
 31
0.0
  0
LINE
  5
5CD
100
AcDbEntity
  8
LAY-6
  6
CONTINUOUS
 62
     1
100
AcDbLine
 10
120.721313
 20
474.370941
 30
0.0
 11
72.1
 21
474.370941
 31
0.0
  0
LINE
  5
5CE
100
AcDbEntity
  8
LAY-6
  6
CONTINUOUS
 62
     1
100
AcDbLine
 10
73.6
 20
495.370941
 30
0.0
 11
73.6
 21
474.370941
 31
0.0
  0
LINE
  5
5CF
100
AcDbEntity
  8
LAY-6
  6
CONTINUOUS
 62
     1
100
AcDbLine
 10
74.1
 20
492.370941
 30
0.0
 11
73.6
 21
495.370941
 31
0.0
  0
LINE
  5
5D0
100
AcDbEntity
  8
LAY-6
  6
CONTINUOUS
 62
     1
100
AcDbLine
 10
73.6
 20
495.370941
 30
0.0
 11
73.1
 21
492.370941
 31
0.0
  0
LINE
  5
5D1
100
AcDbEntity
  8
LAY-6
  6
CONTINUOUS
 62
     1
100
AcDbLine
 10
73.1
 20
477.370941
 30
0.0
 11
73.6
 21
474.370941
 31
0.0
  0
LINE
  5
5D2
100
AcDbEntity
  8
LAY-6
  6
CONTINUOUS
 62
     1
100
AcDbLine
 10
73.6
 20
474.370941
 30
0.0
 11
74.1
 21
477.370941
 31
0.0
  0
TEXT
  5
5D3
100
AcDbEntity
  8
LAY-6
  6
CONTINUOUS
 62
     2
100
AcDbText
 10
332.6
 20
20.2
 30
0.0
 40
6.0
  1
Ｈ１４.　７.　１
 41
0.622617
  7
EXCADSTD
 72
     5
 11
371.000002
 21
20.2
 31
0.0
100
AcDbText
  0
TEXT
  5
5D4
100
AcDbEntity
  8
LAY-6
  6
CONTINUOUS
 62
     2
100
AcDbText
 10
512.0
 20
248.2
 30
0.0
 40
5.0
  1
ドア厚45mm以上の場合、召合せ調整ネジを長くする
 41
0.637082
  7
EXCADSTD
 72
     5
 11
604.0
 21
248.2
 31
0.0
100
AcDbText
  0
TEXT
  5
5D5
100
AcDbEntity
  8
LAY-6
  6
CONTINUOUS
 62
     2
100
AcDbText
 10
512.0
 20
243.2
 30
0.0
 40
5.0
  1
必要がありますので、ドア厚をご指示下さい。
 41
0.672
  7
EXCADSTD
 72
     5
 11
596.0
 21
243.2
 31
0.0
100
AcDbText
  0
LINE
  5
5D6
100
AcDbEntity
  8
LAY-6
  6
CONTINUOUS
 62
     1
100
AcDbLine
 10
390.771794
 20
518.354278
 30
0.0
 11
390.771794
 21
504.113269
 31
0.0
  0
TEXT
  5
5D7
100
AcDbEntity
  8
LAY-6
  6
CONTINUOUS
 62
     2
100
AcDbText
 10
399.271794
 20
506.113269
 30
0.0
 40
5.0
  1
２５
 41
0.672
  7
EXCADSTD
 72
     5
 11
406.604594
 21
506.113269
 31
0.0
100
AcDbText
  0
LINE
  5
5D8
100
AcDbEntity
  8
LAY-6
  6
CONTINUOUS
 62
     1
100
AcDbLine
 10
415.771794
 20
505.613269
 30
0.0
 11
390.771794
 21
505.613269
 31
0.0
  0
LINE
  5
5D9
100
AcDbEntity
  8
LAY-6
  6
CONTINUOUS
 62
     1
100
AcDbLine
 10
412.771794
 20
505.113269
 30
0.0
 11
415.771794
 21
505.613269
 31
0.0
  0
LINE
  5
5DA
100
AcDbEntity
  8
LAY-6
  6
CONTINUOUS
 62
     1
100
AcDbLine
 10
415.771794
 20
505.613269
 30
0.0
 11
412.771794
 21
506.113269
 31
0.0
  0
LINE
  5
5DB
100
AcDbEntity
  8
LAY-6
  6
CONTINUOUS
 62
     1
100
AcDbLine
 10
393.771794
 20
506.113269
 30
0.0
 11
390.771794
 21
505.613269
 31
0.0
  0
LINE
  5
5DC
100
AcDbEntity
  8
LAY-6
  6
CONTINUOUS
 62
     1
100
AcDbLine
 10
390.771794
 20
505.613269
 30
0.0
 11
393.771794
 21
505.113269
 31
0.0
  0
LINE
  5
5DD
100
AcDbEntity
  8
LAY-6
  6
CONTINUOUS
 62
     1
100
AcDbLine
 10
779.7
 20
358.802063
 30
0.0
 11
779.7
 21
380.2
 31
0.0
  0
TEXT
  5
5DE
100
AcDbEntity
  8
LAY-6
  6
CONTINUOUS
 62
     2
100
AcDbText
 10
346.150481
 20
570.013269
 30
0.0
 40
6.0
  1
トップピボット（上枠側）
 41
0.672
  7
EXCADSTD
 72
     5
 11
403.750483
 21
570.013269
 31
0.0
100
AcDbText
  0
LINE
  5
5DF
100
AcDbEntity
  8
LAY-6
  6
CONTINUOUS
 62
     1
100
AcDbLine
 10
345.750481
 20
569.313269
 30
0.0
 11
403.150481
 21
569.313269
 31
0.0
  0
INSERT
  5
5E0
100
AcDbEntity
  8
LAY-6
  6
CONTINUOUS
 62
     0
100
AcDbBlockReference
  2
SYM-2
 10
360.350481
 20
531.113269
 30
0.0
 50
90.0
  0
INSERT
  5
5E1
100
AcDbEntity
  8
LAY-6
  6
CONTINUOUS
 62
     0
100
AcDbBlockReference
  2
SYM-2
 10
391.950481
 20
563.213269
 30
0.0
  0
INSERT
  5
5E2
100
AcDbEntity
  8
LAY-6
  6
CONTINUOUS
 62
     0
100
AcDbBlockReference
  2
SYM-2
 10
479.550481
 20
563.113269
 30
0.0
  0
TEXT
  5
5E3
100
AcDbEntity
  8
LAY-6
  6
CONTINUOUS
 62
     2
100
AcDbText
 10
346.550481
 20
488.013269
 30
0.0
 40
6.0
  1
トップピボット（ドア側）
 41
0.672
  7
EXCADSTD
 72
     5
 11
404.150483
 21
488.013269
 31
0.0
100
AcDbText
  0
LINE
  5
5E4
100
AcDbEntity
  8
LAY-6
  6
CONTINUOUS
 62
     1
100
AcDbLine
 10
346.550481
 20
486.513269
 30
0.0
 11
403.150481
 21
486.513269
 31
0.0
  0
INSERT
  5
5E5
100
AcDbEntity
  8
LAY-6
  6
CONTINUOUS
 62
     0
100
AcDbBlockReference
  2
SYM-2
 10
535.550481
 20
571.613269
 30
0.0
  0
TEXT
  5
5E6
100
AcDbEntity
  8
LAY-6
  6
CONTINUOUS
 62
     2
100
AcDbText
 10
689.049805
 20
549.9
 30
0.0
 40
5.0
  1
３２
 41
0.672
  7
EXCADSTD
 72
     5
 11
696.382605
 21
549.9
 31
0.0
100
AcDbText
  0
LINE
  5
5E7
100
AcDbEntity
  8
LAY-6
  6
CONTINUOUS
 62
     1
100
AcDbLine
 10
677.04979
 20
505.870972
 30
0.0
 11
677.04979
 21
550.9
 31
0.0
  0
LINE
  5
5E8
100
AcDbEntity
  8
LAY-6
  6
CONTINUOUS
 62
     1
100
AcDbLine
 10
709.04982
 20
505.870972
 30
0.0
 11
709.04982
 21
550.9
 31
0.0
  0
LINE
  5
5E9
100
AcDbEntity
  8
LAY-6
  6
CONTINUOUS
 62
     1
100
AcDbLine
 10
677.04979
 20
549.4
 30
0.0
 11
709.04982
 21
549.4
 31
0.0
  0
LINE
  5
5EA
100
AcDbEntity
  8
LAY-6
  6
CONTINUOUS
 62
     1
100
AcDbLine
 10
680.04979
 20
549.9
 30
0.0
 11
677.04979
 21
549.4
 31
0.0
  0
LINE
  5
5EB
100
AcDbEntity
  8
LAY-6
  6
CONTINUOUS
 62
     1
100
AcDbLine
 10
677.04979
 20
549.4
 30
0.0
 11
680.04979
 21
548.9
 31
0.0
  0
LINE
  5
5EC
100
AcDbEntity
  8
LAY-6
  6
CONTINUOUS
 62
     1
100
AcDbLine
 10
706.04982
 20
548.9
 30
0.0
 11
709.04982
 21
549.4
 31
0.0
  0
LINE
  5
5ED
100
AcDbEntity
  8
LAY-6
  6
CONTINUOUS
 62
     1
100
AcDbLine
 10
709.04982
 20
549.4
 30
0.0
 11
706.04982
 21
549.9
 31
0.0
  0
TEXT
  5
5EE
100
AcDbEntity
  8
LAY-6
  6
CONTINUOUS
 62
     2
100
AcDbText
 10
689.049805
 20
465.4
 30
0.0
 40
5.0
  1
３２
 41
0.672
  7
EXCADSTD
 72
     5
 11
696.382605
 21
465.4
 31
0.0
100
AcDbText
  0
LINE
  5
5EF
100
AcDbEntity
  8
LAY-6
  6
CONTINUOUS
 62
     1
100
AcDbLine
 10
709.04982
 20
487.870941
 30
0.0
 11
709.04982
 21
463.4
 31
0.0
  0
LINE
  5
5F0
100
AcDbEntity
  8
LAY-6
  6
CONTINUOUS
 62
     1
100
AcDbLine
 10
677.04979
 20
487.870941
 30
0.0
 11
677.04979
 21
463.4
 31
0.0
  0
LINE
  5
5F1
100
AcDbEntity
  8
LAY-6
  6
CONTINUOUS
 62
     1
100
AcDbLine
 10
709.04982
 20
464.9
 30
0.0
 11
677.04979
 21
464.9
 31
0.0
  0
LINE
  5
5F2
100
AcDbEntity
  8
LAY-6
  6
CONTINUOUS
 62
     1
100
AcDbLine
 10
706.04982
 20
464.4
 30
0.0
 11
709.04982
 21
464.9
 31
0.0
  0
LINE
  5
5F3
100
AcDbEntity
  8
LAY-6
  6
CONTINUOUS
 62
     1
100
AcDbLine
 10
709.04982
 20
464.9
 30
0.0
 11
706.04982
 21
465.4
 31
0.0
  0
LINE
  5
5F4
100
AcDbEntity
  8
LAY-6
  6
CONTINUOUS
 62
     1
100
AcDbLine
 10
680.04979
 20
465.4
 30
0.0
 11
677.04979
 21
464.9
 31
0.0
  0
LINE
  5
5F5
100
AcDbEntity
  8
LAY-6
  6
CONTINUOUS
 62
     1
100
AcDbLine
 10
677.04979
 20
464.9
 30
0.0
 11
680.04979
 21
464.4
 31
0.0
  0
TEXT
  5
5F6
100
AcDbEntity
  8
LAY-6
  6
CONTINUOUS
 62
     2
100
AcDbText
 10
727.3
 20
480.870941
 30
0.0
 40
5.0
  1
２１
 50
90.0
 41
0.672
  7
EXCADSTD
 72
     5
 11
727.3
 21
488.203741
 31
0.0
100
AcDbText
  0
LINE
  5
5F7
100
AcDbEntity
  8
LAY-6
  6
CONTINUOUS
 62
     1
100
AcDbLine
 10
694.549805
 20
474.370941
 30
0.0
 11
729.3
 21
474.370941
 31
0.0
  0
LINE
  5
5F8
100
AcDbEntity
  8
LAY-6
  6
CONTINUOUS
 62
     1
100
AcDbLine
 10
714.549805
 20
495.370941
 30
0.0
 11
729.3
 21
495.370941
 31
0.0
  0
LINE
  5
5F9
100
AcDbEntity
  8
LAY-6
  6
CONTINUOUS
 62
     1
100
AcDbLine
 10
727.8
 20
474.370941
 30
0.0
 11
727.8
 21
495.370941
 31
0.0
  0
LINE
  5
5FA
100
AcDbEntity
  8
LAY-6
  6
CONTINUOUS
 62
     1
100
AcDbLine
 10
727.3
 20
477.370941
 30
0.0
 11
727.8
 21
474.370941
 31
0.0
  0
LINE
  5
5FB
100
AcDbEntity
  8
LAY-6
  6
CONTINUOUS
 62
     1
100
AcDbLine
 10
727.8
 20
474.370941
 30
0.0
 11
728.3
 21
477.370941
 31
0.0
  0
LINE
  5
5FC
100
AcDbEntity
  8
LAY-6
  6
CONTINUOUS
 62
     1
100
AcDbLine
 10
728.3
 20
492.370941
 30
0.0
 11
727.8
 21
495.370941
 31
0.0
  0
LINE
  5
5FD
100
AcDbEntity
  8
LAY-6
  6
CONTINUOUS
 62
     1
100
AcDbLine
 10
727.8
 20
495.370941
 30
0.0
 11
727.3
 21
492.370941
 31
0.0
  0
TEXT
  5
5FE
100
AcDbEntity
  8
LAY-6
  6
CONTINUOUS
 62
     2
100
AcDbText
 10
727.3
 20
513.370987
 30
0.0
 40
5.0
  1
３８
 50
90.0
 41
0.672
  7
EXCADSTD
 72
     5
 11
727.3
 21
520.703787
 31
0.0
100
AcDbText
  0
LINE
  5
5FF
100
AcDbEntity
  8
LAY-6
  6
CONTINUOUS
 62
     1
100
AcDbLine
 10
713.049805
 20
498.370972
 30
0.0
 11
729.3
 21
498.370972
 31
0.0
  0
LINE
  5
600
100
AcDbEntity
  8
LAY-6
  6
CONTINUOUS
 62
     1
100
AcDbLine
 10
703.999818
 20
536.371002
 30
0.0
 11
729.3
 21
536.371002
 31
0.0
  0
LINE
  5
601
100
AcDbEntity
  8
LAY-6
  6
CONTINUOUS
 62
     1
100
AcDbLine
 10
727.8
 20
498.370972
 30
0.0
 11
727.8
 21
536.371002
 31
0.0
  0
LINE
  5
602
100
AcDbEntity
  8
LAY-6
  6
CONTINUOUS
 62
     1
100
AcDbLine
 10
727.3
 20
501.370972
 30
0.0
 11
727.8
 21
498.370972
 31
0.0
  0
LINE
  5
603
100
AcDbEntity
  8
LAY-6
  6
CONTINUOUS
 62
     1
100
AcDbLine
 10
727.8
 20
498.370972
 30
0.0
 11
728.3
 21
501.370972
 31
0.0
  0
LINE
  5
604
100
AcDbEntity
  8
LAY-6
  6
CONTINUOUS
 62
     1
100
AcDbLine
 10
728.3
 20
533.371002
 30
0.0
 11
727.8
 21
536.371002
 31
0.0
  0
LINE
  5
605
100
AcDbEntity
  8
LAY-6
  6
CONTINUOUS
 62
     1
100
AcDbLine
 10
727.8
 20
536.371002
 30
0.0
 11
727.3
 21
533.371002
 31
0.0
  0
TEXT
  5
606
100
AcDbEntity
  8
LAY-6
  6
CONTINUOUS
 62
     2
100
AcDbText
 10
687.015106
 20
424.2
 30
0.0
 40
6.0
  1
ド　ア
 41
0.672
  7
EXCADSTD
 72
     5
 11
701.415107
 21
424.2
 31
0.0
100
AcDbText
  0
LINE
  5
607
100
AcDbEntity
  8
LAY-6
  6
CONTINUOUS
 62
     1
100
AcDbLine
 10
670.549805
 20
358.302063
 30
0.0
 11
670.549805
 21
343.6
 31
0.0
  0
LINE
  5
608
100
AcDbEntity
  8
LAY-6
  6
CONTINUOUS
 62
     1
100
AcDbLine
 10
715.549805
 20
358.302063
 30
0.0
 11
715.549805
 21
343.6
 31
0.0
  0
LINE
  5
609
100
AcDbEntity
  8
LAY-6
  6
CONTINUOUS
 62
     1
100
AcDbLine
 10
670.549805
 20
345.1
 30
0.0
 11
715.549805
 21
345.1
 31
0.0
  0
LINE
  5
60A
100
AcDbEntity
  8
LAY-6
  6
CONTINUOUS
 62
     1
100
AcDbLine
 10
672.549805
 20
345.433333
 30
0.0
 11
670.549805
 21
345.1
 31
0.0
  0
LINE
  5
60B
100
AcDbEntity
  8
LAY-6
  6
CONTINUOUS
 62
     1
100
AcDbLine
 10
670.549805
 20
345.1
 30
0.0
 11
672.549805
 21
344.766667
 31
0.0
  0
LINE
  5
60C
100
AcDbEntity
  8
LAY-6
  6
CONTINUOUS
 62
     1
100
AcDbLine
 10
713.549805
 20
344.766667
 30
0.0
 11
715.549805
 21
345.1
 31
0.0
  0
LINE
  5
60D
100
AcDbEntity
  8
LAY-6
  6
CONTINUOUS
 62
     1
100
AcDbLine
 10
715.549805
 20
345.1
 30
0.0
 11
713.549805
 21
345.433333
 31
0.0
  0
TEXT
  5
60E
100
AcDbEntity
  8
LAY-6
  6
CONTINUOUS
 62
     2
100
AcDbText
 10
688.249805
 20
345.6
 30
0.0
 40
5.0
  1
φ
 41
0.672
  7
EXCADSTD
 72
     5
 11
691.449805
 21
345.6
 31
0.0
100
AcDbText
  0
TEXT
  5
60F
100
AcDbEntity
  8
LAY-6
  6
CONTINUOUS
 62
     2
100
AcDbText
 10
692.249805
 20
345.6
 30
0.0
 40
5.0
  1
４５
 41
0.672
  7
EXCADSTD
 72
     5
 11
699.582605
 21
345.6
 31
0.0
100
AcDbText
  0
LINE
  5
610
100
AcDbEntity
  8
LAY-9
  6
CONTINUOUS
 62
     1
100
AcDbLine
 10
708.549805
 20
398.802063
 30
0.0
 11
708.549805
 21
394.302063
 31
0.0
  0
LINE
  5
611
100
AcDbEntity
  8
LAY-9
  6
CONTINUOUS
 62
     1
100
AcDbLine
 10
676.949805
 20
398.802063
 30
0.0
 11
709.149805
 21
398.802063
 31
0.0
  0
LINE
  5
612
100
AcDbEntity
  8
LAY-9
  6
CONTINUOUS
 62
     1
100
AcDbLine
 10
677.549805
 20
398.802063
 30
0.0
 11
677.549805
 21
394.302063
 31
0.0
  0
LINE
  5
613
100
AcDbEntity
  8
LAY-9
  6
CONTINUOUS
 62
     1
100
AcDbLine
 10
61.221313
 20
499.970972
 30
0.0
 11
88.221313
 21
499.970972
 31
0.0
  0
LINE
  5
614
100
AcDbEntity
  8
LAY-9
  6
CONTINUOUS
 62
     1
100
AcDbLine
 10
257.221313
 20
499.970972
 30
0.0
 11
337.077162
 21
499.970972
 31
0.0
  0
LINE
  5
615
100
AcDbEntity
  8
LAY-9
  6
CONTINUOUS
 62
     1
100
AcDbLine
 10
65.821313
 20
493.770941
 30
0.0
 11
106.221298
 21
493.770941
 31
0.0
  0
LINE
  5
616
100
AcDbEntity
  8
LAY-9
  6
CONTINUOUS
 62
     1
100
AcDbLine
 10
257.221313
 20
493.770941
 30
0.0
 11
333.970055
 21
493.770941
 31
0.0
  0
LINE
  5
617
100
AcDbEntity
  8
LAY-9
  6
CONTINUOUS
 62
     1
100
AcDbLine
 10
61.221313
 20
343.802063
 30
0.0
 11
59.621313
 21
343.802063
 31
0.0
  0
LINE
  5
618
100
AcDbEntity
  8
LAY-9
  6
CONTINUOUS
 62
     1
100
AcDbLine
 10
59.621313
 20
201.452078
 30
0.0
 11
59.621313
 21
104.652078
 31
0.0
  0
LINE
  5
619
100
AcDbEntity
  8
LAY-9
  6
CONTINUOUS
 62
     1
100
AcDbLine
 10
59.621313
 20
203.052078
 30
0.0
 11
18.0
 21
203.052078
 31
0.0
  0
LINE
  5
61A
100
AcDbEntity
  8
LAY-9
  6
CONTINUOUS
 62
     1
100
AcDbLine
 10
59.621313
 20
201.452078
 30
0.0
 11
18.0
 21
201.452078
 31
0.0
  0
LINE
  5
61B
100
AcDbEntity
  8
LAY-9
  6
CONTINUOUS
 62
     1
100
AcDbLine
 10
59.621313
 20
103.052078
 30
0.0
 11
18.0
 21
103.052078
 31
0.0
  0
LINE
  5
61C
100
AcDbEntity
  8
LAY-9
  6
CONTINUOUS
 62
     1
100
AcDbLine
 10
59.621313
 20
104.652078
 30
0.0
 11
18.0
 21
104.652078
 31
0.0
  0
ARC
  5
61D
100
AcDbEntity
  8
LAY-9
  6
CONTINUOUS
 62
     1
100
AcDbCircle
 10
59.621313
 20
104.652078
 30
0.0
 40
1.6
100
AcDbArc
 50
270.0
 51
0.0
  0
ARC
  5
61E
100
AcDbEntity
  8
LAY-9
  6
CONTINUOUS
 62
     1
100
AcDbCircle
 10
59.621313
 20
201.452078
 30
0.0
 40
1.6
100
AcDbArc
 50
0.0
 51
90.0
  0
POLYLINE
  5
61F
100
AcDbEntity
  8
LAY-9
  6
CONTINUOUS
 62
     1
100
AcDb2dPolyline
 66
     1
 10
0.0
 20
0.0
 30
0.0
 70
   128
  0
VERTEX
  5
620
100
AcDbEntity
  8
LAY-9
  6
CONTINUOUS
 62
     1
100
AcDbVertex
100
AcDb2dVertex
 10
336.0
 20
498.370972
 30
0.0
  0
VERTEX
  5
621
100
AcDbEntity
  8
LAY-9
  6
CONTINUOUS
 62
     1
100
AcDbVertex
100
AcDb2dVertex
 10
336.079338
 20
498.515625
 30
0.0
  0
VERTEX
  5
622
100
AcDbEntity
  8
LAY-9
  6
CONTINUOUS
 62
     1
100
AcDbVertex
100
AcDb2dVertex
 10
336.296856
 20
498.925538
 30
0.0
  0
VERTEX
  5
623
100
AcDbEntity
  8
LAY-9
  6
CONTINUOUS
 62
     1
100
AcDbVertex
100
AcDb2dVertex
 10
336.621812
 20
499.564642
 30
0.0
  0
VERTEX
  5
624
100
AcDbEntity
  8
LAY-9
  6
CONTINUOUS
 62
     1
100
AcDbVertex
100
AcDb2dVertex
 10
337.023461
 20
500.396867
 30
0.0
  0
VERTEX
  5
625
100
AcDbEntity
  8
LAY-9
  6
CONTINUOUS
 62
     1
100
AcDbVertex
100
AcDb2dVertex
 10
337.471061
 20
501.386144
 30
0.0
  0
VERTEX
  5
626
100
AcDbEntity
  8
LAY-9
  6
CONTINUOUS
 62
     1
100
AcDbVertex
100
AcDb2dVertex
 10
337.933869
 20
502.496403
 30
0.0
  0
VERTEX
  5
627
100
AcDbEntity
  8
LAY-9
  6
CONTINUOUS
 62
     1
100
AcDbVertex
100
AcDb2dVertex
 10
338.38114
 20
503.691574
 30
0.0
  0
VERTEX
  5
628
100
AcDbEntity
  8
LAY-9
  6
CONTINUOUS
 62
     1
100
AcDbVertex
100
AcDb2dVertex
 10
338.782132
 20
504.935589
 30
0.0
  0
VERTEX
  5
629
100
AcDbEntity
  8
LAY-9
  6
CONTINUOUS
 62
     1
100
AcDbVertex
100
AcDb2dVertex
 10
339.106102
 20
506.192378
 30
0.0
  0
VERTEX
  5
62A
100
AcDbEntity
  8
LAY-9
  6
CONTINUOUS
 62
     1
100
AcDbVertex
100
AcDb2dVertex
 10
339.322305
 20
507.425872
 30
0.0
  0
VERTEX
  5
62B
100
AcDbEntity
  8
LAY-9
  6
CONTINUOUS
 62
     1
100
AcDbVertex
100
AcDb2dVertex
 10
339.4
 20
508.6
 30
0.0
  0
VERTEX
  5
62C
100
AcDbEntity
  8
LAY-9
  6
CONTINUOUS
 62
     1
100
AcDbVertex
100
AcDb2dVertex
 10
339.352077
 20
509.428773
 30
0.0
  0
VERTEX
  5
62D
100
AcDbEntity
  8
LAY-9
  6
CONTINUOUS
 62
     1
100
AcDbVertex
100
AcDb2dVertex
 10
339.217808
 20
510.20848
 30
0.0
  0
VERTEX
  5
62E
100
AcDbEntity
  8
LAY-9
  6
CONTINUOUS
 62
     1
100
AcDbVertex
100
AcDb2dVertex
 10
339.007354
 20
510.944465
 30
0.0
  0
VERTEX
  5
62F
100
AcDbEntity
  8
LAY-9
  6
CONTINUOUS
 62
     1
100
AcDbVertex
100
AcDb2dVertex
 10
338.730871
 20
511.642076
 30
0.0
  0
VERTEX
  5
630
100
AcDbEntity
  8
LAY-9
  6
CONTINUOUS
 62
     1
100
AcDbVertex
100
AcDb2dVertex
 10
338.398519
 20
512.30666
 30
0.0
  0
VERTEX
  5
631
100
AcDbEntity
  8
LAY-9
  6
CONTINUOUS
 62
     1
100
AcDbVertex
100
AcDb2dVertex
 10
338.020454
 20
512.943563
 30
0.0
  0
VERTEX
  5
632
100
AcDbEntity
  8
LAY-9
  6
CONTINUOUS
 62
     1
100
AcDbVertex
100
AcDb2dVertex
 10
337.606837
 20
513.558132
 30
0.0
  0
VERTEX
  5
633
100
AcDbEntity
  8
LAY-9
  6
CONTINUOUS
 62
     1
100
AcDbVertex
100
AcDb2dVertex
 10
337.167825
 20
514.155714
 30
0.0
  0
VERTEX
  5
634
100
AcDbEntity
  8
LAY-9
  6
CONTINUOUS
 62
     1
100
AcDbVertex
100
AcDb2dVertex
 10
336.713575
 20
514.741654
 30
0.0
  0
VERTEX
  5
635
100
AcDbEntity
  8
LAY-9
  6
CONTINUOUS
 62
     1
100
AcDbVertex
100
AcDb2dVertex
 10
336.254248
 20
515.321301
 30
0.0
  0
VERTEX
  5
636
100
AcDbEntity
  8
LAY-9
  6
CONTINUOUS
 62
     1
100
AcDbVertex
100
AcDb2dVertex
 10
335.8
 20
515.9
 30
0.0
  0
VERTEX
  5
637
100
AcDbEntity
  8
LAY-9
  6
CONTINUOUS
 62
     1
100
AcDbVertex
100
AcDb2dVertex
 10
335.343605
 20
516.505286
 30
0.0
  0
VERTEX
  5
638
100
AcDbEntity
  8
LAY-9
  6
CONTINUOUS
 62
     1
100
AcDbVertex
100
AcDb2dVertex
 10
334.908712
 20
517.119773
 30
0.0
  0
VERTEX
  5
639
100
AcDbEntity
  8
LAY-9
  6
CONTINUOUS
 62
     1
100
AcDbVertex
100
AcDb2dVertex
 10
334.500398
 20
517.74792
 30
0.0
  0
VERTEX
  5
63A
100
AcDbEntity
  8
LAY-9
  6
CONTINUOUS
 62
     1
100
AcDbVertex
100
AcDb2dVertex
 10
334.123741
 20
518.394187
 30
0.0
  0
VERTEX
  5
63B
100
AcDbEntity
  8
LAY-9
  6
CONTINUOUS
 62
     1
100
AcDbVertex
100
AcDb2dVertex
 10
333.783817
 20
519.063034
 30
0.0
  0
VERTEX
  5
63C
100
AcDbEntity
  8
LAY-9
  6
CONTINUOUS
 62
     1
100
AcDbVertex
100
AcDb2dVertex
 10
333.485704
 20
519.758919
 30
0.0
  0
VERTEX
  5
63D
100
AcDbEntity
  8
LAY-9
  6
CONTINUOUS
 62
     1
100
AcDbVertex
100
AcDb2dVertex
 10
333.234479
 20
520.486302
 30
0.0
  0
VERTEX
  5
63E
100
AcDbEntity
  8
LAY-9
  6
CONTINUOUS
 62
     1
100
AcDbVertex
100
AcDb2dVertex
 10
333.035219
 20
521.249642
 30
0.0
  0
VERTEX
  5
63F
100
AcDbEntity
  8
LAY-9
  6
CONTINUOUS
 62
     1
100
AcDbVertex
100
AcDb2dVertex
 10
332.893001
 20
522.053399
 30
0.0
  0
VERTEX
  5
640
100
AcDbEntity
  8
LAY-9
  6
CONTINUOUS
 62
     1
100
AcDbVertex
100
AcDb2dVertex
 10
332.812902
 20
522.902032
 30
0.0
  0
VERTEX
  5
641
100
AcDbEntity
  8
LAY-9
  6
CONTINUOUS
 62
     1
100
AcDbVertex
100
AcDb2dVertex
 10
332.8
 20
523.8
 30
0.0
  0
VERTEX
  5
642
100
AcDbEntity
  8
LAY-9
  6
CONTINUOUS
 62
     1
100
AcDbVertex
100
AcDb2dVertex
 10
332.887048
 20
525.046573
 30
0.0
  0
VERTEX
  5
643
100
AcDbEntity
  8
LAY-9
  6
CONTINUOUS
 62
     1
100
AcDbVertex
100
AcDb2dVertex
 10
333.074455
 20
526.348257
 30
0.0
  0
VERTEX
  5
644
100
AcDbEntity
  8
LAY-9
  6
CONTINUOUS
 62
     1
100
AcDbVertex
100
AcDb2dVertex
 10
333.33933
 20
527.668428
 30
0.0
  0
VERTEX
  5
645
100
AcDbEntity
  8
LAY-9
  6
CONTINUOUS
 62
     1
100
AcDbVertex
100
AcDb2dVertex
 10
333.658779
 20
528.970456
 30
0.0
  0
VERTEX
  5
646
100
AcDbEntity
  8
LAY-9
  6
CONTINUOUS
 62
     1
100
AcDbVertex
100
AcDb2dVertex
 10
334.009909
 20
530.217715
 30
0.0
  0
VERTEX
  5
647
100
AcDbEntity
  8
LAY-9
  6
CONTINUOUS
 62
     1
100
AcDbVertex
100
AcDb2dVertex
 10
334.369828
 20
531.373578
 30
0.0
  0
VERTEX
  5
648
100
AcDbEntity
  8
LAY-9
  6
CONTINUOUS
 62
     1
100
AcDbVertex
100
AcDb2dVertex
 10
334.715642
 20
532.401417
 30
0.0
  0
VERTEX
  5
649
100
AcDbEntity
  8
LAY-9
  6
CONTINUOUS
 62
     1
100
AcDbVertex
100
AcDb2dVertex
 10
335.024459
 20
533.264607
 30
0.0
  0
VERTEX
  5
64A
100
AcDbEntity
  8
LAY-9
  6
CONTINUOUS
 62
     1
100
AcDbVertex
100
AcDb2dVertex
 10
335.273387
 20
533.926518
 30
0.0
  0
VERTEX
  5
64B
100
AcDbEntity
  8
LAY-9
  6
CONTINUOUS
 62
     1
100
AcDbVertex
100
AcDb2dVertex
 10
335.439531
 20
534.350525
 30
0.0
  0
VERTEX
  5
64C
100
AcDbEntity
  8
LAY-9
  6
CONTINUOUS
 62
     1
100
AcDbVertex
100
AcDb2dVertex
 10
335.5
 20
534.5
 30
0.0
  0
SEQEND
  5
64D
100
AcDbEntity
  8
LAY-9
  6
CONTINUOUS
 62
     1
  0
POLYLINE
  5
64E
100
AcDbEntity
  8
LAY-9
  6
CONTINUOUS
 62
     1
100
AcDb2dPolyline
 66
     1
 10
0.0
 20
0.0
 30
0.0
 70
   128
  0
VERTEX
  5
64F
100
AcDbEntity
  8
LAY-9
  6
CONTINUOUS
 62
     1
100
AcDbVertex
100
AcDb2dVertex
 10
534.0
 20
358.802063
 30
0.0
  0
VERTEX
  5
650
100
AcDbEntity
  8
LAY-9
  6
CONTINUOUS
 62
     1
100
AcDbVertex
100
AcDb2dVertex
 10
534.07604
 20
358.65601
 30
0.0
  0
VERTEX
  5
651
100
AcDbEntity
  8
LAY-9
  6
CONTINUOUS
 62
     1
100
AcDbVertex
100
AcDb2dVertex
 10
534.284655
 20
358.241885
 30
0.0
  0
VERTEX
  5
652
100
AcDbEntity
  8
LAY-9
  6
CONTINUOUS
 62
     1
100
AcDbVertex
100
AcDb2dVertex
 10
534.596582
 20
357.595739
 30
0.0
  0
VERTEX
  5
653
100
AcDbEntity
  8
LAY-9
  6
CONTINUOUS
 62
     1
100
AcDbVertex
100
AcDb2dVertex
 10
534.982562
 20
356.753624
 30
0.0
  0
VERTEX
  5
654
100
AcDbEntity
  8
LAY-9
  6
CONTINUOUS
 62
     1
100
AcDbVertex
100
AcDb2dVertex
 10
535.413334
 20
355.751591
 30
0.0
  0
VERTEX
  5
655
100
AcDbEntity
  8
LAY-9
  6
CONTINUOUS
 62
     1
100
AcDbVertex
100
AcDb2dVertex
 10
535.859637
 20
354.625692
 30
0.0
  0
VERTEX
  5
656
100
AcDbEntity
  8
LAY-9
  6
CONTINUOUS
 62
     1
100
AcDbVertex
100
AcDb2dVertex
 10
536.292211
 20
353.411977
 30
0.0
  0
VERTEX
  5
657
100
AcDbEntity
  8
LAY-9
  6
CONTINUOUS
 62
     1
100
AcDbVertex
100
AcDb2dVertex
 10
536.681795
 20
352.1465
 30
0.0
  0
VERTEX
  5
658
100
AcDbEntity
  8
LAY-9
  6
CONTINUOUS
 62
     1
100
AcDbVertex
100
AcDb2dVertex
 10
536.999128
 20
350.86531
 30
0.0
  0
VERTEX
  5
659
100
AcDbEntity
  8
LAY-9
  6
CONTINUOUS
 62
     1
100
AcDbVertex
100
AcDb2dVertex
 10
537.21495
 20
349.60446
 30
0.0
  0
VERTEX
  5
65A
100
AcDbEntity
  8
LAY-9
  6
CONTINUOUS
 62
     1
100
AcDbVertex
100
AcDb2dVertex
 10
537.3
 20
348.4
 30
0.0
  0
VERTEX
  5
65B
100
AcDbEntity
  8
LAY-9
  6
CONTINUOUS
 62
     1
100
AcDbVertex
100
AcDb2dVertex
 10
537.26046
 20
347.51409
 30
0.0
  0
VERTEX
  5
65C
100
AcDbEntity
  8
LAY-9
  6
CONTINUOUS
 62
     1
100
AcDbVertex
100
AcDb2dVertex
 10
537.134023
 20
346.679239
 30
0.0
  0
VERTEX
  5
65D
100
AcDbEntity
  8
LAY-9
  6
CONTINUOUS
 62
     1
100
AcDbVertex
100
AcDb2dVertex
 10
536.932292
 20
345.889609
 30
0.0
  0
VERTEX
  5
65E
100
AcDbEntity
  8
LAY-9
  6
CONTINUOUS
 62
     1
100
AcDbVertex
100
AcDb2dVertex
 10
536.666867
 20
345.139362
 30
0.0
  0
VERTEX
  5
65F
100
AcDbEntity
  8
LAY-9
  6
CONTINUOUS
 62
     1
100
AcDbVertex
100
AcDb2dVertex
 10
536.349351
 20
344.422662
 30
0.0
  0
VERTEX
  5
660
100
AcDbEntity
  8
LAY-9
  6
CONTINUOUS
 62
     1
100
AcDbVertex
100
AcDb2dVertex
 10
535.991344
 20
343.733669
 30
0.0
  0
VERTEX
  5
661
100
AcDbEntity
  8
LAY-9
  6
CONTINUOUS
 62
     1
100
AcDbVertex
100
AcDb2dVertex
 10
535.604447
 20
343.066546
 30
0.0
  0
VERTEX
  5
662
100
AcDbEntity
  8
LAY-9
  6
CONTINUOUS
 62
     1
100
AcDbVertex
100
AcDb2dVertex
 10
535.200263
 20
342.415456
 30
0.0
  0
VERTEX
  5
663
100
AcDbEntity
  8
LAY-9
  6
CONTINUOUS
 62
     1
100
AcDbVertex
100
AcDb2dVertex
 10
534.790393
 20
341.77456
 30
0.0
  0
VERTEX
  5
664
100
AcDbEntity
  8
LAY-9
  6
CONTINUOUS
 62
     1
100
AcDbVertex
100
AcDb2dVertex
 10
534.386438
 20
341.13802
 30
0.0
  0
VERTEX
  5
665
100
AcDbEntity
  8
LAY-9
  6
CONTINUOUS
 62
     1
100
AcDbVertex
100
AcDb2dVertex
 10
534.0
 20
340.5
 30
0.0
  0
VERTEX
  5
666
100
AcDbEntity
  8
LAY-9
  6
CONTINUOUS
 62
     1
100
AcDbVertex
100
AcDb2dVertex
 10
533.61727
 20
339.809666
 30
0.0
  0
VERTEX
  5
667
100
AcDbEntity
  8
LAY-9
  6
CONTINUOUS
 62
     1
100
AcDbVertex
100
AcDb2dVertex
 10
533.270943
 20
339.106658
 30
0.0
  0
VERTEX
  5
668
100
AcDbEntity
  8
LAY-9
  6
CONTINUOUS
 62
     1
100
AcDbVertex
100
AcDb2dVertex
 10
532.964097
 20
338.386677
 30
0.0
  0
VERTEX
  5
669
100
AcDbEntity
  8
LAY-9
  6
CONTINUOUS
 62
     1
100
AcDbVertex
100
AcDb2dVertex
 10
532.69981
 20
337.645425
 30
0.0
  0
VERTEX
  5
66A
100
AcDbEntity
  8
LAY-9
  6
CONTINUOUS
 62
     1
100
AcDbVertex
100
AcDb2dVertex
 10
532.48116
 20
336.878602
 30
0.0
  0
VERTEX
  5
66B
100
AcDbEntity
  8
LAY-9
  6
CONTINUOUS
 62
     1
100
AcDbVertex
100
AcDb2dVertex
 10
532.311224
 20
336.081912
 30
0.0
  0
VERTEX
  5
66C
100
AcDbEntity
  8
LAY-9
  6
CONTINUOUS
 62
     1
100
AcDbVertex
100
AcDb2dVertex
 10
532.193082
 20
335.251056
 30
0.0
  0
VERTEX
  5
66D
100
AcDbEntity
  8
LAY-9
  6
CONTINUOUS
 62
     1
100
AcDbVertex
100
AcDb2dVertex
 10
532.12981
 20
334.381735
 30
0.0
  0
VERTEX
  5
66E
100
AcDbEntity
  8
LAY-9
  6
CONTINUOUS
 62
     1
100
AcDbVertex
100
AcDb2dVertex
 10
532.124487
 20
333.469651
 30
0.0
  0
VERTEX
  5
66F
100
AcDbEntity
  8
LAY-9
  6
CONTINUOUS
 62
     1
100
AcDbVertex
100
AcDb2dVertex
 10
532.180191
 20
332.510505
 30
0.0
  0
VERTEX
  5
670
100
AcDbEntity
  8
LAY-9
  6
CONTINUOUS
 62
     1
100
AcDbVertex
100
AcDb2dVertex
 10
532.3
 20
331.5
 30
0.0
  0
VERTEX
  5
671
100
AcDbEntity
  8
LAY-9
  6
CONTINUOUS
 62
     1
100
AcDbVertex
100
AcDb2dVertex
 10
532.496479
 20
330.37672
 30
0.0
  0
VERTEX
  5
672
100
AcDbEntity
  8
LAY-9
  6
CONTINUOUS
 62
     1
100
AcDbVertex
100
AcDb2dVertex
 10
532.751733
 20
329.220667
 30
0.0
  0
VERTEX
  5
673
100
AcDbEntity
  8
LAY-9
  6
CONTINUOUS
 62
     1
100
AcDbVertex
100
AcDb2dVertex
 10
533.049437
 20
328.061286
 30
0.0
  0
VERTEX
  5
674
100
AcDbEntity
  8
LAY-9
  6
CONTINUOUS
 62
     1
100
AcDbVertex
100
AcDb2dVertex
 10
533.373263
 20
326.928024
 30
0.0
  0
VERTEX
  5
675
100
AcDbEntity
  8
LAY-9
  6
CONTINUOUS
 62
     1
100
AcDbVertex
100
AcDb2dVertex
 10
533.706885
 20
325.850328
 30
0.0
  0
VERTEX
  5
676
100
AcDbEntity
  8
LAY-9
  6
CONTINUOUS
 62
     1
100
AcDbVertex
100
AcDb2dVertex
 10
534.033974
 20
324.857642
 30
0.0
  0
VERTEX
  5
677
100
AcDbEntity
  8
LAY-9
  6
CONTINUOUS
 62
     1
100
AcDbVertex
100
AcDb2dVertex
 10
534.338205
 20
323.979414
 30
0.0
  0
VERTEX
  5
678
100
AcDbEntity
  8
LAY-9
  6
CONTINUOUS
 62
     1
100
AcDbVertex
100
AcDb2dVertex
 10
534.60325
 20
323.24509
 30
0.0
  0
VERTEX
  5
679
100
AcDbEntity
  8
LAY-9
  6
CONTINUOUS
 62
     1
100
AcDbVertex
100
AcDb2dVertex
 10
534.812782
 20
322.684115
 30
0.0
  0
VERTEX
  5
67A
100
AcDbEntity
  8
LAY-9
  6
CONTINUOUS
 62
     1
100
AcDbVertex
100
AcDb2dVertex
 10
534.950474
 20
322.325936
 30
0.0
  0
VERTEX
  5
67B
100
AcDbEntity
  8
LAY-9
  6
CONTINUOUS
 62
     1
100
AcDbVertex
100
AcDb2dVertex
 10
535.0
 20
322.2
 30
0.0
  0
SEQEND
  5
67C
100
AcDbEntity
  8
LAY-9
  6
CONTINUOUS
 62
     1
  0
ARC
  5
67D
100
AcDbEntity
  8
LAY-9
  6
CONTINUOUS
 62
     1
100
AcDbCircle
 10
124.221298
 20
153.052063
 30
0.0
 40
60.0
100
AcDbArc
 50
160.528779
 51
199.471221
  0
ARC
  5
67E
100
AcDbEntity
  8
LAY-9
  6
CONTINUOUS
 62
     1
100
AcDbCircle
 10
124.221298
 20
153.052063
 30
0.0
 40
58.4
100
AcDbArc
 50
161.635051
 51
198.364949
  0
LINE
  5
67F
100
AcDbEntity
  8
LAY-9
  6
CONTINUOUS
 62
     1
100
AcDbLine
 10
65.821313
 20
398.802063
 30
0.0
 11
532.078209
 21
398.802063
 31
0.0
  0
LINE
  5
680
100
AcDbEntity
  8
LAY-9
  6
CONTINUOUS
 62
     1
100
AcDbLine
 10
65.821313
 20
401.102063
 30
0.0
 11
532.097098
 21
401.102063
 31
0.0
  0
LINE
  5
681
100
AcDbEntity
  8
LAY-9
  6
CONTINUOUS
 62
     1
100
AcDbLine
 10
64.221313
 20
368.802063
 30
0.0
 11
109.721335
 21
368.802063
 31
0.0
  0
LINE
  5
682
100
AcDbEntity
  8
LAY-9
  6
CONTINUOUS
 62
     1
100
AcDbLine
 10
134.721338
 20
368.802063
 30
0.0
 11
530.0
 21
368.802063
 31
0.0
  0
LINE
  5
683
100
AcDbEntity
  8
LAY-9
  6
CONTINUOUS
 62
     1
100
AcDbLine
 10
153.661371
 20
394.302063
 30
0.0
 11
158.161371
 21
398.802063
 31
0.0
  0
LINE
  5
684
100
AcDbEntity
  8
LAY-9
  6
CONTINUOUS
 62
     1
100
AcDbLine
 10
156.489798
 20
394.302063
 30
0.0
 11
160.989798
 21
398.802063
 31
0.0
  0
LINE
  5
685
100
AcDbEntity
  8
LAY-9
  6
CONTINUOUS
 62
     1
100
AcDbLine
 10
215.886768
 20
394.302063
 30
0.0
 11
220.386768
 21
398.802063
 31
0.0
  0
LINE
  5
686
100
AcDbEntity
  8
LAY-9
  6
CONTINUOUS
 62
     1
100
AcDbLine
 10
218.715195
 20
394.302063
 30
0.0
 11
223.215195
 21
398.802063
 31
0.0
  0
LINE
  5
687
100
AcDbEntity
  8
LAY-9
  6
CONTINUOUS
 62
     1
100
AcDbLine
 10
278.112164
 20
394.302063
 30
0.0
 11
282.612164
 21
398.802063
 31
0.0
  0
LINE
  5
688
100
AcDbEntity
  8
LAY-9
  6
CONTINUOUS
 62
     1
100
AcDbLine
 10
280.940591
 20
394.302063
 30
0.0
 11
285.440591
 21
398.802063
 31
0.0
  0
LINE
  5
689
100
AcDbEntity
  8
LAY-9
  6
CONTINUOUS
 62
     1
100
AcDbLine
 10
340.337561
 20
394.302063
 30
0.0
 11
344.837561
 21
398.802063
 31
0.0
  0
LINE
  5
68A
100
AcDbEntity
  8
LAY-9
  6
CONTINUOUS
 62
     1
100
AcDbLine
 10
343.165988
 20
394.302063
 30
0.0
 11
347.665988
 21
398.802063
 31
0.0
  0
LINE
  5
68B
100
AcDbEntity
  8
LAY-9
  6
CONTINUOUS
 62
     1
100
AcDbLine
 10
402.562958
 20
394.302063
 30
0.0
 11
407.062958
 21
398.802063
 31
0.0
  0
LINE
  5
68C
100
AcDbEntity
  8
LAY-9
  6
CONTINUOUS
 62
     1
100
AcDbLine
 10
405.391385
 20
394.302063
 30
0.0
 11
409.891385
 21
398.802063
 31
0.0
  0
LINE
  5
68D
100
AcDbEntity
  8
LAY-9
  6
CONTINUOUS
 62
     1
100
AcDbLine
 10
464.788355
 20
394.302063
 30
0.0
 11
469.288355
 21
398.802063
 31
0.0
  0
LINE
  5
68E
100
AcDbEntity
  8
LAY-9
  6
CONTINUOUS
 62
     1
100
AcDbLine
 10
467.616782
 20
394.302063
 30
0.0
 11
472.116782
 21
398.802063
 31
0.0
  0
LINE
  5
68F
100
AcDbEntity
  8
LAY-9
  6
CONTINUOUS
 62
     1
100
AcDbLine
 10
85.435974
 20
394.302063
 30
0.0
 11
89.935974
 21
398.802063
 31
0.0
  0
LINE
  5
690
100
AcDbEntity
  8
LAY-9
  6
CONTINUOUS
 62
     1
100
AcDbLine
 10
88.264401
 20
394.302063
 30
0.0
 11
92.764401
 21
398.802063
 31
0.0
  0
LINE
  5
691
100
AcDbEntity
  8
LAY-9
  6
CONTINUOUS
 62
     1
100
AcDbLine
 10
677.549805
 20
394.302063
 30
0.0
 11
708.549805
 21
394.302063
 31
0.0
  0
LINE
  5
692
100
AcDbEntity
  8
LAY-9
  6
CONTINUOUS
 62
     1
100
AcDbLine
 10
682.103073
 20
394.302063
 30
0.0
 11
686.603073
 21
398.802063
 31
0.0
  0
LINE
  5
693
100
AcDbEntity
  8
LAY-9
  6
CONTINUOUS
 62
     1
100
AcDbLine
 10
684.9315
 20
394.302063
 30
0.0
 11
689.4315
 21
398.802063
 31
0.0
  0
LINE
  5
694
100
AcDbEntity
  8
LAY-9
  6
CONTINUOUS
 62
     1
100
AcDbLine
 10
701.902063
 20
394.302063
 30
0.0
 11
706.402063
 21
398.802063
 31
0.0
  0
LINE
  5
695
100
AcDbEntity
  8
LAY-9
  6
CONTINUOUS
 62
     1
100
AcDbLine
 10
677.549805
 20
398.734076
 30
0.0
 11
677.617792
 21
398.802063
 31
0.0
  0
LINE
  5
696
100
AcDbEntity
  8
LAY-9
  6
CONTINUOUS
 62
     1
100
AcDbLine
 10
704.73049
 20
394.302063
 30
0.0
 11
708.549805
 21
398.121378
 31
0.0
  0
LINE
  5
697
100
AcDbEntity
  8
LAY-9
  6
DIVIDE
 62
     1
100
AcDbLine
 10
44.4
 20
446.0
 30
0.0
 11
91.2
 21
446.0
 31
0.0
  0
LINE
  5
698
100
AcDbEntity
  8
LAY-9
  6
DIVIDE
 62
     1
100
AcDbLine
 10
44.4
 20
441.0
 30
0.0
 11
91.2
 21
441.0
 31
0.0
  0
LINE
  5
699
100
AcDbEntity
  8
LAY-9
  6
CONTINUOUS
 62
     1
100
AcDbLine
 10
61.221313
 20
519.1
 30
0.0
 11
61.221313
 21
446.0
 31
0.0
  0
LINE
  5
69A
100
AcDbEntity
  8
LAY-9
  6
CONTINUOUS
 62
     1
100
AcDbLine
 10
59.621313
 20
519.1
 30
0.0
 11
59.621313
 21
446.0
 31
0.0
  0
LINE
  5
69B
100
AcDbEntity
  8
LAY-9
  6
CONTINUOUS
 62
     1
100
AcDbLine
 10
59.621313
 20
441.0
 30
0.0
 11
59.621313
 21
343.802063
 31
0.0
  0
LINE
  5
69C
100
AcDbEntity
  8
LAY-9
  6
CONTINUOUS
 62
     1
100
AcDbLine
 10
65.821313
 20
493.770941
 30
0.0
 11
65.821313
 21
446.0
 31
0.0
  0
LINE
  5
69D
100
AcDbEntity
  8
LAY-9
  6
CONTINUOUS
 62
     1
100
AcDbLine
 10
65.821313
 20
441.0
 30
0.0
 11
65.821313
 21
368.802063
 31
0.0
  0
LINE
  5
69E
100
AcDbEntity
  8
LAY-9
  6
CONTINUOUS
 62
     1
100
AcDbLine
 10
64.221313
 20
495.370941
 30
0.0
 11
64.221313
 21
446.0
 31
0.0
  0
LINE
  5
69F
100
AcDbEntity
  8
LAY-9
  6
CONTINUOUS
 62
     1
100
AcDbLine
 10
64.221313
 20
441.0
 30
0.0
 11
64.221313
 21
368.802063
 31
0.0
  0
LINE
  5
6A0
100
AcDbEntity
  8
LAY-9
  6
CONTINUOUS
 62
     1
100
AcDbLine
 10
88.221313
 20
504.370972
 30
0.0
 11
88.221313
 21
508.870972
 31
0.0
  0
LINE
  5
6A1
100
AcDbEntity
  8
LAY-9
  6
CONTINUOUS
 62
     1
100
AcDbLine
 10
88.221313
 20
508.870972
 30
0.0
 11
108.221313
 21
508.870972
 31
0.0
  0
LINE
  5
6A2
100
AcDbEntity
  8
LAY-9
  6
CONTINUOUS
 62
     1
100
AcDbLine
 10
108.221313
 20
508.870972
 30
0.0
 11
108.221313
 21
504.370972
 31
0.0
  0
LINE
  5
6A3
100
AcDbEntity
  8
LAY-9
  6
CONTINUOUS
 62
     1
100
AcDbLine
 10
257.221313
 20
504.370972
 30
0.0
 11
257.221313
 21
508.870972
 31
0.0
  0
LINE
  5
6A4
100
AcDbEntity
  8
LAY-9
  6
CONTINUOUS
 62
     1
100
AcDbLine
 10
257.221313
 20
508.870972
 30
0.0
 11
238.221313
 21
508.870972
 31
0.0
  0
LINE
  5
6A5
100
AcDbEntity
  8
LAY-9
  6
CONTINUOUS
 62
     1
100
AcDbLine
 10
238.221313
 20
508.870972
 30
0.0
 11
238.221313
 21
504.370972
 31
0.0
  0
LINE
  5
6A6
100
AcDbEntity
  8
LAY-9
  6
CONTINUOUS
 62
     1
100
AcDbLine
 10
257.221313
 20
489.370941
 30
0.0
 11
257.221313
 21
484.870941
 31
0.0
  0
LINE
  5
6A7
100
AcDbEntity
  8
LAY-9
  6
CONTINUOUS
 62
     1
100
AcDbLine
 10
257.221313
 20
484.870941
 30
0.0
 11
142.221313
 21
484.870941
 31
0.0
  0
LINE
  5
6A8
100
AcDbEntity
  8
LAY-9
  6
CONTINUOUS
 62
     1
100
AcDbLine
 10
142.221313
 20
484.870941
 30
0.0
 11
142.221313
 21
489.370941
 31
0.0
  0
LINE
  5
6A9
100
AcDbEntity
  8
LAY-9
  6
CONTINUOUS
 62
     1
100
AcDbLine
 10
90.258274
 20
504.370972
 30
0.0
 11
94.758274
 21
508.870972
 31
0.0
  0
LINE
  5
6AA
100
AcDbEntity
  8
LAY-9
  6
CONTINUOUS
 62
     1
100
AcDbLine
 10
93.086701
 20
504.370972
 30
0.0
 11
97.586701
 21
508.870972
 31
0.0
  0
LINE
  5
6AB
100
AcDbEntity
  8
LAY-9
  6
CONTINUOUS
 62
     1
100
AcDbLine
 10
157.4897
 20
484.870941
 30
0.0
 11
161.9897
 21
489.370941
 31
0.0
  0
LINE
  5
6AC
100
AcDbEntity
  8
LAY-9
  6
CONTINUOUS
 62
     1
100
AcDbLine
 10
160.318127
 20
484.870941
 30
0.0
 11
164.818127
 21
489.370941
 31
0.0
  0
LINE
  5
6AD
100
AcDbEntity
  8
LAY-9
  6
CONTINUOUS
 62
     1
100
AcDbLine
 10
185.773971
 20
484.870941
 30
0.0
 11
190.273971
 21
489.370941
 31
0.0
  0
LINE
  5
6AE
100
AcDbEntity
  8
LAY-9
  6
CONTINUOUS
 62
     1
100
AcDbLine
 10
188.602399
 20
484.870941
 30
0.0
 11
193.102399
 21
489.370941
 31
0.0
  0
LINE
  5
6AF
100
AcDbEntity
  8
LAY-9
  6
CONTINUOUS
 62
     1
100
AcDbLine
 10
219.715097
 20
484.870941
 30
0.0
 11
224.215097
 21
489.370941
 31
0.0
  0
LINE
  5
6B0
100
AcDbEntity
  8
LAY-9
  6
CONTINUOUS
 62
     1
100
AcDbLine
 10
222.543524
 20
484.870941
 30
0.0
 11
227.043524
 21
489.370941
 31
0.0
  0
LINE
  5
6B1
100
AcDbEntity
  8
LAY-9
  6
CONTINUOUS
 62
     1
100
AcDbLine
 10
253.656222
 20
484.870941
 30
0.0
 11
257.221313
 21
488.436032
 31
0.0
  0
LINE
  5
6B2
100
AcDbEntity
  8
LAY-9
  6
CONTINUOUS
 62
     1
100
AcDbLine
 10
256.484649
 20
484.870941
 30
0.0
 11
257.221313
 21
485.607605
 31
0.0
  0
LINE
  5
6B3
100
AcDbEntity
  8
LAY-9
  6
CONTINUOUS
 62
     1
100
AcDbLine
 10
244.042545
 20
504.370972
 30
0.0
 11
248.542545
 21
508.870972
 31
0.0
  0
LINE
  5
6B4
100
AcDbEntity
  8
LAY-9
  6
CONTINUOUS
 62
     1
100
AcDbLine
 10
246.870972
 20
504.370972
 30
0.0
 11
251.370972
 21
508.870972
 31
0.0
  0
LINE
  5
6B5
100
AcDbEntity
  8
LAY-9
  6
CONTINUOUS
 62
     1
100
AcDbLine
 10
676.949805
 20
398.802063
 30
0.0
 11
676.949805
 21
371.102063
 31
0.0
  0
LINE
  5
6B6
100
AcDbEntity
  8
LAY-9
  6
CONTINUOUS
 62
     1
100
AcDbLine
 10
709.149805
 20
398.802063
 30
0.0
 11
709.149805
 21
371.102063
 31
0.0
  0
POLYLINE
  5
6B7
100
AcDbEntity
  8
LAY-9
  6
CONTINUOUS
 62
     1
100
AcDb2dPolyline
 66
     1
 10
0.0
 20
0.0
 30
0.0
 70
   128
  0
VERTEX
  5
6B8
100
AcDbEntity
  8
LAY-9
  6
CONTINUOUS
 62
     1
100
AcDbVertex
100
AcDb2dVertex
 10
585.4
 20
358.802063
 30
0.0
  0
VERTEX
  5
6B9
100
AcDbEntity
  8
LAY-9
  6
CONTINUOUS
 62
     1
100
AcDbVertex
100
AcDb2dVertex
 10
585.47604
 20
358.65601
 30
0.0
  0
VERTEX
  5
6BA
100
AcDbEntity
  8
LAY-9
  6
CONTINUOUS
 62
     1
100
AcDbVertex
100
AcDb2dVertex
 10
585.684655
 20
358.241885
 30
0.0
  0
VERTEX
  5
6BB
100
AcDbEntity
  8
LAY-9
  6
CONTINUOUS
 62
     1
100
AcDbVertex
100
AcDb2dVertex
 10
585.996582
 20
357.595739
 30
0.0
  0
VERTEX
  5
6BC
100
AcDbEntity
  8
LAY-9
  6
CONTINUOUS
 62
     1
100
AcDbVertex
100
AcDb2dVertex
 10
586.382562
 20
356.753624
 30
0.0
  0
VERTEX
  5
6BD
100
AcDbEntity
  8
LAY-9
  6
CONTINUOUS
 62
     1
100
AcDbVertex
100
AcDb2dVertex
 10
586.813334
 20
355.751591
 30
0.0
  0
VERTEX
  5
6BE
100
AcDbEntity
  8
LAY-9
  6
CONTINUOUS
 62
     1
100
AcDbVertex
100
AcDb2dVertex
 10
587.259637
 20
354.625692
 30
0.0
  0
VERTEX
  5
6BF
100
AcDbEntity
  8
LAY-9
  6
CONTINUOUS
 62
     1
100
AcDbVertex
100
AcDb2dVertex
 10
587.692211
 20
353.411977
 30
0.0
  0
VERTEX
  5
6C0
100
AcDbEntity
  8
LAY-9
  6
CONTINUOUS
 62
     1
100
AcDbVertex
100
AcDb2dVertex
 10
588.081795
 20
352.1465
 30
0.0
  0
VERTEX
  5
6C1
100
AcDbEntity
  8
LAY-9
  6
CONTINUOUS
 62
     1
100
AcDbVertex
100
AcDb2dVertex
 10
588.399128
 20
350.86531
 30
0.0
  0
VERTEX
  5
6C2
100
AcDbEntity
  8
LAY-9
  6
CONTINUOUS
 62
     1
100
AcDbVertex
100
AcDb2dVertex
 10
588.61495
 20
349.60446
 30
0.0
  0
VERTEX
  5
6C3
100
AcDbEntity
  8
LAY-9
  6
CONTINUOUS
 62
     1
100
AcDbVertex
100
AcDb2dVertex
 10
588.7
 20
348.4
 30
0.0
  0
VERTEX
  5
6C4
100
AcDbEntity
  8
LAY-9
  6
CONTINUOUS
 62
     1
100
AcDbVertex
100
AcDb2dVertex
 10
588.66046
 20
347.51409
 30
0.0
  0
VERTEX
  5
6C5
100
AcDbEntity
  8
LAY-9
  6
CONTINUOUS
 62
     1
100
AcDbVertex
100
AcDb2dVertex
 10
588.534023
 20
346.679239
 30
0.0
  0
VERTEX
  5
6C6
100
AcDbEntity
  8
LAY-9
  6
CONTINUOUS
 62
     1
100
AcDbVertex
100
AcDb2dVertex
 10
588.332292
 20
345.889609
 30
0.0
  0
VERTEX
  5
6C7
100
AcDbEntity
  8
LAY-9
  6
CONTINUOUS
 62
     1
100
AcDbVertex
100
AcDb2dVertex
 10
588.066867
 20
345.139362
 30
0.0
  0
VERTEX
  5
6C8
100
AcDbEntity
  8
LAY-9
  6
CONTINUOUS
 62
     1
100
AcDbVertex
100
AcDb2dVertex
 10
587.749351
 20
344.422662
 30
0.0
  0
VERTEX
  5
6C9
100
AcDbEntity
  8
LAY-9
  6
CONTINUOUS
 62
     1
100
AcDbVertex
100
AcDb2dVertex
 10
587.391344
 20
343.733669
 30
0.0
  0
VERTEX
  5
6CA
100
AcDbEntity
  8
LAY-9
  6
CONTINUOUS
 62
     1
100
AcDbVertex
100
AcDb2dVertex
 10
587.004447
 20
343.066546
 30
0.0
  0
VERTEX
  5
6CB
100
AcDbEntity
  8
LAY-9
  6
CONTINUOUS
 62
     1
100
AcDbVertex
100
AcDb2dVertex
 10
586.600263
 20
342.415456
 30
0.0
  0
VERTEX
  5
6CC
100
AcDbEntity
  8
LAY-9
  6
CONTINUOUS
 62
     1
100
AcDbVertex
100
AcDb2dVertex
 10
586.190393
 20
341.77456
 30
0.0
  0
VERTEX
  5
6CD
100
AcDbEntity
  8
LAY-9
  6
CONTINUOUS
 62
     1
100
AcDbVertex
100
AcDb2dVertex
 10
585.786438
 20
341.13802
 30
0.0
  0
VERTEX
  5
6CE
100
AcDbEntity
  8
LAY-9
  6
CONTINUOUS
 62
     1
100
AcDbVertex
100
AcDb2dVertex
 10
585.4
 20
340.5
 30
0.0
  0
VERTEX
  5
6CF
100
AcDbEntity
  8
LAY-9
  6
CONTINUOUS
 62
     1
100
AcDbVertex
100
AcDb2dVertex
 10
585.01727
 20
339.809666
 30
0.0
  0
VERTEX
  5
6D0
100
AcDbEntity
  8
LAY-9
  6
CONTINUOUS
 62
     1
100
AcDbVertex
100
AcDb2dVertex
 10
584.670943
 20
339.106658
 30
0.0
  0
VERTEX
  5
6D1
100
AcDbEntity
  8
LAY-9
  6
CONTINUOUS
 62
     1
100
AcDbVertex
100
AcDb2dVertex
 10
584.364097
 20
338.386677
 30
0.0
  0
VERTEX
  5
6D2
100
AcDbEntity
  8
LAY-9
  6
CONTINUOUS
 62
     1
100
AcDbVertex
100
AcDb2dVertex
 10
584.09981
 20
337.645425
 30
0.0
  0
VERTEX
  5
6D3
100
AcDbEntity
  8
LAY-9
  6
CONTINUOUS
 62
     1
100
AcDbVertex
100
AcDb2dVertex
 10
583.88116
 20
336.878602
 30
0.0
  0
VERTEX
  5
6D4
100
AcDbEntity
  8
LAY-9
  6
CONTINUOUS
 62
     1
100
AcDbVertex
100
AcDb2dVertex
 10
583.711224
 20
336.081912
 30
0.0
  0
VERTEX
  5
6D5
100
AcDbEntity
  8
LAY-9
  6
CONTINUOUS
 62
     1
100
AcDbVertex
100
AcDb2dVertex
 10
583.593082
 20
335.251056
 30
0.0
  0
VERTEX
  5
6D6
100
AcDbEntity
  8
LAY-9
  6
CONTINUOUS
 62
     1
100
AcDbVertex
100
AcDb2dVertex
 10
583.52981
 20
334.381735
 30
0.0
  0
VERTEX
  5
6D7
100
AcDbEntity
  8
LAY-9
  6
CONTINUOUS
 62
     1
100
AcDbVertex
100
AcDb2dVertex
 10
583.524487
 20
333.469651
 30
0.0
  0
VERTEX
  5
6D8
100
AcDbEntity
  8
LAY-9
  6
CONTINUOUS
 62
     1
100
AcDbVertex
100
AcDb2dVertex
 10
583.580191
 20
332.510505
 30
0.0
  0
VERTEX
  5
6D9
100
AcDbEntity
  8
LAY-9
  6
CONTINUOUS
 62
     1
100
AcDbVertex
100
AcDb2dVertex
 10
583.7
 20
331.5
 30
0.0
  0
VERTEX
  5
6DA
100
AcDbEntity
  8
LAY-9
  6
CONTINUOUS
 62
     1
100
AcDbVertex
100
AcDb2dVertex
 10
583.896479
 20
330.37672
 30
0.0
  0
VERTEX
  5
6DB
100
AcDbEntity
  8
LAY-9
  6
CONTINUOUS
 62
     1
100
AcDbVertex
100
AcDb2dVertex
 10
584.151733
 20
329.220667
 30
0.0
  0
VERTEX
  5
6DC
100
AcDbEntity
  8
LAY-9
  6
CONTINUOUS
 62
     1
100
AcDbVertex
100
AcDb2dVertex
 10
584.449437
 20
328.061286
 30
0.0
  0
VERTEX
  5
6DD
100
AcDbEntity
  8
LAY-9
  6
CONTINUOUS
 62
     1
100
AcDbVertex
100
AcDb2dVertex
 10
584.773263
 20
326.928024
 30
0.0
  0
VERTEX
  5
6DE
100
AcDbEntity
  8
LAY-9
  6
CONTINUOUS
 62
     1
100
AcDbVertex
100
AcDb2dVertex
 10
585.106885
 20
325.850328
 30
0.0
  0
VERTEX
  5
6DF
100
AcDbEntity
  8
LAY-9
  6
CONTINUOUS
 62
     1
100
AcDbVertex
100
AcDb2dVertex
 10
585.433974
 20
324.857642
 30
0.0
  0
VERTEX
  5
6E0
100
AcDbEntity
  8
LAY-9
  6
CONTINUOUS
 62
     1
100
AcDbVertex
100
AcDb2dVertex
 10
585.738205
 20
323.979414
 30
0.0
  0
VERTEX
  5
6E1
100
AcDbEntity
  8
LAY-9
  6
CONTINUOUS
 62
     1
100
AcDbVertex
100
AcDb2dVertex
 10
586.00325
 20
323.24509
 30
0.0
  0
VERTEX
  5
6E2
100
AcDbEntity
  8
LAY-9
  6
CONTINUOUS
 62
     1
100
AcDbVertex
100
AcDb2dVertex
 10
586.212782
 20
322.684115
 30
0.0
  0
VERTEX
  5
6E3
100
AcDbEntity
  8
LAY-9
  6
CONTINUOUS
 62
     1
100
AcDbVertex
100
AcDb2dVertex
 10
586.350474
 20
322.325936
 30
0.0
  0
VERTEX
  5
6E4
100
AcDbEntity
  8
LAY-9
  6
CONTINUOUS
 62
     1
100
AcDbVertex
100
AcDb2dVertex
 10
586.4
 20
322.2
 30
0.0
  0
SEQEND
  5
6E5
100
AcDbEntity
  8
LAY-9
  6
CONTINUOUS
 62
     1
  0
POLYLINE
  5
6E6
100
AcDbEntity
  8
LAY-9
  6
CONTINUOUS
 62
     1
100
AcDb2dPolyline
 66
     1
 10
0.0
 20
0.0
 30
0.0
 70
   128
  0
VERTEX
  5
6E7
100
AcDbEntity
  8
LAY-9
  6
CONTINUOUS
 62
     1
100
AcDbVertex
100
AcDb2dVertex
 10
807.5
 20
358.802063
 30
0.0
  0
VERTEX
  5
6E8
100
AcDbEntity
  8
LAY-9
  6
CONTINUOUS
 62
     1
100
AcDbVertex
100
AcDb2dVertex
 10
807.57604
 20
358.65601
 30
0.0
  0
VERTEX
  5
6E9
100
AcDbEntity
  8
LAY-9
  6
CONTINUOUS
 62
     1
100
AcDbVertex
100
AcDb2dVertex
 10
807.784655
 20
358.241885
 30
0.0
  0
VERTEX
  5
6EA
100
AcDbEntity
  8
LAY-9
  6
CONTINUOUS
 62
     1
100
AcDbVertex
100
AcDb2dVertex
 10
808.096582
 20
357.595739
 30
0.0
  0
VERTEX
  5
6EB
100
AcDbEntity
  8
LAY-9
  6
CONTINUOUS
 62
     1
100
AcDbVertex
100
AcDb2dVertex
 10
808.482562
 20
356.753624
 30
0.0
  0
VERTEX
  5
6EC
100
AcDbEntity
  8
LAY-9
  6
CONTINUOUS
 62
     1
100
AcDbVertex
100
AcDb2dVertex
 10
808.913334
 20
355.751591
 30
0.0
  0
VERTEX
  5
6ED
100
AcDbEntity
  8
LAY-9
  6
CONTINUOUS
 62
     1
100
AcDbVertex
100
AcDb2dVertex
 10
809.359637
 20
354.625692
 30
0.0
  0
VERTEX
  5
6EE
100
AcDbEntity
  8
LAY-9
  6
CONTINUOUS
 62
     1
100
AcDbVertex
100
AcDb2dVertex
 10
809.792211
 20
353.411977
 30
0.0
  0
VERTEX
  5
6EF
100
AcDbEntity
  8
LAY-9
  6
CONTINUOUS
 62
     1
100
AcDbVertex
100
AcDb2dVertex
 10
810.181795
 20
352.1465
 30
0.0
  0
VERTEX
  5
6F0
100
AcDbEntity
  8
LAY-9
  6
CONTINUOUS
 62
     1
100
AcDbVertex
100
AcDb2dVertex
 10
810.499128
 20
350.86531
 30
0.0
  0
VERTEX
  5
6F1
100
AcDbEntity
  8
LAY-9
  6
CONTINUOUS
 62
     1
100
AcDbVertex
100
AcDb2dVertex
 10
810.71495
 20
349.60446
 30
0.0
  0
VERTEX
  5
6F2
100
AcDbEntity
  8
LAY-9
  6
CONTINUOUS
 62
     1
100
AcDbVertex
100
AcDb2dVertex
 10
810.8
 20
348.4
 30
0.0
  0
VERTEX
  5
6F3
100
AcDbEntity
  8
LAY-9
  6
CONTINUOUS
 62
     1
100
AcDbVertex
100
AcDb2dVertex
 10
810.76046
 20
347.51409
 30
0.0
  0
VERTEX
  5
6F4
100
AcDbEntity
  8
LAY-9
  6
CONTINUOUS
 62
     1
100
AcDbVertex
100
AcDb2dVertex
 10
810.634023
 20
346.679239
 30
0.0
  0
VERTEX
  5
6F5
100
AcDbEntity
  8
LAY-9
  6
CONTINUOUS
 62
     1
100
AcDbVertex
100
AcDb2dVertex
 10
810.432292
 20
345.889609
 30
0.0
  0
VERTEX
  5
6F6
100
AcDbEntity
  8
LAY-9
  6
CONTINUOUS
 62
     1
100
AcDbVertex
100
AcDb2dVertex
 10
810.166867
 20
345.139362
 30
0.0
  0
VERTEX
  5
6F7
100
AcDbEntity
  8
LAY-9
  6
CONTINUOUS
 62
     1
100
AcDbVertex
100
AcDb2dVertex
 10
809.849351
 20
344.422662
 30
0.0
  0
VERTEX
  5
6F8
100
AcDbEntity
  8
LAY-9
  6
CONTINUOUS
 62
     1
100
AcDbVertex
100
AcDb2dVertex
 10
809.491344
 20
343.733669
 30
0.0
  0
VERTEX
  5
6F9
100
AcDbEntity
  8
LAY-9
  6
CONTINUOUS
 62
     1
100
AcDbVertex
100
AcDb2dVertex
 10
809.104447
 20
343.066546
 30
0.0
  0
VERTEX
  5
6FA
100
AcDbEntity
  8
LAY-9
  6
CONTINUOUS
 62
     1
100
AcDbVertex
100
AcDb2dVertex
 10
808.700263
 20
342.415456
 30
0.0
  0
VERTEX
  5
6FB
100
AcDbEntity
  8
LAY-9
  6
CONTINUOUS
 62
     1
100
AcDbVertex
100
AcDb2dVertex
 10
808.290393
 20
341.77456
 30
0.0
  0
VERTEX
  5
6FC
100
AcDbEntity
  8
LAY-9
  6
CONTINUOUS
 62
     1
100
AcDbVertex
100
AcDb2dVertex
 10
807.886438
 20
341.13802
 30
0.0
  0
VERTEX
  5
6FD
100
AcDbEntity
  8
LAY-9
  6
CONTINUOUS
 62
     1
100
AcDbVertex
100
AcDb2dVertex
 10
807.5
 20
340.5
 30
0.0
  0
VERTEX
  5
6FE
100
AcDbEntity
  8
LAY-9
  6
CONTINUOUS
 62
     1
100
AcDbVertex
100
AcDb2dVertex
 10
807.11727
 20
339.809666
 30
0.0
  0
VERTEX
  5
6FF
100
AcDbEntity
  8
LAY-9
  6
CONTINUOUS
 62
     1
100
AcDbVertex
100
AcDb2dVertex
 10
806.770943
 20
339.106658
 30
0.0
  0
VERTEX
  5
700
100
AcDbEntity
  8
LAY-9
  6
CONTINUOUS
 62
     1
100
AcDbVertex
100
AcDb2dVertex
 10
806.464097
 20
338.386677
 30
0.0
  0
VERTEX
  5
701
100
AcDbEntity
  8
LAY-9
  6
CONTINUOUS
 62
     1
100
AcDbVertex
100
AcDb2dVertex
 10
806.19981
 20
337.645425
 30
0.0
  0
VERTEX
  5
702
100
AcDbEntity
  8
LAY-9
  6
CONTINUOUS
 62
     1
100
AcDbVertex
100
AcDb2dVertex
 10
805.98116
 20
336.878602
 30
0.0
  0
VERTEX
  5
703
100
AcDbEntity
  8
LAY-9
  6
CONTINUOUS
 62
     1
100
AcDbVertex
100
AcDb2dVertex
 10
805.811224
 20
336.081912
 30
0.0
  0
VERTEX
  5
704
100
AcDbEntity
  8
LAY-9
  6
CONTINUOUS
 62
     1
100
AcDbVertex
100
AcDb2dVertex
 10
805.693082
 20
335.251056
 30
0.0
  0
VERTEX
  5
705
100
AcDbEntity
  8
LAY-9
  6
CONTINUOUS
 62
     1
100
AcDbVertex
100
AcDb2dVertex
 10
805.62981
 20
334.381735
 30
0.0
  0
VERTEX
  5
706
100
AcDbEntity
  8
LAY-9
  6
CONTINUOUS
 62
     1
100
AcDbVertex
100
AcDb2dVertex
 10
805.624487
 20
333.469651
 30
0.0
  0
VERTEX
  5
707
100
AcDbEntity
  8
LAY-9
  6
CONTINUOUS
 62
     1
100
AcDbVertex
100
AcDb2dVertex
 10
805.680191
 20
332.510505
 30
0.0
  0
VERTEX
  5
708
100
AcDbEntity
  8
LAY-9
  6
CONTINUOUS
 62
     1
100
AcDbVertex
100
AcDb2dVertex
 10
805.8
 20
331.5
 30
0.0
  0
VERTEX
  5
709
100
AcDbEntity
  8
LAY-9
  6
CONTINUOUS
 62
     1
100
AcDbVertex
100
AcDb2dVertex
 10
805.996479
 20
330.37672
 30
0.0
  0
VERTEX
  5
70A
100
AcDbEntity
  8
LAY-9
  6
CONTINUOUS
 62
     1
100
AcDbVertex
100
AcDb2dVertex
 10
806.251733
 20
329.220667
 30
0.0
  0
VERTEX
  5
70B
100
AcDbEntity
  8
LAY-9
  6
CONTINUOUS
 62
     1
100
AcDbVertex
100
AcDb2dVertex
 10
806.549437
 20
328.061286
 30
0.0
  0
VERTEX
  5
70C
100
AcDbEntity
  8
LAY-9
  6
CONTINUOUS
 62
     1
100
AcDbVertex
100
AcDb2dVertex
 10
806.873263
 20
326.928024
 30
0.0
  0
VERTEX
  5
70D
100
AcDbEntity
  8
LAY-9
  6
CONTINUOUS
 62
     1
100
AcDbVertex
100
AcDb2dVertex
 10
807.206885
 20
325.850328
 30
0.0
  0
VERTEX
  5
70E
100
AcDbEntity
  8
LAY-9
  6
CONTINUOUS
 62
     1
100
AcDbVertex
100
AcDb2dVertex
 10
807.533974
 20
324.857642
 30
0.0
  0
VERTEX
  5
70F
100
AcDbEntity
  8
LAY-9
  6
CONTINUOUS
 62
     1
100
AcDbVertex
100
AcDb2dVertex
 10
807.838205
 20
323.979414
 30
0.0
  0
VERTEX
  5
710
100
AcDbEntity
  8
LAY-9
  6
CONTINUOUS
 62
     1
100
AcDbVertex
100
AcDb2dVertex
 10
808.10325
 20
323.24509
 30
0.0
  0
VERTEX
  5
711
100
AcDbEntity
  8
LAY-9
  6
CONTINUOUS
 62
     1
100
AcDbVertex
100
AcDb2dVertex
 10
808.312782
 20
322.684115
 30
0.0
  0
VERTEX
  5
712
100
AcDbEntity
  8
LAY-9
  6
CONTINUOUS
 62
     1
100
AcDbVertex
100
AcDb2dVertex
 10
808.450474
 20
322.325936
 30
0.0
  0
VERTEX
  5
713
100
AcDbEntity
  8
LAY-9
  6
CONTINUOUS
 62
     1
100
AcDbVertex
100
AcDb2dVertex
 10
808.5
 20
322.2
 30
0.0
  0
SEQEND
  5
714
100
AcDbEntity
  8
LAY-9
  6
CONTINUOUS
 62
     1
  0
LINE
  5
715
100
AcDbEntity
  8
LAY-9
  6
CONTINUOUS
 62
     1
100
AcDbLine
 10
713.049805
 20
368.802063
 30
0.0
 11
711.449805
 21
368.802063
 31
0.0
  0
LINE
  5
716
100
AcDbEntity
  8
LAY-9
  6
CONTINUOUS
 62
     1
100
AcDbLine
 10
673.049805
 20
368.802063
 30
0.0
 11
674.649805
 21
368.802063
 31
0.0
  0
LINE
  5
717
100
AcDbEntity
  8
LAY-9
  6
CONTINUOUS
 62
     1
100
AcDbLine
 10
676.949805
 20
401.102063
 30
0.0
 11
709.149805
 21
401.102063
 31
0.0
  0
LINE
  5
718
100
AcDbEntity
  8
LAY-9
  6
CONTINUOUS
 62
     1
100
AcDbLine
 10
676.949805
 20
371.102063
 30
0.0
 11
674.649805
 21
371.102063
 31
0.0
  0
LINE
  5
719
100
AcDbEntity
  8
LAY-9
  6
CONTINUOUS
 62
     1
100
AcDbLine
 10
711.449805
 20
371.102063
 30
0.0
 11
709.149805
 21
371.102063
 31
0.0
  0
ARC
  5
71A
100
AcDbEntity
  8
LAY-9
  6
CONTINUOUS
 62
     1
100
AcDbCircle
 10
676.949805
 20
398.802063
 30
0.0
 40
2.3
100
AcDbArc
 50
90.0
 51
180.0
  0
ARC
  5
71B
100
AcDbEntity
  8
LAY-9
  6
CONTINUOUS
 62
     1
100
AcDbCircle
 10
709.149805
 20
398.802063
 30
0.0
 40
2.3
100
AcDbArc
 50
0.0
 51
90.0
  0
POLYLINE
  5
71C
100
AcDbEntity
  8
LAY-9
  6
CONTINUOUS
 62
     1
100
AcDb2dPolyline
 66
     1
 10
0.0
 20
0.0
 30
0.0
 70
   128
  0
VERTEX
  5
71D
100
AcDbEntity
  8
LAY-9
  6
CONTINUOUS
 62
     1
100
AcDbVertex
100
AcDb2dVertex
 10
335.0
 20
495.370941
 30
0.0
  0
VERTEX
  5
71E
100
AcDbEntity
  8
LAY-9
  6
CONTINUOUS
 62
     1
100
AcDbVertex
100
AcDb2dVertex
 10
334.949568
 20
495.283039
 30
0.0
  0
VERTEX
  5
71F
100
AcDbEntity
  8
LAY-9
  6
CONTINUOUS
 62
     1
100
AcDbVertex
100
AcDb2dVertex
 10
334.809849
 20
495.033763
 30
0.0
  0
VERTEX
  5
720
100
AcDbEntity
  8
LAY-9
  6
CONTINUOUS
 62
     1
100
AcDbVertex
100
AcDb2dVertex
 10
334.59821
 20
494.64476
 30
0.0
  0
VERTEX
  5
721
100
AcDbEntity
  8
LAY-9
  6
CONTINUOUS
 62
     1
100
AcDbVertex
100
AcDb2dVertex
 10
334.332019
 20
494.137674
 30
0.0
  0
VERTEX
  5
722
100
AcDbEntity
  8
LAY-9
  6
CONTINUOUS
 62
     1
100
AcDbVertex
100
AcDb2dVertex
 10
334.028641
 20
493.534151
 30
0.0
  0
VERTEX
  5
723
100
AcDbEntity
  8
LAY-9
  6
CONTINUOUS
 62
     1
100
AcDbVertex
100
AcDb2dVertex
 10
333.705443
 20
492.855838
 30
0.0
  0
VERTEX
  5
724
100
AcDbEntity
  8
LAY-9
  6
CONTINUOUS
 62
     1
100
AcDbVertex
100
AcDb2dVertex
 10
333.379793
 20
492.124378
 30
0.0
  0
VERTEX
  5
725
100
AcDbEntity
  8
LAY-9
  6
CONTINUOUS
 62
     1
100
AcDbVertex
100
AcDb2dVertex
 10
333.069057
 20
491.36142
 30
0.0
  0
VERTEX
  5
726
100
AcDbEntity
  8
LAY-9
  6
CONTINUOUS
 62
     1
100
AcDbVertex
100
AcDb2dVertex
 10
332.790601
 20
490.588606
 30
0.0
  0
VERTEX
  5
727
100
AcDbEntity
  8
LAY-9
  6
CONTINUOUS
 62
     1
100
AcDbVertex
100
AcDb2dVertex
 10
332.561793
 20
489.827585
 30
0.0
  0
VERTEX
  5
728
100
AcDbEntity
  8
LAY-9
  6
CONTINUOUS
 62
     1
100
AcDbVertex
100
AcDb2dVertex
 10
332.4
 20
489.1
 30
0.0
  0
VERTEX
  5
729
100
AcDbEntity
  8
LAY-9
  6
CONTINUOUS
 62
     1
100
AcDbVertex
100
AcDb2dVertex
 10
332.355163
 20
488.803597
 30
0.0
  0
VERTEX
  5
72A
100
AcDbEntity
  8
LAY-9
  6
CONTINUOUS
 62
     1
100
AcDbVertex
100
AcDb2dVertex
 10
332.32508
 20
488.516406
 30
0.0
  0
VERTEX
  5
72B
100
AcDbEntity
  8
LAY-9
  6
CONTINUOUS
 62
     1
100
AcDbVertex
100
AcDb2dVertex
 10
332.309036
 20
488.237543
 30
0.0
  0
VERTEX
  5
72C
100
AcDbEntity
  8
LAY-9
  6
CONTINUOUS
 62
     1
100
AcDbVertex
100
AcDb2dVertex
 10
332.306312
 20
487.966119
 30
0.0
  0
VERTEX
  5
72D
100
AcDbEntity
  8
LAY-9
  6
CONTINUOUS
 62
     1
100
AcDbVertex
100
AcDb2dVertex
 10
332.316193
 20
487.701249
 30
0.0
  0
VERTEX
  5
72E
100
AcDbEntity
  8
LAY-9
  6
CONTINUOUS
 62
     1
100
AcDbVertex
100
AcDb2dVertex
 10
332.33796
 20
487.442046
 30
0.0
  0
VERTEX
  5
72F
100
AcDbEntity
  8
LAY-9
  6
CONTINUOUS
 62
     1
100
AcDbVertex
100
AcDb2dVertex
 10
332.370896
 20
487.187623
 30
0.0
  0
VERTEX
  5
730
100
AcDbEntity
  8
LAY-9
  6
CONTINUOUS
 62
     1
100
AcDbVertex
100
AcDb2dVertex
 10
332.414286
 20
486.937093
 30
0.0
  0
VERTEX
  5
731
100
AcDbEntity
  8
LAY-9
  6
CONTINUOUS
 62
     1
100
AcDbVertex
100
AcDb2dVertex
 10
332.467411
 20
486.689571
 30
0.0
  0
VERTEX
  5
732
100
AcDbEntity
  8
LAY-9
  6
CONTINUOUS
 62
     1
100
AcDbVertex
100
AcDb2dVertex
 10
332.529555
 20
486.444168
 30
0.0
  0
VERTEX
  5
733
100
AcDbEntity
  8
LAY-9
  6
CONTINUOUS
 62
     1
100
AcDbVertex
100
AcDb2dVertex
 10
332.6
 20
486.2
 30
0.0
  0
VERTEX
  5
734
100
AcDbEntity
  8
LAY-9
  6
CONTINUOUS
 62
     1
100
AcDbVertex
100
AcDb2dVertex
 10
332.787262
 20
485.648592
 30
0.0
  0
VERTEX
  5
735
100
AcDbEntity
  8
LAY-9
  6
CONTINUOUS
 62
     1
100
AcDbVertex
100
AcDb2dVertex
 10
333.009364
 20
485.100181
 30
0.0
  0
VERTEX
  5
736
100
AcDbEntity
  8
LAY-9
  6
CONTINUOUS
 62
     1
100
AcDbVertex
100
AcDb2dVertex
 10
333.262208
 20
484.555984
 30
0.0
  0
VERTEX
  5
737
100
AcDbEntity
  8
LAY-9
  6
CONTINUOUS
 62
     1
100
AcDbVertex
100
AcDb2dVertex
 10
333.541697
 20
484.017217
 30
0.0
  0
VERTEX
  5
738
100
AcDbEntity
  8
LAY-9
  6
CONTINUOUS
 62
     1
100
AcDbVertex
100
AcDb2dVertex
 10
333.843734
 20
483.485096
 30
0.0
  0
VERTEX
  5
739
100
AcDbEntity
  8
LAY-9
  6
CONTINUOUS
 62
     1
100
AcDbVertex
100
AcDb2dVertex
 10
334.16422
 20
482.960835
 30
0.0
  0
VERTEX
  5
73A
100
AcDbEntity
  8
LAY-9
  6
CONTINUOUS
 62
     1
100
AcDbVertex
100
AcDb2dVertex
 10
334.49906
 20
482.445651
 30
0.0
  0
VERTEX
  5
73B
100
AcDbEntity
  8
LAY-9
  6
CONTINUOUS
 62
     1
100
AcDbVertex
100
AcDb2dVertex
 10
334.844155
 20
481.94076
 30
0.0
  0
VERTEX
  5
73C
100
AcDbEntity
  8
LAY-9
  6
CONTINUOUS
 62
     1
100
AcDbVertex
100
AcDb2dVertex
 10
335.195409
 20
481.447377
 30
0.0
  0
VERTEX
  5
73D
100
AcDbEntity
  8
LAY-9
  6
CONTINUOUS
 62
     1
100
AcDbVertex
100
AcDb2dVertex
 10
335.548723
 20
480.966719
 30
0.0
  0
VERTEX
  5
73E
100
AcDbEntity
  8
LAY-9
  6
CONTINUOUS
 62
     1
100
AcDbVertex
100
AcDb2dVertex
 10
335.9
 20
480.5
 30
0.0
  0
VERTEX
  5
73F
100
AcDbEntity
  8
LAY-9
  6
CONTINUOUS
 62
     1
100
AcDbVertex
100
AcDb2dVertex
 10
336.214501
 20
480.087117
 30
0.0
  0
VERTEX
  5
740
100
AcDbEntity
  8
LAY-9
  6
CONTINUOUS
 62
     1
100
AcDbVertex
100
AcDb2dVertex
 10
336.521285
 20
479.679744
 30
0.0
  0
VERTEX
  5
741
100
AcDbEntity
  8
LAY-9
  6
CONTINUOUS
 62
     1
100
AcDbVertex
100
AcDb2dVertex
 10
336.817716
 20
479.270844
 30
0.0
  0
VERTEX
  5
742
100
AcDbEntity
  8
LAY-9
  6
CONTINUOUS
 62
     1
100
AcDbVertex
100
AcDb2dVertex
 10
337.101157
 20
478.853377
 30
0.0
  0
VERTEX
  5
743
100
AcDbEntity
  8
LAY-9
  6
CONTINUOUS
 62
     1
100
AcDbVertex
100
AcDb2dVertex
 10
337.36897
 20
478.420305
 30
0.0
  0
VERTEX
  5
744
100
AcDbEntity
  8
LAY-9
  6
CONTINUOUS
 62
     1
100
AcDbVertex
100
AcDb2dVertex
 10
337.618519
 20
477.964589
 30
0.0
  0
VERTEX
  5
745
100
AcDbEntity
  8
LAY-9
  6
CONTINUOUS
 62
     1
100
AcDbVertex
100
AcDb2dVertex
 10
337.847167
 20
477.47919
 30
0.0
  0
VERTEX
  5
746
100
AcDbEntity
  8
LAY-9
  6
CONTINUOUS
 62
     1
100
AcDbVertex
100
AcDb2dVertex
 10
338.052276
 20
476.957071
 30
0.0
  0
VERTEX
  5
747
100
AcDbEntity
  8
LAY-9
  6
CONTINUOUS
 62
     1
100
AcDbVertex
100
AcDb2dVertex
 10
338.231209
 20
476.391192
 30
0.0
  0
VERTEX
  5
748
100
AcDbEntity
  8
LAY-9
  6
CONTINUOUS
 62
     1
100
AcDbVertex
100
AcDb2dVertex
 10
338.381329
 20
475.774515
 30
0.0
  0
VERTEX
  5
749
100
AcDbEntity
  8
LAY-9
  6
CONTINUOUS
 62
     1
100
AcDbVertex
100
AcDb2dVertex
 10
338.5
 20
475.1
 30
0.0
  0
VERTEX
  5
74A
100
AcDbEntity
  8
LAY-9
  6
CONTINUOUS
 62
     1
100
AcDbVertex
100
AcDb2dVertex
 10
338.55681
 20
474.653204
 30
0.0
  0
VERTEX
  5
74B
100
AcDbEntity
  8
LAY-9
  6
CONTINUOUS
 62
     1
100
AcDbVertex
100
AcDb2dVertex
 10
338.601916
 20
474.19333
 30
0.0
  0
VERTEX
  5
74C
100
AcDbEntity
  8
LAY-9
  6
CONTINUOUS
 62
     1
100
AcDbVertex
100
AcDb2dVertex
 10
338.636645
 20
473.732101
 30
0.0
  0
VERTEX
  5
74D
100
AcDbEntity
  8
LAY-9
  6
CONTINUOUS
 62
     1
100
AcDbVertex
100
AcDb2dVertex
 10
338.662322
 20
473.281238
 30
0.0
  0
VERTEX
  5
74E
100
AcDbEntity
  8
LAY-9
  6
CONTINUOUS
 62
     1
100
AcDbVertex
100
AcDb2dVertex
 10
338.680274
 20
472.852461
 30
0.0
  0
VERTEX
  5
74F
100
AcDbEntity
  8
LAY-9
  6
CONTINUOUS
 62
     1
100
AcDbVertex
100
AcDb2dVertex
 10
338.691826
 20
472.457491
 30
0.0
  0
VERTEX
  5
750
100
AcDbEntity
  8
LAY-9
  6
CONTINUOUS
 62
     1
100
AcDbVertex
100
AcDb2dVertex
 10
338.698304
 20
472.108051
 30
0.0
  0
VERTEX
  5
751
100
AcDbEntity
  8
LAY-9
  6
CONTINUOUS
 62
     1
100
AcDbVertex
100
AcDb2dVertex
 10
338.701035
 20
471.81586
 30
0.0
  0
VERTEX
  5
752
100
AcDbEntity
  8
LAY-9
  6
CONTINUOUS
 62
     1
100
AcDbVertex
100
AcDb2dVertex
 10
338.701344
 20
471.592641
 30
0.0
  0
VERTEX
  5
753
100
AcDbEntity
  8
LAY-9
  6
CONTINUOUS
 62
     1
100
AcDbVertex
100
AcDb2dVertex
 10
338.700557
 20
471.450114
 30
0.0
  0
VERTEX
  5
754
100
AcDbEntity
  8
LAY-9
  6
CONTINUOUS
 62
     1
100
AcDbVertex
100
AcDb2dVertex
 10
338.7
 20
471.4
 30
0.0
  0
SEQEND
  5
755
100
AcDbEntity
  8
LAY-9
  6
CONTINUOUS
 62
     1
  0
POLYLINE
  5
756
100
AcDbEntity
  8
LAY-9
  6
CONTINUOUS
 62
     1
100
AcDb2dPolyline
 66
     1
 10
0.0
 20
0.0
 30
0.0
 70
   128
  0
VERTEX
  5
757
100
AcDbEntity
  8
LAY-9
  6
CONTINUOUS
 62
     1
100
AcDbVertex
100
AcDb2dVertex
 10
673.049805
 20
458.4
 30
0.0
  0
VERTEX
  5
758
100
AcDbEntity
  8
LAY-9
  6
CONTINUOUS
 62
     1
100
AcDbVertex
100
AcDb2dVertex
 10
673.200848
 20
458.463817
 30
0.0
  0
VERTEX
  5
759
100
AcDbEntity
  8
LAY-9
  6
CONTINUOUS
 62
     1
100
AcDbVertex
100
AcDb2dVertex
 10
673.629429
 20
458.639327
 30
0.0
  0
VERTEX
  5
75A
100
AcDbEntity
  8
LAY-9
  6
CONTINUOUS
 62
     1
100
AcDbVertex
100
AcDb2dVertex
 10
674.298725
 20
458.902621
 30
0.0
  0
VERTEX
  5
75B
100
AcDbEntity
  8
LAY-9
  6
CONTINUOUS
 62
     1
100
AcDbVertex
100
AcDb2dVertex
 10
675.171911
 20
459.229788
 30
0.0
  0
VERTEX
  5
75C
100
AcDbEntity
  8
LAY-9
  6
CONTINUOUS
 62
     1
100
AcDbVertex
100
AcDb2dVertex
 10
676.212165
 20
459.59692
 30
0.0
  0
VERTEX
  5
75D
100
AcDbEntity
  8
LAY-9
  6
CONTINUOUS
 62
     1
100
AcDbVertex
100
AcDb2dVertex
 10
677.382663
 20
459.980105
 30
0.0
  0
VERTEX
  5
75E
100
AcDbEntity
  8
LAY-9
  6
CONTINUOUS
 62
     1
100
AcDbVertex
100
AcDb2dVertex
 10
678.646582
 20
460.355435
 30
0.0
  0
VERTEX
  5
75F
100
AcDbEntity
  8
LAY-9
  6
CONTINUOUS
 62
     1
100
AcDbVertex
100
AcDb2dVertex
 10
679.967098
 20
460.698999
 30
0.0
  0
VERTEX
  5
760
100
AcDbEntity
  8
LAY-9
  6
CONTINUOUS
 62
     1
100
AcDbVertex
100
AcDb2dVertex
 10
681.307389
 20
460.986888
 30
0.0
  0
VERTEX
  5
761
100
AcDbEntity
  8
LAY-9
  6
CONTINUOUS
 62
     1
100
AcDbVertex
100
AcDb2dVertex
 10
682.630631
 20
461.195192
 30
0.0
  0
VERTEX
  5
762
100
AcDbEntity
  8
LAY-9
  6
CONTINUOUS
 62
     1
100
AcDbVertex
100
AcDb2dVertex
 10
683.9
 20
461.3
 30
0.0
  0
VERTEX
  5
763
100
AcDbEntity
  8
LAY-9
  6
CONTINUOUS
 62
     1
100
AcDbVertex
100
AcDb2dVertex
 10
684.829443
 20
461.297748
 30
0.0
  0
VERTEX
  5
764
100
AcDbEntity
  8
LAY-9
  6
CONTINUOUS
 62
     1
100
AcDbVertex
100
AcDb2dVertex
 10
685.70906
 20
461.225627
 30
0.0
  0
VERTEX
  5
765
100
AcDbEntity
  8
LAY-9
  6
CONTINUOUS
 62
     1
100
AcDbVertex
100
AcDb2dVertex
 10
686.543799
 20
461.090713
 30
0.0
  0
VERTEX
  5
766
100
AcDbEntity
  8
LAY-9
  6
CONTINUOUS
 62
     1
100
AcDbVertex
100
AcDb2dVertex
 10
687.33861
 20
460.900081
 30
0.0
  0
VERTEX
  5
767
100
AcDbEntity
  8
LAY-9
  6
CONTINUOUS
 62
     1
100
AcDbVertex
100
AcDb2dVertex
 10
688.098441
 20
460.66081
 30
0.0
  0
VERTEX
  5
768
100
AcDbEntity
  8
LAY-9
  6
CONTINUOUS
 62
     1
100
AcDbVertex
100
AcDb2dVertex
 10
688.828242
 20
460.379973
 30
0.0
  0
VERTEX
  5
769
100
AcDbEntity
  8
LAY-9
  6
CONTINUOUS
 62
     1
100
AcDbVertex
100
AcDb2dVertex
 10
689.532961
 20
460.064649
 30
0.0
  0
VERTEX
  5
76A
100
AcDbEntity
  8
LAY-9
  6
CONTINUOUS
 62
     1
100
AcDbVertex
100
AcDb2dVertex
 10
690.217547
 20
459.721913
 30
0.0
  0
VERTEX
  5
76B
100
AcDbEntity
  8
LAY-9
  6
CONTINUOUS
 62
     1
100
AcDbVertex
100
AcDb2dVertex
 10
690.88695
 20
459.358842
 30
0.0
  0
VERTEX
  5
76C
100
AcDbEntity
  8
LAY-9
  6
CONTINUOUS
 62
     1
100
AcDbVertex
100
AcDb2dVertex
 10
691.546118
 20
458.982512
 30
0.0
  0
VERTEX
  5
76D
100
AcDbEntity
  8
LAY-9
  6
CONTINUOUS
 62
     1
100
AcDbVertex
100
AcDb2dVertex
 10
692.2
 20
458.6
 30
0.0
  0
VERTEX
  5
76E
100
AcDbEntity
  8
LAY-9
  6
CONTINUOUS
 62
     1
100
AcDbVertex
100
AcDb2dVertex
 10
693.091933
 20
458.079768
 30
0.0
  0
VERTEX
  5
76F
100
AcDbEntity
  8
LAY-9
  6
CONTINUOUS
 62
     1
100
AcDbVertex
100
AcDb2dVertex
 10
693.991072
 20
457.572706
 30
0.0
  0
VERTEX
  5
770
100
AcDbEntity
  8
LAY-9
  6
CONTINUOUS
 62
     1
100
AcDbVertex
100
AcDb2dVertex
 10
694.90525
 20
457.090317
 30
0.0
  0
VERTEX
  5
771
100
AcDbEntity
  8
LAY-9
  6
CONTINUOUS
 62
     1
100
AcDbVertex
100
AcDb2dVertex
 10
695.8423
 20
456.644106
 30
0.0
  0
VERTEX
  5
772
100
AcDbEntity
  8
LAY-9
  6
CONTINUOUS
 62
     1
100
AcDbVertex
100
AcDb2dVertex
 10
696.810053
 20
456.245577
 30
0.0
  0
VERTEX
  5
773
100
AcDbEntity
  8
LAY-9
  6
CONTINUOUS
 62
     1
100
AcDbVertex
100
AcDb2dVertex
 10
697.816344
 20
455.906236
 30
0.0
  0
VERTEX
  5
774
100
AcDbEntity
  8
LAY-9
  6
CONTINUOUS
 62
     1
100
AcDbVertex
100
AcDb2dVertex
 10
698.869004
 20
455.637587
 30
0.0
  0
VERTEX
  5
775
100
AcDbEntity
  8
LAY-9
  6
CONTINUOUS
 62
     1
100
AcDbVertex
100
AcDb2dVertex
 10
699.975867
 20
455.451134
 30
0.0
  0
VERTEX
  5
776
100
AcDbEntity
  8
LAY-9
  6
CONTINUOUS
 62
     1
100
AcDbVertex
100
AcDb2dVertex
 10
701.144766
 20
455.358382
 30
0.0
  0
VERTEX
  5
777
100
AcDbEntity
  8
LAY-9
  6
CONTINUOUS
 62
     1
100
AcDbVertex
100
AcDb2dVertex
 10
702.383532
 20
455.370836
 30
0.0
  0
VERTEX
  5
778
100
AcDbEntity
  8
LAY-9
  6
CONTINUOUS
 62
     1
100
AcDbVertex
100
AcDb2dVertex
 10
703.7
 20
455.5
 30
0.0
  0
VERTEX
  5
779
100
AcDbEntity
  8
LAY-9
  6
CONTINUOUS
 62
     1
100
AcDbVertex
100
AcDb2dVertex
 10
704.840144
 20
455.697521
 30
0.0
  0
VERTEX
  5
77A
100
AcDbEntity
  8
LAY-9
  6
CONTINUOUS
 62
     1
100
AcDbVertex
100
AcDb2dVertex
 10
706.009115
 20
455.963307
 30
0.0
  0
VERTEX
  5
77B
100
AcDbEntity
  8
LAY-9
  6
CONTINUOUS
 62
     1
100
AcDbVertex
100
AcDb2dVertex
 10
707.177959
 20
456.27901
 30
0.0
  0
VERTEX
  5
77C
100
AcDbEntity
  8
LAY-9
  6
CONTINUOUS
 62
     1
100
AcDbVertex
100
AcDb2dVertex
 10
708.317724
 20
456.626282
 30
0.0
  0
VERTEX
  5
77D
100
AcDbEntity
  8
LAY-9
  6
CONTINUOUS
 62
     1
100
AcDbVertex
100
AcDb2dVertex
 10
709.399456
 20
456.986778
 30
0.0
  0
VERTEX
  5
77E
100
AcDbEntity
  8
LAY-9
  6
CONTINUOUS
 62
     1
100
AcDbVertex
100
AcDb2dVertex
 10
710.394203
 20
457.34215
 30
0.0
  0
VERTEX
  5
77F
100
AcDbEntity
  8
LAY-9
  6
CONTINUOUS
 62
     1
100
AcDbVertex
100
AcDb2dVertex
 10
711.273012
 20
457.67405
 30
0.0
  0
VERTEX
  5
780
100
AcDbEntity
  8
LAY-9
  6
CONTINUOUS
 62
     1
100
AcDbVertex
100
AcDb2dVertex
 10
712.006929
 20
457.964133
 30
0.0
  0
VERTEX
  5
781
100
AcDbEntity
  8
LAY-9
  6
CONTINUOUS
 62
     1
100
AcDbVertex
100
AcDb2dVertex
 10
712.567003
 20
458.19405
 30
0.0
  0
VERTEX
  5
782
100
AcDbEntity
  8
LAY-9
  6
CONTINUOUS
 62
     1
100
AcDbVertex
100
AcDb2dVertex
 10
712.924279
 20
458.345455
 30
0.0
  0
VERTEX
  5
783
100
AcDbEntity
  8
LAY-9
  6
CONTINUOUS
 62
     1
100
AcDbVertex
100
AcDb2dVertex
 10
713.049805
 20
458.4
 30
0.0
  0
SEQEND
  5
784
100
AcDbEntity
  8
LAY-9
  6
CONTINUOUS
 62
     1
  0
POLYLINE
  5
785
100
AcDbEntity
  8
LAY-9
  6
CONTINUOUS
 62
     1
100
AcDb2dPolyline
 66
     1
 10
0.0
 20
0.0
 30
0.0
 70
   128
  0
VERTEX
  5
786
100
AcDbEntity
  8
LAY-9
  6
CONTINUOUS
 62
     1
100
AcDbVertex
100
AcDb2dVertex
 10
530.0
 20
368.802063
 30
0.0
  0
VERTEX
  5
787
100
AcDbEntity
  8
LAY-9
  6
CONTINUOUS
 62
     1
100
AcDbVertex
100
AcDb2dVertex
 10
529.951797
 20
368.873754
 30
0.0
  0
VERTEX
  5
788
100
AcDbEntity
  8
LAY-9
  6
CONTINUOUS
 62
     1
100
AcDbVertex
100
AcDb2dVertex
 10
529.816221
 20
369.077664
 30
0.0
  0
VERTEX
  5
789
100
AcDbEntity
  8
LAY-9
  6
CONTINUOUS
 62
     1
100
AcDbVertex
100
AcDb2dVertex
 10
529.606821
 20
369.39705
 30
0.0
  0
VERTEX
  5
78A
100
AcDbEntity
  8
LAY-9
  6
CONTINUOUS
 62
     1
100
AcDbVertex
100
AcDb2dVertex
 10
529.337149
 20
369.815167
 30
0.0
  0
VERTEX
  5
78B
100
AcDbEntity
  8
LAY-9
  6
CONTINUOUS
 62
     1
100
AcDbVertex
100
AcDb2dVertex
 10
529.020754
 20
370.315272
 30
0.0
  0
VERTEX
  5
78C
100
AcDbEntity
  8
LAY-9
  6
CONTINUOUS
 62
     1
100
AcDbVertex
100
AcDb2dVertex
 10
528.671186
 20
370.880622
 30
0.0
  0
VERTEX
  5
78D
100
AcDbEntity
  8
LAY-9
  6
CONTINUOUS
 62
     1
100
AcDbVertex
100
AcDb2dVertex
 10
528.301995
 20
371.494472
 30
0.0
  0
VERTEX
  5
78E
100
AcDbEntity
  8
LAY-9
  6
CONTINUOUS
 62
     1
100
AcDbVertex
100
AcDb2dVertex
 10
527.926731
 20
372.140078
 30
0.0
  0
VERTEX
  5
78F
100
AcDbEntity
  8
LAY-9
  6
CONTINUOUS
 62
     1
100
AcDbVertex
100
AcDb2dVertex
 10
527.558943
 20
372.800698
 30
0.0
  0
VERTEX
  5
790
100
AcDbEntity
  8
LAY-9
  6
CONTINUOUS
 62
     1
100
AcDbVertex
100
AcDb2dVertex
 10
527.212183
 20
373.459586
 30
0.0
  0
VERTEX
  5
791
100
AcDbEntity
  8
LAY-9
  6
CONTINUOUS
 62
     1
100
AcDbVertex
100
AcDb2dVertex
 10
526.9
 20
374.1
 30
0.0
  0
VERTEX
  5
792
100
AcDbEntity
  8
LAY-9
  6
CONTINUOUS
 62
     1
100
AcDbVertex
100
AcDb2dVertex
 10
526.699378
 20
374.550728
 30
0.0
  0
VERTEX
  5
793
100
AcDbEntity
  8
LAY-9
  6
CONTINUOUS
 62
     1
100
AcDbVertex
100
AcDb2dVertex
 10
526.523746
 20
374.984646
 30
0.0
  0
VERTEX
  5
794
100
AcDbEntity
  8
LAY-9
  6
CONTINUOUS
 62
     1
100
AcDbVertex
100
AcDb2dVertex
 10
526.372089
 20
375.403975
 30
0.0
  0
VERTEX
  5
795
100
AcDbEntity
  8
LAY-9
  6
CONTINUOUS
 62
     1
100
AcDbVertex
100
AcDb2dVertex
 10
526.24339
 20
375.810939
 30
0.0
  0
VERTEX
  5
796
100
AcDbEntity
  8
LAY-9
  6
CONTINUOUS
 62
     1
100
AcDbVertex
100
AcDb2dVertex
 10
526.136634
 20
376.207756
 30
0.0
  0
VERTEX
  5
797
100
AcDbEntity
  8
LAY-9
  6
CONTINUOUS
 62
     1
100
AcDbVertex
100
AcDb2dVertex
 10
526.050804
 20
376.596649
 30
0.0
  0
VERTEX
  5
798
100
AcDbEntity
  8
LAY-9
  6
CONTINUOUS
 62
     1
100
AcDbVertex
100
AcDb2dVertex
 10
525.984886
 20
376.97984
 30
0.0
  0
VERTEX
  5
799
100
AcDbEntity
  8
LAY-9
  6
CONTINUOUS
 62
     1
100
AcDbVertex
100
AcDb2dVertex
 10
525.937862
 20
377.359549
 30
0.0
  0
VERTEX
  5
79A
100
AcDbEntity
  8
LAY-9
  6
CONTINUOUS
 62
     1
100
AcDbVertex
100
AcDb2dVertex
 10
525.908717
 20
377.737998
 30
0.0
  0
VERTEX
  5
79B
100
AcDbEntity
  8
LAY-9
  6
CONTINUOUS
 62
     1
100
AcDbVertex
100
AcDb2dVertex
 10
525.896435
 20
378.117408
 30
0.0
  0
VERTEX
  5
79C
100
AcDbEntity
  8
LAY-9
  6
CONTINUOUS
 62
     1
100
AcDbVertex
100
AcDb2dVertex
 10
525.9
 20
378.5
 30
0.0
  0
VERTEX
  5
79D
100
AcDbEntity
  8
LAY-9
  6
CONTINUOUS
 62
     1
100
AcDbVertex
100
AcDb2dVertex
 10
525.919986
 20
378.911149
 30
0.0
  0
VERTEX
  5
79E
100
AcDbEntity
  8
LAY-9
  6
CONTINUOUS
 62
     1
100
AcDbVertex
100
AcDb2dVertex
 10
525.955575
 20
379.327663
 30
0.0
  0
VERTEX
  5
79F
100
AcDbEntity
  8
LAY-9
  6
CONTINUOUS
 62
     1
100
AcDbVertex
100
AcDb2dVertex
 10
526.005688
 20
379.748828
 30
0.0
  0
VERTEX
  5
7A0
100
AcDbEntity
  8
LAY-9
  6
CONTINUOUS
 62
     1
100
AcDbVertex
100
AcDb2dVertex
 10
526.069246
 20
380.173932
 30
0.0
  0
VERTEX
  5
7A1
100
AcDbEntity
  8
LAY-9
  6
CONTINUOUS
 62
     1
100
AcDbVertex
100
AcDb2dVertex
 10
526.14517
 20
380.602259
 30
0.0
  0
VERTEX
  5
7A2
100
AcDbEntity
  8
LAY-9
  6
CONTINUOUS
 62
     1
100
AcDbVertex
100
AcDb2dVertex
 10
526.232382
 20
381.033099
 30
0.0
  0
VERTEX
  5
7A3
100
AcDbEntity
  8
LAY-9
  6
CONTINUOUS
 62
     1
100
AcDbVertex
100
AcDb2dVertex
 10
526.329803
 20
381.465736
 30
0.0
  0
VERTEX
  5
7A4
100
AcDbEntity
  8
LAY-9
  6
CONTINUOUS
 62
     1
100
AcDbVertex
100
AcDb2dVertex
 10
526.436354
 20
381.899458
 30
0.0
  0
VERTEX
  5
7A5
100
AcDbEntity
  8
LAY-9
  6
CONTINUOUS
 62
     1
100
AcDbVertex
100
AcDb2dVertex
 10
526.550957
 20
382.333552
 30
0.0
  0
VERTEX
  5
7A6
100
AcDbEntity
  8
LAY-9
  6
CONTINUOUS
 62
     1
100
AcDbVertex
100
AcDb2dVertex
 10
526.672531
 20
382.767304
 30
0.0
  0
VERTEX
  5
7A7
100
AcDbEntity
  8
LAY-9
  6
CONTINUOUS
 62
     1
100
AcDbVertex
100
AcDb2dVertex
 10
526.8
 20
383.2
 30
0.0
  0
VERTEX
  5
7A8
100
AcDbEntity
  8
LAY-9
  6
CONTINUOUS
 62
     1
100
AcDbVertex
100
AcDb2dVertex
 10
527.06646
 20
384.051207
 30
0.0
  0
VERTEX
  5
7A9
100
AcDbEntity
  8
LAY-9
  6
CONTINUOUS
 62
     1
100
AcDbVertex
100
AcDb2dVertex
 10
527.34965
 20
384.894659
 30
0.0
  0
VERTEX
  5
7AA
100
AcDbEntity
  8
LAY-9
  6
CONTINUOUS
 62
     1
100
AcDbVertex
100
AcDb2dVertex
 10
527.647441
 20
385.729527
 30
0.0
  0
VERTEX
  5
7AB
100
AcDbEntity
  8
LAY-9
  6
CONTINUOUS
 62
     1
100
AcDbVertex
100
AcDb2dVertex
 10
527.957705
 20
386.554982
 30
0.0
  0
VERTEX
  5
7AC
100
AcDbEntity
  8
LAY-9
  6
CONTINUOUS
 62
     1
100
AcDbVertex
100
AcDb2dVertex
 10
528.278314
 20
387.370195
 30
0.0
  0
VERTEX
  5
7AD
100
AcDbEntity
  8
LAY-9
  6
CONTINUOUS
 62
     1
100
AcDbVertex
100
AcDb2dVertex
 10
528.607138
 20
388.174339
 30
0.0
  0
VERTEX
  5
7AE
100
AcDbEntity
  8
LAY-9
  6
CONTINUOUS
 62
     1
100
AcDbVertex
100
AcDb2dVertex
 10
528.94205
 20
388.966584
 30
0.0
  0
VERTEX
  5
7AF
100
AcDbEntity
  8
LAY-9
  6
CONTINUOUS
 62
     1
100
AcDbVertex
100
AcDb2dVertex
 10
529.28092
 20
389.746101
 30
0.0
  0
VERTEX
  5
7B0
100
AcDbEntity
  8
LAY-9
  6
CONTINUOUS
 62
     1
100
AcDbVertex
100
AcDb2dVertex
 10
529.621621
 20
390.512062
 30
0.0
  0
VERTEX
  5
7B1
100
AcDbEntity
  8
LAY-9
  6
CONTINUOUS
 62
     1
100
AcDbVertex
100
AcDb2dVertex
 10
529.962024
 20
391.263638
 30
0.0
  0
VERTEX
  5
7B2
100
AcDbEntity
  8
LAY-9
  6
CONTINUOUS
 62
     1
100
AcDbVertex
100
AcDb2dVertex
 10
530.3
 20
392.0
 30
0.0
  0
VERTEX
  5
7B3
100
AcDbEntity
  8
LAY-9
  6
CONTINUOUS
 62
     1
100
AcDbVertex
100
AcDb2dVertex
 10
530.467533
 20
392.363405
 30
0.0
  0
VERTEX
  5
7B4
100
AcDbEntity
  8
LAY-9
  6
CONTINUOUS
 62
     1
100
AcDbVertex
100
AcDb2dVertex
 10
530.632651
 20
392.726075
 30
0.0
  0
VERTEX
  5
7B5
100
AcDbEntity
  8
LAY-9
  6
CONTINUOUS
 62
     1
100
AcDbVertex
100
AcDb2dVertex
 10
530.79408
 20
393.091302
 30
0.0
  0
VERTEX
  5
7B6
100
AcDbEntity
  8
LAY-9
  6
CONTINUOUS
 62
     1
100
AcDbVertex
100
AcDb2dVertex
 10
530.950549
 20
393.462376
 30
0.0
  0
VERTEX
  5
7B7
100
AcDbEntity
  8
LAY-9
  6
CONTINUOUS
 62
     1
100
AcDbVertex
100
AcDb2dVertex
 10
531.100783
 20
393.842587
 30
0.0
  0
VERTEX
  5
7B8
100
AcDbEntity
  8
LAY-9
  6
CONTINUOUS
 62
     1
100
AcDbVertex
100
AcDb2dVertex
 10
531.243511
 20
394.235226
 30
0.0
  0
VERTEX
  5
7B9
100
AcDbEntity
  8
LAY-9
  6
CONTINUOUS
 62
     1
100
AcDbVertex
100
AcDb2dVertex
 10
531.377459
 20
394.643583
 30
0.0
  0
VERTEX
  5
7BA
100
AcDbEntity
  8
LAY-9
  6
CONTINUOUS
 62
     1
100
AcDbVertex
100
AcDb2dVertex
 10
531.501355
 20
395.070948
 30
0.0
  0
VERTEX
  5
7BB
100
AcDbEntity
  8
LAY-9
  6
CONTINUOUS
 62
     1
100
AcDbVertex
100
AcDb2dVertex
 10
531.613925
 20
395.520613
 30
0.0
  0
VERTEX
  5
7BC
100
AcDbEntity
  8
LAY-9
  6
CONTINUOUS
 62
     1
100
AcDbVertex
100
AcDb2dVertex
 10
531.713898
 20
395.995866
 30
0.0
  0
VERTEX
  5
7BD
100
AcDbEntity
  8
LAY-9
  6
CONTINUOUS
 62
     1
100
AcDbVertex
100
AcDb2dVertex
 10
531.8
 20
396.5
 30
0.0
  0
VERTEX
  5
7BE
100
AcDbEntity
  8
LAY-9
  6
CONTINUOUS
 62
     1
100
AcDbVertex
100
AcDb2dVertex
 10
531.89799
 20
397.274331
 30
0.0
  0
VERTEX
  5
7BF
100
AcDbEntity
  8
LAY-9
  6
CONTINUOUS
 62
     1
100
AcDbVertex
100
AcDb2dVertex
 10
531.968628
 20
398.090482
 30
0.0
  0
VERTEX
  5
7C0
100
AcDbEntity
  8
LAY-9
  6
CONTINUOUS
 62
     1
100
AcDbVertex
100
AcDb2dVertex
 10
532.015711
 20
398.924103
 30
0.0
  0
VERTEX
  5
7C1
100
AcDbEntity
  8
LAY-9
  6
CONTINUOUS
 62
     1
100
AcDbVertex
100
AcDb2dVertex
 10
532.043035
 20
399.750845
 30
0.0
  0
VERTEX
  5
7C2
100
AcDbEntity
  8
LAY-9
  6
CONTINUOUS
 62
     1
100
AcDbVertex
100
AcDb2dVertex
 10
532.054398
 20
400.546357
 30
0.0
  0
VERTEX
  5
7C3
100
AcDbEntity
  8
LAY-9
  6
CONTINUOUS
 62
     1
100
AcDbVertex
100
AcDb2dVertex
 10
532.053596
 20
401.286289
 30
0.0
  0
VERTEX
  5
7C4
100
AcDbEntity
  8
LAY-9
  6
CONTINUOUS
 62
     1
100
AcDbVertex
100
AcDb2dVertex
 10
532.044426
 20
401.946292
 30
0.0
  0
VERTEX
  5
7C5
100
AcDbEntity
  8
LAY-9
  6
CONTINUOUS
 62
     1
100
AcDbVertex
100
AcDb2dVertex
 10
532.030685
 20
402.502014
 30
0.0
  0
VERTEX
  5
7C6
100
AcDbEntity
  8
LAY-9
  6
CONTINUOUS
 62
     1
100
AcDbVertex
100
AcDb2dVertex
 10
532.016169
 20
402.929106
 30
0.0
  0
VERTEX
  5
7C7
100
AcDbEntity
  8
LAY-9
  6
CONTINUOUS
 62
     1
100
AcDbVertex
100
AcDb2dVertex
 10
532.004675
 20
403.203218
 30
0.0
  0
VERTEX
  5
7C8
100
AcDbEntity
  8
LAY-9
  6
CONTINUOUS
 62
     1
100
AcDbVertex
100
AcDb2dVertex
 10
532.0
 20
403.3
 30
0.0
  0
SEQEND
  5
7C9
100
AcDbEntity
  8
LAY-9
  6
CONTINUOUS
 62
     1
  0
LINE
  5
7CA
100
AcDbEntity
  8
LAY-9
  6
CONTINUOUS
 62
     1
100
AcDbLine
 10
61.221313
 20
498.370972
 30
0.0
 11
74.45
 21
498.370972
 31
0.0
  0
LINE
  5
7CB
100
AcDbEntity
  8
LAY-9
  6
CONTINUOUS
 62
     1
100
AcDbLine
 10
64.221313
 20
495.370941
 30
0.0
 11
98.8
 21
495.370941
 31
0.0
  0
LINE
  5
7CC
100
AcDbEntity
  8
LAY-9
  6
CONTINUOUS
 62
     1
100
AcDbLine
 10
289.3
 20
498.370972
 30
0.0
 11
336.0
 21
498.370972
 31
0.0
  0
LINE
  5
7CD
100
AcDbEntity
  8
LAY-9
  6
CONTINUOUS
 62
     1
100
AcDbLine
 10
289.1
 20
495.370941
 30
0.0
 11
335.0
 21
495.370941
 31
0.0
  0
LINE
  5
7CE
100
AcDbEntity
  8
LAY-9
  6
CONTINUOUS
 62
     1
100
AcDbLine
 10
336.0
 20
498.370972
 30
0.0
 11
263.2
 21
498.370972
 31
0.0
  0
LINE
  5
7CF
100
AcDbEntity
  8
LAY-9
  6
CONTINUOUS
 62
     1
100
AcDbLine
 10
335.0
 20
495.370941
 30
0.0
 11
257.221313
 21
495.370941
 31
0.0
  0
LINE
  5
7D0
100
AcDbEntity
  8
LAY-9
  6
CONTINUOUS
 62
     1
100
AcDbLine
 10
61.221313
 20
498.370972
 30
0.0
 11
81.2
 21
498.370972
 31
0.0
  0
LINE
  5
7D1
100
AcDbEntity
  8
LAY-9
  6
CONTINUOUS
 62
     1
100
AcDbLine
 10
64.221313
 20
495.370941
 30
0.0
 11
106.221298
 21
495.370941
 31
0.0
  0
LINE
  5
7D2
100
AcDbEntity
  8
LAY-9
  6
CONTINUOUS
 62
     1
100
AcDbLine
 10
496.221313
 20
358.802063
 30
0.0
 11
534.0
 21
358.802063
 31
0.0
  0
LINE
  5
7D3
100
AcDbEntity
  8
LAY-9
  6
CONTINUOUS
 62
     1
100
AcDbLine
 10
61.221313
 20
357.302032
 30
0.0
 11
61.221313
 21
343.802063
 31
0.0
  0
LINE
  5
7D4
100
AcDbEntity
  8
LAY-9
  6
CONTINUOUS
 62
     1
100
AcDbLine
 10
61.221313
 20
441.0
 30
0.0
 11
61.221313
 21
358.802032
 31
0.0
  0
LINE
  5
7D5
100
AcDbEntity
  8
LAY-9
  6
CONTINUOUS
 62
     1
100
AcDbLine
 10
65.821313
 20
394.302063
 30
0.0
 11
69.6
 21
394.302063
 31
0.0
  0
LINE
  5
7D6
100
AcDbEntity
  8
LAY-9
  6
CONTINUOUS
 62
     1
100
AcDbLine
 10
172.221329
 20
394.302063
 30
0.0
 11
407.942078
 21
394.302063
 31
0.0
  0
LINE
  5
7D7
100
AcDbEntity
  8
LAY-9
  6
CONTINUOUS
 62
     1
100
AcDbLine
 10
434.790161
 20
394.302063
 30
0.0
 11
531.205409
 21
394.302063
 31
0.0
  0
LINE
  5
7D8
100
AcDbEntity
  8
LAY-9
  6
CONTINUOUS
 62
     1
100
AcDbLine
 10
414.721283
 20
173.052063
 30
0.0
 11
67.652756
 21
173.052063
 31
0.0
  0
LINE
  5
7D9
100
AcDbEntity
  8
LAY-9
  6
CONTINUOUS
 62
     1
100
AcDbLine
 10
404.721375
 20
133.052063
 30
0.0
 11
67.652756
 21
133.052063
 31
0.0
  0
LINE
  5
7DA
100
AcDbEntity
  8
LAY-9
  6
CONTINUOUS
 62
     1
100
AcDbLine
 10
415.721252
 20
173.052063
 30
0.0
 11
438.721313
 21
173.052063
 31
0.0
  0
LINE
  5
7DB
100
AcDbEntity
  8
LAY-9
  6
CONTINUOUS
 62
     1
100
AcDbLine
 10
405.721313
 20
133.052063
 30
0.0
 11
428.721375
 21
133.052063
 31
0.0
  0
LINE
  5
7DC
100
AcDbEntity
  8
LAY-9
  6
CONTINUOUS
 62
     1
100
AcDbLine
 10
673.049805
 20
374.302063
 30
0.0
 11
673.049805
 21
368.802063
 31
0.0
  0
LINE
  5
7DD
100
AcDbEntity
  8
LAY-9
  6
CONTINUOUS
 62
     1
100
AcDbLine
 10
713.049805
 20
374.302063
 30
0.0
 11
713.049805
 21
368.802063
 31
0.0
  0
LINE
  5
7DE
100
AcDbEntity
  8
LAY-9
  6
CONTINUOUS
 62
     1
100
AcDbLine
 10
673.049805
 20
495.370941
 30
0.0
 11
713.049805
 21
495.370941
 31
0.0
  0
LINE
  5
7DF
100
AcDbEntity
  8
LAY-9
  6
CONTINUOUS
 62
     1
100
AcDbLine
 10
673.049805
 20
458.4
 30
0.0
 11
673.049805
 21
495.370941
 31
0.0
  0
LINE
  5
7E0
100
AcDbEntity
  8
LAY-9
  6
CONTINUOUS
 62
     1
100
AcDbLine
 10
674.649805
 20
459.034164
 30
0.0
 11
674.649805
 21
495.370941
 31
0.0
  0
LINE
  5
7E1
100
AcDbEntity
  8
LAY-9
  6
CONTINUOUS
 62
     1
100
AcDbLine
 10
711.449805
 20
457.699797
 30
0.0
 11
711.449805
 21
495.370941
 31
0.0
  0
LINE
  5
7E2
100
AcDbEntity
  8
LAY-9
  6
CONTINUOUS
 62
     1
100
AcDbLine
 10
713.049805
 20
458.4
 30
0.0
 11
713.049805
 21
495.370941
 31
0.0
  0
POLYLINE
  5
7E3
100
AcDbEntity
  8
LAY-9
  6
CONTINUOUS
 62
     1
100
AcDb2dPolyline
 66
     1
 10
0.0
 20
0.0
 30
0.0
 70
   128
  0
VERTEX
  5
7E4
100
AcDbEntity
  8
LAY-9
  6
CONTINUOUS
 62
     1
100
AcDbVertex
100
AcDb2dVertex
 10
673.049805
 20
449.09566
 30
0.0
  0
VERTEX
  5
7E5
100
AcDbEntity
  8
LAY-9
  6
CONTINUOUS
 62
     1
100
AcDbVertex
100
AcDb2dVertex
 10
673.200848
 20
449.159476
 30
0.0
  0
VERTEX
  5
7E6
100
AcDbEntity
  8
LAY-9
  6
CONTINUOUS
 62
     1
100
AcDbVertex
100
AcDb2dVertex
 10
673.629429
 20
449.334987
 30
0.0
  0
VERTEX
  5
7E7
100
AcDbEntity
  8
LAY-9
  6
CONTINUOUS
 62
     1
100
AcDbVertex
100
AcDb2dVertex
 10
674.298725
 20
449.59828
 30
0.0
  0
VERTEX
  5
7E8
100
AcDbEntity
  8
LAY-9
  6
CONTINUOUS
 62
     1
100
AcDbVertex
100
AcDb2dVertex
 10
675.171911
 20
449.925448
 30
0.0
  0
VERTEX
  5
7E9
100
AcDbEntity
  8
LAY-9
  6
CONTINUOUS
 62
     1
100
AcDbVertex
100
AcDb2dVertex
 10
676.212165
 20
450.292579
 30
0.0
  0
VERTEX
  5
7EA
100
AcDbEntity
  8
LAY-9
  6
CONTINUOUS
 62
     1
100
AcDbVertex
100
AcDb2dVertex
 10
677.382663
 20
450.675765
 30
0.0
  0
VERTEX
  5
7EB
100
AcDbEntity
  8
LAY-9
  6
CONTINUOUS
 62
     1
100
AcDbVertex
100
AcDb2dVertex
 10
678.646582
 20
451.051095
 30
0.0
  0
VERTEX
  5
7EC
100
AcDbEntity
  8
LAY-9
  6
CONTINUOUS
 62
     1
100
AcDbVertex
100
AcDb2dVertex
 10
679.967098
 20
451.394659
 30
0.0
  0
VERTEX
  5
7ED
100
AcDbEntity
  8
LAY-9
  6
CONTINUOUS
 62
     1
100
AcDbVertex
100
AcDb2dVertex
 10
681.307389
 20
451.682548
 30
0.0
  0
VERTEX
  5
7EE
100
AcDbEntity
  8
LAY-9
  6
CONTINUOUS
 62
     1
100
AcDbVertex
100
AcDb2dVertex
 10
682.630631
 20
451.890851
 30
0.0
  0
VERTEX
  5
7EF
100
AcDbEntity
  8
LAY-9
  6
CONTINUOUS
 62
     1
100
AcDbVertex
100
AcDb2dVertex
 10
683.9
 20
451.99566
 30
0.0
  0
VERTEX
  5
7F0
100
AcDbEntity
  8
LAY-9
  6
CONTINUOUS
 62
     1
100
AcDbVertex
100
AcDb2dVertex
 10
684.829443
 20
451.993408
 30
0.0
  0
VERTEX
  5
7F1
100
AcDbEntity
  8
LAY-9
  6
CONTINUOUS
 62
     1
100
AcDbVertex
100
AcDb2dVertex
 10
685.70906
 20
451.921287
 30
0.0
  0
VERTEX
  5
7F2
100
AcDbEntity
  8
LAY-9
  6
CONTINUOUS
 62
     1
100
AcDbVertex
100
AcDb2dVertex
 10
686.543799
 20
451.786373
 30
0.0
  0
VERTEX
  5
7F3
100
AcDbEntity
  8
LAY-9
  6
CONTINUOUS
 62
     1
100
AcDbVertex
100
AcDb2dVertex
 10
687.33861
 20
451.595741
 30
0.0
  0
VERTEX
  5
7F4
100
AcDbEntity
  8
LAY-9
  6
CONTINUOUS
 62
     1
100
AcDbVertex
100
AcDb2dVertex
 10
688.098441
 20
451.356469
 30
0.0
  0
VERTEX
  5
7F5
100
AcDbEntity
  8
LAY-9
  6
CONTINUOUS
 62
     1
100
AcDbVertex
100
AcDb2dVertex
 10
688.828242
 20
451.075633
 30
0.0
  0
VERTEX
  5
7F6
100
AcDbEntity
  8
LAY-9
  6
CONTINUOUS
 62
     1
100
AcDbVertex
100
AcDb2dVertex
 10
689.532961
 20
450.760309
 30
0.0
  0
VERTEX
  5
7F7
100
AcDbEntity
  8
LAY-9
  6
CONTINUOUS
 62
     1
100
AcDbVertex
100
AcDb2dVertex
 10
690.217547
 20
450.417573
 30
0.0
  0
VERTEX
  5
7F8
100
AcDbEntity
  8
LAY-9
  6
CONTINUOUS
 62
     1
100
AcDbVertex
100
AcDb2dVertex
 10
690.88695
 20
450.054502
 30
0.0
  0
VERTEX
  5
7F9
100
AcDbEntity
  8
LAY-9
  6
CONTINUOUS
 62
     1
100
AcDbVertex
100
AcDb2dVertex
 10
691.546118
 20
449.678172
 30
0.0
  0
VERTEX
  5
7FA
100
AcDbEntity
  8
LAY-9
  6
CONTINUOUS
 62
     1
100
AcDbVertex
100
AcDb2dVertex
 10
692.2
 20
449.29566
 30
0.0
  0
VERTEX
  5
7FB
100
AcDbEntity
  8
LAY-9
  6
CONTINUOUS
 62
     1
100
AcDbVertex
100
AcDb2dVertex
 10
693.091933
 20
448.775428
 30
0.0
  0
VERTEX
  5
7FC
100
AcDbEntity
  8
LAY-9
  6
CONTINUOUS
 62
     1
100
AcDbVertex
100
AcDb2dVertex
 10
693.991072
 20
448.268366
 30
0.0
  0
VERTEX
  5
7FD
100
AcDbEntity
  8
LAY-9
  6
CONTINUOUS
 62
     1
100
AcDbVertex
100
AcDb2dVertex
 10
694.90525
 20
447.785976
 30
0.0
  0
VERTEX
  5
7FE
100
AcDbEntity
  8
LAY-9
  6
CONTINUOUS
 62
     1
100
AcDbVertex
100
AcDb2dVertex
 10
695.8423
 20
447.339765
 30
0.0
  0
VERTEX
  5
7FF
100
AcDbEntity
  8
LAY-9
  6
CONTINUOUS
 62
     1
100
AcDbVertex
100
AcDb2dVertex
 10
696.810053
 20
446.941237
 30
0.0
  0
VERTEX
  5
800
100
AcDbEntity
  8
LAY-9
  6
CONTINUOUS
 62
     1
100
AcDbVertex
100
AcDb2dVertex
 10
697.816344
 20
446.601896
 30
0.0
  0
VERTEX
  5
801
100
AcDbEntity
  8
LAY-9
  6
CONTINUOUS
 62
     1
100
AcDbVertex
100
AcDb2dVertex
 10
698.869004
 20
446.333247
 30
0.0
  0
VERTEX
  5
802
100
AcDbEntity
  8
LAY-9
  6
CONTINUOUS
 62
     1
100
AcDbVertex
100
AcDb2dVertex
 10
699.975867
 20
446.146794
 30
0.0
  0
VERTEX
  5
803
100
AcDbEntity
  8
LAY-9
  6
CONTINUOUS
 62
     1
100
AcDbVertex
100
AcDb2dVertex
 10
701.144766
 20
446.054042
 30
0.0
  0
VERTEX
  5
804
100
AcDbEntity
  8
LAY-9
  6
CONTINUOUS
 62
     1
100
AcDbVertex
100
AcDb2dVertex
 10
702.383532
 20
446.066496
 30
0.0
  0
VERTEX
  5
805
100
AcDbEntity
  8
LAY-9
  6
CONTINUOUS
 62
     1
100
AcDbVertex
100
AcDb2dVertex
 10
703.7
 20
446.19566
 30
0.0
  0
VERTEX
  5
806
100
AcDbEntity
  8
LAY-9
  6
CONTINUOUS
 62
     1
100
AcDbVertex
100
AcDb2dVertex
 10
704.840144
 20
446.393181
 30
0.0
  0
VERTEX
  5
807
100
AcDbEntity
  8
LAY-9
  6
CONTINUOUS
 62
     1
100
AcDbVertex
100
AcDb2dVertex
 10
706.009115
 20
446.658967
 30
0.0
  0
VERTEX
  5
808
100
AcDbEntity
  8
LAY-9
  6
CONTINUOUS
 62
     1
100
AcDbVertex
100
AcDb2dVertex
 10
707.177959
 20
446.974669
 30
0.0
  0
VERTEX
  5
809
100
AcDbEntity
  8
LAY-9
  6
CONTINUOUS
 62
     1
100
AcDbVertex
100
AcDb2dVertex
 10
708.317724
 20
447.321942
 30
0.0
  0
VERTEX
  5
80A
100
AcDbEntity
  8
LAY-9
  6
CONTINUOUS
 62
     1
100
AcDbVertex
100
AcDb2dVertex
 10
709.399456
 20
447.682438
 30
0.0
  0
VERTEX
  5
80B
100
AcDbEntity
  8
LAY-9
  6
CONTINUOUS
 62
     1
100
AcDbVertex
100
AcDb2dVertex
 10
710.394203
 20
448.037809
 30
0.0
  0
VERTEX
  5
80C
100
AcDbEntity
  8
LAY-9
  6
CONTINUOUS
 62
     1
100
AcDbVertex
100
AcDb2dVertex
 10
711.273012
 20
448.36971
 30
0.0
  0
VERTEX
  5
80D
100
AcDbEntity
  8
LAY-9
  6
CONTINUOUS
 62
     1
100
AcDbVertex
100
AcDb2dVertex
 10
712.006929
 20
448.659792
 30
0.0
  0
VERTEX
  5
80E
100
AcDbEntity
  8
LAY-9
  6
CONTINUOUS
 62
     1
100
AcDbVertex
100
AcDb2dVertex
 10
712.567003
 20
448.88971
 30
0.0
  0
VERTEX
  5
80F
100
AcDbEntity
  8
LAY-9
  6
CONTINUOUS
 62
     1
100
AcDbVertex
100
AcDb2dVertex
 10
712.924279
 20
449.041114
 30
0.0
  0
VERTEX
  5
810
100
AcDbEntity
  8
LAY-9
  6
CONTINUOUS
 62
     1
100
AcDbVertex
100
AcDb2dVertex
 10
713.049805
 20
449.09566
 30
0.0
  0
SEQEND
  5
811
100
AcDbEntity
  8
LAY-9
  6
CONTINUOUS
 62
     1
  0
LINE
  5
812
100
AcDbEntity
  8
LAY-9
  6
CONTINUOUS
 62
     1
100
AcDbLine
 10
711.449805
 20
448.439588
 30
0.0
 11
711.449805
 21
368.802063
 31
0.0
  0
LINE
  5
813
100
AcDbEntity
  8
LAY-9
  6
CONTINUOUS
 62
     1
100
AcDbLine
 10
713.049805
 20
449.09566
 30
0.0
 11
713.049805
 21
399.302124
 31
0.0
  0
LINE
  5
814
100
AcDbEntity
  8
LAY-9
  6
CONTINUOUS
 62
     1
100
AcDbLine
 10
674.649805
 20
449.729824
 30
0.0
 11
674.649805
 21
368.802063
 31
0.0
  0
LINE
  5
815
100
AcDbEntity
  8
LAY-9
  6
CONTINUOUS
 62
     1
100
AcDbLine
 10
673.049805
 20
449.09566
 30
0.0
 11
673.049805
 21
399.302124
 31
0.0
  0
LINE
  5
816
100
AcDbEntity
  8
LAY-9
  6
CONTINUOUS
 62
     1
100
AcDbLine
 10
643.049805
 20
498.370972
 30
0.0
 11
743.049805
 21
498.370972
 31
0.0
  0
LINE
  5
817
100
AcDbEntity
  8
LAY-9
  6
CONTINUOUS
 62
     1
100
AcDbLine
 10
743.049805
 20
498.370972
 30
0.0
 11
743.049805
 21
533.3
 31
0.0
  0
LINE
  5
818
100
AcDbEntity
  8
LAY-9
  6
CONTINUOUS
 62
     1
100
AcDbLine
 10
643.049805
 20
498.370972
 30
0.0
 11
643.049805
 21
533.3
 31
0.0
  0
LINE
  5
819
100
AcDbEntity
  8
LAY-9
  6
CONTINUOUS
 62
     1
100
AcDbLine
 10
741.449805
 20
499.970972
 30
0.0
 11
741.449805
 21
533.3
 31
0.0
  0
LINE
  5
81A
100
AcDbEntity
  8
LAY-9
  6
CONTINUOUS
 62
     1
100
AcDbLine
 10
644.649805
 20
499.970972
 30
0.0
 11
644.649805
 21
533.3
 31
0.0
  0
LINE
  5
81B
100
AcDbEntity
  8
LAY-9
  6
CONTINUOUS
 62
     1
100
AcDbLine
 10
709.04982
 20
499.970972
 30
0.0
 11
741.449805
 21
499.970972
 31
0.0
  0
LINE
  5
81C
100
AcDbEntity
  8
LAY-9
  6
CONTINUOUS
 62
     1
100
AcDbLine
 10
644.649805
 20
499.970972
 30
0.0
 11
677.04979
 21
499.970972
 31
0.0
  0
LINE
  5
81D
100
AcDbEntity
  8
LAY-9
  6
CONTINUOUS
 62
     1
100
AcDbLine
 10
763.249805
 20
358.802063
 30
0.0
 11
807.5
 21
358.802063
 31
0.0
  0
LINE
  5
81E
100
AcDbEntity
  8
LAY-9
  6
CONTINUOUS
 62
     1
100
AcDbLine
 10
622.849805
 20
358.802063
 30
0.0
 11
585.4
 21
358.802063
 31
0.0
  0
LINE
  5
81F
100
AcDbEntity
  8
LAY-9
  6
CONTINUOUS
 62
     1
100
AcDbLine
 10
504.2
 20
173.052063
 30
0.0
 11
439.721313
 21
173.052063
 31
0.0
  0
LINE
  5
820
100
AcDbEntity
  8
LAY-9
  6
CONTINUOUS
 62
     1
100
AcDbLine
 10
504.2
 20
171.452063
 30
0.0
 11
68.795672
 21
171.452063
 31
0.0
  0
LINE
  5
821
100
AcDbEntity
  8
LAY-9
  6
CONTINUOUS
 62
     1
100
AcDbLine
 10
68.795672
 20
134.652063
 30
0.0
 11
504.2
 21
134.652063
 31
0.0
  0
LINE
  5
822
100
AcDbEntity
  8
LAY-9
  6
CONTINUOUS
 62
     1
100
AcDbLine
 10
504.2
 20
133.052063
 30
0.0
 11
429.721375
 21
133.052063
 31
0.0
  0
POLYLINE
  5
823
100
AcDbEntity
  8
LAY-9
  6
CONTINUOUS
 62
     1
100
AcDb2dPolyline
 66
     1
 10
0.0
 20
0.0
 30
0.0
 70
   128
  0
VERTEX
  5
824
100
AcDbEntity
  8
LAY-9
  6
CONTINUOUS
 62
     1
100
AcDbVertex
100
AcDb2dVertex
 10
504.2
 20
173.052063
 30
0.0
  0
VERTEX
  5
825
100
AcDbEntity
  8
LAY-9
  6
CONTINUOUS
 62
     1
100
AcDbVertex
100
AcDb2dVertex
 10
504.246991
 20
172.877544
 30
0.0
  0
VERTEX
  5
826
100
AcDbEntity
  8
LAY-9
  6
CONTINUOUS
 62
     1
100
AcDbVertex
100
AcDb2dVertex
 10
504.375117
 20
172.382961
 30
0.0
  0
VERTEX
  5
827
100
AcDbEntity
  8
LAY-9
  6
CONTINUOUS
 62
     1
100
AcDbVertex
100
AcDb2dVertex
 10
504.56511
 20
171.611776
 30
0.0
  0
VERTEX
  5
828
100
AcDbEntity
  8
LAY-9
  6
CONTINUOUS
 62
     1
100
AcDbVertex
100
AcDb2dVertex
 10
504.797701
 20
170.60745
 30
0.0
  0
VERTEX
  5
829
100
AcDbEntity
  8
LAY-9
  6
CONTINUOUS
 62
     1
100
AcDbVertex
100
AcDb2dVertex
 10
505.053622
 20
169.413445
 30
0.0
  0
VERTEX
  5
82A
100
AcDbEntity
  8
LAY-9
  6
CONTINUOUS
 62
     1
100
AcDbVertex
100
AcDb2dVertex
 10
505.313602
 20
168.073222
 30
0.0
  0
VERTEX
  5
82B
100
AcDbEntity
  8
LAY-9
  6
CONTINUOUS
 62
     1
100
AcDbVertex
100
AcDb2dVertex
 10
505.558374
 20
166.630243
 30
0.0
  0
VERTEX
  5
82C
100
AcDbEntity
  8
LAY-9
  6
CONTINUOUS
 62
     1
100
AcDbVertex
100
AcDb2dVertex
 10
505.768669
 20
165.12797
 30
0.0
  0
VERTEX
  5
82D
100
AcDbEntity
  8
LAY-9
  6
CONTINUOUS
 62
     1
100
AcDbVertex
100
AcDb2dVertex
 10
505.925217
 20
163.609864
 30
0.0
  0
VERTEX
  5
82E
100
AcDbEntity
  8
LAY-9
  6
CONTINUOUS
 62
     1
100
AcDbVertex
100
AcDb2dVertex
 10
506.008751
 20
162.119387
 30
0.0
  0
VERTEX
  5
82F
100
AcDbEntity
  8
LAY-9
  6
CONTINUOUS
 62
     1
100
AcDbVertex
100
AcDb2dVertex
 10
506.0
 20
160.7
 30
0.0
  0
VERTEX
  5
830
100
AcDbEntity
  8
LAY-9
  6
CONTINUOUS
 62
     1
100
AcDbVertex
100
AcDb2dVertex
 10
505.937837
 20
159.837125
 30
0.0
  0
VERTEX
  5
831
100
AcDbEntity
  8
LAY-9
  6
CONTINUOUS
 62
     1
100
AcDbVertex
100
AcDb2dVertex
 10
505.834201
 20
159.017918
 30
0.0
  0
VERTEX
  5
832
100
AcDbEntity
  8
LAY-9
  6
CONTINUOUS
 62
     1
100
AcDbVertex
100
AcDb2dVertex
 10
505.694333
 20
158.238074
 30
0.0
  0
VERTEX
  5
833
100
AcDbEntity
  8
LAY-9
  6
CONTINUOUS
 62
     1
100
AcDbVertex
100
AcDb2dVertex
 10
505.523474
 20
157.493291
 30
0.0
  0
VERTEX
  5
834
100
AcDbEntity
  8
LAY-9
  6
CONTINUOUS
 62
     1
100
AcDbVertex
100
AcDb2dVertex
 10
505.326866
 20
156.779265
 30
0.0
  0
VERTEX
  5
835
100
AcDbEntity
  8
LAY-9
  6
CONTINUOUS
 62
     1
100
AcDbVertex
100
AcDb2dVertex
 10
505.10975
 20
156.091691
 30
0.0
  0
VERTEX
  5
836
100
AcDbEntity
  8
LAY-9
  6
CONTINUOUS
 62
     1
100
AcDbVertex
100
AcDb2dVertex
 10
504.877367
 20
155.426268
 30
0.0
  0
VERTEX
  5
837
100
AcDbEntity
  8
LAY-9
  6
CONTINUOUS
 62
     1
100
AcDbVertex
100
AcDb2dVertex
 10
504.634959
 20
154.77869
 30
0.0
  0
VERTEX
  5
838
100
AcDbEntity
  8
LAY-9
  6
CONTINUOUS
 62
     1
100
AcDbVertex
100
AcDb2dVertex
 10
504.387768
 20
154.144656
 30
0.0
  0
VERTEX
  5
839
100
AcDbEntity
  8
LAY-9
  6
CONTINUOUS
 62
     1
100
AcDbVertex
100
AcDb2dVertex
 10
504.141034
 20
153.51986
 30
0.0
  0
VERTEX
  5
83A
100
AcDbEntity
  8
LAY-9
  6
CONTINUOUS
 62
     1
100
AcDbVertex
100
AcDb2dVertex
 10
503.9
 20
152.9
 30
0.0
  0
VERTEX
  5
83B
100
AcDbEntity
  8
LAY-9
  6
CONTINUOUS
 62
     1
100
AcDbVertex
100
AcDb2dVertex
 10
503.572886
 20
152.01178
 30
0.0
  0
VERTEX
  5
83C
100
AcDbEntity
  8
LAY-9
  6
CONTINUOUS
 62
     1
100
AcDbVertex
100
AcDb2dVertex
 10
503.272642
 20
151.116673
 30
0.0
  0
VERTEX
  5
83D
100
AcDbEntity
  8
LAY-9
  6
CONTINUOUS
 62
     1
100
AcDbVertex
100
AcDb2dVertex
 10
503.003633
 20
150.206492
 30
0.0
  0
VERTEX
  5
83E
100
AcDbEntity
  8
LAY-9
  6
CONTINUOUS
 62
     1
100
AcDbVertex
100
AcDb2dVertex
 10
502.770226
 20
149.273051
 30
0.0
  0
VERTEX
  5
83F
100
AcDbEntity
  8
LAY-9
  6
CONTINUOUS
 62
     1
100
AcDbVertex
100
AcDb2dVertex
 10
502.576787
 20
148.308164
 30
0.0
  0
VERTEX
  5
840
100
AcDbEntity
  8
LAY-9
  6
CONTINUOUS
 62
     1
100
AcDbVertex
100
AcDb2dVertex
 10
502.427683
 20
147.303643
 30
0.0
  0
VERTEX
  5
841
100
AcDbEntity
  8
LAY-9
  6
CONTINUOUS
 62
     1
100
AcDbVertex
100
AcDb2dVertex
 10
502.32728
 20
146.251302
 30
0.0
  0
VERTEX
  5
842
100
AcDbEntity
  8
LAY-9
  6
CONTINUOUS
 62
     1
100
AcDbVertex
100
AcDb2dVertex
 10
502.279944
 20
145.142954
 30
0.0
  0
VERTEX
  5
843
100
AcDbEntity
  8
LAY-9
  6
CONTINUOUS
 62
     1
100
AcDbVertex
100
AcDb2dVertex
 10
502.290041
 20
143.970412
 30
0.0
  0
VERTEX
  5
844
100
AcDbEntity
  8
LAY-9
  6
CONTINUOUS
 62
     1
100
AcDbVertex
100
AcDb2dVertex
 10
502.361938
 20
142.725489
 30
0.0
  0
VERTEX
  5
845
100
AcDbEntity
  8
LAY-9
  6
CONTINUOUS
 62
     1
100
AcDbVertex
100
AcDb2dVertex
 10
502.5
 20
141.4
 30
0.0
  0
VERTEX
  5
846
100
AcDbEntity
  8
LAY-9
  6
CONTINUOUS
 62
     1
100
AcDbVertex
100
AcDb2dVertex
 10
502.644492
 20
140.373863
 30
0.0
  0
VERTEX
  5
847
100
AcDbEntity
  8
LAY-9
  6
CONTINUOUS
 62
     1
100
AcDbVertex
100
AcDb2dVertex
 10
502.818094
 20
139.325091
 30
0.0
  0
VERTEX
  5
848
100
AcDbEntity
  8
LAY-9
  6
CONTINUOUS
 62
     1
100
AcDbVertex
100
AcDb2dVertex
 10
503.011773
 20
138.279044
 30
0.0
  0
VERTEX
  5
849
100
AcDbEntity
  8
LAY-9
  6
CONTINUOUS
 62
     1
100
AcDbVertex
100
AcDb2dVertex
 10
503.216494
 20
137.261083
 30
0.0
  0
VERTEX
  5
84A
100
AcDbEntity
  8
LAY-9
  6
CONTINUOUS
 62
     1
100
AcDbVertex
100
AcDb2dVertex
 10
503.423227
 20
136.296569
 30
0.0
  0
VERTEX
  5
84B
100
AcDbEntity
  8
LAY-9
  6
CONTINUOUS
 62
     1
100
AcDbVertex
100
AcDb2dVertex
 10
503.622937
 20
135.410862
 30
0.0
  0
VERTEX
  5
84C
100
AcDbEntity
  8
LAY-9
  6
CONTINUOUS
 62
     1
100
AcDbVertex
100
AcDb2dVertex
 10
503.806592
 20
134.629323
 30
0.0
  0
VERTEX
  5
84D
100
AcDbEntity
  8
LAY-9
  6
CONTINUOUS
 62
     1
100
AcDbVertex
100
AcDb2dVertex
 10
503.965159
 20
133.977313
 30
0.0
  0
VERTEX
  5
84E
100
AcDbEntity
  8
LAY-9
  6
CONTINUOUS
 62
     1
100
AcDbVertex
100
AcDb2dVertex
 10
504.089604
 20
133.480192
 30
0.0
  0
VERTEX
  5
84F
100
AcDbEntity
  8
LAY-9
  6
CONTINUOUS
 62
     1
100
AcDbVertex
100
AcDb2dVertex
 10
504.170896
 20
133.163322
 30
0.0
  0
VERTEX
  5
850
100
AcDbEntity
  8
LAY-9
  6
CONTINUOUS
 62
     1
100
AcDbVertex
100
AcDb2dVertex
 10
504.2
 20
133.052063
 30
0.0
  0
SEQEND
  5
851
100
AcDbEntity
  8
LAY-9
  6
CONTINUOUS
 62
     1
  0
LINE
  5
852
100
AcDbEntity
  8
LAY-10
  6
CONTINUOUS
 62
     1
100
AcDbLine
 10
406.0
 20
1.0
 30
0.0
 11
407.0
 21
1.0
 31
0.0
  0
LINE
  5
853
100
AcDbEntity
  8
LAY-10
  6
CONTINUOUS
 62
     5
100
AcDbLine
 10
15.0
 20
15.0
 30
0.0
 11
826.0
 21
15.0
 31
0.0
  0
LINE
  5
854
100
AcDbEntity
  8
LAY-10
  6
CONTINUOUS
 62
     5
100
AcDbLine
 10
826.0
 20
15.0
 30
0.0
 11
826.0
 21
579.0
 31
0.0
  0
LINE
  5
855
100
AcDbEntity
  8
LAY-10
  6
CONTINUOUS
 62
     5
100
AcDbLine
 10
15.0
 20
15.0
 30
0.0
 11
15.0
 21
579.0
 31
0.0
  0
LINE
  5
856
100
AcDbEntity
  8
LAY-10
  6
CONTINUOUS
 62
     5
100
AcDbLine
 10
15.0
 20
579.0
 30
0.0
 11
826.0
 21
579.0
 31
0.0
  0
LINE
  5
857
100
AcDbEntity
  8
LAY-10
  6
CONTINUOUS
 62
     5
100
AcDbLine
 10
15.0
 20
40.0
 30
0.0
 11
826.0
 21
40.0
 31
0.0
  0
LINE
  5
858
100
AcDbEntity
  8
LAY-10
  6
CONTINUOUS
 62
     1
100
AcDbLine
 10
224.0
 20
40.0
 30
0.0
 11
224.0
 21
15.0
 31
0.0
  0
LINE
  5
859
100
AcDbEntity
  8
LAY-10
  6
CONTINUOUS
 62
     1
100
AcDbLine
 10
249.5
 20
40.0
 30
0.0
 11
249.5
 21
15.0
 31
0.0
  0
LINE
  5
85A
100
AcDbEntity
  8
LAY-10
  6
CONTINUOUS
 62
     1
100
AcDbLine
 10
275.0
 20
40.0
 30
0.0
 11
275.0
 21
15.0
 31
0.0
  0
LINE
  5
85B
100
AcDbEntity
  8
LAY-10
  6
CONTINUOUS
 62
     1
100
AcDbLine
 10
300.5
 20
40.0
 30
0.0
 11
300.5
 21
15.0
 31
0.0
  0
LINE
  5
85C
100
AcDbEntity
  8
LAY-10
  6
CONTINUOUS
 62
     1
100
AcDbLine
 10
326.0
 20
40.0
 30
0.0
 11
326.0
 21
15.0
 31
0.0
  0
LINE
  5
85D
100
AcDbEntity
  8
LAY-10
  6
CONTINUOUS
 62
     1
100
AcDbLine
 10
377.0
 20
40.0
 30
0.0
 11
377.0
 21
15.0
 31
0.0
  0
LINE
  5
85E
100
AcDbEntity
  8
LAY-10
  6
CONTINUOUS
 62
     1
100
AcDbLine
 10
738.0
 20
40.0
 30
0.0
 11
738.0
 21
15.0
 31
0.0
  0
LINE
  5
85F
100
AcDbEntity
  8
LAY-10
  6
CONTINUOUS
 62
     1
100
AcDbLine
 10
224.0
 20
32.0
 30
0.0
 11
377.0
 21
32.0
 31
0.0
  0
TEXT
  5
860
100
AcDbEntity
  8
LAY-10
  6
CONTINUOUS
 62
     4
100
AcDbText
 10
227.5
 20
33.0
 30
0.0
 40
6.0
  1
検　  図
 41
0.57856
  7
EXCADSTD
 72
     5
 11
246.700001
 21
33.0
 31
0.0
100
AcDbText
  0
TEXT
  5
861
100
AcDbEntity
  8
LAY-10
  6
CONTINUOUS
 62
     4
100
AcDbText
 10
253.2
 20
33.0
 30
0.0
 40
6.0
  1
担　　当
 41
0.672
  7
EXCADSTD
 72
     5
 11
272.400001
 21
33.0
 31
0.0
100
AcDbText
  0
TEXT
  5
862
100
AcDbEntity
  8
LAY-10
  6
CONTINUOUS
 62
     4
100
AcDbText
 10
278.4
 20
33.0
 30
0.0
 40
6.0
  1
製　　図
 41
0.672
  7
EXCADSTD
 72
     5
 11
297.600001
 21
33.0
 31
0.0
100
AcDbText
  0
TEXT
  5
863
100
AcDbEntity
  8
LAY-10
  6
CONTINUOUS
 62
     4
100
AcDbText
 10
303.9
 20
33.0
 30
0.0
 40
6.0
  1
尺　　度
 41
0.672
  7
EXCADSTD
 72
     5
 11
323.100001
 21
33.0
 31
0.0
100
AcDbText
  0
TEXT
  5
864
100
AcDbEntity
  8
LAY-10
  6
CONTINUOUS
 62
     4
100
AcDbText
 10
339.5
 20
33.0
 30
0.0
 40
6.0
  1
作成年月日
 41
0.672
  7
EXCADSTD
 72
     5
 11
363.500001
 21
33.0
 31
0.0
100
AcDbText
  0
TEXT
  5
865
100
AcDbEntity
  8
LAY-10
  6
CONTINUOUS
 62
   134
100
AcDbText
 10
42.98
 20
20.91
 30
0.0
 40
13.0
  1
日本ドアーチエック製造株式会社
 41
0.653908
  7
EXCADSTD
 72
     5
 11
194.779994
 21
20.91
 31
0.0
100
AcDbText
  0
LINE
  5
866
100
AcDbEntity
  8
LAY-10
  6
CONTINUOUS
 62
     1
100
AcDbLine
 10
841.0
 20
0.0
 30
0.0
 11
841.0
 21
2.0
 31
0.0
  0
LINE
  5
867
100
AcDbEntity
  8
LAY-10
  6
CONTINUOUS
 62
     1
100
AcDbLine
 10
841.0
 20
592.0
 30
0.0
 11
841.0
 21
594.0
 31
0.0
  0
LINE
  5
868
100
AcDbEntity
  8
LAY-10
  6
CONTINUOUS
 62
     1
100
AcDbLine
 10
841.0
 20
594.0
 30
0.0
 11
839.0
 21
594.0
 31
0.0
  0
LINE
  5
869
100
AcDbEntity
  8
LAY-10
  6
CONTINUOUS
 62
     1
100
AcDbLine
 10
2.0
 20
594.0
 30
0.0
 11
0.0
 21
594.0
 31
0.0
  0
LINE
  5
86A
100
AcDbEntity
  8
LAY-10
  6
CONTINUOUS
 62
     1
100
AcDbLine
 10
0.0
 20
594.0
 30
0.0
 11
0.0
 21
592.0
 31
0.0
  0
LINE
  5
86B
100
AcDbEntity
  8
LAY-10
  6
CONTINUOUS
 62
     1
100
AcDbLine
 10
0.0
 20
2.0
 30
0.0
 11
0.0
 21
0.0
 31
0.0
  0
LINE
  5
86C
100
AcDbEntity
  8
LAY-10
  6
CONTINUOUS
 62
     1
100
AcDbLine
 10
0.0
 20
0.0
 30
0.0
 11
2.0
 21
0.0
 31
0.0
  0
LINE
  5
86D
100
AcDbEntity
  8
LAY-10
  6
CONTINUOUS
 62
     1
100
AcDbLine
 10
839.0
 20
0.0
 30
0.0
 11
841.0
 21
0.0
 31
0.0
  0
TEXT
  5
86E
100
AcDbEntity
  8
LAY-10
  6
CONTINUOUS
 62
     4
100
AcDbText
 10
383.0
 20
33.0
 30
0.0
 40
6.0
  1
図 面 名
 41
0.57856
  7
EXCADSTD
 72
     5
 11
402.200001
 21
33.0
 31
0.0
100
AcDbText
  0
TEXT
  5
86F
100
AcDbEntity
  8
LAY-10
  6
CONTINUOUS
 62
     4
100
AcDbText
 10
744.0
 20
33.0
 30
0.0
 40
6.0
  1
図面番号
 41
0.672
  7
EXCADSTD
 72
     5
 11
763.200001
 21
33.0
 31
0.0
100
AcDbText
  0
TEXT
  5
870
100
AcDbEntity
  8
LAY-10
  6
CONTINUOUS
 62
     2
100
AcDbText
 10
306.5
 20
20.2
 30
0.0
 40
6.0
  1
１／１
 41
0.672
  7
EXCADSTD
 72
     5
 11
320.900001
 21
20.2
 31
0.0
100
AcDbText
  0
TEXT
  5
871
100
AcDbEntity
  8
LAY-10
  6
CONTINUOUS
 62
     2
100
AcDbText
 10
406.828367
 20
19.274519
 30
0.0
 40
10.0
  1
フロアヒンジ　４０/Ｓ－４０　納まり図
 41
0.660875
  7
EXCADSTD
 72
     5
 11
554.828367
 21
19.274519
 31
0.0
100
AcDbText
  0
ENDSEC
  0
SECTION
  2
OBJECTS
  0
DICTIONARY
  5
19
100
AcDbDictionary
  3
ACAD_GROUP
350
1A
  3
ACAD_MLINESTYLE
350
1B
  0
DICTIONARY
  5
1A
102
{ACAD_REACTORS
330
19
102
}
100
AcDbDictionary
  0
DICTIONARY
  5
1B
102
{ACAD_REACTORS
330
19
102
}
100
AcDbDictionary
  3
STANDARD
350
1C
  0
MLINESTYLE
  5
1C
102
{ACAD_REACTORS
330
1B
102
}
100
AcDbMlineStyle
  2
Standard
 70
     0
  3

 62
     0
 51
90.0
 52
90.0
 71
     2
 49
0.5
 62
   256
  6
ByLayer
 49
-0.5
 62
   256
  6
ByLayer
  0
ENDSEC
  0
EOF
