  0
SECTION
  2
HEADER
  9
$ACADVER
  1
AC1014
  9
$ACADMAINTVER
 70
     0
  9
$DWGCODEPAGE
  3
ANSI_932
  9
$INSBASE
 10
0.0
 20
0.0
 30
0.0
  9
$EXTMIN
 10
0.0
 20
0.0
 30
0.0
  9
$EXTMAX
 10
841.0
 20
594.0
 30
0.0
  9
$LIMMIN
 10
0.0
 20
0.0
  9
$LIMMAX
 10
841.0
 20
594.0
  9
$ORTHOMODE
 70
     0
  9
$REGENMODE
 70
     1
  9
$FILLMODE
 70
     1
  9
$QTEXTMODE
 70
     0
  9
$MIRRTEXT
 70
     1
  9
$DRAGMODE
 70
     2
  9
$LTSCALE
 40
1.0
  9
$OSMODE
 70
     0
  9
$ATTMODE
 70
     1
  9
$TEXTSIZE
 40
0.2
  9
$TRACEWID
 40
0.05
  9
$TEXTSTYLE
  7
STANDARD
  9
$CLAYER
  8
LAY-6
  9
$CELTYPE
  6
CONTINUOUS
  9
$CECOLOR
 62
   256
  9
$CELTSCALE
 40
1.0
  9
$DELOBJ
 70
     1
  9
$DISPSILH
 70
     0
  9
$DIMSCALE
 40
1.0
  9
$DIMASZ
 40
0.18
  9
$DIMEXO
 40
0.0625
  9
$DIMDLI
 40
0.38
  9
$DIMRND
 40
0.0
  9
$DIMDLE
 40
0.0
  9
$DIMEXE
 40
0.18
  9
$DIMTP
 40
0.0
  9
$DIMTM
 40
0.0
  9
$DIMTXT
 40
0.18
  9
$DIMCEN
 40
0.09
  9
$DIMTSZ
 40
0.0
  9
$DIMTOL
 70
     0
  9
$DIMLIM
 70
     0
  9
$DIMTIH
 70
     1
  9
$DIMTOH
 70
     1
  9
$DIMSE1
 70
     0
  9
$DIMSE2
 70
     0
  9
$DIMTAD
 70
     0
  9
$DIMZIN
 70
     0
  9
$DIMBLK
  1

  9
$DIMASO
 70
     1
  9
$DIMSHO
 70
     1
  9
$DIMPOST
  1

  9
$DIMAPOST
  1

  9
$DIMALT
 70
     0
  9
$DIMALTD
 70
     2
  9
$DIMALTF
 40
25.4
  9
$DIMLFAC
 40
1.0
  9
$DIMTOFL
 70
     0
  9
$DIMTVP
 40
0.0
  9
$DIMTIX
 70
     0
  9
$DIMSOXD
 70
     0
  9
$DIMSAH
 70
     0
  9
$DIMBLK1
  1

  9
$DIMBLK2
  1

  9
$DIMSTYLE
  2
STANDARD
  9
$DIMCLRD
 70
     0
  9
$DIMCLRE
 70
     0
  9
$DIMCLRT
 70
     0
  9
$DIMTFAC
 40
1.0
  9
$DIMGAP
 40
0.09
  9
$DIMJUST
 70
     0
  9
$DIMSD1
 70
     0
  9
$DIMSD2
 70
     0
  9
$DIMTOLJ
 70
     1
  9
$DIMTZIN
 70
     0
  9
$DIMALTZ
 70
     0
  9
$DIMALTTZ
 70
     0
  9
$DIMFIT
 70
     3
  9
$DIMUPT
 70
     0
  9
$DIMUNIT
 70
     2
  9
$DIMDEC
 70
     4
  9
$DIMTDEC
 70
     4
  9
$DIMALTU
 70
     2
  9
$DIMALTTD
 70
     2
  9
$DIMTXSTY
  7
STANDARD
  9
$DIMAUNIT
 70
     0
  9
$LUNITS
 70
     2
  9
$LUPREC
 70
     4
  9
$SKETCHINC
 40
0.1
  9
$FILLETRAD
 40
0.0
  9
$AUNITS
 70
     0
  9
$AUPREC
 70
     0
  9
$MENU
  1
acad
  9
$ELEVATION
 40
0.0
  9
$PELEVATION
 40
0.0
  9
$THICKNESS
 40
0.0
  9
$LIMCHECK
 70
     0
  9
$BLIPMODE
 70
     1
  9
$CHAMFERA
 40
0.0
  9
$CHAMFERB
 40
0.0
  9
$CHAMFERC
 40
0.0
  9
$CHAMFERD
 40
0.0
  9
$SKPOLY
 70
     0
  9
$TDCREATE
 40
2454542.106631377
  9
$TDUPDATE
 40
2454542.106631377
  9
$TDINDWG
 40
0.0000000000
  9
$TDUSRTIMER
 40
0.0000000000
  9
$USRTIMER
 70
     1
  9
$ANGBASE
 50
0.0
  9
$ANGDIR
 70
     0
  9
$PDMODE
 70
     0
  9
$PDSIZE
 40
0.0
  9
$PLINEWID
 40
0.0
  9
$COORDS
 70
     1
  9
$SPLFRAME
 70
     0
  9
$SPLINETYPE
 70
     6
  9
$SPLINESEGS
 70
     8
  9
$ATTDIA
 70
     0
  9
$ATTREQ
 70
     1
  9
$HANDLING
 70
     1
  9
$HANDSEED
  5
7BC
  9
$SURFTAB1
 70
     6
  9
$SURFTAB2
 70
     6
  9
$SURFTYPE
 70
     6
  9
$SURFU
 70
     6
  9
$SURFV
 70
     6
  9
$UCSNAME
  2

  9
$UCSORG
 10
0.0
 20
0.0
 30
0.0
  9
$UCSXDIR
 10
1.0
 20
0.0
 30
0.0
  9
$UCSYDIR
 10
0.0
 20
1.0
 30
0.0
  9
$PUCSNAME
  2

  9
$PUCSORG
 10
0.0
 20
0.0
 30
0.0
  9
$PUCSXDIR
 10
1.0
 20
0.0
 30
0.0
  9
$PUCSYDIR
 10
0.0
 20
1.0
 30
0.0
  9
$USERI1
 70
     0
  9
$USERI2
 70
     0
  9
$USERI3
 70
     0
  9
$USERI4
 70
     0
  9
$USERI5
 70
     0
  9
$USERR1
 40
0.0
  9
$USERR2
 40
0.0
  9
$USERR3
 40
0.0
  9
$USERR4
 40
0.0
  9
$USERR5
 40
0.0
  9
$WORLDVIEW
 70
     1
  9
$SHADEDGE
 70
     3
  9
$SHADEDIF
 70
    70
  9
$TILEMODE
 70
     1
  9
$MAXACTVP
 70
    16
  9
$PINSBASE
 10
0.0
 20
0.0
 30
0.0
  9
$PLIMCHECK
 70
     0
  9
$PEXTMIN
 10
1.000000E+20
 20
1.000000E+20
 30
1.000000E+20
  9
$PEXTMAX
 10
-1.000000E+20
 20
-1.000000E+20
 30
-1.000000E+20
  9
$PLIMMIN
 10
0.0
 20
0.0
  9
$PLIMMAX
 10
12.0
 20
9.0
  9
$UNITMODE
 70
     0
  9
$VISRETAIN
 70
     0
  9
$PLINEGEN
 70
     1
  9
$PSLTSCALE
 70
     0
  9
$TREEDEPTH
 70
  3020
  9
$PICKSTYLE
 70
     1
  9
$CMLSTYLE
  2
Standard
  9
$CMLJUST
 70
     0
  9
$CMLSCALE
 40
1.0
  9
$PROXYGRAPHICS
 70
     0
  9
$MEASUREMENT
 70
     0
  0
ENDSEC
  0
SECTION
  2
CLASSES
  0
CLASS
  1
LWPOLYLINE
  2
AcDbPolyline
  3
"AutoCAD"
 90
        0
280
     0
281
     1
  0
CLASS
  1
IMAGE
  2
AcDbRasterImage
  3
ISM
 90
      127
280
     0
281
     1
  0
CLASS
  1
OLE2FRAME
  2
AcDbOle2Frame
  3
""
 90
        0
280
     0
281
     1
  0
CLASS
  1
HATCH
  2
AcDbHatch
  3
"ACAD_SEDONA"
 90
        0
280
     0
281
     1
  0
CLASS
  1
DICTIONARYVAR
  2
AcDbDictionaryVar
  3
"AutoCAD"
 90
        0
280
     0
281
     0
  0
CLASS
  1
RASTERVARIABLES
  2
AcDbRasterVariables
  3
ISM
 90
        0
280
     0
281
     0
  0
CLASS
  1
IMAGEDEF
  2
AcDbRasterImageDef
  3
ISM
 90
        0
280
     0
281
     0
  0
CLASS
  1
IMAGEDEF_REACTOR
  2
AcDbRasterImageDefReactor
  3
ISM
 90
        1
280
     0
281
     0
  0
CLASS
  1
IDBUFFER
  2
AcDbIdBuffer
  3
"Acad"
 90
        0
280
     0
281
     0
  0
CLASS
  1
SPATIAL_FILTER
  2
AcDbSpatialFilter
  3
"Acad"
 90
        0
280
     0
281
     0
  0
CLASS
  1
XRECORD
  2
AcDbXrecord
  3
"<Built In>"
 90
        0
280
     0
281
     0
  0
CLASS
  1
SORTENTSTABLE
  2
AcDbSortentsTable
  3
"AutoCAD"
 90
        0
280
     0
281
     0
  0
CLASS
  1
LAYER_INDEX
  2
AcDbLayerIndex
  3
"Acad"
 90
        0
280
     0
281
     0
  0
CLASS
  1
SPATIAL_INDEX
  2
AcDbSpatialIndex
  3
"Acad"
 90
        0
280
     0
281
     0
  0
CLASS
  1
OBJECT_PTR
  2
CAseDLPNTableRecord
  3
"ASE-LPNTableRecord"
 90
        1
280
     0
281
     0
  0
CLASS
  1
LAYOUT
  2
AcDbLayout
  3
"AutoCAD 2000"
 90
        0
280
     0
281
     0
  0
CLASS
  1
PLOTSETTINGS
  2
AcDbPlotSettings
  3
"AutoCAD 2000"
 90
        0
280
     0
281
     0
  0
CLASS
  1
ACDBDICTIONARYWDFLT
  2
AcDbDictionaryWithDefault
  3
"AutoCAD 2000"
 90
        0
280
     0
281
     0
  0
CLASS
  1
ACDBPLACEHOLDER
  2
AcDbPlaceHolder
  3
"AutoCAD 2000"
 90
        0
280
     0
281
     0
  0
CLASS
  1
VBA_PROJECT
  2
AcDbVbaProject
  3
"acadvba"
 90
        0
280
     0
281
     0
  0
CLASS
  1
WIPEOUT
  2
AcDbWipeout
  3
WipeOut|AutoCAD Express Tool|expresstools@autodesk.com
 90
      127
280
     0
281
     1
  0
CLASS
  1
WIPEOUTVARIABLES
  2
AcDbWipeoutVariables
  3
WipeOut|AutoCAD Express Tool|expresstools@autodesk.com
 90
        0
280
     0
281
     0
  0
CLASS
  1
RTEXT
  2
RText
  3
RText|AutoCAD Express Tool|expresstools@autodesk.com
 90
        0
280
     0
281
     1
  0
CLASS
  1
ARCALIGNEDTEXT
  2
AcDbArcAlignedText
  3
ATEXT|AutoCAD Express Tool|expresstools@autodesk.com
 90
        0
280
     0
281
     1
  0
ENDSEC
  0
SECTION
  2
TABLES
  0
TABLE
  2
VPORT
  5
7
100
AcDbSymbolTable
 70
     1
  0
VPORT
  5
15
100
AcDbSymbolTableRecord
100
AcDbViewportTableRecord
  2
*ACTIVE
 70
     0
 10
0.0
 20
0.0
 11
1.0
 21
1.0
 12
420.5
 22
297.0
 13
0.0
 23
0.0
 14
1.0
 24
1.0
 15
0.0
 25
0.0
 16
0.0
 26
0.0
 36
1.0
 17
0.0
 27
0.0
 37
0.0
 40
594.0
 41
1.722533
 42
50.0
 43
0.0
 44
0.0
 50
0.0
 51
0.0
 71
     0
 72
   100
 73
     1
 74
     1
 75
     0
 76
     0
 77
     0
 78
     0
  0
ENDTAB
  0
TABLE
  2
LTYPE
  5
4
100
AcDbSymbolTable
 70
     9
  0
LTYPE
  5
11
100
AcDbSymbolTableRecord
100
AcDbLinetypeTableRecord
  2
BYBLOCK
 70
    64
  3

 72
    65
 73
     0
 40
0.0
  0
LTYPE
  5
12
100
AcDbSymbolTableRecord
100
AcDbLinetypeTableRecord
  2
BYLAYER
 70
    64
  3

 72
    65
 73
     0
 40
0.0
  0
LTYPE
  5
13
100
AcDbSymbolTableRecord
100
AcDbLinetypeTableRecord
  2
CONTINUOUS
 70
    64
  3
実線
 72
    65
 73
     0
 40
0.0
  0
LTYPE
  5
1D
100
AcDbSymbolTableRecord
100
AcDbLinetypeTableRecord
  2
DASHED
 70
    64
  3
Dashed __ __ __ __ __ __ __ __ __ __ __ __ __ _
 72
    65
 73
     2
 40
19.05
 49
12.7
 74
     0
 49
-6.35
 74
     0
  0
LTYPE
  5
1E
100
AcDbSymbolTableRecord
100
AcDbLinetypeTableRecord
  2
DASHED2
 70
    64
  3
Dashed (.5x) _ _ _ _ _ _ _ _ _ _ _ _ _ _ _ _ _ 
 72
    65
 73
     2
 40
9.525
 49
6.35
 74
     0
 49
-3.175
 74
     0
  0
LTYPE
  5
1F
100
AcDbSymbolTableRecord
100
AcDbLinetypeTableRecord
  2
DASHDOT
 70
    64
  3
Dash dot __ . __ . __ . __ . __ . __ . __ . __
 72
    65
 73
     4
 40
25.4
 49
12.7
 74
     0
 49
-6.35
 74
     0
 49
0.0
 74
     0
 49
-6.35
 74
     0
  0
LTYPE
  5
20
100
AcDbSymbolTableRecord
100
AcDbLinetypeTableRecord
  2
DIVIDE
 70
    64
  3
Divide ____ . . ____ . . ____ . . ____ . . ____
 72
    65
 73
     6
 40
31.75
 49
12.7
 74
     0
 49
-6.35
 74
     0
 49
0.0
 74
     0
 49
-6.35
 74
     0
 49
0.0
 74
     0
 49
-6.35
 74
     0
  0
LTYPE
  5
21
100
AcDbSymbolTableRecord
100
AcDbLinetypeTableRecord
  2
ACAD_ISO06W100
 70
    64
  3
ISO long-dash triple-dot ____ ... ____ ... ____
 72
    65
 73
     8
 40
36.0
 49
24.0
 74
     0
 49
-3.0
 74
     0
 49
0.0
 74
     0
 49
-3.0
 74
     0
 49
0.0
 74
     0
 49
-3.0
 74
     0
 49
0.0
 74
     0
 49
-3.0
 74
     0
  0
LTYPE
  5
22
100
AcDbSymbolTableRecord
100
AcDbLinetypeTableRecord
  2
ACAD_ISO15W100
 70
    64
  3
ISO double-dash triple-dot __ __ . . . __ __ . .
 72
    65
 73
    10
 40
39.0
 49
12.0
 74
     0
 49
-3.0
 74
     0
 49
12.0
 74
     0
 49
-3.0
 74
     0
 49
0.0
 74
     0
 49
-3.0
 74
     0
 49
0.0
 74
     0
 49
-3.0
 74
     0
 49
0.0
 74
     0
 49
-3.0
 74
     0
  0
ENDTAB
  0
TABLE
  2
LAYER
  5
2
100
AcDbSymbolTable
 70
    10
  0
LAYER
  5
14
100
AcDbSymbolTableRecord
100
AcDbLayerTableRecord
  2
0
 70
     0
 62
     7
  6
CONTINUOUS
  0
LAYER
  5
25
100
AcDbSymbolTableRecord
100
AcDbLayerTableRecord
  2
LAY-1
 70
    64
 62
     3
  6
CONTINUOUS
  0
LAYER
  5
26
100
AcDbSymbolTableRecord
100
AcDbLayerTableRecord
  2
LAY-2
 70
    64
 62
     3
  6
CONTINUOUS
  0
LAYER
  5
27
100
AcDbSymbolTableRecord
100
AcDbLayerTableRecord
  2
LAY-3
 70
    64
 62
     3
  6
CONTINUOUS
  0
LAYER
  5
28
100
AcDbSymbolTableRecord
100
AcDbLayerTableRecord
  2
LAY-4
 70
    64
 62
     3
  6
CONTINUOUS
  0
LAYER
  5
29
100
AcDbSymbolTableRecord
100
AcDbLayerTableRecord
  2
LAY-5
 70
    64
 62
     1
  6
DASHDOT
  0
LAYER
  5
2A
100
AcDbSymbolTableRecord
100
AcDbLayerTableRecord
  2
LAY-6
 70
    64
 62
     2
  6
CONTINUOUS
  0
LAYER
  5
2B
100
AcDbSymbolTableRecord
100
AcDbLayerTableRecord
  2
LAY-7
 70
    64
 62
     7
  6
CONTINUOUS
  0
LAYER
  5
2C
100
AcDbSymbolTableRecord
100
AcDbLayerTableRecord
  2
LAY-9
 70
    64
 62
     1
  6
CONTINUOUS
  0
LAYER
  5
2D
100
AcDbSymbolTableRecord
100
AcDbLayerTableRecord
  2
LAY-10
 70
    64
 62
     5
  6
CONTINUOUS
  0
ENDTAB
  0
TABLE
  2
STYLE
  5
3
100
AcDbSymbolTable
 70
     3
  0
STYLE
  5
17
100
AcDbSymbolTableRecord
100
AcDbTextStyleTableRecord
  2
STANDARD
 70
     0
 40
0.0
 41
1.0
 50
0.0
 71
     0
 42
0.0
  3
monotxt
  4
extfont
  0
STYLE
  5
23
100
AcDbSymbolTableRecord
100
AcDbTextStyleTableRecord
  2
EXCADSTD
 70
    64
 40
0.0
 41
1.0
 50
0.0
 71
     0
 42
0.2
  3
monotxt
  4
extfont
  0
STYLE
  5
24
100
AcDbSymbolTableRecord
100
AcDbTextStyleTableRecord
  2
EXCADVERT
 70
    68
 40
0.0
 41
1.0
 50
0.0
 71
     0
 42
0.286885
  3
monotxt
  4
extfont
  0
ENDTAB
  0
TABLE
  2
VIEW
  5
5
100
AcDbSymbolTable
 70
     0
  0
ENDTAB
  0
TABLE
  2
UCS
  5
6
100
AcDbSymbolTable
 70
     0
  0
ENDTAB
  0
TABLE
  2
APPID
  5
8
100
AcDbSymbolTable
 70
     1
  0
APPID
  5
16
100
AcDbSymbolTableRecord
100
AcDbRegAppTableRecord
  2
ACAD
 70
     0
  0
ENDTAB
  0
TABLE
  2
DIMSTYLE
  5
9
100
AcDbSymbolTable
 70
     1
  0
DIMSTYLE
105
18
100
AcDbSymbolTableRecord
100
AcDbDimStyleTableRecord
  2
STANDARD
 70
     0
  3

  4

  5

  6

  7

 40
1.0
 41
0.18
 42
0.0625
 43
0.38
 44
0.18
 45
0.0
 46
0.0
 47
0.0
 48
0.0
 71
     0
 72
     0
 73
     1
 74
     1
 75
     0
 76
     0
 77
     0
 78
     0
140
0.18
141
0.09
142
0.0
143
25.4
144
1.0
145
0.0
146
1.0
147
0.09
170
     0
171
     2
172
     1
173
     0
174
     0
175
     0
176
     0
177
     0
178
     0
270
     2
271
     4
272
     4
273
     2
274
     2
275
     0
280
     0
281
     0
282
     0
283
     1
284
     0
285
     0
286
     0
287
     3
288
     0
340
17
  0
ENDTAB
  0
TABLE
  2
BLOCK_RECORD
  5
1
100
AcDbSymbolTable
 70
    16
  0
BLOCK_RECORD
  5
A
100
AcDbSymbolTableRecord
100
AcDbBlockTableRecord
  2
*MODEL_SPACE
  0
BLOCK_RECORD
  5
B
100
AcDbSymbolTableRecord
100
AcDbBlockTableRecord
  2
*PAPER_SPACE
  0
BLOCK_RECORD
  5
2E
100
AcDbSymbolTableRecord
100
AcDbBlockTableRecord
  2
_EX_NORM
  0
BLOCK_RECORD
  5
2F
100
AcDbSymbolTableRecord
100
AcDbBlockTableRecord
  2
_EX_BNORM
  0
BLOCK_RECORD
  5
30
100
AcDbSymbolTableRecord
100
AcDbBlockTableRecord
  2
_EX_BCIR
  0
BLOCK_RECORD
  5
31
100
AcDbSymbolTableRecord
100
AcDbBlockTableRecord
  2
_EX_RCIVIL
  0
BLOCK_RECORD
  5
32
100
AcDbSymbolTableRecord
100
AcDbBlockTableRecord
  2
_EX_SLANT
  0
BLOCK_RECORD
  5
33
100
AcDbSymbolTableRecord
100
AcDbBlockTableRecord
  2
_EX_NONE
  0
BLOCK_RECORD
  5
34
100
AcDbSymbolTableRecord
100
AcDbBlockTableRecord
  2
_EX_CIVIL
  0
BLOCK_RECORD
  5
35
100
AcDbSymbolTableRecord
100
AcDbBlockTableRecord
  2
_EX_WCIR
  0
BLOCK_RECORD
  5
36
100
AcDbSymbolTableRecord
100
AcDbBlockTableRecord
  2
_EX_WCIR2
  0
BLOCK_RECORD
  5
37
100
AcDbSymbolTableRecord
100
AcDbBlockTableRecord
  2
_EX_WNORM
  0
BLOCK_RECORD
  5
38
100
AcDbSymbolTableRecord
100
AcDbBlockTableRecord
  2
_EX_NNORM
  0
BLOCK_RECORD
  5
39
100
AcDbSymbolTableRecord
100
AcDbBlockTableRecord
  2
_EX_BBOX
  0
BLOCK_RECORD
  5
3A
100
AcDbSymbolTableRecord
100
AcDbBlockTableRecord
  2
_EX_WBOX
  0
BLOCK_RECORD
  5
3B
100
AcDbSymbolTableRecord
100
AcDbBlockTableRecord
  2
_EX_INTEGRAL
  0
BLOCK_RECORD
  5
3C
100
AcDbSymbolTableRecord
100
AcDbBlockTableRecord
  2
SYM-1
  0
BLOCK_RECORD
  5
3D
100
AcDbSymbolTableRecord
100
AcDbBlockTableRecord
  2
SYM-2
  0
ENDTAB
  0
ENDSEC
  0
SECTION
  2
BLOCKS
  0
BLOCK
  5
D
100
AcDbEntity
  8
0
100
AcDbBlockBegin
  2
*MODEL_SPACE
 70
     0
 10
0.0
 20
0.0
 30
0.0
  3
*MODEL_SPACE
  1

  0
ENDBLK
  5
E
100
AcDbEntity
  8
0
100
AcDbBlockEnd
  0
BLOCK
  5
F
100
AcDbEntity
 67
     1
  8
0
100
AcDbBlockBegin
  2
*PAPER_SPACE
 70
     0
 10
0.0
 20
0.0
 30
0.0
  3
*PAPER_SPACE
  1

  0
ENDBLK
  5
10
100
AcDbEntity
 67
     1
  8
0
100
AcDbBlockEnd
  0
BLOCK
  5
3E
100
AcDbEntity
  8
0
100
AcDbBlockBegin
  2
_EX_NORM
 70
     0
 10
0.0
 20
0.0
 30
0.0
  3
_EX_NORM
  1

  0
LINE
  5
3F
100
AcDbEntity
  8
0
  6
CONTINUOUS
 62
     0
100
AcDbLine
 10
0.0
 20
0.0
 30
0.0
 11
-1.0
 21
0.0
 31
0.0
  0
LINE
  5
40
100
AcDbEntity
  8
0
  6
CONTINUOUS
 62
     0
100
AcDbLine
 10
0.0
 20
0.0
 30
0.0
 11
-1.0
 21
0.166667
 31
0.0
  0
LINE
  5
41
100
AcDbEntity
  8
0
  6
CONTINUOUS
 62
     0
100
AcDbLine
 10
0.0
 20
0.0
 30
0.0
 11
-1.0
 21
-0.166667
 31
0.0
  0
ENDBLK
  5
42
100
AcDbEntity
  8
0
100
AcDbBlockEnd
  0
BLOCK
  5
43
100
AcDbEntity
  8
0
100
AcDbBlockBegin
  2
_EX_BNORM
 70
     0
 10
0.0
 20
0.0
 30
0.0
  3
_EX_BNORM
  1

  0
LINE
  5
44
100
AcDbEntity
  8
0
  6
CONTINUOUS
 62
     0
100
AcDbLine
 10
0.0
 20
0.0
 30
0.0
 11
-1.0
 21
0.0
 31
0.0
  0
LINE
  5
45
100
AcDbEntity
  8
0
  6
CONTINUOUS
 62
     0
100
AcDbLine
 10
0.0
 20
0.0
 30
0.0
 11
-1.0
 21
0.166667
 31
0.0
  0
LINE
  5
46
100
AcDbEntity
  8
0
  6
CONTINUOUS
 62
     0
100
AcDbLine
 10
0.0
 20
0.0
 30
0.0
 11
-1.0
 21
-0.166667
 31
0.0
  0
LINE
  5
47
100
AcDbEntity
  8
0
  6
CONTINUOUS
 62
     0
100
AcDbLine
 10
0.0
 20
0.0
 30
0.0
 11
-1.0
 21
0.083333
 31
0.0
  0
LINE
  5
48
100
AcDbEntity
  8
0
  6
CONTINUOUS
 62
     0
100
AcDbLine
 10
0.0
 20
0.0
 30
0.0
 11
-1.0
 21
-0.083333
 31
0.0
  0
LINE
  5
49
100
AcDbEntity
  8
0
  6
CONTINUOUS
 62
     0
100
AcDbLine
 10
-1.0
 20
0.166667
 30
0.0
 11
-1.0
 21
-0.166667
 31
0.0
  0
ENDBLK
  5
4A
100
AcDbEntity
  8
0
100
AcDbBlockEnd
  0
BLOCK
  5
4B
100
AcDbEntity
  8
0
100
AcDbBlockBegin
  2
_EX_BCIR
 70
     0
 10
0.0
 20
0.0
 30
0.0
  3
_EX_BCIR
  1

  0
LINE
  5
4C
100
AcDbEntity
  8
0
  6
CONTINUOUS
 62
     0
100
AcDbLine
 10
0.0
 20
0.0
 30
0.0
 11
-1.0
 21
0.0
 31
0.0
  0
CIRCLE
  5
4D
100
AcDbEntity
  8
0
  6
CONTINUOUS
 62
     0
100
AcDbCircle
 10
0.0
 20
0.0
 30
0.0
 40
0.5
  0
CIRCLE
  5
4E
100
AcDbEntity
  8
0
  6
CONTINUOUS
 62
     0
100
AcDbCircle
 10
0.0
 20
0.0
 30
0.0
 40
0.25
  0
ENDBLK
  5
4F
100
AcDbEntity
  8
0
100
AcDbBlockEnd
  0
BLOCK
  5
50
100
AcDbEntity
  8
0
100
AcDbBlockBegin
  2
_EX_RCIVIL
 70
     0
 10
0.0
 20
0.0
 30
0.0
  3
_EX_RCIVIL
  1

  0
LINE
  5
51
100
AcDbEntity
  8
0
  6
CONTINUOUS
 62
     0
100
AcDbLine
 10
0.0
 20
0.0
 30
0.0
 11
-1.0
 21
0.0
 31
0.0
  0
LINE
  5
52
100
AcDbEntity
  8
0
  6
CONTINUOUS
 62
     0
100
AcDbLine
 10
-1.0
 20
-0.25
 30
0.0
 11
0.0
 21
-0.25
 31
0.0
  0
LINE
  5
53
100
AcDbEntity
  8
0
  6
CONTINUOUS
 62
     0
100
AcDbLine
 10
-1.0
 20
-0.125
 30
0.0
 11
0.0
 21
-0.125
 31
0.0
  0
ENDBLK
  5
54
100
AcDbEntity
  8
0
100
AcDbBlockEnd
  0
BLOCK
  5
55
100
AcDbEntity
  8
0
100
AcDbBlockBegin
  2
_EX_SLANT
 70
     0
 10
0.0
 20
0.0
 30
0.0
  3
_EX_SLANT
  1

  0
LINE
  5
56
100
AcDbEntity
  8
0
  6
CONTINUOUS
 62
     0
100
AcDbLine
 10
0.0
 20
0.0
 30
0.0
 11
-1.0
 21
0.0
 31
0.0
  0
LINE
  5
57
100
AcDbEntity
  8
0
  6
CONTINUOUS
 62
     0
100
AcDbLine
 10
0.707107
 20
0.707107
 30
0.0
 11
-0.707107
 21
-0.707107
 31
0.0
  0
ENDBLK
  5
58
100
AcDbEntity
  8
0
100
AcDbBlockEnd
  0
BLOCK
  5
59
100
AcDbEntity
  8
0
100
AcDbBlockBegin
  2
_EX_NONE
 70
     0
 10
0.0
 20
0.0
 30
0.0
  3
_EX_NONE
  1

  0
LINE
  5
5A
100
AcDbEntity
  8
0
  6
CONTINUOUS
 62
     0
100
AcDbLine
 10
0.0
 20
0.0
 30
0.0
 11
-1.0
 21
0.0
 31
0.0
  0
ENDBLK
  5
5B
100
AcDbEntity
  8
0
100
AcDbBlockEnd
  0
BLOCK
  5
5C
100
AcDbEntity
  8
0
100
AcDbBlockBegin
  2
_EX_CIVIL
 70
     0
 10
0.0
 20
0.0
 30
0.0
  3
_EX_CIVIL
  1

  0
LINE
  5
5D
100
AcDbEntity
  8
0
  6
CONTINUOUS
 62
     0
100
AcDbLine
 10
0.0
 20
0.0
 30
0.0
 11
-1.0
 21
0.0
 31
0.0
  0
LINE
  5
5E
100
AcDbEntity
  8
0
  6
CONTINUOUS
 62
     0
100
AcDbLine
 10
-1.0
 20
0.25
 30
0.0
 11
0.0
 21
0.25
 31
0.0
  0
LINE
  5
5F
100
AcDbEntity
  8
0
  6
CONTINUOUS
 62
     0
100
AcDbLine
 10
-1.0
 20
0.125
 30
0.0
 11
0.0
 21
0.125
 31
0.0
  0
ENDBLK
  5
60
100
AcDbEntity
  8
0
100
AcDbBlockEnd
  0
BLOCK
  5
61
100
AcDbEntity
  8
0
100
AcDbBlockBegin
  2
_EX_WCIR
 70
     0
 10
0.0
 20
0.0
 30
0.0
  3
_EX_WCIR
  1

  0
LINE
  5
62
100
AcDbEntity
  8
0
  6
CONTINUOUS
 62
     0
100
AcDbLine
 10
0.0
 20
0.0
 30
0.0
 11
-1.0
 21
0.0
 31
0.0
  0
CIRCLE
  5
63
100
AcDbEntity
  8
0
  6
CONTINUOUS
 62
     0
100
AcDbCircle
 10
0.0
 20
0.0
 30
0.0
 40
0.5
  0
ENDBLK
  5
64
100
AcDbEntity
  8
0
100
AcDbBlockEnd
  0
BLOCK
  5
65
100
AcDbEntity
  8
0
100
AcDbBlockBegin
  2
_EX_WCIR2
 70
     0
 10
0.0
 20
0.0
 30
0.0
  3
_EX_WCIR2
  1

  0
LINE
  5
66
100
AcDbEntity
  8
0
  6
CONTINUOUS
 62
     0
100
AcDbLine
 10
-0.5
 20
0.0
 30
0.0
 11
-1.0
 21
0.0
 31
0.0
  0
CIRCLE
  5
67
100
AcDbEntity
  8
0
  6
CONTINUOUS
 62
     0
100
AcDbCircle
 10
0.0
 20
0.0
 30
0.0
 40
0.5
  0
ENDBLK
  5
68
100
AcDbEntity
  8
0
100
AcDbBlockEnd
  0
BLOCK
  5
69
100
AcDbEntity
  8
0
100
AcDbBlockBegin
  2
_EX_WNORM
 70
     0
 10
0.0
 20
0.0
 30
0.0
  3
_EX_WNORM
  1

  0
LINE
  5
6A
100
AcDbEntity
  8
0
  6
CONTINUOUS
 62
     0
100
AcDbLine
 10
-1.0
 20
0.0
 30
0.0
 11
-1.0
 21
0.0
 31
0.0
  0
LINE
  5
6B
100
AcDbEntity
  8
0
  6
CONTINUOUS
 62
     0
100
AcDbLine
 10
0.0
 20
0.0
 30
0.0
 11
-1.0
 21
0.166667
 31
0.0
  0
LINE
  5
6C
100
AcDbEntity
  8
0
  6
CONTINUOUS
 62
     0
100
AcDbLine
 10
0.0
 20
0.0
 30
0.0
 11
-1.0
 21
-0.166667
 31
0.0
  0
LINE
  5
6D
100
AcDbEntity
  8
0
  6
CONTINUOUS
 62
     0
100
AcDbLine
 10
-1.0
 20
0.166667
 30
0.0
 11
-1.0
 21
-0.166667
 31
0.0
  0
ENDBLK
  5
6E
100
AcDbEntity
  8
0
100
AcDbBlockEnd
  0
BLOCK
  5
6F
100
AcDbEntity
  8
0
100
AcDbBlockBegin
  2
_EX_NNORM
 70
     0
 10
0.0
 20
0.0
 30
0.0
  3
_EX_NNORM
  1

  0
LINE
  5
70
100
AcDbEntity
  8
0
  6
CONTINUOUS
 62
     0
100
AcDbLine
 10
0.0
 20
0.0
 30
0.0
 11
-1.0
 21
0.0
 31
0.0
  0
LINE
  5
71
100
AcDbEntity
  8
0
  6
CONTINUOUS
 62
     0
100
AcDbLine
 10
0.0
 20
0.0
 30
0.0
 11
-1.0
 21
0.166667
 31
0.0
  0
LINE
  5
72
100
AcDbEntity
  8
0
  6
CONTINUOUS
 62
     0
100
AcDbLine
 10
0.0
 20
0.0
 30
0.0
 11
-1.0
 21
-0.166667
 31
0.0
  0
LINE
  5
73
100
AcDbEntity
  8
0
  6
CONTINUOUS
 62
     0
100
AcDbLine
 10
-1.0
 20
0.166667
 30
0.0
 11
-1.0
 21
-0.166667
 31
0.0
  0
ENDBLK
  5
74
100
AcDbEntity
  8
0
100
AcDbBlockEnd
  0
BLOCK
  5
75
100
AcDbEntity
  8
0
100
AcDbBlockBegin
  2
_EX_BBOX
 70
     0
 10
0.0
 20
0.0
 30
0.0
  3
_EX_BBOX
  1

  0
LINE
  5
76
100
AcDbEntity
  8
0
  6
CONTINUOUS
 62
     0
100
AcDbLine
 10
0.0
 20
0.0
 30
0.0
 11
-1.0
 21
0.0
 31
0.0
  0
LINE
  5
77
100
AcDbEntity
  8
0
  6
CONTINUOUS
 62
     0
100
AcDbLine
 10
-0.5
 20
0.5
 30
0.0
 11
0.5
 21
0.5
 31
0.0
  0
LINE
  5
78
100
AcDbEntity
  8
0
  6
CONTINUOUS
 62
     0
100
AcDbLine
 10
0.5
 20
0.5
 30
0.0
 11
0.5
 21
-0.5
 31
0.0
  0
LINE
  5
79
100
AcDbEntity
  8
0
  6
CONTINUOUS
 62
     0
100
AcDbLine
 10
0.5
 20
-0.5
 30
0.0
 11
-0.5
 21
-0.5
 31
0.0
  0
LINE
  5
7A
100
AcDbEntity
  8
0
  6
CONTINUOUS
 62
     0
100
AcDbLine
 10
-0.5
 20
-0.5
 30
0.0
 11
-0.5
 21
0.5
 31
0.0
  0
LINE
  5
7B
100
AcDbEntity
  8
0
  6
CONTINUOUS
 62
     0
100
AcDbLine
 10
-0.25
 20
0.25
 30
0.0
 11
0.25
 21
0.25
 31
0.0
  0
LINE
  5
7C
100
AcDbEntity
  8
0
  6
CONTINUOUS
 62
     0
100
AcDbLine
 10
0.25
 20
0.25
 30
0.0
 11
0.25
 21
-0.25
 31
0.0
  0
LINE
  5
7D
100
AcDbEntity
  8
0
  6
CONTINUOUS
 62
     0
100
AcDbLine
 10
0.25
 20
-0.25
 30
0.0
 11
-0.25
 21
-0.25
 31
0.0
  0
LINE
  5
7E
100
AcDbEntity
  8
0
  6
CONTINUOUS
 62
     0
100
AcDbLine
 10
-0.25
 20
-0.25
 30
0.0
 11
-0.25
 21
0.25
 31
0.0
  0
ENDBLK
  5
7F
100
AcDbEntity
  8
0
100
AcDbBlockEnd
  0
BLOCK
  5
80
100
AcDbEntity
  8
0
100
AcDbBlockBegin
  2
_EX_WBOX
 70
     0
 10
0.0
 20
0.0
 30
0.0
  3
_EX_WBOX
  1

  0
LINE
  5
81
100
AcDbEntity
  8
0
  6
CONTINUOUS
 62
     0
100
AcDbLine
 10
-0.5
 20
0.0
 30
0.0
 11
-1.0
 21
0.0
 31
0.0
  0
LINE
  5
82
100
AcDbEntity
  8
0
  6
CONTINUOUS
 62
     0
100
AcDbLine
 10
-0.5
 20
0.5
 30
0.0
 11
0.5
 21
0.5
 31
0.0
  0
LINE
  5
83
100
AcDbEntity
  8
0
  6
CONTINUOUS
 62
     0
100
AcDbLine
 10
0.5
 20
0.5
 30
0.0
 11
0.5
 21
-0.5
 31
0.0
  0
LINE
  5
84
100
AcDbEntity
  8
0
  6
CONTINUOUS
 62
     0
100
AcDbLine
 10
0.5
 20
-0.5
 30
0.0
 11
-0.5
 21
-0.5
 31
0.0
  0
LINE
  5
85
100
AcDbEntity
  8
0
  6
CONTINUOUS
 62
     0
100
AcDbLine
 10
-0.5
 20
-0.5
 30
0.0
 11
-0.5
 21
0.5
 31
0.0
  0
ENDBLK
  5
86
100
AcDbEntity
  8
0
100
AcDbBlockEnd
  0
BLOCK
  5
87
100
AcDbEntity
  8
0
100
AcDbBlockBegin
  2
_EX_INTEGRAL
 70
     0
 10
0.0
 20
0.0
 30
0.0
  3
_EX_INTEGRAL
  1

  0
LINE
  5
88
100
AcDbEntity
  8
0
  6
CONTINUOUS
 62
     0
100
AcDbLine
 10
0.0
 20
0.0
 30
0.0
 11
-1.0
 21
0.0
 31
0.0
  0
ARC
  5
89
100
AcDbEntity
  8
0
  6
CONTINUOUS
 62
     0
100
AcDbCircle
 10
0.542115
 20
0.164992
 30
0.0
 40
0.56667
100
AcDbArc
 50
73.07249
 51
196.927513
  0
ARC
  5
8A
100
AcDbEntity
  8
0
  6
CONTINUOUS
 62
     0
100
AcDbCircle
 10
-0.542115
 20
-0.164992
 30
0.0
 40
0.56667
100
AcDbArc
 50
253.072487
 51
16.927513
  0
ENDBLK
  5
8B
100
AcDbEntity
  8
0
100
AcDbBlockEnd
  0
BLOCK
  5
8C
100
AcDbEntity
  8
0
100
AcDbBlockBegin
  2
SYM-1
 70
     0
 10
0.0
 20
0.0
 30
0.0
  3
SYM-1
  1

  0
ARC
  5
8D
100
AcDbEntity
  8
0
  6
CONTINUOUS
 62
     3
100
AcDbCircle
 10
1.5
 20
1.5
 30
0.0
 40
1.0
100
AcDbArc
 50
180.0
 51
270.0
  0
ARC
  5
8E
100
AcDbEntity
  8
0
  6
CONTINUOUS
 62
     3
100
AcDbCircle
 10
-1.5
 20
-1.5
 30
0.0
 40
1.0
100
AcDbArc
 50
0.0
 51
90.0
  0
ARC
  5
8F
100
AcDbEntity
  8
0
  6
CONTINUOUS
 62
     3
100
AcDbCircle
 10
-1.5
 20
1.5
 30
0.0
 40
1.0
100
AcDbArc
 50
270.0
 51
0.0
  0
ARC
  5
90
100
AcDbEntity
  8
0
  6
CONTINUOUS
 62
     3
100
AcDbCircle
 10
1.5
 20
-1.5
 30
0.0
 40
1.0
100
AcDbArc
 50
90.0
 51
180.0
  0
ARC
  5
91
100
AcDbEntity
  8
0
  6
CONTINUOUS
 62
     3
100
AcDbCircle
 10
1.5
 20
1.5
 30
0.0
 40
1.0
100
AcDbArc
 50
180.0
 51
270.0
  0
ARC
  5
92
100
AcDbEntity
  8
0
  6
CONTINUOUS
 62
     3
100
AcDbCircle
 10
1.5
 20
-1.5
 30
0.0
 40
1.0
100
AcDbArc
 50
90.0
 51
180.0
  0
CIRCLE
  5
93
100
AcDbEntity
  8
0
  6
CONTINUOUS
 62
     3
100
AcDbCircle
 10
0.0
 20
0.0
 30
0.0
 40
4.0
  0
LINE
  5
94
100
AcDbEntity
  8
0
  6
CONTINUOUS
 62
     3
100
AcDbLine
 10
0.5
 20
1.5
 30
0.0
 11
0.5
 21
2.25
 31
0.0
  0
LINE
  5
95
100
AcDbEntity
  8
0
  6
CONTINUOUS
 62
     3
100
AcDbLine
 10
-0.5
 20
2.25
 30
0.0
 11
0.5
 21
2.25
 31
0.0
  0
LINE
  5
96
100
AcDbEntity
  8
0
  6
CONTINUOUS
 62
     3
100
AcDbLine
 10
-0.5
 20
1.5
 30
0.0
 11
-0.5
 21
2.25
 31
0.0
  0
LINE
  5
97
100
AcDbEntity
  8
0
  6
CONTINUOUS
 62
     3
100
AcDbLine
 10
-0.5
 20
1.5
 30
0.0
 11
-0.5
 21
2.25
 31
0.0
  0
LINE
  5
98
100
AcDbEntity
  8
0
  6
CONTINUOUS
 62
     3
100
AcDbLine
 10
0.5
 20
2.25
 30
0.0
 11
-0.5
 21
2.25
 31
0.0
  0
LINE
  5
99
100
AcDbEntity
  8
0
  6
CONTINUOUS
 62
     3
100
AcDbLine
 10
0.5
 20
1.5
 30
0.0
 11
0.5
 21
2.25
 31
0.0
  0
LINE
  5
9A
100
AcDbEntity
  8
0
  6
CONTINUOUS
 62
     3
100
AcDbLine
 10
-2.25
 20
-0.5
 30
0.0
 11
-2.25
 21
0.5
 31
0.0
  0
LINE
  5
9B
100
AcDbEntity
  8
0
  6
CONTINUOUS
 62
     3
100
AcDbLine
 10
0.5
 20
-2.25
 30
0.0
 11
-0.5
 21
-2.25
 31
0.0
  0
LINE
  5
9C
100
AcDbEntity
  8
0
  6
CONTINUOUS
 62
     3
100
AcDbLine
 10
2.25
 20
0.5
 30
0.0
 11
2.25
 21
-0.5
 31
0.0
  0
LINE
  5
9D
100
AcDbEntity
  8
0
  6
CONTINUOUS
 62
     3
100
AcDbLine
 10
-1.5
 20
-0.5
 30
0.0
 11
-2.25
 21
-0.5
 31
0.0
  0
LINE
  5
9E
100
AcDbEntity
  8
0
  6
CONTINUOUS
 62
     3
100
AcDbLine
 10
-1.5
 20
0.5
 30
0.0
 11
-2.25
 21
0.5
 31
0.0
  0
LINE
  5
9F
100
AcDbEntity
  8
0
  6
CONTINUOUS
 62
     3
100
AcDbLine
 10
0.5
 20
-1.5
 30
0.0
 11
0.5
 21
-2.25
 31
0.0
  0
LINE
  5
A0
100
AcDbEntity
  8
0
  6
CONTINUOUS
 62
     3
100
AcDbLine
 10
-0.5
 20
-1.5
 30
0.0
 11
-0.5
 21
-2.25
 31
0.0
  0
LINE
  5
A1
100
AcDbEntity
  8
0
  6
CONTINUOUS
 62
     3
100
AcDbLine
 10
-0.5
 20
-1.5
 30
0.0
 11
-0.5
 21
-2.25
 31
0.0
  0
LINE
  5
A2
100
AcDbEntity
  8
0
  6
CONTINUOUS
 62
     3
100
AcDbLine
 10
0.5
 20
-1.5
 30
0.0
 11
0.5
 21
-2.25
 31
0.0
  0
LINE
  5
A3
100
AcDbEntity
  8
0
  6
CONTINUOUS
 62
     3
100
AcDbLine
 10
1.5
 20
-0.5
 30
0.0
 11
2.25
 21
-0.5
 31
0.0
  0
LINE
  5
A4
100
AcDbEntity
  8
0
  6
CONTINUOUS
 62
     3
100
AcDbLine
 10
1.5
 20
0.5
 30
0.0
 11
2.25
 21
0.5
 31
0.0
  0
LINE
  5
A5
100
AcDbEntity
  8
0
  6
CONTINUOUS
 62
     3
100
AcDbLine
 10
1.5
 20
0.5
 30
0.0
 11
2.25
 21
0.5
 31
0.0
  0
ENDBLK
  5
A6
100
AcDbEntity
  8
0
100
AcDbBlockEnd
  0
BLOCK
  5
A7
100
AcDbEntity
  8
0
100
AcDbBlockBegin
  2
SYM-2
 70
     0
 10
0.0
 20
0.0
 30
0.0
  3
SYM-2
  1

  0
TEXT
  5
A8
100
AcDbEntity
  8
0
  6
CONTINUOUS
 62
     2
100
AcDbText
 10
-2.7
 20
-1.0
 30
0.0
 40
5.0
  1
Ｐ
 41
0.672
  7
EXCADSTD
 72
     5
 11
0.5
 21
-1.0
 31
0.0
100
AcDbText
  0
TEXT
  5
A9
100
AcDbEntity
  8
0
  6
CONTINUOUS
 62
     2
100
AcDbText
 10
-1.8
 20
-0.9
 30
0.0
 40
5.0
  1
Ｌ
 41
0.672
  7
EXCADSTD
 72
     5
 11
1.4
 21
-0.9
 31
0.0
100
AcDbText
  0
ENDBLK
  5
AA
100
AcDbEntity
  8
0
100
AcDbBlockEnd
  0
ENDSEC
  0
SECTION
  2
ENTITIES
  0
LINE
  5
AB
100
AcDbEntity
  8
LAY-1
  6
CONTINUOUS
 62
     3
100
AcDbLine
 10
121.249985
 20
507.199981
 30
0.0
 11
121.249985
 21
504.999969
 31
0.0
  0
LINE
  5
AC
100
AcDbEntity
  8
LAY-1
  6
CONTINUOUS
 62
     3
100
AcDbLine
 10
108.749985
 20
507.199981
 30
0.0
 11
108.749985
 21
504.999969
 31
0.0
  0
LINE
  5
AD
100
AcDbEntity
  8
LAY-1
  6
CONTINUOUS
 62
     3
100
AcDbLine
 10
256.0
 20
508.0
 30
0.0
 11
74.0
 21
508.0
 31
0.0
  0
LINE
  5
AE
100
AcDbEntity
  8
LAY-1
  6
CONTINUOUS
 62
     3
100
AcDbLine
 10
256.0
 20
507.200012
 30
0.0
 11
74.0
 21
507.200012
 31
0.0
  0
LINE
  5
AF
100
AcDbEntity
  8
LAY-1
  6
CONTINUOUS
 62
     3
100
AcDbLine
 10
256.0
 20
508.0
 30
0.0
 11
256.0
 21
507.200012
 31
0.0
  0
LINE
  5
B0
100
AcDbEntity
  8
LAY-1
  6
CONTINUOUS
 62
     3
100
AcDbLine
 10
74.0
 20
508.0
 30
0.0
 11
74.0
 21
507.200012
 31
0.0
  0
LINE
  5
B1
100
AcDbEntity
  8
LAY-1
  6
CONTINUOUS
 62
     3
100
AcDbLine
 10
81.0
 20
508.0
 30
0.0
 11
81.0
 21
514.0
 31
0.0
  0
LINE
  5
B2
100
AcDbEntity
  8
LAY-1
  6
CONTINUOUS
 62
     3
100
AcDbLine
 10
250.0
 20
508.0
 30
0.0
 11
250.0
 21
514.0
 31
0.0
  0
LINE
  5
B3
100
AcDbEntity
  8
LAY-1
  6
DASHED2
 62
     3
100
AcDbLine
 10
84.0
 20
508.399994
 30
0.0
 11
84.0
 21
508.0
 31
0.0
  0
CIRCLE
  5
B4
100
AcDbEntity
  8
LAY-1
  6
CONTINUOUS
 62
     3
100
AcDbCircle
 10
194.99997
 20
525.499969
 30
0.0
 40
3.5
  0
ARC
  5
B5
100
AcDbEntity
  8
LAY-1
  6
CONTINUOUS
 62
     3
100
AcDbCircle
 10
194.99997
 20
525.499969
 30
0.0
 40
6.0
100
AcDbArc
 50
0.0
 51
180.00002
  0
ARC
  5
B6
100
AcDbEntity
  8
LAY-1
  6
CONTINUOUS
 62
     3
100
AcDbCircle
 10
215.99997
 20
529.499969
 30
0.0
 40
6.0
100
AcDbArc
 50
305.685646
 51
234.314969
  0
LINE
  5
B7
100
AcDbEntity
  8
LAY-1
  6
CONTINUOUS
 62
     3
100
AcDbLine
 10
210.899994
 20
514.00003
 30
0.0
 11
210.899994
 21
520.00003
 31
0.0
  0
LINE
  5
B8
100
AcDbEntity
  8
LAY-1
  6
CONTINUOUS
 62
     3
100
AcDbLine
 10
221.100007
 20
514.00003
 30
0.0
 11
221.100007
 21
520.00003
 31
0.0
  0
LINE
  5
B9
100
AcDbEntity
  8
LAY-1
  6
CONTINUOUS
 62
     3
100
AcDbLine
 10
210.899994
 20
520.00003
 30
0.0
 11
221.100007
 21
520.00003
 31
0.0
  0
LINE
  5
BA
100
AcDbEntity
  8
LAY-1
  6
CONTINUOUS
 62
     1
100
AcDbLine
 10
211.5
 20
514.00003
 30
0.0
 11
211.5
 21
520.00003
 31
0.0
  0
LINE
  5
BB
100
AcDbEntity
  8
LAY-1
  6
CONTINUOUS
 62
     1
100
AcDbLine
 10
220.5
 20
514.00003
 30
0.0
 11
220.5
 21
520.00003
 31
0.0
  0
LINE
  5
BC
100
AcDbEntity
  8
LAY-1
  6
CONTINUOUS
 62
     3
100
AcDbLine
 10
212.5
 20
524.626587
 30
0.0
 11
212.5
 21
520.00003
 31
0.0
  0
LINE
  5
BD
100
AcDbEntity
  8
LAY-1
  6
CONTINUOUS
 62
     3
100
AcDbLine
 10
219.5
 20
524.626587
 30
0.0
 11
219.5
 21
520.00003
 31
0.0
  0
LINE
  5
BE
100
AcDbEntity
  8
LAY-1
  6
CONTINUOUS
 62
     3
100
AcDbLine
 10
212.5
 20
524.626556
 30
0.0
 11
219.500031
 21
524.626556
 31
0.0
  0
LINE
  5
BF
100
AcDbEntity
  8
LAY-1
  6
CONTINUOUS
 62
     3
100
AcDbLine
 10
200.99997
 20
525.499969
 30
0.0
 11
200.99997
 21
514.00003
 31
0.0
  0
LINE
  5
C0
100
AcDbEntity
  8
LAY-1
  6
CONTINUOUS
 62
     3
100
AcDbLine
 10
188.99997
 20
525.499969
 30
0.0
 11
188.99997
 21
514.00003
 31
0.0
  0
ARC
  5
C1
100
AcDbEntity
  8
LAY-1
  6
CONTINUOUS
 62
     3
100
AcDbCircle
 10
215.99997
 20
529.499969
 30
0.0
 40
11.0
100
AcDbArc
 50
333.214091
 51
359.999982
  0
ARC
  5
C2
100
AcDbEntity
  8
LAY-1
  6
CONTINUOUS
 62
     3
100
AcDbCircle
 10
214.99997
 20
531.999969
 30
0.0
 40
12.0
100
AcDbArc
 50
0.0
 51
94.76361
  0
LINE
  5
C3
100
AcDbEntity
  8
LAY-1
  6
CONTINUOUS
 62
     3
100
AcDbLine
 10
226.99997
 20
531.999969
 30
0.0
 11
226.99997
 21
529.499969
 31
0.0
  0
ARC
  5
C4
100
AcDbEntity
  8
LAY-1
  6
CONTINUOUS
 62
     3
100
AcDbCircle
 10
223.606629
 20
525.896545
 30
0.0
 40
2.5
100
AcDbArc
 50
180.00002
 51
328.367269
  0
LINE
  5
C5
100
AcDbEntity
  8
LAY-1
  6
CONTINUOUS
 62
     3
100
AcDbLine
 10
213.99997
 20
544.0
 30
0.0
 11
126.99997
 21
521.499969
 31
0.0
  0
LINE
  5
C6
100
AcDbEntity
  8
LAY-1
  6
CONTINUOUS
 62
     3
100
AcDbLine
 10
211.99997
 20
525.027832
 30
0.0
 11
211.99997
 21
522.292022
 31
0.0
  0
LINE
  5
C7
100
AcDbEntity
  8
LAY-1
  6
CONTINUOUS
 62
     3
100
AcDbLine
 10
200.99997
 20
518.911773
 30
0.0
 11
211.229004
 21
521.318603
 31
0.0
  0
ARC
  5
C8
100
AcDbEntity
  8
LAY-1
  6
CONTINUOUS
 62
     3
100
AcDbCircle
 10
210.99997
 20
522.292022
 30
0.0
 40
1.0
100
AcDbArc
 50
283.240597
 51
359.999982
  0
LINE
  5
C9
100
AcDbEntity
  8
LAY-1
  6
CONTINUOUS
 62
     3
100
AcDbLine
 10
188.99997
 20
517.323517
 30
0.0
 11
179.270569
 21
517.037292
 31
0.0
  0
LINE
  5
CA
100
AcDbEntity
  8
LAY-1
  6
CONTINUOUS
 62
     3
100
AcDbLine
 10
126.99997
 20
515.499969
 30
0.0
 11
169.727509
 21
516.756622
 31
0.0
  0
ARC
  5
CB
100
AcDbEntity
  8
LAY-1
  6
CONTINUOUS
 62
     3
100
AcDbCircle
 10
169.756913
 20
515.757049
 30
0.0
 40
1.0
100
AcDbArc
 50
32.083058
 51
91.684649
  0
ARC
  5
CC
100
AcDbEntity
  8
LAY-1
  6
CONTINUOUS
 62
     3
100
AcDbCircle
 10
179.299973
 20
516.03775
 30
0.0
 40
1.0
100
AcDbArc
 50
91.684764
 51
180.00002
  0
ARC
  5
CD
100
AcDbEntity
  8
LAY-1
  6
DASHED2
 62
     3
100
AcDbCircle
 10
176.353348
 20
508.999969
 30
0.0
 40
1.0
100
AcDbArc
 50
212.083135
 51
270.0
  0
ARC
  5
CE
100
AcDbEntity
  8
LAY-1
  6
DASHED2
 62
     3
100
AcDbCircle
 10
177.299973
 20
508.999969
 30
0.0
 40
1.0
100
AcDbArc
 50
270.0
 51
359.999982
  0
LINE
  5
CF
100
AcDbEntity
  8
LAY-1
  6
CONTINUOUS
 62
     3
100
AcDbLine
 10
178.299973
 20
516.03775
 30
0.0
 11
178.299973
 21
513.999969
 31
0.0
  0
LINE
  5
D0
100
AcDbEntity
  8
LAY-1
  6
DASHED2
 62
     3
100
AcDbLine
 10
178.299988
 20
514.0
 30
0.0
 11
178.299973
 21
508.999969
 31
0.0
  0
LINE
  5
D1
100
AcDbEntity
  8
LAY-1
  6
CONTINUOUS
 62
     3
100
AcDbLine
 10
170.604187
 20
516.288208
 30
0.0
 11
172.038651
 21
513.999969
 31
0.0
  0
LINE
  5
D2
100
AcDbEntity
  8
LAY-1
  6
DASHED2
 62
     3
100
AcDbLine
 10
172.03862
 20
513.999969
 30
0.0
 11
175.506073
 21
508.468811
 31
0.0
  0
LINE
  5
D3
100
AcDbEntity
  8
LAY-1
  6
CONTINUOUS
 62
     3
100
AcDbLine
 10
87.0
 20
524.0
 30
0.0
 11
87.0
 21
518.5
 31
0.0
  0
LINE
  5
D4
100
AcDbEntity
  8
LAY-1
  6
CONTINUOUS
 62
     3
100
AcDbLine
 10
87.0
 20
524.0
 30
0.0
 11
90.0
 21
524.0
 31
0.0
  0
LINE
  5
D5
100
AcDbEntity
  8
LAY-1
  6
DASHED2
 62
     3
100
AcDbLine
 10
87.0
 20
511.399994
 30
0.0
 11
87.0
 21
518.5
 31
0.0
  0
LINE
  5
D6
100
AcDbEntity
  8
LAY-1
  6
DASHED2
 62
     3
100
AcDbLine
 10
90.0
 20
511.399994
 30
0.0
 11
87.0
 21
511.399994
 31
0.0
  0
LINE
  5
D7
100
AcDbEntity
  8
LAY-1
  6
DASHED2
 62
     3
100
AcDbLine
 10
90.0
 20
508.399994
 30
0.0
 11
84.0
 21
508.399994
 31
0.0
  0
LINE
  5
D8
100
AcDbEntity
  8
LAY-1
  6
DASHED2
 62
     3
100
AcDbLine
 10
84.0
 20
508.399994
 30
0.0
 11
87.0
 21
511.399994
 31
0.0
  0
LINE
  5
D9
100
AcDbEntity
  8
LAY-1
  6
DASHED2
 62
     1
100
AcDbLine
 10
87.5
 20
518.5
 30
0.0
 11
87.5
 21
511.399994
 31
0.0
  0
LINE
  5
DA
100
AcDbEntity
  8
LAY-1
  6
CONTINUOUS
 62
     1
100
AcDbLine
 10
87.5
 20
524.0
 30
0.0
 11
87.5
 21
518.5
 31
0.0
  0
LINE
  5
DB
100
AcDbEntity
  8
LAY-1
  6
CONTINUOUS
 62
     3
100
AcDbLine
 10
93.0
 20
524.0
 30
0.0
 11
93.0
 21
518.5
 31
0.0
  0
LINE
  5
DC
100
AcDbEntity
  8
LAY-1
  6
CONTINUOUS
 62
     3
100
AcDbLine
 10
93.0
 20
524.0
 30
0.0
 11
90.0
 21
524.0
 31
0.0
  0
LINE
  5
DD
100
AcDbEntity
  8
LAY-1
  6
CONTINUOUS
 62
     1
100
AcDbLine
 10
92.5
 20
524.0
 30
0.0
 11
92.5
 21
518.5
 31
0.0
  0
LINE
  5
DE
100
AcDbEntity
  8
LAY-1
  6
DASHED2
 62
     1
100
AcDbLine
 10
92.5
 20
518.5
 30
0.0
 11
92.5
 21
511.399994
 31
0.0
  0
LINE
  5
DF
100
AcDbEntity
  8
LAY-1
  6
DASHED2
 62
     3
100
AcDbLine
 10
93.0
 20
511.399994
 30
0.0
 11
93.0
 21
518.5
 31
0.0
  0
LINE
  5
E0
100
AcDbEntity
  8
LAY-1
  6
DASHED2
 62
     3
100
AcDbLine
 10
90.0
 20
511.399994
 30
0.0
 11
93.0
 21
511.399994
 31
0.0
  0
LINE
  5
E1
100
AcDbEntity
  8
LAY-1
  6
DASHED2
 62
     3
100
AcDbLine
 10
96.0
 20
508.399994
 30
0.0
 11
93.0
 21
511.399994
 31
0.0
  0
LINE
  5
E2
100
AcDbEntity
  8
LAY-1
  6
DASHED2
 62
     3
100
AcDbLine
 10
90.0
 20
508.399994
 30
0.0
 11
96.0
 21
508.399994
 31
0.0
  0
LINE
  5
E3
100
AcDbEntity
  8
LAY-1
  6
DASHED2
 62
     3
100
AcDbLine
 10
96.0
 20
508.399994
 30
0.0
 11
96.0
 21
508.0
 31
0.0
  0
LINE
  5
E4
100
AcDbEntity
  8
LAY-1
  6
DASHED2
 62
     3
100
AcDbLine
 10
230.99997
 20
508.399994
 30
0.0
 11
230.99997
 21
508.0
 31
0.0
  0
LINE
  5
E5
100
AcDbEntity
  8
LAY-1
  6
CONTINUOUS
 62
     3
100
AcDbLine
 10
233.99997
 20
524.0
 30
0.0
 11
233.99997
 21
518.5
 31
0.0
  0
LINE
  5
E6
100
AcDbEntity
  8
LAY-1
  6
CONTINUOUS
 62
     3
100
AcDbLine
 10
233.99997
 20
524.0
 30
0.0
 11
236.99997
 21
524.0
 31
0.0
  0
LINE
  5
E7
100
AcDbEntity
  8
LAY-1
  6
DASHED2
 62
     3
100
AcDbLine
 10
233.99997
 20
511.399994
 30
0.0
 11
233.99997
 21
518.5
 31
0.0
  0
LINE
  5
E8
100
AcDbEntity
  8
LAY-1
  6
DASHED2
 62
     3
100
AcDbLine
 10
236.99997
 20
511.399994
 30
0.0
 11
233.99997
 21
511.399994
 31
0.0
  0
LINE
  5
E9
100
AcDbEntity
  8
LAY-1
  6
DASHED2
 62
     3
100
AcDbLine
 10
236.99997
 20
508.399994
 30
0.0
 11
230.99997
 21
508.399994
 31
0.0
  0
LINE
  5
EA
100
AcDbEntity
  8
LAY-1
  6
DASHED2
 62
     3
100
AcDbLine
 10
230.99997
 20
508.399994
 30
0.0
 11
233.99997
 21
511.399994
 31
0.0
  0
LINE
  5
EB
100
AcDbEntity
  8
LAY-1
  6
DASHED2
 62
     1
100
AcDbLine
 10
234.49997
 20
518.5
 30
0.0
 11
234.49997
 21
511.399994
 31
0.0
  0
LINE
  5
EC
100
AcDbEntity
  8
LAY-1
  6
CONTINUOUS
 62
     1
100
AcDbLine
 10
234.49997
 20
524.0
 30
0.0
 11
234.49997
 21
518.5
 31
0.0
  0
LINE
  5
ED
100
AcDbEntity
  8
LAY-1
  6
CONTINUOUS
 62
     3
100
AcDbLine
 10
239.99997
 20
524.0
 30
0.0
 11
239.99997
 21
518.5
 31
0.0
  0
LINE
  5
EE
100
AcDbEntity
  8
LAY-1
  6
CONTINUOUS
 62
     3
100
AcDbLine
 10
239.99997
 20
524.0
 30
0.0
 11
236.99997
 21
524.0
 31
0.0
  0
LINE
  5
EF
100
AcDbEntity
  8
LAY-1
  6
CONTINUOUS
 62
     1
100
AcDbLine
 10
239.49997
 20
524.0
 30
0.0
 11
239.49997
 21
518.5
 31
0.0
  0
LINE
  5
F0
100
AcDbEntity
  8
LAY-1
  6
DASHED2
 62
     1
100
AcDbLine
 10
239.49997
 20
518.5
 30
0.0
 11
239.49997
 21
511.399994
 31
0.0
  0
LINE
  5
F1
100
AcDbEntity
  8
LAY-1
  6
DASHED2
 62
     3
100
AcDbLine
 10
239.99997
 20
511.399994
 30
0.0
 11
239.99997
 21
518.5
 31
0.0
  0
LINE
  5
F2
100
AcDbEntity
  8
LAY-1
  6
DASHED2
 62
     3
100
AcDbLine
 10
236.99997
 20
511.399994
 30
0.0
 11
239.99997
 21
511.399994
 31
0.0
  0
LINE
  5
F3
100
AcDbEntity
  8
LAY-1
  6
DASHED2
 62
     3
100
AcDbLine
 10
242.99997
 20
508.399994
 30
0.0
 11
239.99997
 21
511.399994
 31
0.0
  0
LINE
  5
F4
100
AcDbEntity
  8
LAY-1
  6
DASHED2
 62
     3
100
AcDbLine
 10
236.99997
 20
508.399994
 30
0.0
 11
242.99997
 21
508.399994
 31
0.0
  0
LINE
  5
F5
100
AcDbEntity
  8
LAY-1
  6
DASHED2
 62
     3
100
AcDbLine
 10
242.99997
 20
508.399994
 30
0.0
 11
242.99997
 21
508.0
 31
0.0
  0
LINE
  5
F6
100
AcDbEntity
  8
LAY-1
  6
CONTINUOUS
 62
     3
100
AcDbLine
 10
126.99997
 20
521.499969
 30
0.0
 11
124.550016
 21
521.499969
 31
0.0
  0
LINE
  5
F7
100
AcDbEntity
  8
LAY-1
  6
CONTINUOUS
 62
     3
100
AcDbLine
 10
126.99997
 20
515.499969
 30
0.0
 11
124.550016
 21
515.499969
 31
0.0
  0
LINE
  5
F8
100
AcDbEntity
  8
LAY-1
  6
CONTINUOUS
 62
     3
100
AcDbLine
 10
124.500013
 20
514.00003
 30
0.0
 11
124.500013
 21
546.00003
 31
0.0
  0
LINE
  5
F9
100
AcDbEntity
  8
LAY-1
  6
CONTINUOUS
 62
     3
100
AcDbLine
 10
105.500019
 20
514.00003
 30
0.0
 11
105.500019
 21
546.00003
 31
0.0
  0
LINE
  5
FA
100
AcDbEntity
  8
LAY-1
  6
CONTINUOUS
 62
     3
100
AcDbLine
 10
81.0
 20
514.0
 30
0.0
 11
250.0
 21
514.0
 31
0.0
  0
LINE
  5
FB
100
AcDbEntity
  8
LAY-1
  6
CONTINUOUS
 62
     3
100
AcDbLine
 10
105.500019
 20
546.00003
 30
0.0
 11
124.500013
 21
546.00003
 31
0.0
  0
LINE
  5
FC
100
AcDbEntity
  8
LAY-1
  6
CONTINUOUS
 62
     3
100
AcDbLine
 10
681.249985
 20
507.199981
 30
0.0
 11
681.249985
 21
504.999969
 31
0.0
  0
LINE
  5
FD
100
AcDbEntity
  8
LAY-1
  6
CONTINUOUS
 62
     3
100
AcDbLine
 10
668.749985
 20
507.199981
 30
0.0
 11
668.749985
 21
504.999969
 31
0.0
  0
LINE
  5
FE
100
AcDbEntity
  8
LAY-1
  6
CONTINUOUS
 62
     3
100
AcDbLine
 10
684.500013
 20
514.00003
 30
0.0
 11
684.500013
 21
546.00003
 31
0.0
  0
LINE
  5
FF
100
AcDbEntity
  8
LAY-1
  6
CONTINUOUS
 62
     3
100
AcDbLine
 10
665.500019
 20
514.00003
 30
0.0
 11
665.500019
 21
546.00003
 31
0.0
  0
LINE
  5
100
100
AcDbEntity
  8
LAY-1
  6
CONTINUOUS
 62
     3
100
AcDbLine
 10
665.500019
 20
546.00003
 30
0.0
 11
684.500013
 21
546.00003
 31
0.0
  0
LINE
  5
101
100
AcDbEntity
  8
LAY-1
  6
CONTINUOUS
 62
     3
100
AcDbLine
 10
693.5
 20
507.200012
 30
0.0
 11
693.5
 21
508.0
 31
0.0
  0
LINE
  5
102
100
AcDbEntity
  8
LAY-1
  6
CONTINUOUS
 62
     3
100
AcDbLine
 10
658.999985
 20
514.0
 30
0.0
 11
691.000015
 21
514.0
 31
0.0
  0
LINE
  5
103
100
AcDbEntity
  8
LAY-1
  6
CONTINUOUS
 62
     3
100
AcDbLine
 10
656.5
 20
507.200012
 30
0.0
 11
656.5
 21
508.0
 31
0.0
  0
LINE
  5
104
100
AcDbEntity
  8
LAY-1
  6
CONTINUOUS
 62
     3
100
AcDbLine
 10
693.5
 20
508.0
 30
0.0
 11
656.5
 21
508.0
 31
0.0
  0
LINE
  5
105
100
AcDbEntity
  8
LAY-1
  6
CONTINUOUS
 62
     3
100
AcDbLine
 10
693.5
 20
507.200012
 30
0.0
 11
656.5
 21
507.200012
 31
0.0
  0
LINE
  5
106
100
AcDbEntity
  8
LAY-1
  6
CONTINUOUS
 62
     3
100
AcDbLine
 10
691.000015
 20
508.0
 30
0.0
 11
691.000015
 21
514.0
 31
0.0
  0
LINE
  5
107
100
AcDbEntity
  8
LAY-1
  6
CONTINUOUS
 62
     3
100
AcDbLine
 10
658.999985
 20
508.0
 30
0.0
 11
658.999985
 21
514.0
 31
0.0
  0
LINE
  5
108
100
AcDbEntity
  8
LAY-1
  6
CONTINUOUS
 62
     3
100
AcDbLine
 10
546.0
 20
489.5
 30
0.0
 11
364.0
 21
489.5
 31
0.0
  0
LINE
  5
109
100
AcDbEntity
  8
LAY-1
  6
CONTINUOUS
 62
     3
100
AcDbLine
 10
546.0
 20
526.5
 30
0.0
 11
364.0
 21
526.5
 31
0.0
  0
LINE
  5
10A
100
AcDbEntity
  8
LAY-1
  6
CONTINUOUS
 62
     3
100
AcDbLine
 10
546.0
 20
526.5
 30
0.0
 11
546.0
 21
489.50003
 31
0.0
  0
LINE
  5
10B
100
AcDbEntity
  8
LAY-1
  6
CONTINUOUS
 62
     3
100
AcDbLine
 10
364.0
 20
526.5
 30
0.0
 11
364.0
 21
489.50003
 31
0.0
  0
LINE
  5
10C
100
AcDbEntity
  8
LAY-1
  6
CONTINUOUS
 62
     3
100
AcDbLine
 10
371.0
 20
492.00003
 30
0.0
 11
371.0
 21
524.0
 31
0.0
  0
LINE
  5
10D
100
AcDbEntity
  8
LAY-1
  6
CONTINUOUS
 62
     3
100
AcDbLine
 10
371.0
 20
524.0
 30
0.0
 11
540.0
 21
524.0
 31
0.0
  0
LINE
  5
10E
100
AcDbEntity
  8
LAY-1
  6
CONTINUOUS
 62
     3
100
AcDbLine
 10
371.0
 20
492.00003
 30
0.0
 11
540.0
 21
492.00003
 31
0.0
  0
LINE
  5
10F
100
AcDbEntity
  8
LAY-1
  6
CONTINUOUS
 62
     3
100
AcDbLine
 10
540.0
 20
524.0
 30
0.0
 11
540.0
 21
492.000061
 31
0.0
  0
CIRCLE
  5
110
100
AcDbEntity
  8
LAY-1
  6
CONTINUOUS
 62
     3
100
AcDbCircle
 10
405.0
 20
508.0
 30
0.0
 40
6.25
  0
LINE
  5
111
100
AcDbEntity
  8
LAY-1
  6
CONTINUOUS
 62
     3
100
AcDbLine
 10
516.999939
 20
505.75
 30
0.0
 11
517.0
 21
510.25
 31
0.0
  0
LINE
  5
112
100
AcDbEntity
  8
LAY-1
  6
CONTINUOUS
 62
     3
100
AcDbLine
 10
414.229676
 20
510.25
 30
0.0
 11
517.0
 21
510.25
 31
0.0
  0
LINE
  5
113
100
AcDbEntity
  8
LAY-1
  6
CONTINUOUS
 62
     3
100
AcDbLine
 10
414.229676
 20
505.75
 30
0.0
 11
517.0
 21
505.75
 31
0.0
  0
ARC
  5
114
100
AcDbEntity
  8
LAY-1
  6
CONTINUOUS
 62
     3
100
AcDbCircle
 10
465.0
 20
508.0
 30
0.0
 40
5.0
100
AcDbArc
 50
26.743665
 51
153.256355
  0
ARC
  5
115
100
AcDbEntity
  8
LAY-1
  6
CONTINUOUS
 62
     3
100
AcDbCircle
 10
465.0
 20
508.0
 30
0.0
 40
5.0
100
AcDbArc
 50
205.468338
 51
331.882709
  0
ARC
  5
116
100
AcDbEntity
  8
LAY-1
  6
CONTINUOUS
 62
     3
100
AcDbCircle
 10
506.0
 20
508.0
 30
0.0
 40
6.0
100
AcDbArc
 50
22.024383
 51
156.514709
  0
ARC
  5
117
100
AcDbEntity
  8
LAY-1
  6
CONTINUOUS
 62
     3
100
AcDbCircle
 10
506.0
 20
508.0
 30
0.0
 40
6.0
100
AcDbArc
 50
203.485273
 51
337.366545
  0
LINE
  5
118
100
AcDbEntity
  8
LAY-1
  6
CONTINUOUS
 62
     3
100
AcDbLine
 10
491.0
 20
505.450073
 30
0.0
 11
479.0
 21
505.450073
 31
0.0
  0
LINE
  5
119
100
AcDbEntity
  8
LAY-1
  6
CONTINUOUS
 62
     3
100
AcDbLine
 10
491.0
 20
510.550049
 30
0.0
 11
479.0
 21
510.550049
 31
0.0
  0
LINE
  5
11A
100
AcDbEntity
  8
LAY-1
  6
CONTINUOUS
 62
     3
100
AcDbLine
 10
491.0
 20
513.750061
 30
0.0
 11
479.0
 21
513.750061
 31
0.0
  0
LINE
  5
11B
100
AcDbEntity
  8
LAY-1
  6
CONTINUOUS
 62
     3
100
AcDbLine
 10
479.0
 20
502.250061
 30
0.0
 11
491.0
 21
502.250061
 31
0.0
  0
LINE
  5
11C
100
AcDbEntity
  8
LAY-1
  6
CONTINUOUS
 62
     3
100
AcDbLine
 10
491.0
 20
513.750061
 30
0.0
 11
491.0
 21
510.550049
 31
0.0
  0
LINE
  5
11D
100
AcDbEntity
  8
LAY-1
  6
CONTINUOUS
 62
     3
100
AcDbLine
 10
479.0
 20
513.750061
 30
0.0
 11
479.0
 21
510.550049
 31
0.0
  0
LINE
  5
11E
100
AcDbEntity
  8
LAY-1
  6
CONTINUOUS
 62
     3
100
AcDbLine
 10
491.0
 20
502.250061
 30
0.0
 11
491.0
 21
505.450073
 31
0.0
  0
LINE
  5
11F
100
AcDbEntity
  8
LAY-1
  6
CONTINUOUS
 62
     3
100
AcDbLine
 10
479.0
 20
502.250061
 30
0.0
 11
479.0
 21
505.449951
 31
0.0
  0
LINE
  5
120
100
AcDbEntity
  8
LAY-1
  6
CONTINUOUS
 62
     3
100
AcDbLine
 10
488.5
 20
510.550049
 30
0.0
 11
488.5
 21
510.25
 31
0.0
  0
LINE
  5
121
100
AcDbEntity
  8
LAY-1
  6
CONTINUOUS
 62
     3
100
AcDbLine
 10
481.5
 20
510.550049
 30
0.0
 11
481.5
 21
510.25
 31
0.0
  0
LINE
  5
122
100
AcDbEntity
  8
LAY-1
  6
CONTINUOUS
 62
     3
100
AcDbLine
 10
488.5
 20
505.75
 30
0.0
 11
488.5
 21
505.450073
 31
0.0
  0
LINE
  5
123
100
AcDbEntity
  8
LAY-1
  6
CONTINUOUS
 62
     3
100
AcDbLine
 10
481.5
 20
505.75
 30
0.0
 11
481.5
 21
505.450073
 31
0.0
  0
CIRCLE
  5
124
100
AcDbEntity
  8
LAY-1
  6
CONTINUOUS
 62
     3
100
AcDbCircle
 10
405.0
 20
508.00003
 30
0.0
 40
9.45
  0
CIRCLE
  5
125
100
AcDbEntity
  8
LAY-1
  6
CONTINUOUS
 62
     3
100
AcDbCircle
 10
380.0
 20
517.0
 30
0.0
 40
3.3
  0
CIRCLE
  5
126
100
AcDbEntity
  8
LAY-1
  6
DASHED2
 62
     3
100
AcDbCircle
 10
380.0
 20
517.0
 30
0.0
 40
6.1
  0
CIRCLE
  5
127
100
AcDbEntity
  8
LAY-1
  6
CONTINUOUS
 62
     3
100
AcDbCircle
 10
380.0
 20
499.0
 30
0.0
 40
3.3
  0
CIRCLE
  5
128
100
AcDbEntity
  8
LAY-1
  6
DASHED2
 62
     3
100
AcDbCircle
 10
380.0
 20
499.0
 30
0.0
 40
6.1
  0
CIRCLE
  5
129
100
AcDbEntity
  8
LAY-1
  6
CONTINUOUS
 62
     3
100
AcDbCircle
 10
527.0
 20
517.0
 30
0.0
 40
3.3
  0
CIRCLE
  5
12A
100
AcDbEntity
  8
LAY-1
  6
DASHED2
 62
     3
100
AcDbCircle
 10
527.0
 20
517.0
 30
0.0
 40
6.1
  0
CIRCLE
  5
12B
100
AcDbEntity
  8
LAY-1
  6
CONTINUOUS
 62
     3
100
AcDbCircle
 10
527.0
 20
499.0
 30
0.0
 40
3.3
  0
CIRCLE
  5
12C
100
AcDbEntity
  8
LAY-1
  6
DASHED2
 62
     3
100
AcDbCircle
 10
527.0
 20
499.0
 30
0.0
 40
6.1
  0
LINE
  5
12D
100
AcDbEntity
  8
LAY-2
  6
CONTINUOUS
 62
     3
100
AcDbLine
 10
250.0
 20
504.999969
 30
0.0
 11
250.0
 21
498.999969
 31
0.0
  0
LINE
  5
12E
100
AcDbEntity
  8
LAY-2
  6
DASHED2
 62
     3
100
AcDbLine
 10
138.999985
 20
504.599975
 30
0.0
 11
138.999985
 21
504.999969
 31
0.0
  0
LINE
  5
12F
100
AcDbEntity
  8
LAY-2
  6
CONTINUOUS
 62
     3
100
AcDbLine
 10
98.999985
 20
504.999969
 30
0.0
 11
98.999985
 21
498.999969
 31
0.0
  0
LINE
  5
130
100
AcDbEntity
  8
LAY-2
  6
CONTINUOUS
 62
     3
100
AcDbLine
 10
250.0
 20
504.999969
 30
0.0
 11
98.999985
 21
504.999969
 31
0.0
  0
LINE
  5
131
100
AcDbEntity
  8
LAY-2
  6
CONTINUOUS
 62
     3
100
AcDbLine
 10
250.0
 20
498.999969
 30
0.0
 11
98.999985
 21
498.999969
 31
0.0
  0
LINE
  5
132
100
AcDbEntity
  8
LAY-2
  6
CONTINUOUS
 62
     3
100
AcDbLine
 10
101.0
 20
498.999969
 30
0.0
 11
101.0
 21
497.799969
 31
0.0
  0
LINE
  5
133
100
AcDbEntity
  8
LAY-2
  6
CONTINUOUS
 62
     3
100
AcDbLine
 10
129.0
 20
498.999969
 30
0.0
 11
129.0
 21
497.799969
 31
0.0
  0
LINE
  5
134
100
AcDbEntity
  8
LAY-2
  6
CONTINUOUS
 62
     3
100
AcDbLine
 10
101.0
 20
497.799969
 30
0.0
 11
129.0
 21
497.799969
 31
0.0
  0
ARC
  5
135
100
AcDbEntity
  8
LAY-2
  6
CONTINUOUS
 62
     3
100
AcDbCircle
 10
103.15
 20
497.799969
 30
0.0
 40
1.0
100
AcDbArc
 50
180.0
 51
270.0
  0
ARC
  5
136
100
AcDbEntity
  8
LAY-2
  6
CONTINUOUS
 62
     3
100
AcDbCircle
 10
126.85
 20
497.799969
 30
0.0
 40
1.0
100
AcDbArc
 50
270.0
 51
0.0
  0
LINE
  5
137
100
AcDbEntity
  8
LAY-2
  6
DASHED2
 62
     3
100
AcDbLine
 10
138.999985
 20
504.599975
 30
0.0
 11
144.999985
 21
504.599975
 31
0.0
  0
LINE
  5
138
100
AcDbEntity
  8
LAY-2
  6
DASHED2
 62
     3
100
AcDbLine
 10
141.999985
 20
501.599975
 30
0.0
 11
141.999985
 21
494.499969
 31
0.0
  0
LINE
  5
139
100
AcDbEntity
  8
LAY-2
  6
DASHED2
 62
     3
100
AcDbLine
 10
141.999985
 20
501.599975
 30
0.0
 11
144.999985
 21
501.599975
 31
0.0
  0
LINE
  5
13A
100
AcDbEntity
  8
LAY-2
  6
DASHED2
 62
     3
100
AcDbLine
 10
138.999985
 20
504.599975
 30
0.0
 11
141.999985
 21
501.599975
 31
0.0
  0
LINE
  5
13B
100
AcDbEntity
  8
LAY-2
  6
CONTINUOUS
 62
     3
100
AcDbLine
 10
144.999985
 20
488.999969
 30
0.0
 11
141.999985
 21
488.999969
 31
0.0
  0
LINE
  5
13C
100
AcDbEntity
  8
LAY-2
  6
CONTINUOUS
 62
     3
100
AcDbLine
 10
141.999985
 20
494.499969
 30
0.0
 11
141.999985
 21
488.999969
 31
0.0
  0
LINE
  5
13D
100
AcDbEntity
  8
LAY-2
  6
CONTINUOUS
 62
     1
100
AcDbLine
 10
142.499985
 20
488.999969
 30
0.0
 11
142.499985
 21
494.499969
 31
0.0
  0
LINE
  5
13E
100
AcDbEntity
  8
LAY-2
  6
DASHED2
 62
     1
100
AcDbLine
 10
142.499985
 20
501.599975
 30
0.0
 11
142.499985
 21
494.499969
 31
0.0
  0
LINE
  5
13F
100
AcDbEntity
  8
LAY-2
  6
DASHED2
 62
     3
100
AcDbLine
 10
150.999985
 20
504.599975
 30
0.0
 11
150.999985
 21
504.999969
 31
0.0
  0
LINE
  5
140
100
AcDbEntity
  8
LAY-2
  6
DASHED2
 62
     3
100
AcDbLine
 10
150.999985
 20
504.599975
 30
0.0
 11
144.999985
 21
504.599975
 31
0.0
  0
LINE
  5
141
100
AcDbEntity
  8
LAY-2
  6
DASHED2
 62
     3
100
AcDbLine
 10
147.999985
 20
501.599975
 30
0.0
 11
144.999985
 21
501.599975
 31
0.0
  0
LINE
  5
142
100
AcDbEntity
  8
LAY-2
  6
DASHED2
 62
     3
100
AcDbLine
 10
150.999985
 20
504.599975
 30
0.0
 11
147.999985
 21
501.599975
 31
0.0
  0
LINE
  5
143
100
AcDbEntity
  8
LAY-2
  6
DASHED2
 62
     1
100
AcDbLine
 10
147.499985
 20
501.599975
 30
0.0
 11
147.499985
 21
494.499969
 31
0.0
  0
LINE
  5
144
100
AcDbEntity
  8
LAY-2
  6
DASHED2
 62
     3
100
AcDbLine
 10
147.999985
 20
501.599975
 30
0.0
 11
147.999985
 21
494.499969
 31
0.0
  0
LINE
  5
145
100
AcDbEntity
  8
LAY-2
  6
CONTINUOUS
 62
     3
100
AcDbLine
 10
147.999985
 20
494.499969
 30
0.0
 11
147.999985
 21
488.999969
 31
0.0
  0
LINE
  5
146
100
AcDbEntity
  8
LAY-2
  6
CONTINUOUS
 62
     1
100
AcDbLine
 10
147.499985
 20
488.999969
 30
0.0
 11
147.499985
 21
494.499969
 31
0.0
  0
LINE
  5
147
100
AcDbEntity
  8
LAY-2
  6
CONTINUOUS
 62
     3
100
AcDbLine
 10
144.999985
 20
488.999969
 30
0.0
 11
147.999985
 21
488.999969
 31
0.0
  0
LINE
  5
148
100
AcDbEntity
  8
LAY-2
  6
DASHED2
 62
     3
100
AcDbLine
 10
185.0
 20
504.599975
 30
0.0
 11
185.0
 21
504.999969
 31
0.0
  0
LINE
  5
149
100
AcDbEntity
  8
LAY-2
  6
DASHED2
 62
     3
100
AcDbLine
 10
185.0
 20
504.599975
 30
0.0
 11
191.0
 21
504.599975
 31
0.0
  0
LINE
  5
14A
100
AcDbEntity
  8
LAY-2
  6
DASHED2
 62
     3
100
AcDbLine
 10
188.0
 20
501.599975
 30
0.0
 11
188.0
 21
494.499969
 31
0.0
  0
LINE
  5
14B
100
AcDbEntity
  8
LAY-2
  6
DASHED2
 62
     3
100
AcDbLine
 10
188.0
 20
501.599975
 30
0.0
 11
191.0
 21
501.599975
 31
0.0
  0
LINE
  5
14C
100
AcDbEntity
  8
LAY-2
  6
DASHED2
 62
     3
100
AcDbLine
 10
185.0
 20
504.599975
 30
0.0
 11
188.0
 21
501.599975
 31
0.0
  0
LINE
  5
14D
100
AcDbEntity
  8
LAY-2
  6
CONTINUOUS
 62
     3
100
AcDbLine
 10
191.0
 20
488.999969
 30
0.0
 11
188.0
 21
488.999969
 31
0.0
  0
LINE
  5
14E
100
AcDbEntity
  8
LAY-2
  6
CONTINUOUS
 62
     3
100
AcDbLine
 10
188.0
 20
494.499969
 30
0.0
 11
188.0
 21
488.999969
 31
0.0
  0
LINE
  5
14F
100
AcDbEntity
  8
LAY-2
  6
CONTINUOUS
 62
     1
100
AcDbLine
 10
188.5
 20
488.999969
 30
0.0
 11
188.5
 21
494.499969
 31
0.0
  0
LINE
  5
150
100
AcDbEntity
  8
LAY-2
  6
DASHED2
 62
     1
100
AcDbLine
 10
188.5
 20
501.599975
 30
0.0
 11
188.5
 21
494.499969
 31
0.0
  0
LINE
  5
151
100
AcDbEntity
  8
LAY-2
  6
DASHED2
 62
     3
100
AcDbLine
 10
197.0
 20
504.599975
 30
0.0
 11
197.0
 21
504.999969
 31
0.0
  0
LINE
  5
152
100
AcDbEntity
  8
LAY-2
  6
DASHED2
 62
     3
100
AcDbLine
 10
197.0
 20
504.599975
 30
0.0
 11
191.0
 21
504.599975
 31
0.0
  0
LINE
  5
153
100
AcDbEntity
  8
LAY-2
  6
DASHED2
 62
     3
100
AcDbLine
 10
194.0
 20
501.599975
 30
0.0
 11
191.0
 21
501.599975
 31
0.0
  0
LINE
  5
154
100
AcDbEntity
  8
LAY-2
  6
DASHED2
 62
     3
100
AcDbLine
 10
197.0
 20
504.599975
 30
0.0
 11
194.0
 21
501.599975
 31
0.0
  0
LINE
  5
155
100
AcDbEntity
  8
LAY-2
  6
DASHED2
 62
     1
100
AcDbLine
 10
193.5
 20
501.599975
 30
0.0
 11
193.5
 21
494.499969
 31
0.0
  0
LINE
  5
156
100
AcDbEntity
  8
LAY-2
  6
DASHED2
 62
     3
100
AcDbLine
 10
194.0
 20
501.599975
 30
0.0
 11
194.0
 21
494.499969
 31
0.0
  0
LINE
  5
157
100
AcDbEntity
  8
LAY-2
  6
CONTINUOUS
 62
     3
100
AcDbLine
 10
194.0
 20
494.499969
 30
0.0
 11
194.0
 21
488.999969
 31
0.0
  0
LINE
  5
158
100
AcDbEntity
  8
LAY-2
  6
CONTINUOUS
 62
     1
100
AcDbLine
 10
193.5
 20
488.999969
 30
0.0
 11
193.5
 21
494.499969
 31
0.0
  0
LINE
  5
159
100
AcDbEntity
  8
LAY-2
  6
CONTINUOUS
 62
     3
100
AcDbLine
 10
191.0
 20
488.999969
 30
0.0
 11
194.0
 21
488.999969
 31
0.0
  0
LINE
  5
15A
100
AcDbEntity
  8
LAY-2
  6
DASHED2
 62
     3
100
AcDbLine
 10
231.0
 20
504.599975
 30
0.0
 11
231.0
 21
504.999969
 31
0.0
  0
LINE
  5
15B
100
AcDbEntity
  8
LAY-2
  6
DASHED2
 62
     3
100
AcDbLine
 10
231.0
 20
504.599975
 30
0.0
 11
237.0
 21
504.599975
 31
0.0
  0
LINE
  5
15C
100
AcDbEntity
  8
LAY-2
  6
DASHED2
 62
     3
100
AcDbLine
 10
234.0
 20
501.599975
 30
0.0
 11
234.0
 21
494.499969
 31
0.0
  0
LINE
  5
15D
100
AcDbEntity
  8
LAY-2
  6
DASHED2
 62
     3
100
AcDbLine
 10
234.0
 20
501.599975
 30
0.0
 11
237.0
 21
501.599975
 31
0.0
  0
LINE
  5
15E
100
AcDbEntity
  8
LAY-2
  6
DASHED2
 62
     3
100
AcDbLine
 10
231.0
 20
504.599975
 30
0.0
 11
234.0
 21
501.599975
 31
0.0
  0
LINE
  5
15F
100
AcDbEntity
  8
LAY-2
  6
CONTINUOUS
 62
     3
100
AcDbLine
 10
237.0
 20
488.999969
 30
0.0
 11
234.0
 21
488.999969
 31
0.0
  0
LINE
  5
160
100
AcDbEntity
  8
LAY-2
  6
CONTINUOUS
 62
     3
100
AcDbLine
 10
234.0
 20
494.499969
 30
0.0
 11
234.0
 21
488.999969
 31
0.0
  0
LINE
  5
161
100
AcDbEntity
  8
LAY-2
  6
CONTINUOUS
 62
     1
100
AcDbLine
 10
234.5
 20
488.999969
 30
0.0
 11
234.5
 21
494.499969
 31
0.0
  0
LINE
  5
162
100
AcDbEntity
  8
LAY-2
  6
DASHED2
 62
     1
100
AcDbLine
 10
234.5
 20
501.599975
 30
0.0
 11
234.5
 21
494.499969
 31
0.0
  0
LINE
  5
163
100
AcDbEntity
  8
LAY-2
  6
DASHED2
 62
     3
100
AcDbLine
 10
243.0
 20
504.599975
 30
0.0
 11
243.0
 21
504.999969
 31
0.0
  0
LINE
  5
164
100
AcDbEntity
  8
LAY-2
  6
DASHED2
 62
     3
100
AcDbLine
 10
243.0
 20
504.599975
 30
0.0
 11
237.0
 21
504.599975
 31
0.0
  0
LINE
  5
165
100
AcDbEntity
  8
LAY-2
  6
DASHED2
 62
     3
100
AcDbLine
 10
240.0
 20
501.599975
 30
0.0
 11
237.0
 21
501.599975
 31
0.0
  0
LINE
  5
166
100
AcDbEntity
  8
LAY-2
  6
DASHED2
 62
     3
100
AcDbLine
 10
243.0
 20
504.599975
 30
0.0
 11
240.0
 21
501.599975
 31
0.0
  0
LINE
  5
167
100
AcDbEntity
  8
LAY-2
  6
DASHED2
 62
     1
100
AcDbLine
 10
239.5
 20
501.599975
 30
0.0
 11
239.5
 21
494.499969
 31
0.0
  0
LINE
  5
168
100
AcDbEntity
  8
LAY-2
  6
DASHED2
 62
     3
100
AcDbLine
 10
240.0
 20
501.599975
 30
0.0
 11
240.0
 21
494.499969
 31
0.0
  0
LINE
  5
169
100
AcDbEntity
  8
LAY-2
  6
CONTINUOUS
 62
     3
100
AcDbLine
 10
240.0
 20
494.499969
 30
0.0
 11
240.0
 21
488.999969
 31
0.0
  0
LINE
  5
16A
100
AcDbEntity
  8
LAY-2
  6
CONTINUOUS
 62
     1
100
AcDbLine
 10
239.5
 20
488.999969
 30
0.0
 11
239.5
 21
494.499969
 31
0.0
  0
LINE
  5
16B
100
AcDbEntity
  8
LAY-2
  6
CONTINUOUS
 62
     3
100
AcDbLine
 10
237.0
 20
488.999969
 30
0.0
 11
240.0
 21
488.999969
 31
0.0
  0
LINE
  5
16C
100
AcDbEntity
  8
LAY-2
  6
CONTINUOUS
 62
     3
100
AcDbLine
 10
123.75
 20
496.299969
 30
0.0
 11
123.75
 21
489.199969
 31
0.0
  0
ARC
  5
16D
100
AcDbEntity
  8
LAY-2
  6
CONTINUOUS
 62
     3
100
AcDbCircle
 10
124.25
 20
496.299969
 30
0.0
 40
0.5
100
AcDbArc
 50
90.0
 51
180.0
  0
ARC
  5
16E
100
AcDbEntity
  8
LAY-2
  6
CONTINUOUS
 62
     3
100
AcDbCircle
 10
118.55
 20
489.199969
 30
0.0
 40
5.2
100
AcDbArc
 50
270.0
 51
0.0
  0
ARC
  5
16F
100
AcDbEntity
  8
LAY-2
  6
CONTINUOUS
 62
     3
100
AcDbCircle
 10
111.45
 20
489.199969
 30
0.0
 40
5.2
100
AcDbArc
 50
180.0
 51
270.0
  0
ARC
  5
170
100
AcDbEntity
  8
LAY-2
  6
CONTINUOUS
 62
     3
100
AcDbCircle
 10
105.75
 20
496.299969
 30
0.0
 40
0.5
100
AcDbArc
 50
0.0
 51
90.0
  0
LINE
  5
171
100
AcDbEntity
  8
LAY-2
  6
CONTINUOUS
 62
     3
100
AcDbLine
 10
106.25
 20
496.299969
 30
0.0
 11
106.25
 21
489.199969
 31
0.0
  0
LINE
  5
172
100
AcDbEntity
  8
LAY-2
  6
CONTINUOUS
 62
     3
100
AcDbLine
 10
103.15
 20
496.799969
 30
0.0
 11
126.85
 21
496.799969
 31
0.0
  0
LINE
  5
173
100
AcDbEntity
  8
LAY-2
  6
CONTINUOUS
 62
     3
100
AcDbLine
 10
118.55
 20
483.999969
 30
0.0
 11
111.45
 21
483.999969
 31
0.0
  0
LINE
  5
174
100
AcDbEntity
  8
LAY-2
  6
CONTINUOUS
 62
     3
100
AcDbLine
 10
658.999985
 20
504.999969
 30
0.0
 11
658.999985
 21
498.999969
 31
0.0
  0
LINE
  5
175
100
AcDbEntity
  8
LAY-2
  6
CONTINUOUS
 62
     3
100
AcDbLine
 10
661.0
 20
498.999969
 30
0.0
 11
661.0
 21
497.799969
 31
0.0
  0
LINE
  5
176
100
AcDbEntity
  8
LAY-2
  6
CONTINUOUS
 62
     3
100
AcDbLine
 10
689.0
 20
498.999969
 30
0.0
 11
689.0
 21
497.799969
 31
0.0
  0
LINE
  5
177
100
AcDbEntity
  8
LAY-2
  6
CONTINUOUS
 62
     3
100
AcDbLine
 10
661.0
 20
497.799969
 30
0.0
 11
689.0
 21
497.799969
 31
0.0
  0
ARC
  5
178
100
AcDbEntity
  8
LAY-2
  6
CONTINUOUS
 62
     3
100
AcDbCircle
 10
663.15
 20
497.799969
 30
0.0
 40
1.0
100
AcDbArc
 50
180.0
 51
270.0
  0
ARC
  5
179
100
AcDbEntity
  8
LAY-2
  6
CONTINUOUS
 62
     3
100
AcDbCircle
 10
686.85
 20
497.799969
 30
0.0
 40
1.0
100
AcDbArc
 50
270.0
 51
0.0
  0
LINE
  5
17A
100
AcDbEntity
  8
LAY-2
  6
CONTINUOUS
 62
     3
100
AcDbLine
 10
683.75
 20
496.299969
 30
0.0
 11
683.75
 21
489.199969
 31
0.0
  0
ARC
  5
17B
100
AcDbEntity
  8
LAY-2
  6
CONTINUOUS
 62
     3
100
AcDbCircle
 10
684.25
 20
496.299969
 30
0.0
 40
0.5
100
AcDbArc
 50
90.0
 51
180.0
  0
ARC
  5
17C
100
AcDbEntity
  8
LAY-2
  6
CONTINUOUS
 62
     3
100
AcDbCircle
 10
678.55
 20
489.199969
 30
0.0
 40
5.2
100
AcDbArc
 50
270.0
 51
0.0
  0
ARC
  5
17D
100
AcDbEntity
  8
LAY-2
  6
CONTINUOUS
 62
     3
100
AcDbCircle
 10
671.45
 20
489.199969
 30
0.0
 40
5.2
100
AcDbArc
 50
180.0
 51
270.0
  0
ARC
  5
17E
100
AcDbEntity
  8
LAY-2
  6
CONTINUOUS
 62
     3
100
AcDbCircle
 10
665.75
 20
496.299969
 30
0.0
 40
0.5
100
AcDbArc
 50
0.0
 51
90.0
  0
LINE
  5
17F
100
AcDbEntity
  8
LAY-2
  6
CONTINUOUS
 62
     3
100
AcDbLine
 10
666.25
 20
496.299969
 30
0.0
 11
666.25
 21
489.199969
 31
0.0
  0
LINE
  5
180
100
AcDbEntity
  8
LAY-2
  6
CONTINUOUS
 62
     3
100
AcDbLine
 10
663.15
 20
496.799969
 30
0.0
 11
686.85
 21
496.799969
 31
0.0
  0
LINE
  5
181
100
AcDbEntity
  8
LAY-2
  6
CONTINUOUS
 62
     3
100
AcDbLine
 10
678.55
 20
483.999969
 30
0.0
 11
671.45
 21
483.999969
 31
0.0
  0
LINE
  5
182
100
AcDbEntity
  8
LAY-2
  6
CONTINUOUS
 62
     3
100
AcDbLine
 10
691.000015
 20
504.999969
 30
0.0
 11
691.000015
 21
498.999969
 31
0.0
  0
LINE
  5
183
100
AcDbEntity
  8
LAY-2
  6
CONTINUOUS
 62
     3
100
AcDbLine
 10
691.000015
 20
504.999969
 30
0.0
 11
658.999985
 21
504.999969
 31
0.0
  0
LINE
  5
184
100
AcDbEntity
  8
LAY-2
  6
CONTINUOUS
 62
     3
100
AcDbLine
 10
691.000015
 20
498.999969
 30
0.0
 11
658.999985
 21
498.999969
 31
0.0
  0
LINE
  5
185
100
AcDbEntity
  8
LAY-2
  6
CONTINUOUS
 62
     3
100
AcDbLine
 10
540.0
 20
434.0
 30
0.0
 11
540.0
 21
402.0
 31
0.0
  0
CIRCLE
  5
186
100
AcDbEntity
  8
LAY-2
  6
CONTINUOUS
 62
     3
100
AcDbCircle
 10
405.0
 20
417.99997
 30
0.0
 40
6.25
  0
CIRCLE
  5
187
100
AcDbEntity
  8
LAY-2
  6
CONTINUOUS
 62
     3
100
AcDbCircle
 10
405.0
 20
417.99997
 30
0.0
 40
11.9
  0
LINE
  5
188
100
AcDbEntity
  8
LAY-2
  6
CONTINUOUS
 62
     3
100
AcDbLine
 10
388.99997
 20
434.0
 30
0.0
 11
388.99997
 21
402.0
 31
0.0
  0
LINE
  5
189
100
AcDbEntity
  8
LAY-2
  6
CONTINUOUS
 62
     3
100
AcDbLine
 10
540.0
 20
402.0
 30
0.0
 11
388.99997
 21
402.0
 31
0.0
  0
LINE
  5
18A
100
AcDbEntity
  8
LAY-2
  6
CONTINUOUS
 62
     3
100
AcDbLine
 10
540.0
 20
434.0
 30
0.0
 11
388.99997
 21
434.0
 31
0.0
  0
CIRCLE
  5
18B
100
AcDbEntity
  8
LAY-2
  6
CONTINUOUS
 62
     3
100
AcDbCircle
 10
527.0
 20
426.0
 30
0.0
 40
3.3
  0
CIRCLE
  5
18C
100
AcDbEntity
  8
LAY-2
  6
CONTINUOUS
 62
     3
100
AcDbCircle
 10
527.0
 20
426.0
 30
0.0
 40
6.1
  0
CIRCLE
  5
18D
100
AcDbEntity
  8
LAY-2
  6
CONTINUOUS
 62
     3
100
AcDbCircle
 10
481.0
 20
410.0
 30
0.0
 40
3.3
  0
CIRCLE
  5
18E
100
AcDbEntity
  8
LAY-2
  6
CONTINUOUS
 62
     3
100
AcDbCircle
 10
481.0
 20
410.0
 30
0.0
 40
6.1
  0
CIRCLE
  5
18F
100
AcDbEntity
  8
LAY-2
  6
CONTINUOUS
 62
     3
100
AcDbCircle
 10
435.0
 20
426.0
 30
0.0
 40
3.3
  0
CIRCLE
  5
190
100
AcDbEntity
  8
LAY-2
  6
CONTINUOUS
 62
     3
100
AcDbCircle
 10
435.0
 20
426.0
 30
0.0
 40
6.1
  0
LINE
  5
191
100
AcDbEntity
  8
LAY-3
  6
DASHED2
 62
     3
100
AcDbLine
 10
152.5
 20
321.0
 30
0.0
 11
142.5
 21
321.0
 31
0.0
  0
LINE
  5
192
100
AcDbEntity
  8
LAY-3
  6
CONTINUOUS
 62
     3
100
AcDbLine
 10
152.5
 20
313.4
 30
0.0
 11
142.5
 21
313.4
 31
0.0
  0
LINE
  5
193
100
AcDbEntity
  8
LAY-3
  6
DASHED2
 62
     3
100
AcDbLine
 10
152.5
 20
318.0
 30
0.0
 11
152.5
 21
321.0
 31
0.0
  0
LINE
  5
194
100
AcDbEntity
  8
LAY-3
  6
DASHED2
 62
     3
100
AcDbLine
 10
142.5
 20
318.0
 30
0.0
 11
142.5
 21
321.0
 31
0.0
  0
LINE
  5
195
100
AcDbEntity
  8
LAY-3
  6
DASHED2
 62
     3
100
AcDbLine
 10
150.5
 20
319.4
 30
0.0
 11
150.5
 21
336.799939
 31
0.0
  0
LINE
  5
196
100
AcDbEntity
  8
LAY-3
  6
DASHED2
 62
     1
100
AcDbLine
 10
150.15
 20
336.799939
 30
0.0
 11
150.15
 21
319.4
 31
0.0
  0
LINE
  5
197
100
AcDbEntity
  8
LAY-3
  6
DASHED2
 62
     3
100
AcDbLine
 10
144.5
 20
319.4
 30
0.0
 11
144.5
 21
336.799939
 31
0.0
  0
LINE
  5
198
100
AcDbEntity
  8
LAY-3
  6
DASHED2
 62
     1
100
AcDbLine
 10
144.85
 20
336.799939
 30
0.0
 11
144.85
 21
319.4
 31
0.0
  0
LINE
  5
199
100
AcDbEntity
  8
LAY-3
  6
CONTINUOUS
 62
     3
100
AcDbLine
 10
150.5
 20
339.4
 30
0.0
 11
144.5
 21
339.4
 31
0.0
  0
LINE
  5
19A
100
AcDbEntity
  8
LAY-3
  6
CONTINUOUS
 62
     1
100
AcDbLine
 10
144.85
 20
336.799939
 30
0.0
 11
144.85
 21
339.4
 31
0.0
  0
LINE
  5
19B
100
AcDbEntity
  8
LAY-3
  6
CONTINUOUS
 62
     1
100
AcDbLine
 10
150.15
 20
336.799939
 30
0.0
 11
150.15
 21
339.4
 31
0.0
  0
LINE
  5
19C
100
AcDbEntity
  8
LAY-3
  6
CONTINUOUS
 62
     3
100
AcDbLine
 10
144.5
 20
336.799939
 30
0.0
 11
144.5
 21
339.4
 31
0.0
  0
LINE
  5
19D
100
AcDbEntity
  8
LAY-3
  6
CONTINUOUS
 62
     3
100
AcDbLine
 10
150.5
 20
336.799939
 30
0.0
 11
150.5
 21
339.4
 31
0.0
  0
LINE
  5
19E
100
AcDbEntity
  8
LAY-3
  6
CONTINUOUS
 62
     3
100
AcDbLine
 10
152.5
 20
318.0
 30
0.0
 11
152.5
 21
313.4
 31
0.0
  0
LINE
  5
19F
100
AcDbEntity
  8
LAY-3
  6
CONTINUOUS
 62
     3
100
AcDbLine
 10
142.5
 20
318.0
 30
0.0
 11
142.5
 21
313.4
 31
0.0
  0
LINE
  5
1A0
100
AcDbEntity
  8
LAY-3
  6
DASHED2
 62
     3
100
AcDbLine
 10
152.5
 20
319.4
 30
0.0
 11
142.5
 21
319.4
 31
0.0
  0
LINE
  5
1A1
100
AcDbEntity
  8
LAY-3
  6
DASHED2
 62
     3
100
AcDbLine
 10
177.5
 20
321.0
 30
0.0
 11
167.5
 21
321.0
 31
0.0
  0
LINE
  5
1A2
100
AcDbEntity
  8
LAY-3
  6
CONTINUOUS
 62
     3
100
AcDbLine
 10
177.5
 20
313.4
 30
0.0
 11
167.5
 21
313.4
 31
0.0
  0
LINE
  5
1A3
100
AcDbEntity
  8
LAY-3
  6
DASHED2
 62
     3
100
AcDbLine
 10
177.5
 20
318.0
 30
0.0
 11
177.5
 21
321.0
 31
0.0
  0
LINE
  5
1A4
100
AcDbEntity
  8
LAY-3
  6
DASHED2
 62
     3
100
AcDbLine
 10
167.5
 20
318.0
 30
0.0
 11
167.5
 21
321.0
 31
0.0
  0
LINE
  5
1A5
100
AcDbEntity
  8
LAY-3
  6
DASHED2
 62
     3
100
AcDbLine
 10
175.5
 20
319.4
 30
0.0
 11
175.5
 21
336.799939
 31
0.0
  0
LINE
  5
1A6
100
AcDbEntity
  8
LAY-3
  6
DASHED2
 62
     1
100
AcDbLine
 10
175.15
 20
336.799939
 30
0.0
 11
175.15
 21
319.4
 31
0.0
  0
LINE
  5
1A7
100
AcDbEntity
  8
LAY-3
  6
DASHED2
 62
     3
100
AcDbLine
 10
169.5
 20
319.4
 30
0.0
 11
169.5
 21
336.799939
 31
0.0
  0
LINE
  5
1A8
100
AcDbEntity
  8
LAY-3
  6
DASHED2
 62
     1
100
AcDbLine
 10
169.85
 20
336.799939
 30
0.0
 11
169.85
 21
319.4
 31
0.0
  0
LINE
  5
1A9
100
AcDbEntity
  8
LAY-3
  6
CONTINUOUS
 62
     3
100
AcDbLine
 10
175.5
 20
339.4
 30
0.0
 11
169.5
 21
339.4
 31
0.0
  0
LINE
  5
1AA
100
AcDbEntity
  8
LAY-3
  6
CONTINUOUS
 62
     1
100
AcDbLine
 10
169.85
 20
336.799939
 30
0.0
 11
169.85
 21
339.4
 31
0.0
  0
LINE
  5
1AB
100
AcDbEntity
  8
LAY-3
  6
CONTINUOUS
 62
     1
100
AcDbLine
 10
175.15
 20
336.799939
 30
0.0
 11
175.15
 21
339.4
 31
0.0
  0
LINE
  5
1AC
100
AcDbEntity
  8
LAY-3
  6
CONTINUOUS
 62
     3
100
AcDbLine
 10
169.5
 20
336.799939
 30
0.0
 11
169.5
 21
339.4
 31
0.0
  0
LINE
  5
1AD
100
AcDbEntity
  8
LAY-3
  6
CONTINUOUS
 62
     3
100
AcDbLine
 10
175.5
 20
336.799939
 30
0.0
 11
175.5
 21
339.4
 31
0.0
  0
LINE
  5
1AE
100
AcDbEntity
  8
LAY-3
  6
CONTINUOUS
 62
     3
100
AcDbLine
 10
177.5
 20
318.0
 30
0.0
 11
177.5
 21
313.4
 31
0.0
  0
LINE
  5
1AF
100
AcDbEntity
  8
LAY-3
  6
CONTINUOUS
 62
     3
100
AcDbLine
 10
167.5
 20
318.0
 30
0.0
 11
167.5
 21
313.4
 31
0.0
  0
LINE
  5
1B0
100
AcDbEntity
  8
LAY-3
  6
DASHED2
 62
     3
100
AcDbLine
 10
177.5
 20
319.4
 30
0.0
 11
167.5
 21
319.4
 31
0.0
  0
LINE
  5
1B1
100
AcDbEntity
  8
LAY-3
  6
DASHED2
 62
     3
100
AcDbLine
 10
217.5
 20
321.0
 30
0.0
 11
207.5
 21
321.0
 31
0.0
  0
LINE
  5
1B2
100
AcDbEntity
  8
LAY-3
  6
CONTINUOUS
 62
     3
100
AcDbLine
 10
217.5
 20
313.4
 30
0.0
 11
207.5
 21
313.4
 31
0.0
  0
LINE
  5
1B3
100
AcDbEntity
  8
LAY-3
  6
DASHED2
 62
     3
100
AcDbLine
 10
217.5
 20
318.0
 30
0.0
 11
217.5
 21
321.0
 31
0.0
  0
LINE
  5
1B4
100
AcDbEntity
  8
LAY-3
  6
DASHED2
 62
     3
100
AcDbLine
 10
207.5
 20
318.0
 30
0.0
 11
207.5
 21
321.0
 31
0.0
  0
LINE
  5
1B5
100
AcDbEntity
  8
LAY-3
  6
DASHED2
 62
     3
100
AcDbLine
 10
215.5
 20
319.4
 30
0.0
 11
215.5
 21
336.799939
 31
0.0
  0
LINE
  5
1B6
100
AcDbEntity
  8
LAY-3
  6
DASHED2
 62
     1
100
AcDbLine
 10
215.15
 20
336.799939
 30
0.0
 11
215.15
 21
319.4
 31
0.0
  0
LINE
  5
1B7
100
AcDbEntity
  8
LAY-3
  6
DASHED2
 62
     3
100
AcDbLine
 10
209.5
 20
319.4
 30
0.0
 11
209.5
 21
336.799939
 31
0.0
  0
LINE
  5
1B8
100
AcDbEntity
  8
LAY-3
  6
DASHED2
 62
     1
100
AcDbLine
 10
209.85
 20
336.799939
 30
0.0
 11
209.85
 21
319.4
 31
0.0
  0
LINE
  5
1B9
100
AcDbEntity
  8
LAY-3
  6
CONTINUOUS
 62
     3
100
AcDbLine
 10
215.5
 20
339.4
 30
0.0
 11
209.5
 21
339.4
 31
0.0
  0
LINE
  5
1BA
100
AcDbEntity
  8
LAY-3
  6
CONTINUOUS
 62
     1
100
AcDbLine
 10
209.85
 20
336.799939
 30
0.0
 11
209.85
 21
339.4
 31
0.0
  0
LINE
  5
1BB
100
AcDbEntity
  8
LAY-3
  6
CONTINUOUS
 62
     1
100
AcDbLine
 10
215.15
 20
336.799939
 30
0.0
 11
215.15
 21
339.4
 31
0.0
  0
LINE
  5
1BC
100
AcDbEntity
  8
LAY-3
  6
CONTINUOUS
 62
     3
100
AcDbLine
 10
209.5
 20
336.799939
 30
0.0
 11
209.5
 21
339.4
 31
0.0
  0
LINE
  5
1BD
100
AcDbEntity
  8
LAY-3
  6
CONTINUOUS
 62
     3
100
AcDbLine
 10
215.5
 20
336.799939
 30
0.0
 11
215.5
 21
339.4
 31
0.0
  0
LINE
  5
1BE
100
AcDbEntity
  8
LAY-3
  6
CONTINUOUS
 62
     3
100
AcDbLine
 10
217.5
 20
318.0
 30
0.0
 11
217.5
 21
313.4
 31
0.0
  0
LINE
  5
1BF
100
AcDbEntity
  8
LAY-3
  6
CONTINUOUS
 62
     3
100
AcDbLine
 10
207.5
 20
318.0
 30
0.0
 11
207.5
 21
313.4
 31
0.0
  0
LINE
  5
1C0
100
AcDbEntity
  8
LAY-3
  6
DASHED2
 62
     3
100
AcDbLine
 10
217.5
 20
319.4
 30
0.0
 11
207.5
 21
319.4
 31
0.0
  0
LINE
  5
1C1
100
AcDbEntity
  8
LAY-3
  6
DASHED2
 62
     3
100
AcDbLine
 10
257.5
 20
321.0
 30
0.0
 11
247.5
 21
321.0
 31
0.0
  0
LINE
  5
1C2
100
AcDbEntity
  8
LAY-3
  6
CONTINUOUS
 62
     3
100
AcDbLine
 10
257.5
 20
313.4
 30
0.0
 11
247.5
 21
313.4
 31
0.0
  0
LINE
  5
1C3
100
AcDbEntity
  8
LAY-3
  6
DASHED2
 62
     3
100
AcDbLine
 10
257.5
 20
318.0
 30
0.0
 11
257.5
 21
321.0
 31
0.0
  0
LINE
  5
1C4
100
AcDbEntity
  8
LAY-3
  6
DASHED2
 62
     3
100
AcDbLine
 10
247.5
 20
318.0
 30
0.0
 11
247.5
 21
321.0
 31
0.0
  0
LINE
  5
1C5
100
AcDbEntity
  8
LAY-3
  6
DASHED2
 62
     3
100
AcDbLine
 10
255.5
 20
319.4
 30
0.0
 11
255.5
 21
336.799939
 31
0.0
  0
LINE
  5
1C6
100
AcDbEntity
  8
LAY-3
  6
DASHED2
 62
     1
100
AcDbLine
 10
255.15
 20
336.799939
 30
0.0
 11
255.15
 21
319.4
 31
0.0
  0
LINE
  5
1C7
100
AcDbEntity
  8
LAY-3
  6
DASHED2
 62
     3
100
AcDbLine
 10
249.5
 20
319.4
 30
0.0
 11
249.5
 21
336.799939
 31
0.0
  0
LINE
  5
1C8
100
AcDbEntity
  8
LAY-3
  6
DASHED2
 62
     1
100
AcDbLine
 10
249.85
 20
336.799939
 30
0.0
 11
249.85
 21
319.4
 31
0.0
  0
LINE
  5
1C9
100
AcDbEntity
  8
LAY-3
  6
CONTINUOUS
 62
     3
100
AcDbLine
 10
255.5
 20
339.4
 30
0.0
 11
249.5
 21
339.4
 31
0.0
  0
LINE
  5
1CA
100
AcDbEntity
  8
LAY-3
  6
CONTINUOUS
 62
     1
100
AcDbLine
 10
249.85
 20
336.799939
 30
0.0
 11
249.85
 21
339.4
 31
0.0
  0
LINE
  5
1CB
100
AcDbEntity
  8
LAY-3
  6
CONTINUOUS
 62
     1
100
AcDbLine
 10
255.15
 20
336.799939
 30
0.0
 11
255.15
 21
339.4
 31
0.0
  0
LINE
  5
1CC
100
AcDbEntity
  8
LAY-3
  6
CONTINUOUS
 62
     3
100
AcDbLine
 10
249.5
 20
336.799939
 30
0.0
 11
249.5
 21
339.4
 31
0.0
  0
LINE
  5
1CD
100
AcDbEntity
  8
LAY-3
  6
CONTINUOUS
 62
     3
100
AcDbLine
 10
255.5
 20
336.799939
 30
0.0
 11
255.5
 21
339.4
 31
0.0
  0
LINE
  5
1CE
100
AcDbEntity
  8
LAY-3
  6
CONTINUOUS
 62
     3
100
AcDbLine
 10
257.5
 20
318.0
 30
0.0
 11
257.5
 21
313.4
 31
0.0
  0
LINE
  5
1CF
100
AcDbEntity
  8
LAY-3
  6
CONTINUOUS
 62
     3
100
AcDbLine
 10
247.5
 20
318.0
 30
0.0
 11
247.5
 21
313.4
 31
0.0
  0
LINE
  5
1D0
100
AcDbEntity
  8
LAY-3
  6
DASHED2
 62
     3
100
AcDbLine
 10
257.5
 20
319.4
 30
0.0
 11
247.5
 21
319.4
 31
0.0
  0
LINE
  5
1D1
100
AcDbEntity
  8
LAY-3
  6
CONTINUOUS
 62
     3
100
AcDbLine
 10
685.500061
 20
310.0
 30
0.0
 11
664.500061
 21
310.0
 31
0.0
  0
LINE
  5
1D2
100
AcDbEntity
  8
LAY-3
  6
CONTINUOUS
 62
     3
100
AcDbLine
 10
687.000061
 20
328.5
 30
0.0
 11
687.000061
 21
311.5
 31
0.0
  0
LINE
  5
1D3
100
AcDbEntity
  8
LAY-3
  6
CONTINUOUS
 62
     3
100
AcDbLine
 10
663.000061
 20
328.5
 30
0.0
 11
663.000061
 21
311.5
 31
0.0
  0
ARC
  5
1D4
100
AcDbEntity
  8
LAY-3
  6
CONTINUOUS
 62
     3
100
AcDbCircle
 10
664.500061
 20
328.5
 30
0.0
 40
1.5
100
AcDbArc
 50
89.999981
 51
180.00002
  0
ARC
  5
1D5
100
AcDbEntity
  8
LAY-3
  6
CONTINUOUS
 62
     3
100
AcDbCircle
 10
685.500061
 20
328.5
 30
0.0
 40
1.5
100
AcDbArc
 50
0.0
 51
89.999981
  0
ARC
  5
1D6
100
AcDbEntity
  8
LAY-3
  6
CONTINUOUS
 62
     3
100
AcDbCircle
 10
664.500061
 20
311.5
 30
0.0
 40
1.5
100
AcDbArc
 50
180.00002
 51
270.0
  0
ARC
  5
1D7
100
AcDbEntity
  8
LAY-3
  6
CONTINUOUS
 62
     3
100
AcDbCircle
 10
685.500061
 20
311.5
 30
0.0
 40
1.5
100
AcDbArc
 50
270.0
 51
359.999982
  0
LINE
  5
1D8
100
AcDbEntity
  8
LAY-3
  6
CONTINUOUS
 62
     3
100
AcDbLine
 10
664.500061
 20
330.0
 30
0.0
 11
685.500061
 21
330.0
 31
0.0
  0
LINE
  5
1D9
100
AcDbEntity
  8
LAY-3
  6
CONTINUOUS
 62
     3
100
AcDbLine
 10
681.075023
 20
310.0
 30
0.0
 11
681.25
 21
308.0
 31
0.0
  0
LINE
  5
1DA
100
AcDbEntity
  8
LAY-3
  6
DASHED2
 62
     3
100
AcDbLine
 10
679.325249
 20
330.0
 30
0.0
 11
681.075023
 21
310.0
 31
0.0
  0
LINE
  5
1DB
100
AcDbEntity
  8
LAY-3
  6
DASHED2
 62
     3
100
AcDbLine
 10
670.674751
 20
330.0
 30
0.0
 11
668.924977
 21
310.0
 31
0.0
  0
LINE
  5
1DC
100
AcDbEntity
  8
LAY-3
  6
CONTINUOUS
 62
     3
100
AcDbLine
 10
668.924977
 20
310.0
 30
0.0
 11
668.75
 21
308.0
 31
0.0
  0
LINE
  5
1DD
100
AcDbEntity
  8
LAY-3
  6
DASHED2
 62
     3
100
AcDbLine
 10
679.500227
 20
328.0
 30
0.0
 11
670.499773
 21
328.0
 31
0.0
  0
LINE
  5
1DE
100
AcDbEntity
  8
LAY-3
  6
DASHED2
 62
     3
100
AcDbLine
 10
127.5
 20
330.0
 30
0.0
 11
127.5
 21
310.0
 31
0.0
  0
LINE
  5
1DF
100
AcDbEntity
  8
LAY-3
  6
DASHED2
 62
     3
100
AcDbLine
 10
102.5
 20
330.0
 30
0.0
 11
102.5
 21
310.0
 31
0.0
  0
LINE
  5
1E0
100
AcDbEntity
  8
LAY-3
  6
CONTINUOUS
 62
     3
100
AcDbLine
 10
95.0
 20
326.0
 30
0.0
 11
95.0
 21
322.0
 31
0.0
  0
LINE
  5
1E1
100
AcDbEntity
  8
LAY-3
  6
CONTINUOUS
 62
     3
100
AcDbLine
 10
95.275496
 20
328.243739
 30
0.0
 11
95.0
 21
326.0
 31
0.0
  0
LINE
  5
1E2
100
AcDbEntity
  8
LAY-3
  6
CONTINUOUS
 62
     3
100
AcDbLine
 10
96.257773
 20
311.756261
 30
0.0
 11
95.0
 21
322.0
 31
0.0
  0
ARC
  5
1E3
100
AcDbEntity
  8
LAY-3
  6
CONTINUOUS
 62
     3
100
AcDbCircle
 10
97.260589
 20
328.0
 30
0.0
 40
2.0
100
AcDbArc
 50
90.0
 51
173.0
  0
ARC
  5
1E4
100
AcDbEntity
  8
LAY-3
  6
CONTINUOUS
 62
     3
100
AcDbCircle
 10
98.242865
 20
312.0
 30
0.0
 40
2.0
100
AcDbArc
 50
187.0
 51
270.0
  0
LINE
  5
1E5
100
AcDbEntity
  8
LAY-3
  6
CONTINUOUS
 62
     3
100
AcDbLine
 10
137.0
 20
312.0
 30
0.0
 11
137.0
 21
316.0
 31
0.0
  0
ARC
  5
1E6
100
AcDbEntity
  8
LAY-3
  6
CONTINUOUS
 62
     3
100
AcDbCircle
 10
135.0
 20
312.0
 30
0.0
 40
2.0
100
AcDbArc
 50
270.0
 51
0.0
  0
ARC
  5
1E7
100
AcDbEntity
  8
LAY-3
  6
CONTINUOUS
 62
     3
100
AcDbCircle
 10
139.0
 20
316.0
 30
0.0
 40
2.0
100
AcDbArc
 50
90.0
 51
180.0
  0
LINE
  5
1E8
100
AcDbEntity
  8
LAY-3
  6
CONTINUOUS
 62
     3
100
AcDbLine
 10
135.0
 20
310.0
 30
0.0
 11
98.242865
 21
310.0
 31
0.0
  0
LINE
  5
1E9
100
AcDbEntity
  8
LAY-3
  6
CONTINUOUS
 62
     3
100
AcDbLine
 10
263.0
 20
322.0
 30
0.0
 11
263.0
 21
326.0
 31
0.0
  0
LINE
  5
1EA
100
AcDbEntity
  8
LAY-3
  6
CONTINUOUS
 62
     3
100
AcDbLine
 10
262.724504
 20
319.756261
 30
0.0
 11
263.0
 21
322.0
 31
0.0
  0
LINE
  5
1EB
100
AcDbEntity
  8
LAY-3
  6
CONTINUOUS
 62
     3
100
AcDbLine
 10
262.724504
 20
328.243739
 30
0.0
 11
263.0
 21
326.0
 31
0.0
  0
ARC
  5
1EC
100
AcDbEntity
  8
LAY-3
  6
CONTINUOUS
 62
     3
100
AcDbCircle
 10
260.739411
 20
328.0
 30
0.0
 40
2.0
100
AcDbArc
 50
7.0
 51
90.0
  0
ARC
  5
1ED
100
AcDbEntity
  8
LAY-3
  6
CONTINUOUS
 62
     3
100
AcDbCircle
 10
260.739411
 20
320.0
 30
0.0
 40
2.0
100
AcDbArc
 50
270.0
 51
353.0
  0
LINE
  5
1EE
100
AcDbEntity
  8
LAY-3
  6
CONTINUOUS
 62
     3
100
AcDbLine
 10
139.0
 20
318.0
 30
0.0
 11
260.739411
 21
318.0
 31
0.0
  0
LINE
  5
1EF
100
AcDbEntity
  8
LAY-3
  6
CONTINUOUS
 62
     3
100
AcDbLine
 10
97.260589
 20
330.0
 30
0.0
 11
260.739411
 21
330.0
 31
0.0
  0
LINE
  5
1F0
100
AcDbEntity
  8
LAY-3
  6
CONTINUOUS
 62
     3
100
AcDbLine
 10
95.0
 20
169.0
 30
0.0
 11
95.0
 21
151.0
 31
0.0
  0
LINE
  5
1F1
100
AcDbEntity
  8
LAY-3
  6
CONTINUOUS
 62
     3
100
AcDbLine
 10
98.0
 20
172.0
 30
0.0
 11
260.0
 21
172.0
 31
0.0
  0
LINE
  5
1F2
100
AcDbEntity
  8
LAY-3
  6
CONTINUOUS
 62
     3
100
AcDbLine
 10
98.0
 20
148.0
 30
0.0
 11
260.0
 21
148.0
 31
0.0
  0
LINE
  5
1F3
100
AcDbEntity
  8
LAY-3
  6
CONTINUOUS
 62
     3
100
AcDbLine
 10
263.0
 20
151.0
 30
0.0
 11
263.0
 21
169.0
 31
0.0
  0
LINE
  5
1F4
100
AcDbEntity
  8
LAY-3
  6
DASHED2
 62
     3
100
AcDbLine
 10
137.0
 20
151.0
 30
0.0
 11
137.0
 21
169.0
 31
0.0
  0
ARC
  5
1F5
100
AcDbEntity
  8
LAY-3
  6
CONTINUOUS
 62
     3
100
AcDbCircle
 10
98.0
 20
169.0
 30
0.0
 40
3.0
100
AcDbArc
 50
90.0
 51
180.0
  0
ARC
  5
1F6
100
AcDbEntity
  8
LAY-3
  6
CONTINUOUS
 62
     3
100
AcDbCircle
 10
98.0
 20
151.0
 30
0.0
 40
3.0
100
AcDbArc
 50
180.0
 51
270.0
  0
ARC
  5
1F7
100
AcDbEntity
  8
LAY-3
  6
DASHED2
 62
     3
100
AcDbCircle
 10
134.0
 20
169.0
 30
0.0
 40
3.0
100
AcDbArc
 50
0.0
 51
90.0
  0
ARC
  5
1F8
100
AcDbEntity
  8
LAY-3
  6
DASHED2
 62
     3
100
AcDbCircle
 10
134.0
 20
151.0
 30
0.0
 40
3.0
100
AcDbArc
 50
270.0
 51
0.0
  0
ARC
  5
1F9
100
AcDbEntity
  8
LAY-3
  6
CONTINUOUS
 62
     3
100
AcDbCircle
 10
260.0
 20
169.0
 30
0.0
 40
3.0
100
AcDbArc
 50
0.0
 51
90.0
  0
ARC
  5
1FA
100
AcDbEntity
  8
LAY-3
  6
CONTINUOUS
 62
     3
100
AcDbCircle
 10
260.0
 20
151.0
 30
0.0
 40
3.0
100
AcDbArc
 50
270.0
 51
0.0
  0
LINE
  5
1FB
100
AcDbEntity
  8
LAY-3
  6
CONTINUOUS
 62
     3
100
AcDbLine
 10
103.24168
 20
164.35
 30
0.0
 11
126.75832
 21
164.35
 31
0.0
  0
LINE
  5
1FC
100
AcDbEntity
  8
LAY-3
  6
CONTINUOUS
 62
     3
100
AcDbLine
 10
103.24168
 20
155.65
 30
0.0
 11
126.75832
 21
155.65
 31
0.0
  0
LINE
  5
1FD
100
AcDbEntity
  8
LAY-3
  6
DASHED2
 62
     3
100
AcDbLine
 10
102.375
 20
153.75
 30
0.0
 11
127.625
 21
153.75
 31
0.0
  0
LINE
  5
1FE
100
AcDbEntity
  8
LAY-3
  6
DASHED2
 62
     3
100
AcDbLine
 10
102.375
 20
166.25
 30
0.0
 11
127.625
 21
166.25
 31
0.0
  0
LINE
  5
1FF
100
AcDbEntity
  8
LAY-3
  6
DASHED2
 62
     3
100
AcDbLine
 10
127.625
 20
153.75
 30
0.0
 11
127.625
 21
166.25
 31
0.0
  0
LINE
  5
200
100
AcDbEntity
  8
LAY-3
  6
DASHED2
 62
     3
100
AcDbLine
 10
102.375
 20
153.75
 30
0.0
 11
102.375
 21
166.25
 31
0.0
  0
ARC
  5
201
100
AcDbEntity
  8
LAY-3
  6
CONTINUOUS
 62
     3
100
AcDbCircle
 10
116.275
 20
160.0
 30
0.0
 40
11.35
100
AcDbArc
 50
337.464244
 51
22.535756
  0
ARC
  5
202
100
AcDbEntity
  8
LAY-3
  6
CONTINUOUS
 62
     3
100
AcDbCircle
 10
113.725
 20
160.0
 30
0.0
 40
11.35
100
AcDbArc
 50
157.464244
 51
202.535756
  0
LINE
  5
203
100
AcDbEntity
  8
LAY-3
  6
DASHED2
 62
     3
100
AcDbLine
 10
126.75832
 20
164.35
 30
0.0
 11
127.625
 21
166.25
 31
0.0
  0
LINE
  5
204
100
AcDbEntity
  8
LAY-3
  6
DASHED2
 62
     3
100
AcDbLine
 10
103.24168
 20
164.35
 30
0.0
 11
102.375
 21
166.25
 31
0.0
  0
LINE
  5
205
100
AcDbEntity
  8
LAY-3
  6
DASHED2
 62
     3
100
AcDbLine
 10
103.24168
 20
155.65
 30
0.0
 11
102.375
 21
153.75
 31
0.0
  0
LINE
  5
206
100
AcDbEntity
  8
LAY-3
  6
DASHED2
 62
     3
100
AcDbLine
 10
126.75832
 20
155.65
 30
0.0
 11
127.625
 21
153.75
 31
0.0
  0
LINE
  5
207
100
AcDbEntity
  8
LAY-3
  6
CONTINUOUS
 62
     3
100
AcDbLine
 10
102.831147
 20
165.25
 30
0.0
 11
127.168853
 21
165.25
 31
0.0
  0
LINE
  5
208
100
AcDbEntity
  8
LAY-3
  6
CONTINUOUS
 62
     3
100
AcDbLine
 10
102.831147
 20
154.75
 30
0.0
 11
127.168853
 21
154.75
 31
0.0
  0
ARC
  5
209
100
AcDbEntity
  8
LAY-3
  6
CONTINUOUS
 62
     3
100
AcDbCircle
 10
116.685533
 20
160.9
 30
0.0
 40
11.35
100
AcDbArc
 50
15.457218
 51
22.535756
  0
ARC
  5
20A
100
AcDbEntity
  8
LAY-3
  6
CONTINUOUS
 62
     3
100
AcDbCircle
 10
116.685533
 20
159.1
 30
0.0
 40
11.35
100
AcDbArc
 50
337.464244
 51
344.542782
  0
LINE
  5
20B
100
AcDbEntity
  8
LAY-3
  6
CONTINUOUS
 62
     3
100
AcDbLine
 10
127.625
 20
163.924988
 30
0.0
 11
127.625
 21
156.075012
 31
0.0
  0
ARC
  5
20C
100
AcDbEntity
  8
LAY-3
  6
CONTINUOUS
 62
     3
100
AcDbCircle
 10
113.725
 20
160.0
 30
0.0
 40
11.35
100
AcDbArc
 50
157.464244
 51
202.535756
  0
ARC
  5
20D
100
AcDbEntity
  8
LAY-3
  6
CONTINUOUS
 62
     3
100
AcDbCircle
 10
113.314467
 20
160.9
 30
0.0
 40
11.35
100
AcDbArc
 50
157.464244
 51
164.542782
  0
ARC
  5
20E
100
AcDbEntity
  8
LAY-3
  6
CONTINUOUS
 62
     3
100
AcDbCircle
 10
113.314467
 20
159.1
 30
0.0
 40
11.35
100
AcDbArc
 50
195.457218
 51
202.535756
  0
LINE
  5
20F
100
AcDbEntity
  8
LAY-3
  6
CONTINUOUS
 62
     3
100
AcDbLine
 10
102.375
 20
163.924988
 30
0.0
 11
102.375
 21
156.075012
 31
0.0
  0
CIRCLE
  5
210
100
AcDbEntity
  8
LAY-3
  6
CONTINUOUS
 62
     3
100
AcDbCircle
 10
147.5
 20
155.0
 30
0.0
 40
3.2
  0
CIRCLE
  5
211
100
AcDbEntity
  8
LAY-3
  6
CONTINUOUS
 62
     3
100
AcDbCircle
 10
172.5
 20
165.0
 30
0.0
 40
3.2
  0
CIRCLE
  5
212
100
AcDbEntity
  8
LAY-3
  6
CONTINUOUS
 62
     3
100
AcDbCircle
 10
212.5
 20
155.0
 30
0.0
 40
3.2
  0
CIRCLE
  5
213
100
AcDbEntity
  8
LAY-3
  6
CONTINUOUS
 62
     3
100
AcDbCircle
 10
252.5
 20
165.0
 30
0.0
 40
3.2
  0
CIRCLE
  5
214
100
AcDbEntity
  8
LAY-3
  6
DASHED2
 62
     3
100
AcDbCircle
 10
147.5
 20
155.0
 30
0.0
 40
5.2
  0
CIRCLE
  5
215
100
AcDbEntity
  8
LAY-3
  6
DASHED2
 62
     3
100
AcDbCircle
 10
172.5
 20
165.0
 30
0.0
 40
5.2
  0
CIRCLE
  5
216
100
AcDbEntity
  8
LAY-3
  6
DASHED2
 62
     3
100
AcDbCircle
 10
212.5
 20
155.0
 30
0.0
 40
5.2
  0
CIRCLE
  5
217
100
AcDbEntity
  8
LAY-3
  6
DASHED2
 62
     3
100
AcDbCircle
 10
252.5
 20
165.0
 30
0.0
 40
5.2
  0
LINE
  5
218
100
AcDbEntity
  8
LAY-4
  6
CONTINUOUS
 62
     3
100
AcDbLine
 10
662.5
 20
308.0
 30
0.0
 11
668.75
 21
308.0
 31
0.0
  0
LINE
  5
219
100
AcDbEntity
  8
LAY-4
  6
CONTINUOUS
 62
     3
100
AcDbLine
 10
687.5
 20
308.0
 30
0.0
 11
681.25
 21
308.0
 31
0.0
  0
LINE
  5
21A
100
AcDbEntity
  8
LAY-4
  6
CONTINUOUS
 62
     3
100
AcDbLine
 10
662.5
 20
306.999939
 30
0.0
 11
662.5
 21
308.0
 31
0.0
  0
LINE
  5
21B
100
AcDbEntity
  8
LAY-4
  6
CONTINUOUS
 62
     3
100
AcDbLine
 10
127.5
 20
310.0
 30
0.0
 11
127.5
 21
307.0
 31
0.0
  0
LINE
  5
21C
100
AcDbEntity
  8
LAY-4
  6
CONTINUOUS
 62
     3
100
AcDbLine
 10
102.5
 20
310.0
 30
0.0
 11
102.5
 21
307.0
 31
0.0
  0
LINE
  5
21D
100
AcDbEntity
  8
LAY-4
  6
CONTINUOUS
 62
     3
100
AcDbLine
 10
125.589473
 20
308.0
 30
0.0
 11
104.410527
 21
308.0
 31
0.0
  0
LINE
  5
21E
100
AcDbEntity
  8
LAY-4
  6
CONTINUOUS
 62
     3
100
AcDbLine
 10
125.679929
 20
310.0
 30
0.0
 11
125.589473
 21
308.0
 31
0.0
  0
LINE
  5
21F
100
AcDbEntity
  8
LAY-4
  6
CONTINUOUS
 62
     3
100
AcDbLine
 10
104.320071
 20
310.0
 30
0.0
 11
104.410527
 21
308.0
 31
0.0
  0
LINE
  5
220
100
AcDbEntity
  8
LAY-4
  6
DASHED2
 62
     3
100
AcDbLine
 10
125.494036
 20
329.0
 30
0.0
 11
126.494036
 21
328.0
 31
0.0
  0
LINE
  5
221
100
AcDbEntity
  8
LAY-4
  6
DASHED2
 62
     3
100
AcDbLine
 10
127.5
 20
328.0
 30
0.0
 11
126.494036
 21
328.0
 31
0.0
  0
LINE
  5
222
100
AcDbEntity
  8
LAY-4
  6
DASHED2
 62
     3
100
AcDbLine
 10
127.5
 20
328.0
 30
0.0
 11
126.5
 21
329.0
 31
0.0
  0
LINE
  5
223
100
AcDbEntity
  8
LAY-4
  6
DASHED2
 62
     3
100
AcDbLine
 10
103.5
 20
329.0
 30
0.0
 11
126.5
 21
329.0
 31
0.0
  0
LINE
  5
224
100
AcDbEntity
  8
LAY-4
  6
DASHED2
 62
     3
100
AcDbLine
 10
104.505964
 20
329.0
 30
0.0
 11
103.505964
 21
328.0
 31
0.0
  0
LINE
  5
225
100
AcDbEntity
  8
LAY-4
  6
DASHED2
 62
     3
100
AcDbLine
 10
102.5
 20
328.0
 30
0.0
 11
103.505964
 21
328.0
 31
0.0
  0
LINE
  5
226
100
AcDbEntity
  8
LAY-4
  6
DASHED2
 62
     3
100
AcDbLine
 10
102.5
 20
328.0
 30
0.0
 11
103.5
 21
329.0
 31
0.0
  0
LINE
  5
227
100
AcDbEntity
  8
LAY-4
  6
DASHED2
 62
     3
100
AcDbLine
 10
126.494036
 20
328.0
 30
0.0
 11
125.679929
 21
310.0
 31
0.0
  0
LINE
  5
228
100
AcDbEntity
  8
LAY-4
  6
DASHED2
 62
     3
100
AcDbLine
 10
103.505964
 20
328.0
 30
0.0
 11
104.320071
 21
310.0
 31
0.0
  0
ARC
  5
229
100
AcDbEntity
  8
LAY-4
  6
CONTINUOUS
 62
     3
100
AcDbCircle
 10
115.0
 20
160.0
 30
0.0
 40
31.0
100
AcDbArc
 50
220.17777
 51
319.82223
  0
ARC
  5
22A
100
AcDbEntity
  8
LAY-4
  6
CONTINUOUS
 62
     3
100
AcDbCircle
 10
115.0
 20
160.0
 30
0.0
 40
31.0
100
AcDbArc
 50
40.17777
 51
139.82223
  0
ARC
  5
22B
100
AcDbEntity
  8
LAY-4
  6
DASHED2
 62
     3
100
AcDbCircle
 10
115.0
 20
160.0
 30
0.0
 40
31.0
100
AcDbArc
 50
319.82223
 51
40.17777
  0
ARC
  5
22C
100
AcDbEntity
  8
LAY-4
  6
DASHED2
 62
     3
100
AcDbCircle
 10
115.0
 20
160.0
 30
0.0
 40
31.0
100
AcDbArc
 50
139.82223
 51
220.17777
  0
LINE
  5
22D
100
AcDbEntity
  8
LAY-4
  6
CONTINUOUS
 62
     3
100
AcDbLine
 10
687.5
 20
307.0
 30
0.0
 11
687.5
 21
308.0
 31
0.0
  0
LINE
  5
22E
100
AcDbEntity
  8
LAY-4
  6
CONTINUOUS
 62
     3
100
AcDbLine
 10
52.0
 20
210.0
 30
0.0
 11
386.0
 21
210.0
 31
0.0
  0
INSERT
  5
22F
100
AcDbEntity
  8
LAY-4
  6
CONTINUOUS
 62
     0
100
AcDbBlockReference
  2
SYM-1
 10
70.0
 20
195.0
 30
0.0
  0
INSERT
  5
230
100
AcDbEntity
  8
LAY-4
  6
CONTINUOUS
 62
     0
100
AcDbBlockReference
  2
SYM-1
 10
70.0
 20
125.0
 30
0.0
  0
LINE
  5
231
100
AcDbEntity
  8
LAY-4
  6
DASHDOT
 62
     1
100
AcDbLine
 10
184.0
 20
121.0
 30
0.0
 11
184.1
 21
121.0
 31
0.0
  0
INSERT
  5
232
100
AcDbEntity
  8
LAY-4
  6
CONTINUOUS
 62
     0
100
AcDbBlockReference
  2
SYM-1
 10
174.0
 20
121.0
 30
0.0
  0
INSERT
  5
233
100
AcDbEntity
  8
LAY-4
  6
CONTINUOUS
 62
     0
100
AcDbBlockReference
  2
SYM-1
 10
367.0
 20
195.0
 30
0.0
  0
INSERT
  5
234
100
AcDbEntity
  8
LAY-4
  6
CONTINUOUS
 62
     0
100
AcDbBlockReference
  2
SYM-1
 10
367.0
 20
125.0
 30
0.0
  0
LINE
  5
235
100
AcDbEntity
  8
LAY-4
  6
CONTINUOUS
 62
     3
100
AcDbLine
 10
386.0
 20
210.0
 30
0.0
 11
386.0
 21
110.0
 31
0.0
  0
LINE
  5
236
100
AcDbEntity
  8
LAY-4
  6
CONTINUOUS
 62
     3
100
AcDbLine
 10
52.0
 20
210.0
 30
0.0
 11
52.0
 21
110.0
 31
0.0
  0
LINE
  5
237
100
AcDbEntity
  8
LAY-4
  6
CONTINUOUS
 62
     3
100
AcDbLine
 10
52.0
 20
110.0
 30
0.0
 11
386.0
 21
110.0
 31
0.0
  0
LINE
  5
238
100
AcDbEntity
  8
LAY-4
  6
CONTINUOUS
 62
     3
100
AcDbLine
 10
184.0
 20
210.0
 30
0.0
 11
184.0
 21
180.0
 31
0.0
  0
LINE
  5
239
100
AcDbEntity
  8
LAY-4
  6
CONTINUOUS
 62
     3
100
AcDbLine
 10
184.0
 20
140.0
 30
0.0
 11
184.0
 21
110.0
 31
0.0
  0
LINE
  5
23A
100
AcDbEntity
  8
LAY-4
  6
DASHED2
 62
     3
100
AcDbLine
 10
184.0
 20
180.0
 30
0.0
 11
184.0
 21
140.0
 31
0.0
  0
LINE
  5
23B
100
AcDbEntity
  8
LAY-4
  6
CONTINUOUS
 62
     3
100
AcDbLine
 10
52.0
 20
300.0
 30
0.0
 11
96.5
 21
300.0
 31
0.0
  0
INSERT
  5
23C
100
AcDbEntity
  8
LAY-4
  6
CONTINUOUS
 62
     0
100
AcDbBlockReference
  2
SYM-1
 10
174.0
 20
199.0
 30
0.0
  0
LINE
  5
23D
100
AcDbEntity
  8
LAY-4
  6
CONTINUOUS
 62
     3
100
AcDbLine
 10
625.0
 20
300.0
 30
0.0
 11
725.0
 21
300.0
 31
0.0
  0
LINE
  5
23E
100
AcDbEntity
  8
LAY-4
  6
CONTINUOUS
 62
     3
100
AcDbLine
 10
629.8
 20
290.347968
 30
0.0
 11
629.8
 21
298.0
 31
0.0
  0
LINE
  5
23F
100
AcDbEntity
  8
LAY-4
  6
CONTINUOUS
 62
     3
100
AcDbLine
 10
720.7
 20
298.0
 30
0.0
 11
629.3
 21
298.0
 31
0.0
  0
LINE
  5
240
100
AcDbEntity
  8
LAY-4
  6
CONTINUOUS
 62
     3
100
AcDbLine
 10
625.8
 20
298.0
 30
0.0
 11
724.2
 21
298.0
 31
0.0
  0
LINE
  5
241
100
AcDbEntity
  8
LAY-4
  6
CONTINUOUS
 62
     3
100
AcDbLine
 10
720.2
 20
290.047968
 30
0.0
 11
720.2
 21
297.5
 31
0.0
  0
LINE
  5
242
100
AcDbEntity
  8
LAY-4
  6
CONTINUOUS
 62
     3
100
AcDbLine
 10
635.8
 20
252.0
 30
0.0
 11
675.0
 21
252.0
 31
0.0
  0
ARC
  5
243
100
AcDbEntity
  8
LAY-4
  6
CONTINUOUS
 62
     3
100
AcDbCircle
 10
635.8
 20
258.0
 30
0.0
 40
6.0
100
AcDbArc
 50
180.0
 51
270.0
  0
LINE
  5
244
100
AcDbEntity
  8
LAY-4
  6
CONTINUOUS
 62
     3
100
AcDbLine
 10
714.2
 20
252.0
 30
0.0
 11
675.0
 21
252.0
 31
0.0
  0
ARC
  5
245
100
AcDbEntity
  8
LAY-4
  6
CONTINUOUS
 62
     3
100
AcDbCircle
 10
714.2
 20
258.0
 30
0.0
 40
6.0
100
AcDbArc
 50
270.0
 51
0.0
  0
LINE
  5
246
100
AcDbEntity
  8
LAY-4
  6
CONTINUOUS
 62
     3
100
AcDbLine
 10
720.2
 20
297.247968
 30
0.0
 11
720.2
 21
258.0
 31
0.0
  0
LINE
  5
247
100
AcDbEntity
  8
LAY-4
  6
CONTINUOUS
 62
     3
100
AcDbLine
 10
629.8
 20
298.0
 30
0.0
 11
629.8
 21
258.0
 31
0.0
  0
LINE
  5
248
100
AcDbEntity
  8
LAY-4
  6
CONTINUOUS
 62
     3
100
AcDbLine
 10
625.8
 20
299.0
 30
0.0
 11
625.8
 21
298.0
 31
0.0
  0
ARC
  5
249
100
AcDbEntity
  8
LAY-4
  6
CONTINUOUS
 62
     3
100
AcDbCircle
 10
629.3
 20
297.5
 30
0.0
 40
0.5
100
AcDbArc
 50
0.0
 51
90.0
  0
LINE
  5
24A
100
AcDbEntity
  8
LAY-4
  6
CONTINUOUS
 62
     3
100
AcDbLine
 10
625.8
 20
298.0
 30
0.0
 11
629.3
 21
298.0
 31
0.0
  0
LINE
  5
24B
100
AcDbEntity
  8
LAY-4
  6
CONTINUOUS
 62
     3
100
AcDbLine
 10
724.2
 20
299.0
 30
0.0
 11
724.2
 21
298.0
 31
0.0
  0
ARC
  5
24C
100
AcDbEntity
  8
LAY-4
  6
CONTINUOUS
 62
     3
100
AcDbCircle
 10
720.7
 20
297.5
 30
0.0
 40
0.5
100
AcDbArc
 50
90.0
 51
180.0
  0
LINE
  5
24D
100
AcDbEntity
  8
LAY-4
  6
CONTINUOUS
 62
     3
100
AcDbLine
 10
724.2
 20
298.0
 30
0.0
 11
720.7
 21
298.0
 31
0.0
  0
LINE
  5
24E
100
AcDbEntity
  8
LAY-4
  6
CONTINUOUS
 62
     3
100
AcDbLine
 10
625.0
 20
299.0
 30
0.0
 11
725.0
 21
299.0
 31
0.0
  0
LINE
  5
24F
100
AcDbEntity
  8
LAY-4
  6
CONTINUOUS
 62
     3
100
AcDbLine
 10
725.0
 20
299.0
 30
0.0
 11
725.0
 21
300.0
 31
0.0
  0
LINE
  5
250
100
AcDbEntity
  8
LAY-4
  6
CONTINUOUS
 62
     3
100
AcDbLine
 10
625.0
 20
299.0
 30
0.0
 11
625.0
 21
300.0
 31
0.0
  0
ARC
  5
251
100
AcDbEntity
  8
LAY-4
  6
CONTINUOUS
 62
     3
100
AcDbCircle
 10
63.0
 20
258.0
 30
0.0
 40
6.0
100
AcDbArc
 50
180.0
 51
270.0
  0
ARC
  5
252
100
AcDbEntity
  8
LAY-4
  6
CONTINUOUS
 62
     3
100
AcDbCircle
 10
374.0
 20
258.0
 30
0.0
 40
6.0
100
AcDbArc
 50
270.0
 51
0.0
  0
LINE
  5
253
100
AcDbEntity
  8
LAY-4
  6
CONTINUOUS
 62
     3
100
AcDbLine
 10
384.0
 20
298.0
 30
0.0
 11
384.0
 21
299.0
 31
0.0
  0
ARC
  5
254
100
AcDbEntity
  8
LAY-4
  6
CONTINUOUS
 62
     3
100
AcDbCircle
 10
380.5
 20
297.5
 30
0.0
 40
0.5
100
AcDbArc
 50
90.0
 51
180.0
  0
LINE
  5
255
100
AcDbEntity
  8
LAY-4
  6
CONTINUOUS
 62
     3
100
AcDbLine
 10
380.0
 20
258.0
 30
0.0
 11
380.0
 21
297.5
 31
0.0
  0
LINE
  5
256
100
AcDbEntity
  8
LAY-4
  6
CONTINUOUS
 62
     3
100
AcDbLine
 10
53.0
 20
298.0
 30
0.0
 11
53.0
 21
299.0
 31
0.0
  0
ARC
  5
257
100
AcDbEntity
  8
LAY-4
  6
CONTINUOUS
 62
     3
100
AcDbCircle
 10
56.5
 20
297.5
 30
0.0
 40
0.5
100
AcDbArc
 50
0.0
 51
90.0
  0
LINE
  5
258
100
AcDbEntity
  8
LAY-4
  6
CONTINUOUS
 62
     3
100
AcDbLine
 10
57.0
 20
258.0
 30
0.0
 11
57.0
 21
297.5
 31
0.0
  0
LINE
  5
259
100
AcDbEntity
  8
LAY-4
  6
CONTINUOUS
 62
     3
100
AcDbLine
 10
63.0
 20
252.0
 30
0.0
 11
71.783026
 21
252.0
 31
0.0
  0
LINE
  5
25A
100
AcDbEntity
  8
LAY-4
  6
CONTINUOUS
 62
     3
100
AcDbLine
 10
71.783026
 20
252.0
 30
0.0
 11
74.26655
 21
249.320256
 31
0.0
  0
ARC
  5
25B
100
AcDbEntity
  8
LAY-4
  6
CONTINUOUS
 62
     3
100
AcDbCircle
 10
75.0
 20
250.0
 30
0.0
 40
1.0
100
AcDbArc
 50
222.823636
 51
270.0
  0
LINE
  5
25C
100
AcDbEntity
  8
LAY-4
  6
CONTINUOUS
 62
     3
100
AcDbLine
 10
75.0
 20
249.0
 30
0.0
 11
125.0
 21
249.0
 31
0.0
  0
LINE
  5
25D
100
AcDbEntity
  8
LAY-4
  6
CONTINUOUS
 62
     3
100
AcDbLine
 10
128.215215
 20
252.0
 30
0.0
 11
125.73369
 21
249.320515
 31
0.0
  0
ARC
  5
25E
100
AcDbEntity
  8
LAY-4
  6
CONTINUOUS
 62
     3
100
AcDbCircle
 10
125.0
 20
250.0
 30
0.0
 40
1.0
100
AcDbArc
 50
270.0
 51
317.1966
  0
LINE
  5
25F
100
AcDbEntity
  8
LAY-4
  6
CONTINUOUS
 62
     3
100
AcDbLine
 10
301.362381
 20
252.0
 30
0.0
 11
304.321304
 21
249.265581
 31
0.0
  0
ARC
  5
260
100
AcDbEntity
  8
LAY-4
  6
CONTINUOUS
 62
     3
100
AcDbCircle
 10
305.0
 20
250.0
 30
0.0
 40
1.0
100
AcDbArc
 50
227.258154
 51
270.0
  0
LINE
  5
261
100
AcDbEntity
  8
LAY-4
  6
CONTINUOUS
 62
     3
100
AcDbLine
 10
305.0
 20
249.0
 30
0.0
 11
309.0
 21
249.0
 31
0.0
  0
LINE
  5
262
100
AcDbEntity
  8
LAY-4
  6
CONTINUOUS
 62
     3
100
AcDbLine
 10
316.637619
 20
252.0
 30
0.0
 11
313.678696
 21
249.265581
 31
0.0
  0
ARC
  5
263
100
AcDbEntity
  8
LAY-4
  6
CONTINUOUS
 62
     3
100
AcDbCircle
 10
313.0
 20
250.0
 30
0.0
 40
1.0
100
AcDbArc
 50
270.0
 51
312.741846
  0
LINE
  5
264
100
AcDbEntity
  8
LAY-4
  6
CONTINUOUS
 62
     3
100
AcDbLine
 10
313.0
 20
249.0
 30
0.0
 11
309.0
 21
249.0
 31
0.0
  0
LINE
  5
265
100
AcDbEntity
  8
LAY-4
  6
CONTINUOUS
 62
     3
100
AcDbLine
 10
316.637619
 20
252.0
 30
0.0
 11
374.0
 21
252.0
 31
0.0
  0
LINE
  5
266
100
AcDbEntity
  8
LAY-4
  6
CONTINUOUS
 62
     3
100
AcDbLine
 10
128.215215
 20
252.0
 30
0.0
 11
301.362381
 21
252.0
 31
0.0
  0
LINE
  5
267
100
AcDbEntity
  8
LAY-4
  6
CONTINUOUS
 62
     7
100
AcDbLine
 10
64.0
 20
299.0
 30
0.0
 11
78.0
 21
299.0
 31
0.0
  0
LINE
  5
268
100
AcDbEntity
  8
LAY-4
  6
CONTINUOUS
 62
     7
100
AcDbLine
 10
184.0
 20
299.0
 30
0.0
 11
211.0
 21
299.0
 31
0.0
  0
LINE
  5
269
100
AcDbEntity
  8
LAY-4
  6
CONTINUOUS
 62
     7
100
AcDbLine
 10
184.0
 20
299.0
 30
0.0
 11
157.0
 21
299.0
 31
0.0
  0
LINE
  5
26A
100
AcDbEntity
  8
LAY-4
  6
CONTINUOUS
 62
     3
100
AcDbLine
 10
52.0
 20
299.0
 30
0.0
 11
52.0
 21
300.0
 31
0.0
  0
LINE
  5
26B
100
AcDbEntity
  8
LAY-4
  6
CONTINUOUS
 62
     3
100
AcDbLine
 10
78.0
 20
299.0
 30
0.0
 11
52.0
 21
299.0
 31
0.0
  0
LINE
  5
26C
100
AcDbEntity
  8
LAY-4
  6
CONTINUOUS
 62
     3
100
AcDbLine
 10
184.0
 20
300.0
 30
0.0
 11
184.0
 21
299.0
 31
0.0
  0
LINE
  5
26D
100
AcDbEntity
  8
LAY-4
  6
CONTINUOUS
 62
     3
100
AcDbLine
 10
386.0
 20
299.0
 30
0.0
 11
386.0
 21
300.0
 31
0.0
  0
LINE
  5
26E
100
AcDbEntity
  8
LAY-4
  6
CONTINUOUS
 62
     3
100
AcDbLine
 10
386.0
 20
300.0
 30
0.0
 11
386.0
 21
299.0
 31
0.0
  0
LINE
  5
26F
100
AcDbEntity
  8
LAY-4
  6
CONTINUOUS
 62
     3
100
AcDbLine
 10
132.0
 20
252.0
 30
0.0
 11
71.783026
 21
252.0
 31
0.0
  0
LINE
  5
270
100
AcDbEntity
  8
LAY-4
  6
CONTINUOUS
 62
     3
100
AcDbLine
 10
301.362381
 20
252.0
 30
0.0
 11
316.637619
 21
252.0
 31
0.0
  0
LINE
  5
271
100
AcDbEntity
  8
LAY-4
  6
CONTINUOUS
 62
     3
100
AcDbLine
 10
380.5
 20
298.0
 30
0.0
 11
384.0
 21
298.0
 31
0.0
  0
LINE
  5
272
100
AcDbEntity
  8
LAY-4
  6
CONTINUOUS
 62
     3
100
AcDbLine
 10
53.0
 20
298.0
 30
0.0
 11
53.0
 21
299.0
 31
0.0
  0
LINE
  5
273
100
AcDbEntity
  8
LAY-4
  6
CONTINUOUS
 62
     3
100
AcDbLine
 10
52.0
 20
299.0
 30
0.0
 11
52.0
 21
300.0
 31
0.0
  0
LINE
  5
274
100
AcDbEntity
  8
LAY-4
  6
CONTINUOUS
 62
     3
100
AcDbLine
 10
656.966678
 20
251.51998
 30
0.0
 11
654.97346
 21
249.725972
 31
0.0
  0
LINE
  5
275
100
AcDbEntity
  8
LAY-4
  6
CONTINUOUS
 62
     3
100
AcDbLine
 10
675.0
 20
249.0
 30
0.0
 11
660.342111
 21
249.0
 31
0.0
  0
ARC
  5
276
100
AcDbEntity
  8
LAY-4
  6
CONTINUOUS
 62
     3
100
AcDbCircle
 10
660.342111
 20
250.5
 30
0.0
 40
1.5
100
AcDbArc
 50
228.011006
 51
270.0
  0
LINE
  5
277
100
AcDbEntity
  8
LAY-4
  6
CONTINUOUS
 62
     3
100
AcDbLine
 10
656.47417
 20
251.963264
 30
0.0
 11
659.338629
 21
249.38509
 31
0.0
  0
ARC
  5
278
100
AcDbEntity
  8
LAY-4
  6
CONTINUOUS
 62
     3
100
AcDbCircle
 10
653.633283
 20
250.6
 30
0.0
 40
1.6
100
AcDbArc
 50
270.0
 51
326.888658
  0
LINE
  5
279
100
AcDbEntity
  8
LAY-4
  6
CONTINUOUS
 62
     3
100
AcDbLine
 10
646.366717
 20
249.0
 30
0.0
 11
653.633283
 21
249.0
 31
0.0
  0
ARC
  5
27A
100
AcDbEntity
  8
LAY-4
  6
CONTINUOUS
 62
     3
100
AcDbCircle
 10
646.366717
 20
250.6
 30
0.0
 40
1.6
100
AcDbArc
 50
213.111342
 51
270.0
  0
LINE
  5
27B
100
AcDbEntity
  8
LAY-4
  6
CONTINUOUS
 62
     3
100
AcDbLine
 10
642.5
 20
252.0
 30
0.0
 11
645.02654
 21
249.725972
 31
0.0
  0
LINE
  5
27C
100
AcDbEntity
  8
LAY-4
  6
CONTINUOUS
 62
     3
100
AcDbLine
 10
693.033322
 20
251.51998
 30
0.0
 11
695.02654
 21
249.725972
 31
0.0
  0
LINE
  5
27D
100
AcDbEntity
  8
LAY-4
  6
CONTINUOUS
 62
     3
100
AcDbLine
 10
675.0
 20
249.0
 30
0.0
 11
689.657889
 21
249.0
 31
0.0
  0
ARC
  5
27E
100
AcDbEntity
  8
LAY-4
  6
CONTINUOUS
 62
     3
100
AcDbCircle
 10
689.657889
 20
250.5
 30
0.0
 40
1.5
100
AcDbArc
 50
270.0
 51
311.988994
  0
LINE
  5
27F
100
AcDbEntity
  8
LAY-4
  6
CONTINUOUS
 62
     3
100
AcDbLine
 10
693.52583
 20
251.963264
 30
0.0
 11
690.661371
 21
249.38509
 31
0.0
  0
ARC
  5
280
100
AcDbEntity
  8
LAY-4
  6
CONTINUOUS
 62
     3
100
AcDbCircle
 10
696.366717
 20
250.6
 30
0.0
 40
1.6
100
AcDbArc
 50
213.111342
 51
270.0
  0
LINE
  5
281
100
AcDbEntity
  8
LAY-4
  6
CONTINUOUS
 62
     3
100
AcDbLine
 10
703.633283
 20
249.0
 30
0.0
 11
696.366717
 21
249.0
 31
0.0
  0
ARC
  5
282
100
AcDbEntity
  8
LAY-4
  6
CONTINUOUS
 62
     3
100
AcDbCircle
 10
703.633283
 20
250.6
 30
0.0
 40
1.6
100
AcDbArc
 50
270.0
 51
326.888658
  0
LINE
  5
283
100
AcDbEntity
  8
LAY-4
  6
CONTINUOUS
 62
     3
100
AcDbLine
 10
707.5
 20
252.0
 30
0.0
 11
704.97346
 21
249.725972
 31
0.0
  0
LINE
  5
284
100
AcDbEntity
  8
LAY-4
  6
CONTINUOUS
 62
     3
100
AcDbLine
 10
95.0
 20
300.0
 30
0.0
 11
386.0
 21
300.0
 31
0.0
  0
LINE
  5
285
100
AcDbEntity
  8
LAY-4
  6
CONTINUOUS
 62
     3
100
AcDbLine
 10
53.0
 20
299.0
 30
0.0
 11
384.0
 21
299.0
 31
0.0
  0
LINE
  5
286
100
AcDbEntity
  8
LAY-4
  6
CONTINUOUS
 62
     3
100
AcDbLine
 10
133.5
 20
299.0
 30
0.0
 11
386.0
 21
299.0
 31
0.0
  0
LINE
  5
287
100
AcDbEntity
  8
LAY-4
  6
CONTINUOUS
 62
     3
100
AcDbLine
 10
380.5
 20
298.0
 30
0.0
 11
53.0
 21
298.0
 31
0.0
  0
INSERT
  5
288
100
AcDbEntity
  8
LAY-4
  6
CONTINUOUS
 62
     0
100
AcDbBlockReference
  2
SYM-1
 10
194.0
 20
199.0
 30
0.0
  0
LINE
  5
289
100
AcDbEntity
  8
LAY-4
  6
DASHDOT
 62
     1
100
AcDbLine
 10
204.0
 20
121.0
 30
0.0
 11
204.1
 21
121.0
 31
0.0
  0
INSERT
  5
28A
100
AcDbEntity
  8
LAY-4
  6
CONTINUOUS
 62
     0
100
AcDbBlockReference
  2
SYM-1
 10
194.0
 20
121.0
 30
0.0
  0
LINE
  5
28B
100
AcDbEntity
  8
LAY-4
  6
CONTINUOUS
 62
     3
100
AcDbLine
 10
706.0
 20
306.5
 30
0.0
 11
706.0
 21
300.0
 31
0.0
  0
ARC
  5
28C
100
AcDbEntity
  8
LAY-4
  6
CONTINUOUS
 62
     3
100
AcDbCircle
 10
705.5
 20
306.5
 30
0.0
 40
0.5
100
AcDbArc
 50
0.0
 51
90.0
  0
LINE
  5
28D
100
AcDbEntity
  8
LAY-4
  6
CONTINUOUS
 62
     3
100
AcDbLine
 10
705.5
 20
307.0
 30
0.0
 11
644.5
 21
307.0
 31
0.0
  0
LINE
  5
28E
100
AcDbEntity
  8
LAY-4
  6
CONTINUOUS
 62
     3
100
AcDbLine
 10
644.0
 20
306.5
 30
0.0
 11
644.0
 21
300.0
 31
0.0
  0
ARC
  5
28F
100
AcDbEntity
  8
LAY-4
  6
CONTINUOUS
 62
     3
100
AcDbCircle
 10
644.5
 20
306.5
 30
0.0
 40
0.5
100
AcDbArc
 50
90.0
 51
180.0
  0
LINE
  5
290
100
AcDbEntity
  8
LAY-4
  6
CONTINUOUS
 62
     3
100
AcDbLine
 10
146.000016
 20
300.0
 30
0.0
 11
146.000016
 21
306.5
 31
0.0
  0
ARC
  5
291
100
AcDbEntity
  8
LAY-4
  6
CONTINUOUS
 62
     3
100
AcDbCircle
 10
145.500016
 20
306.5
 30
0.0
 40
0.5
100
AcDbArc
 50
0.0
 51
90.0
  0
LINE
  5
292
100
AcDbEntity
  8
LAY-4
  6
CONTINUOUS
 62
     3
100
AcDbLine
 10
84.5
 20
307.0
 30
0.0
 11
145.500016
 21
307.0
 31
0.0
  0
LINE
  5
293
100
AcDbEntity
  8
LAY-4
  6
CONTINUOUS
 62
     3
100
AcDbLine
 10
84.0
 20
300.0
 30
0.0
 11
84.0
 21
306.5
 31
0.0
  0
ARC
  5
294
100
AcDbEntity
  8
LAY-4
  6
CONTINUOUS
 62
     3
100
AcDbCircle
 10
84.5
 20
306.5
 30
0.0
 40
0.5
100
AcDbArc
 50
90.0
 51
180.0
  0
LINE
  5
295
100
AcDbEntity
  8
LAY-5
  6
DASHDOT
 62
     1
100
AcDbLine
 10
147.5
 20
148.0
 30
0.0
 11
147.5
 21
162.497952
 31
0.0
  0
LINE
  5
296
100
AcDbEntity
  8
LAY-5
  6
DASHDOT
 62
     1
100
AcDbLine
 10
140.208916
 20
155.0
 30
0.0
 11
154.968916
 21
155.0
 31
0.0
  0
LINE
  5
297
100
AcDbEntity
  8
LAY-5
  6
DASHDOT
 62
     1
100
AcDbLine
 10
172.5
 20
158.0
 30
0.0
 11
172.5
 21
172.497952
 31
0.0
  0
LINE
  5
298
100
AcDbEntity
  8
LAY-5
  6
DASHDOT
 62
     1
100
AcDbLine
 10
165.208916
 20
165.0
 30
0.0
 11
179.968916
 21
165.0
 31
0.0
  0
LINE
  5
299
100
AcDbEntity
  8
LAY-5
  6
DASHDOT
 62
     1
100
AcDbLine
 10
212.5
 20
148.0
 30
0.0
 11
212.5
 21
162.497952
 31
0.0
  0
LINE
  5
29A
100
AcDbEntity
  8
LAY-5
  6
DASHDOT
 62
     1
100
AcDbLine
 10
205.208916
 20
155.0
 30
0.0
 11
219.968916
 21
155.0
 31
0.0
  0
LINE
  5
29B
100
AcDbEntity
  8
LAY-5
  6
DASHDOT
 62
     1
100
AcDbLine
 10
252.5
 20
158.0
 30
0.0
 11
252.5
 21
172.497952
 31
0.0
  0
LINE
  5
29C
100
AcDbEntity
  8
LAY-5
  6
DASHDOT
 62
     1
100
AcDbLine
 10
245.208916
 20
165.0
 30
0.0
 11
259.968916
 21
165.0
 31
0.0
  0
LINE
  5
29D
100
AcDbEntity
  8
LAY-5
  6
DASHDOT
 62
     1
100
AcDbLine
 10
43.0
 20
160.0
 30
0.0
 11
492.0
 21
160.0
 31
0.0
  0
LINE
  5
29E
100
AcDbEntity
  8
LAY-5
  6
DASHDOT
 62
     1
100
AcDbLine
 10
76.0
 20
195.0
 30
0.0
 11
64.0
 21
195.0
 31
0.0
  0
LINE
  5
29F
100
AcDbEntity
  8
LAY-5
  6
DASHDOT
 62
     1
100
AcDbLine
 10
70.0
 20
189.0
 30
0.0
 11
70.0
 21
201.0
 31
0.0
  0
LINE
  5
2A0
100
AcDbEntity
  8
LAY-5
  6
DASHDOT
 62
     1
100
AcDbLine
 10
180.0
 20
199.0
 30
0.0
 11
168.0
 21
199.0
 31
0.0
  0
LINE
  5
2A1
100
AcDbEntity
  8
LAY-5
  6
DASHDOT
 62
     1
100
AcDbLine
 10
174.0
 20
193.0
 30
0.0
 11
174.0
 21
205.0
 31
0.0
  0
LINE
  5
2A2
100
AcDbEntity
  8
LAY-5
  6
DASHDOT
 62
     1
100
AcDbLine
 10
373.0
 20
195.0
 30
0.0
 11
361.0
 21
195.0
 31
0.0
  0
LINE
  5
2A3
100
AcDbEntity
  8
LAY-5
  6
DASHDOT
 62
     1
100
AcDbLine
 10
367.0
 20
189.0
 30
0.0
 11
367.0
 21
201.0
 31
0.0
  0
LINE
  5
2A4
100
AcDbEntity
  8
LAY-5
  6
DASHDOT
 62
     1
100
AcDbLine
 10
76.0
 20
125.0
 30
0.0
 11
64.0
 21
125.0
 31
0.0
  0
LINE
  5
2A5
100
AcDbEntity
  8
LAY-5
  6
DASHDOT
 62
     1
100
AcDbLine
 10
70.0
 20
119.0
 30
0.0
 11
70.0
 21
131.0
 31
0.0
  0
LINE
  5
2A6
100
AcDbEntity
  8
LAY-5
  6
DASHDOT
 62
     1
100
AcDbLine
 10
180.0
 20
121.0
 30
0.0
 11
168.0
 21
121.0
 31
0.0
  0
LINE
  5
2A7
100
AcDbEntity
  8
LAY-5
  6
DASHDOT
 62
     1
100
AcDbLine
 10
174.0
 20
115.0
 30
0.0
 11
174.0
 21
127.0
 31
0.0
  0
LINE
  5
2A8
100
AcDbEntity
  8
LAY-5
  6
DASHDOT
 62
     1
100
AcDbLine
 10
373.0
 20
125.0
 30
0.0
 11
361.0
 21
125.0
 31
0.0
  0
LINE
  5
2A9
100
AcDbEntity
  8
LAY-5
  6
DASHDOT
 62
     1
100
AcDbLine
 10
367.0
 20
119.0
 30
0.0
 11
367.0
 21
131.0
 31
0.0
  0
LINE
  5
2AA
100
AcDbEntity
  8
LAY-5
  6
DASHDOT
 62
     1
100
AcDbLine
 10
194.0
 20
193.0
 30
0.0
 11
194.0
 21
205.0
 31
0.0
  0
LINE
  5
2AB
100
AcDbEntity
  8
LAY-5
  6
DASHDOT
 62
     1
100
AcDbLine
 10
200.0
 20
199.0
 30
0.0
 11
188.0
 21
199.0
 31
0.0
  0
LINE
  5
2AC
100
AcDbEntity
  8
LAY-5
  6
DASHDOT
 62
     1
100
AcDbLine
 10
194.0
 20
115.0
 30
0.0
 11
194.0
 21
127.0
 31
0.0
  0
LINE
  5
2AD
100
AcDbEntity
  8
LAY-5
  6
DASHDOT
 62
     1
100
AcDbLine
 10
200.0
 20
121.0
 30
0.0
 11
188.0
 21
121.0
 31
0.0
  0
LINE
  5
2AE
100
AcDbEntity
  8
LAY-5
  6
DASHDOT
 62
     1
100
AcDbLine
 10
203.630188
 20
525.499969
 30
0.0
 11
186.022553
 21
525.499969
 31
0.0
  0
LINE
  5
2AF
100
AcDbEntity
  8
LAY-5
  6
DASHDOT
 62
     1
100
AcDbLine
 10
194.99997
 20
535.229028
 30
0.0
 11
194.99997
 21
511.73352
 31
0.0
  0
LINE
  5
2B0
100
AcDbEntity
  8
LAY-5
  6
DASHDOT
 62
     1
100
AcDbLine
 10
215.99997
 20
511.73352
 30
0.0
 11
215.99997
 21
540.946167
 31
0.0
  0
LINE
  5
2B1
100
AcDbEntity
  8
LAY-5
  6
DASHDOT
 62
     1
100
AcDbLine
 10
207.731965
 20
529.499969
 30
0.0
 11
224.839417
 21
529.499969
 31
0.0
  0
LINE
  5
2B2
100
AcDbEntity
  8
LAY-5
  6
DASHDOT
 62
     1
100
AcDbLine
 10
236.99997
 20
506.699028
 30
0.0
 11
236.99997
 21
527.740448
 31
0.0
  0
LINE
  5
2B3
100
AcDbEntity
  8
LAY-5
  6
DASHDOT
 62
     1
100
AcDbLine
 10
115.0
 20
570.0
 30
0.0
 11
115.0
 21
92.1
 31
0.0
  0
LINE
  5
2B4
100
AcDbEntity
  8
LAY-5
  6
DASHDOT
 62
     1
100
AcDbLine
 10
675.0
 20
235.8
 30
0.0
 11
675.0
 21
553.0
 31
0.0
  0
LINE
  5
2B5
100
AcDbEntity
  8
LAY-5
  6
DASHDOT
 62
     1
100
AcDbLine
 10
527.0
 20
524.000061
 30
0.0
 11
527.0
 21
508.415894
 31
0.0
  0
LINE
  5
2B6
100
AcDbEntity
  8
LAY-5
  6
DASHDOT
 62
     1
100
AcDbLine
 10
527.0
 20
492.000092
 30
0.0
 11
527.0
 21
506.83252
 31
0.0
  0
LINE
  5
2B7
100
AcDbEntity
  8
LAY-5
  6
DASHDOT
 62
     1
100
AcDbLine
 10
517.901551
 20
517.0
 30
0.0
 11
537.878687
 21
517.0
 31
0.0
  0
LINE
  5
2B8
100
AcDbEntity
  8
LAY-5
  6
DASHDOT
 62
     1
100
AcDbLine
 10
517.901551
 20
499.0
 30
0.0
 11
537.878687
 21
499.0
 31
0.0
  0
LINE
  5
2B9
100
AcDbEntity
  8
LAY-5
  6
DASHDOT
 62
     1
100
AcDbLine
 10
380.0
 20
524.000061
 30
0.0
 11
380.0
 21
508.755188
 31
0.0
  0
LINE
  5
2BA
100
AcDbEntity
  8
LAY-5
  6
DASHDOT
 62
     1
100
AcDbLine
 10
380.0
 20
492.000092
 30
0.0
 11
380.0
 21
506.719421
 31
0.0
  0
LINE
  5
2BB
100
AcDbEntity
  8
LAY-5
  6
DASHDOT
 62
     1
100
AcDbLine
 10
371.77887
 20
517.0
 30
0.0
 11
388.969788
 21
517.0
 31
0.0
  0
LINE
  5
2BC
100
AcDbEntity
  8
LAY-5
  6
DASHDOT
 62
     1
100
AcDbLine
 10
388.969788
 20
499.0
 30
0.0
 11
371.77887
 21
499.0
 31
0.0
  0
LINE
  5
2BD
100
AcDbEntity
  8
LAY-5
  6
DASHDOT
 62
     1
100
AcDbLine
 10
506.0
 20
500.959082
 30
0.0
 11
506.0
 21
515.259082
 31
0.0
  0
LINE
  5
2BE
100
AcDbEntity
  8
LAY-5
  6
DASHDOT
 62
     1
100
AcDbLine
 10
485.0
 20
500.959082
 30
0.0
 11
485.0
 21
515.259082
 31
0.0
  0
LINE
  5
2BF
100
AcDbEntity
  8
LAY-5
  6
DASHDOT
 62
     1
100
AcDbLine
 10
465.0
 20
501.759082
 30
0.0
 11
465.0
 21
514.359082
 31
0.0
  0
LINE
  5
2C0
100
AcDbEntity
  8
LAY-5
  6
DASHDOT
 62
     1
100
AcDbLine
 10
405.0
 20
486.159082
 30
0.0
 11
405.0
 21
533.259082
 31
0.0
  0
LINE
  5
2C1
100
AcDbEntity
  8
LAY-5
  6
DASHDOT
 62
     1
100
AcDbLine
 10
426.292115
 20
426.0
 30
0.0
 11
444.178687
 21
426.0
 31
0.0
  0
LINE
  5
2C2
100
AcDbEntity
  8
LAY-5
  6
DASHDOT
 62
     1
100
AcDbLine
 10
471.978687
 20
410.0
 30
0.0
 11
490.192505
 21
410.0
 31
0.0
  0
LINE
  5
2C3
100
AcDbEntity
  8
LAY-5
  6
DASHDOT
 62
     1
100
AcDbLine
 10
517.901551
 20
426.0
 30
0.0
 11
536.223389
 21
426.0
 31
0.0
  0
LINE
  5
2C4
100
AcDbEntity
  8
LAY-5
  6
DASHDOT
 62
     1
100
AcDbLine
 10
435.0
 20
434.0
 30
0.0
 11
435.0
 21
415.729059
 31
0.0
  0
LINE
  5
2C5
100
AcDbEntity
  8
LAY-5
  6
DASHDOT
 62
     1
100
AcDbLine
 10
481.0
 20
418.0
 30
0.0
 11
481.0
 21
394.746765
 31
0.0
  0
LINE
  5
2C6
100
AcDbEntity
  8
LAY-5
  6
DASHDOT
 62
     1
100
AcDbLine
 10
527.0
 20
434.0
 30
0.0
 11
527.0
 21
414.729059
 31
0.0
  0
LINE
  5
2C7
100
AcDbEntity
  8
LAY-5
  6
DASHDOT
 62
     1
100
AcDbLine
 10
354.8
 20
508.0
 30
0.0
 11
552.283326
 21
508.0
 31
0.0
  0
LINE
  5
2C8
100
AcDbEntity
  8
LAY-5
  6
DASHDOT
 62
     1
100
AcDbLine
 10
377.0
 20
418.0
 30
0.0
 11
554.0
 21
418.0
 31
0.0
  0
LINE
  5
2C9
100
AcDbEntity
  8
LAY-5
  6
DASHDOT
 62
     1
100
AcDbLine
 10
405.0
 20
438.497803
 30
0.0
 11
405.0
 21
390.800171
 31
0.0
  0
LINE
  5
2CA
100
AcDbEntity
  8
LAY-5
  6
DASHDOT
 62
     1
100
AcDbLine
 10
90.0
 20
506.629028
 30
0.0
 11
90.0
 21
527.740448
 31
0.0
  0
LINE
  5
2CB
100
AcDbEntity
  8
LAY-5
  6
DASHDOT
 62
     1
100
AcDbLine
 10
147.5
 20
343.647876
 30
0.0
 11
147.5
 21
311.647876
 31
0.0
  0
LINE
  5
2CC
100
AcDbEntity
  8
LAY-5
  6
DASHDOT
 62
     1
100
AcDbLine
 10
172.5
 20
343.147876
 30
0.0
 11
172.5
 21
311.747876
 31
0.0
  0
LINE
  5
2CD
100
AcDbEntity
  8
LAY-5
  6
DASHDOT
 62
     1
100
AcDbLine
 10
212.5
 20
342.947876
 30
0.0
 11
212.5
 21
312.147876
 31
0.0
  0
LINE
  5
2CE
100
AcDbEntity
  8
LAY-5
  6
DASHDOT
 62
     1
100
AcDbLine
 10
252.5
 20
342.947876
 30
0.0
 11
252.5
 21
312.047876
 31
0.0
  0
LINE
  5
2CF
100
AcDbEntity
  8
LAY-5
  6
DASHDOT
 62
     1
100
AcDbLine
 10
144.999985
 20
505.729028
 30
0.0
 11
144.999985
 21
485.129028
 31
0.0
  0
LINE
  5
2D0
100
AcDbEntity
  8
LAY-5
  6
DASHDOT
 62
     1
100
AcDbLine
 10
191.0
 20
505.829028
 30
0.0
 11
191.0
 21
485.229028
 31
0.0
  0
LINE
  5
2D1
100
AcDbEntity
  8
LAY-5
  6
DASHDOT
 62
     1
100
AcDbLine
 10
237.0
 20
505.449028
 30
0.0
 11
237.0
 21
485.229028
 31
0.0
  0
TEXT
  5
2D2
100
AcDbEntity
  8
LAY-6
  6
CONTINUOUS
 62
     2
100
AcDbText
 10
87.0
 20
556.50003
 30
0.0
 40
5.0
  1
２０
 41
0.672
  7
EXCADSTD
 72
     5
 11
94.3328
 21
556.50003
 31
0.0
100
AcDbText
  0
LINE
  5
2D3
100
AcDbEntity
  8
LAY-6
  6
CONTINUOUS
 62
     1
100
AcDbLine
 10
81.0
 20
556.00003
 30
0.0
 11
101.0
 21
556.00003
 31
0.0
  0
LINE
  5
2D4
100
AcDbEntity
  8
LAY-6
  6
CONTINUOUS
 62
     1
100
AcDbLine
 10
83.0
 20
556.333363
 30
0.0
 11
81.0
 21
556.00003
 31
0.0
  0
LINE
  5
2D5
100
AcDbEntity
  8
LAY-6
  6
CONTINUOUS
 62
     1
100
AcDbLine
 10
81.0
 20
556.00003
 30
0.0
 11
83.0
 21
555.666697
 31
0.0
  0
LINE
  5
2D6
100
AcDbEntity
  8
LAY-6
  6
CONTINUOUS
 62
     1
100
AcDbLine
 10
99.0
 20
555.666697
 30
0.0
 11
101.0
 21
556.00003
 31
0.0
  0
LINE
  5
2D7
100
AcDbEntity
  8
LAY-6
  6
CONTINUOUS
 62
     1
100
AcDbLine
 10
101.0
 20
556.00003
 30
0.0
 11
99.0
 21
556.333363
 31
0.0
  0
LINE
  5
2D8
100
AcDbEntity
  8
LAY-6
  6
CONTINUOUS
 62
     1
100
AcDbLine
 10
81.0
 20
520.5
 30
0.0
 11
81.0
 21
557.50003
 31
0.0
  0
LINE
  5
2D9
100
AcDbEntity
  8
LAY-6
  6
CONTINUOUS
 62
     1
100
AcDbLine
 10
101.0
 20
520.5
 30
0.0
 11
101.0
 21
557.50003
 31
0.0
  0
LINE
  5
2DA
100
AcDbEntity
  8
LAY-6
  6
CONTINUOUS
 62
     1
100
AcDbLine
 10
115.0
 20
549.629028
 30
0.0
 11
115.0
 21
557.50003
 31
0.0
  0
TEXT
  5
2DB
100
AcDbEntity
  8
LAY-6
  6
CONTINUOUS
 62
     2
100
AcDbText
 10
104.0
 20
556.50003
 30
0.0
 40
5.0
  1
１４
 41
0.672
  7
EXCADSTD
 72
     5
 11
111.3328
 21
556.50003
 31
0.0
100
AcDbText
  0
LINE
  5
2DC
100
AcDbEntity
  8
LAY-6
  6
CONTINUOUS
 62
     1
100
AcDbLine
 10
101.0
 20
556.00003
 30
0.0
 11
115.0
 21
556.00003
 31
0.0
  0
LINE
  5
2DD
100
AcDbEntity
  8
LAY-6
  6
CONTINUOUS
 62
     1
100
AcDbLine
 10
103.0
 20
556.333363
 30
0.0
 11
101.0
 21
556.00003
 31
0.0
  0
LINE
  5
2DE
100
AcDbEntity
  8
LAY-6
  6
CONTINUOUS
 62
     1
100
AcDbLine
 10
101.0
 20
556.00003
 30
0.0
 11
103.0
 21
555.666697
 31
0.0
  0
LINE
  5
2DF
100
AcDbEntity
  8
LAY-6
  6
CONTINUOUS
 62
     1
100
AcDbLine
 10
113.0
 20
555.666697
 30
0.0
 11
115.0
 21
556.00003
 31
0.0
  0
LINE
  5
2E0
100
AcDbEntity
  8
LAY-6
  6
CONTINUOUS
 62
     1
100
AcDbLine
 10
115.0
 20
556.00003
 30
0.0
 11
113.0
 21
556.333363
 31
0.0
  0
TEXT
  5
2E1
100
AcDbEntity
  8
LAY-6
  6
CONTINUOUS
 62
     2
100
AcDbText
 10
167.0
 20
556.50003
 30
0.0
 40
5.0
  1
１１６
 41
0.672
  7
EXCADSTD
 72
     5
 11
179.0
 21
556.50003
 31
0.0
100
AcDbText
  0
LINE
  5
2E2
100
AcDbEntity
  8
LAY-6
  6
CONTINUOUS
 62
     1
100
AcDbLine
 10
115.0
 20
556.00003
 30
0.0
 11
231.0
 21
556.00003
 31
0.0
  0
LINE
  5
2E3
100
AcDbEntity
  8
LAY-6
  6
CONTINUOUS
 62
     1
100
AcDbLine
 10
117.0
 20
556.333363
 30
0.0
 11
115.0
 21
556.00003
 31
0.0
  0
LINE
  5
2E4
100
AcDbEntity
  8
LAY-6
  6
CONTINUOUS
 62
     1
100
AcDbLine
 10
115.0
 20
556.00003
 30
0.0
 11
117.0
 21
555.666697
 31
0.0
  0
LINE
  5
2E5
100
AcDbEntity
  8
LAY-6
  6
CONTINUOUS
 62
     1
100
AcDbLine
 10
229.0
 20
555.666697
 30
0.0
 11
231.0
 21
556.00003
 31
0.0
  0
LINE
  5
2E6
100
AcDbEntity
  8
LAY-6
  6
CONTINUOUS
 62
     1
100
AcDbLine
 10
231.0
 20
556.00003
 30
0.0
 11
229.0
 21
556.333363
 31
0.0
  0
LINE
  5
2E7
100
AcDbEntity
  8
LAY-6
  6
CONTINUOUS
 62
     1
100
AcDbLine
 10
231.0
 20
520.5
 30
0.0
 11
231.0
 21
557.50003
 31
0.0
  0
TEXT
  5
2E8
100
AcDbEntity
  8
LAY-6
  6
CONTINUOUS
 62
     2
100
AcDbText
 10
236.5
 20
556.50003
 30
0.0
 40
5.0
  1
１９
 41
0.672
  7
EXCADSTD
 72
     5
 11
243.8328
 21
556.50003
 31
0.0
100
AcDbText
  0
LINE
  5
2E9
100
AcDbEntity
  8
LAY-6
  6
CONTINUOUS
 62
     1
100
AcDbLine
 10
231.0
 20
556.00003
 30
0.0
 11
250.0
 21
556.00003
 31
0.0
  0
LINE
  5
2EA
100
AcDbEntity
  8
LAY-6
  6
CONTINUOUS
 62
     1
100
AcDbLine
 10
233.0
 20
556.333363
 30
0.0
 11
231.0
 21
556.00003
 31
0.0
  0
LINE
  5
2EB
100
AcDbEntity
  8
LAY-6
  6
CONTINUOUS
 62
     1
100
AcDbLine
 10
231.0
 20
556.00003
 30
0.0
 11
233.0
 21
555.666697
 31
0.0
  0
LINE
  5
2EC
100
AcDbEntity
  8
LAY-6
  6
CONTINUOUS
 62
     1
100
AcDbLine
 10
248.0
 20
555.666697
 30
0.0
 11
250.0
 21
556.00003
 31
0.0
  0
LINE
  5
2ED
100
AcDbEntity
  8
LAY-6
  6
CONTINUOUS
 62
     1
100
AcDbLine
 10
250.0
 20
556.00003
 30
0.0
 11
248.0
 21
556.333363
 31
0.0
  0
LINE
  5
2EE
100
AcDbEntity
  8
LAY-6
  6
CONTINUOUS
 62
     1
100
AcDbLine
 10
250.0
 20
520.5
 30
0.0
 11
250.0
 21
557.50003
 31
0.0
  0
LINE
  5
2EF
100
AcDbEntity
  8
LAY-6
  6
CONTINUOUS
 62
     1
100
AcDbLine
 10
98.999985
 20
498.499969
 30
0.0
 11
98.999985
 21
467.499969
 31
0.0
  0
LINE
  5
2F0
100
AcDbEntity
  8
LAY-6
  6
CONTINUOUS
 62
     1
100
AcDbLine
 10
115.0
 20
480.029028
 30
0.0
 11
115.0
 21
467.499969
 31
0.0
  0
TEXT
  5
2F1
100
AcDbEntity
  8
LAY-6
  6
CONTINUOUS
 62
     2
100
AcDbText
 10
102.999992
 20
469.499969
 30
0.0
 40
5.0
  1
１６
 41
0.672
  7
EXCADSTD
 72
     5
 11
110.332793
 21
469.499969
 31
0.0
100
AcDbText
  0
LINE
  5
2F2
100
AcDbEntity
  8
LAY-6
  6
CONTINUOUS
 62
     1
100
AcDbLine
 10
98.999985
 20
468.999969
 30
0.0
 11
115.0
 21
468.999969
 31
0.0
  0
LINE
  5
2F3
100
AcDbEntity
  8
LAY-6
  6
CONTINUOUS
 62
     1
100
AcDbLine
 10
100.999985
 20
469.333302
 30
0.0
 11
98.999985
 21
468.999969
 31
0.0
  0
LINE
  5
2F4
100
AcDbEntity
  8
LAY-6
  6
CONTINUOUS
 62
     1
100
AcDbLine
 10
98.999985
 20
468.999969
 30
0.0
 11
100.999985
 21
468.666636
 31
0.0
  0
LINE
  5
2F5
100
AcDbEntity
  8
LAY-6
  6
CONTINUOUS
 62
     1
100
AcDbLine
 10
113.0
 20
468.666636
 30
0.0
 11
115.0
 21
468.999969
 31
0.0
  0
LINE
  5
2F6
100
AcDbEntity
  8
LAY-6
  6
CONTINUOUS
 62
     1
100
AcDbLine
 10
115.0
 20
468.999969
 30
0.0
 11
113.0
 21
469.333302
 31
0.0
  0
LINE
  5
2F7
100
AcDbEntity
  8
LAY-6
  6
CONTINUOUS
 62
     1
100
AcDbLine
 10
135.0
 20
493.999969
 30
0.0
 11
135.0
 21
467.499969
 31
0.0
  0
TEXT
  5
2F8
100
AcDbEntity
  8
LAY-6
  6
CONTINUOUS
 62
     2
100
AcDbText
 10
120.2
 20
469.499969
 30
0.0
 40
5.0
  1
２０
 41
0.672
  7
EXCADSTD
 72
     5
 11
127.5328
 21
469.499969
 31
0.0
100
AcDbText
  0
LINE
  5
2F9
100
AcDbEntity
  8
LAY-6
  6
CONTINUOUS
 62
     1
100
AcDbLine
 10
115.0
 20
468.999969
 30
0.0
 11
135.0
 21
468.999969
 31
0.0
  0
LINE
  5
2FA
100
AcDbEntity
  8
LAY-6
  6
CONTINUOUS
 62
     1
100
AcDbLine
 10
117.0
 20
469.333302
 30
0.0
 11
115.0
 21
468.999969
 31
0.0
  0
LINE
  5
2FB
100
AcDbEntity
  8
LAY-6
  6
CONTINUOUS
 62
     1
100
AcDbLine
 10
115.0
 20
468.999969
 30
0.0
 11
117.0
 21
468.666636
 31
0.0
  0
LINE
  5
2FC
100
AcDbEntity
  8
LAY-6
  6
CONTINUOUS
 62
     1
100
AcDbLine
 10
133.0
 20
468.666636
 30
0.0
 11
135.0
 21
468.999969
 31
0.0
  0
LINE
  5
2FD
100
AcDbEntity
  8
LAY-6
  6
CONTINUOUS
 62
     1
100
AcDbLine
 10
135.0
 20
468.999969
 30
0.0
 11
133.0
 21
469.333302
 31
0.0
  0
LINE
  5
2FE
100
AcDbEntity
  8
LAY-6
  6
CONTINUOUS
 62
     1
100
AcDbLine
 10
250.0
 20
493.999969
 30
0.0
 11
250.0
 21
467.499969
 31
0.0
  0
TEXT
  5
2FF
100
AcDbEntity
  8
LAY-6
  6
CONTINUOUS
 62
     2
100
AcDbText
 10
186.5
 20
469.499969
 30
0.0
 40
5.0
  1
１１５
 41
0.672
  7
EXCADSTD
 72
     5
 11
198.5
 21
469.499969
 31
0.0
100
AcDbText
  0
LINE
  5
300
100
AcDbEntity
  8
LAY-6
  6
CONTINUOUS
 62
     1
100
AcDbLine
 10
135.0
 20
468.999969
 30
0.0
 11
250.0
 21
468.999969
 31
0.0
  0
LINE
  5
301
100
AcDbEntity
  8
LAY-6
  6
CONTINUOUS
 62
     1
100
AcDbLine
 10
137.0
 20
469.333302
 30
0.0
 11
135.0
 21
468.999969
 31
0.0
  0
LINE
  5
302
100
AcDbEntity
  8
LAY-6
  6
CONTINUOUS
 62
     1
100
AcDbLine
 10
135.0
 20
468.999969
 30
0.0
 11
137.0
 21
468.666636
 31
0.0
  0
LINE
  5
303
100
AcDbEntity
  8
LAY-6
  6
CONTINUOUS
 62
     1
100
AcDbLine
 10
248.0
 20
468.666636
 30
0.0
 11
250.0
 21
468.999969
 31
0.0
  0
LINE
  5
304
100
AcDbEntity
  8
LAY-6
  6
CONTINUOUS
 62
     1
100
AcDbLine
 10
250.0
 20
468.999969
 30
0.0
 11
248.0
 21
469.333302
 31
0.0
  0
LINE
  5
305
100
AcDbEntity
  8
LAY-6
  6
CONTINUOUS
 62
     1
100
AcDbLine
 10
250.5
 20
498.999969
 30
0.0
 11
266.5
 21
498.999969
 31
0.0
  0
TEXT
  5
306
100
AcDbEntity
  8
LAY-6
  6
CONTINUOUS
 62
     2
100
AcDbText
 10
264.5
 20
499.999969
 30
0.0
 40
5.0
  1
６
 50
90.0
 41
0.672
  7
EXCADSTD
 72
     5
 11
264.5
 21
503.199969
 31
0.0
100
AcDbText
  0
LINE
  5
307
100
AcDbEntity
  8
LAY-6
  6
CONTINUOUS
 62
     1
100
AcDbLine
 10
265.0
 20
498.999969
 30
0.0
 11
265.0
 21
504.999969
 31
0.0
  0
LINE
  5
308
100
AcDbEntity
  8
LAY-6
  6
CONTINUOUS
 62
     1
100
AcDbLine
 10
264.666667
 20
500.999969
 30
0.0
 11
265.0
 21
498.999969
 31
0.0
  0
LINE
  5
309
100
AcDbEntity
  8
LAY-6
  6
CONTINUOUS
 62
     1
100
AcDbLine
 10
265.0
 20
498.999969
 30
0.0
 11
265.333333
 21
500.999969
 31
0.0
  0
LINE
  5
30A
100
AcDbEntity
  8
LAY-6
  6
CONTINUOUS
 62
     1
100
AcDbLine
 10
265.333333
 20
502.999969
 30
0.0
 11
265.0
 21
504.999969
 31
0.0
  0
LINE
  5
30B
100
AcDbEntity
  8
LAY-6
  6
CONTINUOUS
 62
     1
100
AcDbLine
 10
265.0
 20
504.999969
 30
0.0
 11
264.666667
 21
502.999969
 31
0.0
  0
LINE
  5
30C
100
AcDbEntity
  8
LAY-6
  6
CONTINUOUS
 62
     1
100
AcDbLine
 10
250.5
 20
514.0
 30
0.0
 11
266.5
 21
514.0
 31
0.0
  0
TEXT
  5
30D
100
AcDbEntity
  8
LAY-6
  6
CONTINUOUS
 62
     2
100
AcDbText
 10
264.5
 20
509.0
 30
0.0
 40
5.0
  1
６
 50
90.0
 41
0.672
  7
EXCADSTD
 72
     5
 11
264.5
 21
512.2
 31
0.0
100
AcDbText
  0
LINE
  5
30E
100
AcDbEntity
  8
LAY-6
  6
CONTINUOUS
 62
     1
100
AcDbLine
 10
265.0
 20
508.0
 30
0.0
 11
265.0
 21
514.0
 31
0.0
  0
LINE
  5
30F
100
AcDbEntity
  8
LAY-6
  6
CONTINUOUS
 62
     1
100
AcDbLine
 10
264.666667
 20
510.0
 30
0.0
 11
265.0
 21
508.0
 31
0.0
  0
LINE
  5
310
100
AcDbEntity
  8
LAY-6
  6
CONTINUOUS
 62
     1
100
AcDbLine
 10
265.0
 20
508.0
 30
0.0
 11
265.333333
 21
510.0
 31
0.0
  0
LINE
  5
311
100
AcDbEntity
  8
LAY-6
  6
CONTINUOUS
 62
     1
100
AcDbLine
 10
265.333333
 20
512.0
 30
0.0
 11
265.0
 21
514.0
 31
0.0
  0
LINE
  5
312
100
AcDbEntity
  8
LAY-6
  6
CONTINUOUS
 62
     1
100
AcDbLine
 10
265.0
 20
514.0
 30
0.0
 11
264.666667
 21
512.0
 31
0.0
  0
LINE
  5
313
100
AcDbEntity
  8
LAY-6
  6
CONTINUOUS
 62
     1
100
AcDbLine
 10
95.000016
 20
330.5
 30
0.0
 11
95.000016
 21
348.3
 31
0.0
  0
LINE
  5
314
100
AcDbEntity
  8
LAY-6
  6
CONTINUOUS
 62
     1
100
AcDbLine
 10
115.0
 20
334.263165
 30
0.0
 11
115.0
 21
348.3
 31
0.0
  0
TEXT
  5
315
100
AcDbEntity
  8
LAY-6
  6
CONTINUOUS
 62
     2
100
AcDbText
 10
101.000008
 20
347.3
 30
0.0
 40
5.0
  1
２０
 41
0.672
  7
EXCADSTD
 72
     5
 11
108.332808
 21
347.3
 31
0.0
100
AcDbText
  0
LINE
  5
316
100
AcDbEntity
  8
LAY-6
  6
CONTINUOUS
 62
     1
100
AcDbLine
 10
95.000016
 20
346.8
 30
0.0
 11
115.0
 21
346.8
 31
0.0
  0
LINE
  5
317
100
AcDbEntity
  8
LAY-6
  6
CONTINUOUS
 62
     1
100
AcDbLine
 10
97.000016
 20
347.133333
 30
0.0
 11
95.000016
 21
346.8
 31
0.0
  0
LINE
  5
318
100
AcDbEntity
  8
LAY-6
  6
CONTINUOUS
 62
     1
100
AcDbLine
 10
95.000016
 20
346.8
 30
0.0
 11
97.000016
 21
346.466667
 31
0.0
  0
LINE
  5
319
100
AcDbEntity
  8
LAY-6
  6
CONTINUOUS
 62
     1
100
AcDbLine
 10
113.0
 20
346.466667
 30
0.0
 11
115.0
 21
346.8
 31
0.0
  0
LINE
  5
31A
100
AcDbEntity
  8
LAY-6
  6
CONTINUOUS
 62
     1
100
AcDbLine
 10
115.0
 20
346.8
 30
0.0
 11
113.0
 21
347.133333
 31
0.0
  0
LINE
  5
31B
100
AcDbEntity
  8
LAY-6
  6
CONTINUOUS
 62
     1
100
AcDbLine
 10
663.000061
 20
327.999939
 30
0.0
 11
663.000061
 21
313.247845
 31
0.0
  0
LINE
  5
31C
100
AcDbEntity
  8
LAY-6
  6
CONTINUOUS
 62
     1
100
AcDbLine
 10
687.000061
 20
327.999939
 30
0.0
 11
687.000061
 21
313.247845
 31
0.0
  0
TEXT
  5
31D
100
AcDbEntity
  8
LAY-6
  6
CONTINUOUS
 62
     2
100
AcDbText
 10
671.000061
 20
317.247937
 30
0.0
 40
5.0
  1
２４
 41
0.672
  7
EXCADSTD
 72
     5
 11
678.332861
 21
317.247937
 31
0.0
100
AcDbText
  0
LINE
  5
31E
100
AcDbEntity
  8
LAY-6
  6
CONTINUOUS
 62
     1
100
AcDbLine
 10
663.000061
 20
316.747937
 30
0.0
 11
687.000061
 21
316.747937
 31
0.0
  0
LINE
  5
31F
100
AcDbEntity
  8
LAY-6
  6
CONTINUOUS
 62
     1
100
AcDbLine
 10
665.000061
 20
317.08127
 30
0.0
 11
663.000061
 21
316.747937
 31
0.0
  0
LINE
  5
320
100
AcDbEntity
  8
LAY-6
  6
CONTINUOUS
 62
     1
100
AcDbLine
 10
663.000061
 20
316.747937
 30
0.0
 11
665.000061
 21
316.414604
 31
0.0
  0
LINE
  5
321
100
AcDbEntity
  8
LAY-6
  6
CONTINUOUS
 62
     1
100
AcDbLine
 10
685.000061
 20
316.414604
 30
0.0
 11
687.000061
 21
316.747937
 31
0.0
  0
LINE
  5
322
100
AcDbEntity
  8
LAY-6
  6
CONTINUOUS
 62
     1
100
AcDbLine
 10
687.000061
 20
316.747937
 30
0.0
 11
685.000061
 21
317.08127
 31
0.0
  0
TEXT
  5
323
100
AcDbEntity
  8
LAY-6
  6
CONTINUOUS
 62
     2
100
AcDbText
 10
709.5
 20
315.999939
 30
0.0
 40
5.0
  1
２０
 50
90.0
 41
0.672
  7
EXCADSTD
 72
     5
 11
709.5
 21
323.332739
 31
0.0
100
AcDbText
  0
LINE
  5
324
100
AcDbEntity
  8
LAY-6
  6
CONTINUOUS
 62
     1
100
AcDbLine
 10
692.1
 20
329.999939
 30
0.0
 11
711.5
 21
329.999939
 31
0.0
  0
LINE
  5
325
100
AcDbEntity
  8
LAY-6
  6
CONTINUOUS
 62
     1
100
AcDbLine
 10
710.0
 20
309.999939
 30
0.0
 11
710.0
 21
329.999939
 31
0.0
  0
LINE
  5
326
100
AcDbEntity
  8
LAY-6
  6
CONTINUOUS
 62
     1
100
AcDbLine
 10
709.666667
 20
311.999939
 30
0.0
 11
710.0
 21
309.999939
 31
0.0
  0
LINE
  5
327
100
AcDbEntity
  8
LAY-6
  6
CONTINUOUS
 62
     1
100
AcDbLine
 10
710.0
 20
309.999939
 30
0.0
 11
710.333333
 21
311.999939
 31
0.0
  0
LINE
  5
328
100
AcDbEntity
  8
LAY-6
  6
CONTINUOUS
 62
     1
100
AcDbLine
 10
710.333333
 20
327.999939
 30
0.0
 11
710.0
 21
329.999939
 31
0.0
  0
LINE
  5
329
100
AcDbEntity
  8
LAY-6
  6
CONTINUOUS
 62
     1
100
AcDbLine
 10
710.0
 20
329.999939
 30
0.0
 11
709.666667
 21
327.999939
 31
0.0
  0
LINE
  5
32A
100
AcDbEntity
  8
LAY-6
  6
CONTINUOUS
 62
     1
100
AcDbLine
 10
546.0
 20
527.0
 30
0.0
 11
546.0
 21
538.0
 31
0.0
  0
TEXT
  5
32B
100
AcDbEntity
  8
LAY-6
  6
CONTINUOUS
 62
     2
100
AcDbText
 10
469.5
 20
537.0
 30
0.0
 40
5.0
  1
１４１
 41
0.672
  7
EXCADSTD
 72
     5
 11
481.5
 21
537.0
 31
0.0
100
AcDbText
  0
LINE
  5
32C
100
AcDbEntity
  8
LAY-6
  6
CONTINUOUS
 62
     1
100
AcDbLine
 10
405.0
 20
536.5
 30
0.0
 11
546.0
 21
536.5
 31
0.0
  0
LINE
  5
32D
100
AcDbEntity
  8
LAY-6
  6
CONTINUOUS
 62
     1
100
AcDbLine
 10
407.0
 20
536.833333
 30
0.0
 11
405.0
 21
536.5
 31
0.0
  0
LINE
  5
32E
100
AcDbEntity
  8
LAY-6
  6
CONTINUOUS
 62
     1
100
AcDbLine
 10
405.0
 20
536.5
 30
0.0
 11
407.0
 21
536.166667
 31
0.0
  0
LINE
  5
32F
100
AcDbEntity
  8
LAY-6
  6
CONTINUOUS
 62
     1
100
AcDbLine
 10
544.0
 20
536.166667
 30
0.0
 11
546.0
 21
536.5
 31
0.0
  0
LINE
  5
330
100
AcDbEntity
  8
LAY-6
  6
CONTINUOUS
 62
     1
100
AcDbLine
 10
546.0
 20
536.5
 30
0.0
 11
544.0
 21
536.833333
 31
0.0
  0
LINE
  5
331
100
AcDbEntity
  8
LAY-6
  6
CONTINUOUS
 62
     1
100
AcDbLine
 10
380.0
 20
491.500092
 30
0.0
 11
380.0
 21
478.0
 31
0.0
  0
LINE
  5
332
100
AcDbEntity
  8
LAY-6
  6
CONTINUOUS
 62
     1
100
AcDbLine
 10
405.0
 20
485.659082
 30
0.0
 11
405.0
 21
478.0
 31
0.0
  0
TEXT
  5
333
100
AcDbEntity
  8
LAY-6
  6
CONTINUOUS
 62
     2
100
AcDbText
 10
388.5
 20
480.0
 30
0.0
 40
5.0
  1
２５
 41
0.672
  7
EXCADSTD
 72
     5
 11
395.8328
 21
480.0
 31
0.0
100
AcDbText
  0
LINE
  5
334
100
AcDbEntity
  8
LAY-6
  6
CONTINUOUS
 62
     1
100
AcDbLine
 10
380.0
 20
479.5
 30
0.0
 11
405.0
 21
479.5
 31
0.0
  0
LINE
  5
335
100
AcDbEntity
  8
LAY-6
  6
CONTINUOUS
 62
     1
100
AcDbLine
 10
382.0
 20
479.833333
 30
0.0
 11
380.0
 21
479.5
 31
0.0
  0
LINE
  5
336
100
AcDbEntity
  8
LAY-6
  6
CONTINUOUS
 62
     1
100
AcDbLine
 10
380.0
 20
479.5
 30
0.0
 11
382.0
 21
479.166667
 31
0.0
  0
LINE
  5
337
100
AcDbEntity
  8
LAY-6
  6
CONTINUOUS
 62
     1
100
AcDbLine
 10
403.0
 20
479.166667
 30
0.0
 11
405.0
 21
479.5
 31
0.0
  0
LINE
  5
338
100
AcDbEntity
  8
LAY-6
  6
CONTINUOUS
 62
     1
100
AcDbLine
 10
405.0
 20
479.5
 30
0.0
 11
403.0
 21
479.833333
 31
0.0
  0
LINE
  5
339
100
AcDbEntity
  8
LAY-6
  6
CONTINUOUS
 62
     1
100
AcDbLine
 10
527.0
 20
491.500092
 30
0.0
 11
527.0
 21
478.0
 31
0.0
  0
TEXT
  5
33A
100
AcDbEntity
  8
LAY-6
  6
CONTINUOUS
 62
     2
100
AcDbText
 10
460.0
 20
480.0
 30
0.0
 40
5.0
  1
１２２
 41
0.672
  7
EXCADSTD
 72
     5
 11
472.0
 21
480.0
 31
0.0
100
AcDbText
  0
LINE
  5
33B
100
AcDbEntity
  8
LAY-6
  6
CONTINUOUS
 62
     1
100
AcDbLine
 10
405.0
 20
479.5
 30
0.0
 11
527.0
 21
479.5
 31
0.0
  0
LINE
  5
33C
100
AcDbEntity
  8
LAY-6
  6
CONTINUOUS
 62
     1
100
AcDbLine
 10
407.0
 20
479.833333
 30
0.0
 11
405.0
 21
479.5
 31
0.0
  0
LINE
  5
33D
100
AcDbEntity
  8
LAY-6
  6
CONTINUOUS
 62
     1
100
AcDbLine
 10
405.0
 20
479.5
 30
0.0
 11
407.0
 21
479.166667
 31
0.0
  0
LINE
  5
33E
100
AcDbEntity
  8
LAY-6
  6
CONTINUOUS
 62
     1
100
AcDbLine
 10
525.0
 20
479.166667
 30
0.0
 11
527.0
 21
479.5
 31
0.0
  0
LINE
  5
33F
100
AcDbEntity
  8
LAY-6
  6
CONTINUOUS
 62
     1
100
AcDbLine
 10
527.0
 20
479.5
 30
0.0
 11
525.0
 21
479.833333
 31
0.0
  0
LINE
  5
340
100
AcDbEntity
  8
LAY-6
  6
CONTINUOUS
 62
     1
100
AcDbLine
 10
540.0
 20
491.500031
 30
0.0
 11
540.0
 21
468.0
 31
0.0
  0
TEXT
  5
341
100
AcDbEntity
  8
LAY-6
  6
CONTINUOUS
 62
     2
100
AcDbText
 10
466.5
 20
470.0
 30
0.0
 40
5.0
  1
１３５
 41
0.672
  7
EXCADSTD
 72
     5
 11
478.5
 21
470.0
 31
0.0
100
AcDbText
  0
LINE
  5
342
100
AcDbEntity
  8
LAY-6
  6
CONTINUOUS
 62
     1
100
AcDbLine
 10
405.0
 20
469.5
 30
0.0
 11
540.0
 21
469.5
 31
0.0
  0
LINE
  5
343
100
AcDbEntity
  8
LAY-6
  6
CONTINUOUS
 62
     1
100
AcDbLine
 10
407.0
 20
469.833333
 30
0.0
 11
405.0
 21
469.5
 31
0.0
  0
LINE
  5
344
100
AcDbEntity
  8
LAY-6
  6
CONTINUOUS
 62
     1
100
AcDbLine
 10
405.0
 20
469.5
 30
0.0
 11
407.0
 21
469.166667
 31
0.0
  0
LINE
  5
345
100
AcDbEntity
  8
LAY-6
  6
CONTINUOUS
 62
     1
100
AcDbLine
 10
538.0
 20
469.166667
 30
0.0
 11
540.0
 21
469.5
 31
0.0
  0
LINE
  5
346
100
AcDbEntity
  8
LAY-6
  6
CONTINUOUS
 62
     1
100
AcDbLine
 10
540.0
 20
469.5
 30
0.0
 11
538.0
 21
469.833333
 31
0.0
  0
LINE
  5
347
100
AcDbEntity
  8
LAY-6
  6
CONTINUOUS
 62
     1
100
AcDbLine
 10
363.5
 20
526.5
 30
0.0
 11
352.5
 21
526.5
 31
0.0
  0
LINE
  5
348
100
AcDbEntity
  8
LAY-6
  6
CONTINUOUS
 62
     1
100
AcDbLine
 10
363.5
 20
489.5
 30
0.0
 11
352.5
 21
489.5
 31
0.0
  0
TEXT
  5
349
100
AcDbEntity
  8
LAY-6
  6
CONTINUOUS
 62
     2
100
AcDbText
 10
353.5
 20
505.7
 30
0.0
 40
5.0
  1
３７
 50
90.0
 41
0.672
  7
EXCADSTD
 72
     5
 11
353.5
 21
513.0328
 31
0.0
100
AcDbText
  0
LINE
  5
34A
100
AcDbEntity
  8
LAY-6
  6
CONTINUOUS
 62
     1
100
AcDbLine
 10
354.0
 20
526.5
 30
0.0
 11
354.0
 21
489.5
 31
0.0
  0
LINE
  5
34B
100
AcDbEntity
  8
LAY-6
  6
CONTINUOUS
 62
     1
100
AcDbLine
 10
354.333333
 20
524.5
 30
0.0
 11
354.0
 21
526.5
 31
0.0
  0
LINE
  5
34C
100
AcDbEntity
  8
LAY-6
  6
CONTINUOUS
 62
     1
100
AcDbLine
 10
354.0
 20
526.5
 30
0.0
 11
353.666667
 21
524.5
 31
0.0
  0
LINE
  5
34D
100
AcDbEntity
  8
LAY-6
  6
CONTINUOUS
 62
     1
100
AcDbLine
 10
353.666667
 20
491.5
 30
0.0
 11
354.0
 21
489.5
 31
0.0
  0
LINE
  5
34E
100
AcDbEntity
  8
LAY-6
  6
CONTINUOUS
 62
     1
100
AcDbLine
 10
354.0
 20
489.5
 30
0.0
 11
354.333333
 21
491.5
 31
0.0
  0
LINE
  5
34F
100
AcDbEntity
  8
LAY-6
  6
CONTINUOUS
 62
     1
100
AcDbLine
 10
556.0
 20
517.0
 30
0.0
 11
556.0
 21
499.0
 31
0.0
  0
LINE
  5
350
100
AcDbEntity
  8
LAY-6
  6
CONTINUOUS
 62
     1
100
AcDbLine
 10
556.333333
 20
515.0
 30
0.0
 11
556.0
 21
517.0
 31
0.0
  0
LINE
  5
351
100
AcDbEntity
  8
LAY-6
  6
CONTINUOUS
 62
     1
100
AcDbLine
 10
556.0
 20
517.0
 30
0.0
 11
555.666667
 21
515.0
 31
0.0
  0
LINE
  5
352
100
AcDbEntity
  8
LAY-6
  6
CONTINUOUS
 62
     1
100
AcDbLine
 10
555.666667
 20
501.0
 30
0.0
 11
556.0
 21
499.0
 31
0.0
  0
LINE
  5
353
100
AcDbEntity
  8
LAY-6
  6
CONTINUOUS
 62
     1
100
AcDbLine
 10
556.0
 20
499.0
 30
0.0
 11
556.333333
 21
501.0
 31
0.0
  0
TEXT
  5
354
100
AcDbEntity
  8
LAY-6
  6
CONTINUOUS
 62
     2
100
AcDbText
 10
555.5
 20
504.0
 30
0.0
 40
5.0
  1
１８
 50
90.0
 41
0.672
  7
EXCADSTD
 72
     5
 11
555.5
 21
511.3328
 31
0.0
100
AcDbText
  0
LINE
  5
355
100
AcDbEntity
  8
LAY-6
  6
CONTINUOUS
 62
     1
100
AcDbLine
 10
538.378687
 20
517.0
 30
0.0
 11
557.5
 21
517.0
 31
0.0
  0
LINE
  5
356
100
AcDbEntity
  8
LAY-6
  6
CONTINUOUS
 62
     1
100
AcDbLine
 10
538.378687
 20
499.0
 30
0.0
 11
557.5
 21
499.0
 31
0.0
  0
LINE
  5
357
100
AcDbEntity
  8
LAY-6
  6
CONTINUOUS
 62
     1
100
AcDbLine
 10
566.0
 20
524.0
 30
0.0
 11
566.0
 21
492.00003
 31
0.0
  0
LINE
  5
358
100
AcDbEntity
  8
LAY-6
  6
CONTINUOUS
 62
     1
100
AcDbLine
 10
566.333333
 20
522.0
 30
0.0
 11
566.0
 21
524.0
 31
0.0
  0
LINE
  5
359
100
AcDbEntity
  8
LAY-6
  6
CONTINUOUS
 62
     1
100
AcDbLine
 10
566.0
 20
524.0
 30
0.0
 11
565.666667
 21
522.0
 31
0.0
  0
LINE
  5
35A
100
AcDbEntity
  8
LAY-6
  6
CONTINUOUS
 62
     1
100
AcDbLine
 10
565.666667
 20
494.00003
 30
0.0
 11
566.0
 21
492.00003
 31
0.0
  0
LINE
  5
35B
100
AcDbEntity
  8
LAY-6
  6
CONTINUOUS
 62
     1
100
AcDbLine
 10
566.0
 20
492.00003
 30
0.0
 11
566.333333
 21
494.00003
 31
0.0
  0
TEXT
  5
35C
100
AcDbEntity
  8
LAY-6
  6
CONTINUOUS
 62
     2
100
AcDbText
 10
565.5
 20
504.000015
 30
0.0
 40
5.0
  1
３２
 50
90.0
 41
0.672
  7
EXCADSTD
 72
     5
 11
565.5
 21
511.332815
 31
0.0
100
AcDbText
  0
LINE
  5
35D
100
AcDbEntity
  8
LAY-6
  6
CONTINUOUS
 62
     1
100
AcDbLine
 10
540.5
 20
524.0
 30
0.0
 11
567.5
 21
524.0
 31
0.0
  0
LINE
  5
35E
100
AcDbEntity
  8
LAY-6
  6
CONTINUOUS
 62
     1
100
AcDbLine
 10
540.5
 20
492.00003
 30
0.0
 11
567.5
 21
492.00003
 31
0.0
  0
LINE
  5
35F
100
AcDbEntity
  8
LAY-6
  6
CONTINUOUS
 62
     1
100
AcDbLine
 10
566.0
 20
434.0
 30
0.0
 11
566.0
 21
402.0
 31
0.0
  0
LINE
  5
360
100
AcDbEntity
  8
LAY-6
  6
CONTINUOUS
 62
     1
100
AcDbLine
 10
566.333333
 20
432.0
 30
0.0
 11
566.0
 21
434.0
 31
0.0
  0
LINE
  5
361
100
AcDbEntity
  8
LAY-6
  6
CONTINUOUS
 62
     1
100
AcDbLine
 10
566.0
 20
434.0
 30
0.0
 11
565.666667
 21
432.0
 31
0.0
  0
LINE
  5
362
100
AcDbEntity
  8
LAY-6
  6
CONTINUOUS
 62
     1
100
AcDbLine
 10
565.666667
 20
404.0
 30
0.0
 11
566.0
 21
402.0
 31
0.0
  0
LINE
  5
363
100
AcDbEntity
  8
LAY-6
  6
CONTINUOUS
 62
     1
100
AcDbLine
 10
566.0
 20
402.0
 30
0.0
 11
566.333333
 21
404.0
 31
0.0
  0
TEXT
  5
364
100
AcDbEntity
  8
LAY-6
  6
CONTINUOUS
 62
     2
100
AcDbText
 10
565.5
 20
414.0
 30
0.0
 40
5.0
  1
３２
 50
90.0
 41
0.672
  7
EXCADSTD
 72
     5
 11
565.5
 21
421.3328
 31
0.0
100
AcDbText
  0
LINE
  5
365
100
AcDbEntity
  8
LAY-6
  6
CONTINUOUS
 62
     1
100
AcDbLine
 10
540.5
 20
434.0
 30
0.0
 11
567.5
 21
434.0
 31
0.0
  0
LINE
  5
366
100
AcDbEntity
  8
LAY-6
  6
CONTINUOUS
 62
     1
100
AcDbLine
 10
540.5
 20
402.0
 30
0.0
 11
567.5
 21
402.0
 31
0.0
  0
LINE
  5
367
100
AcDbEntity
  8
LAY-6
  6
CONTINUOUS
 62
     1
100
AcDbLine
 10
405.0
 20
391.300171
 30
0.0
 11
405.0
 21
393.5
 31
0.0
  0
LINE
  5
368
100
AcDbEntity
  8
LAY-6
  6
CONTINUOUS
 62
     1
100
AcDbLine
 10
435.0
 20
415.229059
 30
0.0
 11
435.0
 21
390.5
 31
0.0
  0
TEXT
  5
369
100
AcDbEntity
  8
LAY-6
  6
CONTINUOUS
 62
     2
100
AcDbText
 10
416.0
 20
392.5
 30
0.0
 40
5.0
  1
３０
 41
0.672
  7
EXCADSTD
 72
     5
 11
423.3328
 21
392.5
 31
0.0
100
AcDbText
  0
LINE
  5
36A
100
AcDbEntity
  8
LAY-6
  6
CONTINUOUS
 62
     1
100
AcDbLine
 10
405.0
 20
392.0
 30
0.0
 11
435.0
 21
392.0
 31
0.0
  0
LINE
  5
36B
100
AcDbEntity
  8
LAY-6
  6
CONTINUOUS
 62
     1
100
AcDbLine
 10
407.0
 20
392.333333
 30
0.0
 11
405.0
 21
392.0
 31
0.0
  0
LINE
  5
36C
100
AcDbEntity
  8
LAY-6
  6
CONTINUOUS
 62
     1
100
AcDbLine
 10
405.0
 20
392.0
 30
0.0
 11
407.0
 21
391.666667
 31
0.0
  0
LINE
  5
36D
100
AcDbEntity
  8
LAY-6
  6
CONTINUOUS
 62
     1
100
AcDbLine
 10
433.0
 20
391.666667
 30
0.0
 11
435.0
 21
392.0
 31
0.0
  0
LINE
  5
36E
100
AcDbEntity
  8
LAY-6
  6
CONTINUOUS
 62
     1
100
AcDbLine
 10
435.0
 20
392.0
 30
0.0
 11
433.0
 21
392.333333
 31
0.0
  0
LINE
  5
36F
100
AcDbEntity
  8
LAY-6
  6
CONTINUOUS
 62
     1
100
AcDbLine
 10
481.0
 20
394.246765
 30
0.0
 11
481.0
 21
390.5
 31
0.0
  0
TEXT
  5
370
100
AcDbEntity
  8
LAY-6
  6
CONTINUOUS
 62
     2
100
AcDbText
 10
454.0
 20
392.5
 30
0.0
 40
5.0
  1
４６
 41
0.672
  7
EXCADSTD
 72
     5
 11
461.3328
 21
392.5
 31
0.0
100
AcDbText
  0
LINE
  5
371
100
AcDbEntity
  8
LAY-6
  6
CONTINUOUS
 62
     1
100
AcDbLine
 10
435.0
 20
392.0
 30
0.0
 11
481.0
 21
392.0
 31
0.0
  0
LINE
  5
372
100
AcDbEntity
  8
LAY-6
  6
CONTINUOUS
 62
     1
100
AcDbLine
 10
437.0
 20
392.333333
 30
0.0
 11
435.0
 21
392.0
 31
0.0
  0
LINE
  5
373
100
AcDbEntity
  8
LAY-6
  6
CONTINUOUS
 62
     1
100
AcDbLine
 10
435.0
 20
392.0
 30
0.0
 11
437.0
 21
391.666667
 31
0.0
  0
LINE
  5
374
100
AcDbEntity
  8
LAY-6
  6
CONTINUOUS
 62
     1
100
AcDbLine
 10
479.0
 20
391.666667
 30
0.0
 11
481.0
 21
392.0
 31
0.0
  0
LINE
  5
375
100
AcDbEntity
  8
LAY-6
  6
CONTINUOUS
 62
     1
100
AcDbLine
 10
481.0
 20
392.0
 30
0.0
 11
479.0
 21
392.333333
 31
0.0
  0
LINE
  5
376
100
AcDbEntity
  8
LAY-6
  6
CONTINUOUS
 62
     1
100
AcDbLine
 10
527.0
 20
414.229059
 30
0.0
 11
527.0
 21
390.5
 31
0.0
  0
TEXT
  5
377
100
AcDbEntity
  8
LAY-6
  6
CONTINUOUS
 62
     2
100
AcDbText
 10
500.0
 20
392.5
 30
0.0
 40
5.0
  1
４６
 41
0.672
  7
EXCADSTD
 72
     5
 11
507.3328
 21
392.5
 31
0.0
100
AcDbText
  0
LINE
  5
378
100
AcDbEntity
  8
LAY-6
  6
CONTINUOUS
 62
     1
100
AcDbLine
 10
481.0
 20
392.0
 30
0.0
 11
527.0
 21
392.0
 31
0.0
  0
LINE
  5
379
100
AcDbEntity
  8
LAY-6
  6
CONTINUOUS
 62
     1
100
AcDbLine
 10
483.0
 20
392.333333
 30
0.0
 11
481.0
 21
392.0
 31
0.0
  0
LINE
  5
37A
100
AcDbEntity
  8
LAY-6
  6
CONTINUOUS
 62
     1
100
AcDbLine
 10
481.0
 20
392.0
 30
0.0
 11
483.0
 21
391.666667
 31
0.0
  0
LINE
  5
37B
100
AcDbEntity
  8
LAY-6
  6
CONTINUOUS
 62
     1
100
AcDbLine
 10
525.0
 20
391.666667
 30
0.0
 11
527.0
 21
392.0
 31
0.0
  0
LINE
  5
37C
100
AcDbEntity
  8
LAY-6
  6
CONTINUOUS
 62
     1
100
AcDbLine
 10
527.0
 20
392.0
 30
0.0
 11
525.0
 21
392.333333
 31
0.0
  0
LINE
  5
37D
100
AcDbEntity
  8
LAY-6
  6
CONTINUOUS
 62
     1
100
AcDbLine
 10
388.99997
 20
401.5
 30
0.0
 11
388.99997
 21
380.5
 31
0.0
  0
LINE
  5
37E
100
AcDbEntity
  8
LAY-6
  6
CONTINUOUS
 62
     1
100
AcDbLine
 10
405.0
 20
390.300171
 30
0.0
 11
405.0
 21
380.5
 31
0.0
  0
TEXT
  5
37F
100
AcDbEntity
  8
LAY-6
  6
CONTINUOUS
 62
     2
100
AcDbText
 10
392.999985
 20
382.5
 30
0.0
 40
5.0
  1
１６
 41
0.672
  7
EXCADSTD
 72
     5
 11
400.332785
 21
382.5
 31
0.0
100
AcDbText
  0
LINE
  5
380
100
AcDbEntity
  8
LAY-6
  6
CONTINUOUS
 62
     1
100
AcDbLine
 10
388.99997
 20
382.0
 30
0.0
 11
405.0
 21
382.0
 31
0.0
  0
LINE
  5
381
100
AcDbEntity
  8
LAY-6
  6
CONTINUOUS
 62
     1
100
AcDbLine
 10
390.99997
 20
382.333333
 30
0.0
 11
388.99997
 21
382.0
 31
0.0
  0
LINE
  5
382
100
AcDbEntity
  8
LAY-6
  6
CONTINUOUS
 62
     1
100
AcDbLine
 10
388.99997
 20
382.0
 30
0.0
 11
390.99997
 21
381.666667
 31
0.0
  0
LINE
  5
383
100
AcDbEntity
  8
LAY-6
  6
CONTINUOUS
 62
     1
100
AcDbLine
 10
403.0
 20
381.666667
 30
0.0
 11
405.0
 21
382.0
 31
0.0
  0
LINE
  5
384
100
AcDbEntity
  8
LAY-6
  6
CONTINUOUS
 62
     1
100
AcDbLine
 10
405.0
 20
382.0
 30
0.0
 11
403.0
 21
382.333333
 31
0.0
  0
TEXT
  5
385
100
AcDbEntity
  8
LAY-6
  6
CONTINUOUS
 62
     2
100
AcDbText
 10
109.000011
 20
316.547876
 30
0.0
 40
5.0
  1
φ
 41
0.672
  7
EXCADSTD
 72
     5
 11
112.200011
 21
316.547876
 31
0.0
100
AcDbText
  0
TEXT
  5
386
100
AcDbEntity
  8
LAY-6
  6
CONTINUOUS
 62
     2
100
AcDbText
 10
113.000011
 20
316.547876
 30
0.0
 40
5.0
  1
２５
 41
0.672
  7
EXCADSTD
 72
     5
 11
120.332811
 21
316.547876
 31
0.0
100
AcDbText
  0
LINE
  5
387
100
AcDbEntity
  8
LAY-6
  6
CONTINUOUS
 62
     1
100
AcDbLine
 10
102.50001
 20
316.047876
 30
0.0
 11
127.500011
 21
316.047876
 31
0.0
  0
LINE
  5
388
100
AcDbEntity
  8
LAY-6
  6
CONTINUOUS
 62
     1
100
AcDbLine
 10
104.50001
 20
316.381209
 30
0.0
 11
102.50001
 21
316.047876
 31
0.0
  0
LINE
  5
389
100
AcDbEntity
  8
LAY-6
  6
CONTINUOUS
 62
     1
100
AcDbLine
 10
102.50001
 20
316.047876
 30
0.0
 11
104.50001
 21
315.714543
 31
0.0
  0
LINE
  5
38A
100
AcDbEntity
  8
LAY-6
  6
CONTINUOUS
 62
     1
100
AcDbLine
 10
125.500011
 20
315.714543
 30
0.0
 11
127.500011
 21
316.047876
 31
0.0
  0
LINE
  5
38B
100
AcDbEntity
  8
LAY-6
  6
CONTINUOUS
 62
     1
100
AcDbLine
 10
127.500011
 20
316.047876
 30
0.0
 11
125.500011
 21
316.381209
 31
0.0
  0
LINE
  5
38C
100
AcDbEntity
  8
LAY-6
  6
CONTINUOUS
 62
     1
100
AcDbLine
 10
73.5
 20
508.0
 30
0.0
 11
64.5
 21
508.0
 31
0.0
  0
LINE
  5
38D
100
AcDbEntity
  8
LAY-6
  6
CONTINUOUS
 62
     1
100
AcDbLine
 10
105.000019
 20
546.00003
 30
0.0
 11
64.5
 21
546.00003
 31
0.0
  0
TEXT
  5
38E
100
AcDbEntity
  8
LAY-6
  6
CONTINUOUS
 62
     2
100
AcDbText
 10
65.5
 20
523.000015
 30
0.0
 40
5.0
  1
３８
 50
90.0
 41
0.672
  7
EXCADSTD
 72
     5
 11
65.5
 21
530.332815
 31
0.0
100
AcDbText
  0
LINE
  5
38F
100
AcDbEntity
  8
LAY-6
  6
CONTINUOUS
 62
     1
100
AcDbLine
 10
66.0
 20
508.0
 30
0.0
 11
66.0
 21
546.00003
 31
0.0
  0
LINE
  5
390
100
AcDbEntity
  8
LAY-6
  6
CONTINUOUS
 62
     1
100
AcDbLine
 10
65.666667
 20
510.0
 30
0.0
 11
66.0
 21
508.0
 31
0.0
  0
LINE
  5
391
100
AcDbEntity
  8
LAY-6
  6
CONTINUOUS
 62
     1
100
AcDbLine
 10
66.0
 20
508.0
 30
0.0
 11
66.333333
 21
510.0
 31
0.0
  0
LINE
  5
392
100
AcDbEntity
  8
LAY-6
  6
CONTINUOUS
 62
     1
100
AcDbLine
 10
66.333333
 20
544.00003
 30
0.0
 11
66.0
 21
546.00003
 31
0.0
  0
LINE
  5
393
100
AcDbEntity
  8
LAY-6
  6
CONTINUOUS
 62
     1
100
AcDbLine
 10
66.0
 20
546.00003
 30
0.0
 11
65.666667
 21
544.00003
 31
0.0
  0
LINE
  5
394
100
AcDbEntity
  8
LAY-6
  6
CONTINUOUS
 62
     1
100
AcDbLine
 10
98.499985
 20
504.999969
 30
0.0
 11
64.5
 21
504.999969
 31
0.0
  0
LINE
  5
395
100
AcDbEntity
  8
LAY-6
  6
CONTINUOUS
 62
     1
100
AcDbLine
 10
109.45
 20
483.999969
 30
0.0
 11
64.5
 21
483.999969
 31
0.0
  0
TEXT
  5
396
100
AcDbEntity
  8
LAY-6
  6
CONTINUOUS
 62
     2
100
AcDbText
 10
65.5
 20
490.499969
 30
0.0
 40
5.0
  1
２１
 50
90.0
 41
0.672
  7
EXCADSTD
 72
     5
 11
65.5
 21
497.832769
 31
0.0
100
AcDbText
  0
LINE
  5
397
100
AcDbEntity
  8
LAY-6
  6
CONTINUOUS
 62
     1
100
AcDbLine
 10
66.0
 20
504.999969
 30
0.0
 11
66.0
 21
483.999969
 31
0.0
  0
LINE
  5
398
100
AcDbEntity
  8
LAY-6
  6
CONTINUOUS
 62
     1
100
AcDbLine
 10
66.333333
 20
502.999969
 30
0.0
 11
66.0
 21
504.999969
 31
0.0
  0
LINE
  5
399
100
AcDbEntity
  8
LAY-6
  6
CONTINUOUS
 62
     1
100
AcDbLine
 10
66.0
 20
504.999969
 30
0.0
 11
65.666667
 21
502.999969
 31
0.0
  0
LINE
  5
39A
100
AcDbEntity
  8
LAY-6
  6
CONTINUOUS
 62
     1
100
AcDbLine
 10
65.666667
 20
485.999969
 30
0.0
 11
66.0
 21
483.999969
 31
0.0
  0
LINE
  5
39B
100
AcDbEntity
  8
LAY-6
  6
CONTINUOUS
 62
     1
100
AcDbLine
 10
66.0
 20
483.999969
 30
0.0
 11
66.333333
 21
485.999969
 31
0.0
  0
TEXT
  5
39C
100
AcDbEntity
  8
LAY-6
  6
CONTINUOUS
 62
     2
100
AcDbText
 10
268.046422
 20
470.564498
 30
0.0
 40
5.0
  1
裏板４.５ｔ以上（別途）
 41
0.654222
  7
EXCADSTD
 72
     5
 11
314.046422
 21
470.564498
 31
0.0
100
AcDbText
  0
POLYLINE
  5
39D
100
AcDbEntity
  8
LAY-6
  6
CONTINUOUS
 62
     1
100
AcDb2dPolyline
 66
     1
 10
0.0
 20
0.0
 30
0.0
 70
   128
  0
VERTEX
  5
39E
100
AcDbEntity
  8
LAY-6
  6
CONTINUOUS
 62
     1
100
AcDbVertex
100
AcDb2dVertex
 10
242.878687
 20
494.499969
 30
0.0
  0
VERTEX
  5
39F
100
AcDbEntity
  8
LAY-6
  6
CONTINUOUS
 62
     1
100
AcDbVertex
100
AcDb2dVertex
 10
267.314157
 20
470.064498
 30
0.0
  0
VERTEX
  5
3A0
100
AcDbEntity
  8
LAY-6
  6
CONTINUOUS
 62
     1
100
AcDbVertex
100
AcDb2dVertex
 10
314.778687
 20
470.064498
 30
0.0
  0
SEQEND
  5
3A1
100
AcDbEntity
  8
LAY-6
  6
CONTINUOUS
 62
     1
  0
LINE
  5
3A2
100
AcDbEntity
  8
LAY-6
  6
CONTINUOUS
 62
     1
100
AcDbLine
 10
244.528603
 20
493.321458
 30
0.0
 11
242.878687
 21
494.499969
 31
0.0
  0
LINE
  5
3A3
100
AcDbEntity
  8
LAY-6
  6
CONTINUOUS
 62
     1
100
AcDbLine
 10
242.878687
 20
494.499969
 30
0.0
 11
244.057198
 21
492.850053
 31
0.0
  0
LINE
  5
3A4
100
AcDbEntity
  8
LAY-6
  6
CONTINUOUS
 62
     1
100
AcDbLine
 10
658.999985
 20
514.5
 30
0.0
 11
658.999985
 21
530.5
 31
0.0
  0
LINE
  5
3A5
100
AcDbEntity
  8
LAY-6
  6
CONTINUOUS
 62
     1
100
AcDbLine
 10
691.000015
 20
514.5
 30
0.0
 11
691.000015
 21
530.5
 31
0.0
  0
TEXT
  5
3A6
100
AcDbEntity
  8
LAY-6
  6
CONTINUOUS
 62
     2
100
AcDbText
 10
671.0
 20
529.5
 30
0.0
 40
5.0
  1
３２
 41
0.672
  7
EXCADSTD
 72
     5
 11
678.3328
 21
529.5
 31
0.0
100
AcDbText
  0
LINE
  5
3A7
100
AcDbEntity
  8
LAY-6
  6
CONTINUOUS
 62
     1
100
AcDbLine
 10
658.999985
 20
529.0
 30
0.0
 11
691.000015
 21
529.0
 31
0.0
  0
LINE
  5
3A8
100
AcDbEntity
  8
LAY-6
  6
CONTINUOUS
 62
     1
100
AcDbLine
 10
660.999985
 20
529.333333
 30
0.0
 11
658.999985
 21
529.0
 31
0.0
  0
LINE
  5
3A9
100
AcDbEntity
  8
LAY-6
  6
CONTINUOUS
 62
     1
100
AcDbLine
 10
658.999985
 20
529.0
 30
0.0
 11
660.999985
 21
528.666667
 31
0.0
  0
LINE
  5
3AA
100
AcDbEntity
  8
LAY-6
  6
CONTINUOUS
 62
     1
100
AcDbLine
 10
689.000015
 20
528.666667
 30
0.0
 11
691.000015
 21
529.0
 31
0.0
  0
LINE
  5
3AB
100
AcDbEntity
  8
LAY-6
  6
CONTINUOUS
 62
     1
100
AcDbLine
 10
691.000015
 20
529.0
 30
0.0
 11
689.000015
 21
529.333333
 31
0.0
  0
LINE
  5
3AC
100
AcDbEntity
  8
LAY-6
  6
CONTINUOUS
 62
     1
100
AcDbLine
 10
691.000015
 20
493.499969
 30
0.0
 11
691.000015
 21
467.499969
 31
0.0
  0
LINE
  5
3AD
100
AcDbEntity
  8
LAY-6
  6
CONTINUOUS
 62
     1
100
AcDbLine
 10
658.999985
 20
493.499969
 30
0.0
 11
658.999985
 21
467.499969
 31
0.0
  0
TEXT
  5
3AE
100
AcDbEntity
  8
LAY-6
  6
CONTINUOUS
 62
     2
100
AcDbText
 10
671.0
 20
469.499969
 30
0.0
 40
5.0
  1
３２
 41
0.672
  7
EXCADSTD
 72
     5
 11
678.3328
 21
469.499969
 31
0.0
100
AcDbText
  0
LINE
  5
3AF
100
AcDbEntity
  8
LAY-6
  6
CONTINUOUS
 62
     1
100
AcDbLine
 10
691.000015
 20
468.999969
 30
0.0
 11
658.999985
 21
468.999969
 31
0.0
  0
LINE
  5
3B0
100
AcDbEntity
  8
LAY-6
  6
CONTINUOUS
 62
     1
100
AcDbLine
 10
689.000015
 20
468.666636
 30
0.0
 11
691.000015
 21
468.999969
 31
0.0
  0
LINE
  5
3B1
100
AcDbEntity
  8
LAY-6
  6
CONTINUOUS
 62
     1
100
AcDbLine
 10
691.000015
 20
468.999969
 30
0.0
 11
689.000015
 21
469.333302
 31
0.0
  0
LINE
  5
3B2
100
AcDbEntity
  8
LAY-6
  6
CONTINUOUS
 62
     1
100
AcDbLine
 10
660.999985
 20
469.333302
 30
0.0
 11
658.999985
 21
468.999969
 31
0.0
  0
LINE
  5
3B3
100
AcDbEntity
  8
LAY-6
  6
CONTINUOUS
 62
     1
100
AcDbLine
 10
658.999985
 20
468.999969
 30
0.0
 11
660.999985
 21
468.666636
 31
0.0
  0
LINE
  5
3B4
100
AcDbEntity
  8
LAY-6
  6
CONTINUOUS
 62
     1
100
AcDbLine
 10
680.55
 20
483.999969
 30
0.0
 11
711.5
 21
483.999969
 31
0.0
  0
LINE
  5
3B5
100
AcDbEntity
  8
LAY-6
  6
CONTINUOUS
 62
     1
100
AcDbLine
 10
695.5
 20
504.999969
 30
0.0
 11
711.5
 21
504.999969
 31
0.0
  0
TEXT
  5
3B6
100
AcDbEntity
  8
LAY-6
  6
CONTINUOUS
 62
     2
100
AcDbText
 10
709.5
 20
490.499969
 30
0.0
 40
5.0
  1
２１
 50
90.0
 41
0.672
  7
EXCADSTD
 72
     5
 11
709.5
 21
497.832769
 31
0.0
100
AcDbText
  0
LINE
  5
3B7
100
AcDbEntity
  8
LAY-6
  6
CONTINUOUS
 62
     1
100
AcDbLine
 10
710.0
 20
483.999969
 30
0.0
 11
710.0
 21
504.999969
 31
0.0
  0
LINE
  5
3B8
100
AcDbEntity
  8
LAY-6
  6
CONTINUOUS
 62
     1
100
AcDbLine
 10
709.666667
 20
485.999969
 30
0.0
 11
710.0
 21
483.999969
 31
0.0
  0
LINE
  5
3B9
100
AcDbEntity
  8
LAY-6
  6
CONTINUOUS
 62
     1
100
AcDbLine
 10
710.0
 20
483.999969
 30
0.0
 11
710.333333
 21
485.999969
 31
0.0
  0
LINE
  5
3BA
100
AcDbEntity
  8
LAY-6
  6
CONTINUOUS
 62
     1
100
AcDbLine
 10
710.333333
 20
502.999969
 30
0.0
 11
710.0
 21
504.999969
 31
0.0
  0
LINE
  5
3BB
100
AcDbEntity
  8
LAY-6
  6
CONTINUOUS
 62
     1
100
AcDbLine
 10
710.0
 20
504.999969
 30
0.0
 11
709.666667
 21
502.999969
 31
0.0
  0
LINE
  5
3BC
100
AcDbEntity
  8
LAY-6
  6
CONTINUOUS
 62
     1
100
AcDbLine
 10
691.500015
 20
508.0
 30
0.0
 11
711.5
 21
508.0
 31
0.0
  0
LINE
  5
3BD
100
AcDbEntity
  8
LAY-6
  6
CONTINUOUS
 62
     1
100
AcDbLine
 10
685.000013
 20
546.00003
 30
0.0
 11
711.5
 21
546.00003
 31
0.0
  0
TEXT
  5
3BE
100
AcDbEntity
  8
LAY-6
  6
CONTINUOUS
 62
     2
100
AcDbText
 10
709.5
 20
523.000015
 30
0.0
 40
5.0
  1
３８
 50
90.0
 41
0.672
  7
EXCADSTD
 72
     5
 11
709.5
 21
530.332815
 31
0.0
100
AcDbText
  0
LINE
  5
3BF
100
AcDbEntity
  8
LAY-6
  6
CONTINUOUS
 62
     1
100
AcDbLine
 10
710.0
 20
508.0
 30
0.0
 11
710.0
 21
546.00003
 31
0.0
  0
LINE
  5
3C0
100
AcDbEntity
  8
LAY-6
  6
CONTINUOUS
 62
     1
100
AcDbLine
 10
709.666667
 20
510.0
 30
0.0
 11
710.0
 21
508.0
 31
0.0
  0
LINE
  5
3C1
100
AcDbEntity
  8
LAY-6
  6
CONTINUOUS
 62
     1
100
AcDbLine
 10
710.0
 20
508.0
 30
0.0
 11
710.333333
 21
510.0
 31
0.0
  0
LINE
  5
3C2
100
AcDbEntity
  8
LAY-6
  6
CONTINUOUS
 62
     1
100
AcDbLine
 10
710.333333
 20
544.00003
 30
0.0
 11
710.0
 21
546.00003
 31
0.0
  0
LINE
  5
3C3
100
AcDbEntity
  8
LAY-6
  6
CONTINUOUS
 62
     1
100
AcDbLine
 10
710.0
 20
546.00003
 30
0.0
 11
709.666667
 21
544.00003
 31
0.0
  0
LINE
  5
3C4
100
AcDbEntity
  8
LAY-6
  6
CONTINUOUS
 62
     1
100
AcDbLine
 10
364.0
 20
527.0
 30
0.0
 11
364.0
 21
548.0
 31
0.0
  0
LINE
  5
3C5
100
AcDbEntity
  8
LAY-6
  6
CONTINUOUS
 62
     1
100
AcDbLine
 10
546.0
 20
527.0
 30
0.0
 11
546.0
 21
548.0
 31
0.0
  0
TEXT
  5
3C6
100
AcDbEntity
  8
LAY-6
  6
CONTINUOUS
 62
     2
100
AcDbText
 10
449.0
 20
547.0
 30
0.0
 40
5.0
  1
１８２
 41
0.672
  7
EXCADSTD
 72
     5
 11
461.0
 21
547.0
 31
0.0
100
AcDbText
  0
LINE
  5
3C7
100
AcDbEntity
  8
LAY-6
  6
CONTINUOUS
 62
     1
100
AcDbLine
 10
364.0
 20
546.5
 30
0.0
 11
546.0
 21
546.5
 31
0.0
  0
LINE
  5
3C8
100
AcDbEntity
  8
LAY-6
  6
CONTINUOUS
 62
     1
100
AcDbLine
 10
366.0
 20
546.833333
 30
0.0
 11
364.0
 21
546.5
 31
0.0
  0
LINE
  5
3C9
100
AcDbEntity
  8
LAY-6
  6
CONTINUOUS
 62
     1
100
AcDbLine
 10
364.0
 20
546.5
 30
0.0
 11
366.0
 21
546.166667
 31
0.0
  0
LINE
  5
3CA
100
AcDbEntity
  8
LAY-6
  6
CONTINUOUS
 62
     1
100
AcDbLine
 10
544.0
 20
546.166667
 30
0.0
 11
546.0
 21
546.5
 31
0.0
  0
LINE
  5
3CB
100
AcDbEntity
  8
LAY-6
  6
CONTINUOUS
 62
     1
100
AcDbLine
 10
546.0
 20
546.5
 30
0.0
 11
544.0
 21
546.833333
 31
0.0
  0
LINE
  5
3CC
100
AcDbEntity
  8
LAY-6
  6
CONTINUOUS
 62
     1
100
AcDbLine
 10
364.0
 20
527.0
 30
0.0
 11
364.0
 21
538.0
 31
0.0
  0
LINE
  5
3CD
100
AcDbEntity
  8
LAY-6
  6
CONTINUOUS
 62
     1
100
AcDbLine
 10
405.0
 20
533.3
 30
0.0
 11
405.0
 21
538.0
 31
0.0
  0
TEXT
  5
3CE
100
AcDbEntity
  8
LAY-6
  6
CONTINUOUS
 62
     2
100
AcDbText
 10
380.5
 20
537.0
 30
0.0
 40
5.0
  1
４１
 41
0.672
  7
EXCADSTD
 72
     5
 11
387.8328
 21
537.0
 31
0.0
100
AcDbText
  0
LINE
  5
3CF
100
AcDbEntity
  8
LAY-6
  6
CONTINUOUS
 62
     1
100
AcDbLine
 10
364.0
 20
536.5
 30
0.0
 11
405.0
 21
536.5
 31
0.0
  0
LINE
  5
3D0
100
AcDbEntity
  8
LAY-6
  6
CONTINUOUS
 62
     1
100
AcDbLine
 10
366.0
 20
536.833333
 30
0.0
 11
364.0
 21
536.5
 31
0.0
  0
LINE
  5
3D1
100
AcDbEntity
  8
LAY-6
  6
CONTINUOUS
 62
     1
100
AcDbLine
 10
364.0
 20
536.5
 30
0.0
 11
366.0
 21
536.166667
 31
0.0
  0
LINE
  5
3D2
100
AcDbEntity
  8
LAY-6
  6
CONTINUOUS
 62
     1
100
AcDbLine
 10
403.0
 20
536.166667
 30
0.0
 11
405.0
 21
536.5
 31
0.0
  0
LINE
  5
3D3
100
AcDbEntity
  8
LAY-6
  6
CONTINUOUS
 62
     1
100
AcDbLine
 10
405.0
 20
536.5
 30
0.0
 11
403.0
 21
536.833333
 31
0.0
  0
LINE
  5
3D4
100
AcDbEntity
  8
LAY-6
  6
CONTINUOUS
 62
     1
100
AcDbLine
 10
371.0
 20
491.50003
 30
0.0
 11
371.0
 21
468.0
 31
0.0
  0
LINE
  5
3D5
100
AcDbEntity
  8
LAY-6
  6
CONTINUOUS
 62
     1
100
AcDbLine
 10
405.0
 20
486.0
 30
0.0
 11
405.0
 21
468.0
 31
0.0
  0
TEXT
  5
3D6
100
AcDbEntity
  8
LAY-6
  6
CONTINUOUS
 62
     2
100
AcDbText
 10
384.0
 20
470.0
 30
0.0
 40
5.0
  1
３４
 41
0.672
  7
EXCADSTD
 72
     5
 11
391.3328
 21
470.0
 31
0.0
100
AcDbText
  0
LINE
  5
3D7
100
AcDbEntity
  8
LAY-6
  6
CONTINUOUS
 62
     1
100
AcDbLine
 10
371.0
 20
469.5
 30
0.0
 11
405.0
 21
469.5
 31
0.0
  0
LINE
  5
3D8
100
AcDbEntity
  8
LAY-6
  6
CONTINUOUS
 62
     1
100
AcDbLine
 10
373.0
 20
469.833333
 30
0.0
 11
371.0
 21
469.5
 31
0.0
  0
LINE
  5
3D9
100
AcDbEntity
  8
LAY-6
  6
CONTINUOUS
 62
     1
100
AcDbLine
 10
371.0
 20
469.5
 30
0.0
 11
373.0
 21
469.166667
 31
0.0
  0
LINE
  5
3DA
100
AcDbEntity
  8
LAY-6
  6
CONTINUOUS
 62
     1
100
AcDbLine
 10
403.0
 20
469.166667
 30
0.0
 11
405.0
 21
469.5
 31
0.0
  0
LINE
  5
3DB
100
AcDbEntity
  8
LAY-6
  6
CONTINUOUS
 62
     1
100
AcDbLine
 10
405.0
 20
469.5
 30
0.0
 11
403.0
 21
469.833333
 31
0.0
  0
POLYLINE
  5
3DC
100
AcDbEntity
  8
LAY-6
  6
CONTINUOUS
 62
     1
100
AcDb2dPolyline
 66
     1
 10
0.0
 20
0.0
 30
0.0
 70
   128
  0
VERTEX
  5
3DD
100
AcDbEntity
  8
LAY-6
  6
CONTINUOUS
 62
     1
100
AcDbVertex
100
AcDb2dVertex
 10
515.625627
 20
526.947084
 30
0.0
  0
VERTEX
  5
3DE
100
AcDbEntity
  8
LAY-6
  6
CONTINUOUS
 62
     1
100
AcDbVertex
100
AcDb2dVertex
 10
531.24621
 20
554.002727
 30
0.0
  0
VERTEX
  5
3DF
100
AcDbEntity
  8
LAY-6
  6
CONTINUOUS
 62
     1
100
AcDbVertex
100
AcDb2dVertex
 10
580.816599
 20
554.002727
 30
0.0
  0
SEQEND
  5
3E0
100
AcDbEntity
  8
LAY-6
  6
CONTINUOUS
 62
     1
  0
LINE
  5
3E1
100
AcDbEntity
  8
LAY-6
  6
CONTINUOUS
 62
     1
100
AcDbLine
 10
516.336952
 20
528.845802
 30
0.0
 11
515.625627
 21
526.947084
 31
0.0
  0
LINE
  5
3E2
100
AcDbEntity
  8
LAY-6
  6
CONTINUOUS
 62
     1
100
AcDbLine
 10
515.625627
 20
526.947084
 30
0.0
 11
516.914303
 21
528.512468
 31
0.0
  0
TEXT
  5
3E3
100
AcDbEntity
  8
LAY-6
  6
CONTINUOUS
 62
     2
100
AcDbText
 10
532.816599
 20
554.502727
 30
0.0
 40
5.0
  1
トッププレート 　０.８ｔ
 41
0.638485
  7
EXCADSTD
 72
     5
 11
580.816599
 21
554.502727
 31
0.0
100
AcDbText
  0
TEXT
  5
3E4
100
AcDbEntity
  8
LAY-6
  6
CONTINUOUS
 62
     2
100
AcDbText
 10
265.9
 20
565.919113
 30
0.0
 40
5.0
  1
４－Ｍ６×１６皿小ネジ
 41
0.672
  7
EXCADSTD
 72
     5
 11
309.9
 21
565.919113
 31
0.0
100
AcDbText
  0
POLYLINE
  5
3E5
100
AcDbEntity
  8
LAY-6
  6
CONTINUOUS
 62
     1
100
AcDb2dPolyline
 66
     1
 10
0.0
 20
0.0
 30
0.0
 70
   128
  0
VERTEX
  5
3E6
100
AcDbEntity
  8
LAY-6
  6
CONTINUOUS
 62
     1
100
AcDbVertex
100
AcDb2dVertex
 10
239.99997
 20
524.0
 30
0.0
  0
VERTEX
  5
3E7
100
AcDbEntity
  8
LAY-6
  6
CONTINUOUS
 62
     1
100
AcDbVertex
100
AcDb2dVertex
 10
263.913306
 20
565.419113
 30
0.0
  0
VERTEX
  5
3E8
100
AcDbEntity
  8
LAY-6
  6
CONTINUOUS
 62
     1
100
AcDbVertex
100
AcDb2dVertex
 10
309.9
 20
565.419113
 30
0.0
  0
SEQEND
  5
3E9
100
AcDbEntity
  8
LAY-6
  6
CONTINUOUS
 62
     1
  0
LINE
  5
3EA
100
AcDbEntity
  8
LAY-6
  6
CONTINUOUS
 62
     1
100
AcDbLine
 10
240.711295
 20
525.898717
 30
0.0
 11
239.99997
 21
524.0
 31
0.0
  0
LINE
  5
3EB
100
AcDbEntity
  8
LAY-6
  6
CONTINUOUS
 62
     1
100
AcDbLine
 10
239.99997
 20
524.0
 30
0.0
 11
241.288645
 21
525.565384
 31
0.0
  0
TEXT
  5
3EC
100
AcDbEntity
  8
LAY-6
  6
CONTINUOUS
 62
     2
100
AcDbText
 10
255.847724
 20
454.38965
 30
0.0
 40
5.0
  1
３－Ｍ６×１６皿小ネジ
 41
0.672
  7
EXCADSTD
 72
     5
 11
299.847724
 21
454.38965
 31
0.0
100
AcDbText
  0
POLYLINE
  5
3ED
100
AcDbEntity
  8
LAY-6
  6
CONTINUOUS
 62
     1
100
AcDb2dPolyline
 66
     1
 10
0.0
 20
0.0
 30
0.0
 70
   128
  0
VERTEX
  5
3EE
100
AcDbEntity
  8
LAY-6
  6
CONTINUOUS
 62
     1
100
AcDbVertex
100
AcDb2dVertex
 10
240.0
 20
488.999969
 30
0.0
  0
VERTEX
  5
3EF
100
AcDbEntity
  8
LAY-6
  6
CONTINUOUS
 62
     1
100
AcDbVertex
100
AcDb2dVertex
 10
249.407782
 20
453.88965
 30
0.0
  0
VERTEX
  5
3F0
100
AcDbEntity
  8
LAY-6
  6
CONTINUOUS
 62
     1
100
AcDbVertex
100
AcDb2dVertex
 10
299.847724
 20
453.88965
 30
0.0
  0
SEQEND
  5
3F1
100
AcDbEntity
  8
LAY-6
  6
CONTINUOUS
 62
     1
  0
LINE
  5
3F2
100
AcDbEntity
  8
LAY-6
  6
CONTINUOUS
 62
     1
100
AcDbLine
 10
240.839613
 20
487.15439
 30
0.0
 11
240.0
 21
488.999969
 31
0.0
  0
LINE
  5
3F3
100
AcDbEntity
  8
LAY-6
  6
CONTINUOUS
 62
     1
100
AcDbLine
 10
240.0
 20
488.999969
 30
0.0
 11
240.195663
 21
486.981844
 31
0.0
  0
TEXT
  5
3F4
100
AcDbEntity
  8
LAY-6
  6
CONTINUOUS
 62
     2
100
AcDbText
 10
234.669263
 20
368.705134
 30
0.0
 40
5.0
  1
４－Ｍ６×２０バネ座金組込六角穴付きボルト
 41
0.672
  7
EXCADSTD
 72
     5
 11
318.669263
 21
368.705134
 31
0.0
100
AcDbText
  0
POLYLINE
  5
3F5
100
AcDbEntity
  8
LAY-6
  6
CONTINUOUS
 62
     1
100
AcDb2dPolyline
 66
     1
 10
0.0
 20
0.0
 30
0.0
 70
   128
  0
VERTEX
  5
3F6
100
AcDbEntity
  8
LAY-6
  6
CONTINUOUS
 62
     1
100
AcDbVertex
100
AcDb2dVertex
 10
215.4125
 20
339.248446
 30
0.0
  0
VERTEX
  5
3F7
100
AcDbEntity
  8
LAY-6
  6
CONTINUOUS
 62
     1
100
AcDbVertex
100
AcDb2dVertex
 10
232.130652
 20
368.205134
 30
0.0
  0
VERTEX
  5
3F8
100
AcDbEntity
  8
LAY-6
  6
CONTINUOUS
 62
     1
100
AcDbVertex
100
AcDb2dVertex
 10
318.669263
 20
368.205134
 30
0.0
  0
SEQEND
  5
3F9
100
AcDbEntity
  8
LAY-6
  6
CONTINUOUS
 62
     1
  0
LINE
  5
3FA
100
AcDbEntity
  8
LAY-6
  6
CONTINUOUS
 62
     1
100
AcDbLine
 10
216.123825
 20
341.147163
 30
0.0
 11
215.4125
 21
339.248446
 31
0.0
  0
LINE
  5
3FB
100
AcDbEntity
  8
LAY-6
  6
CONTINUOUS
 62
     1
100
AcDbLine
 10
215.4125
 20
339.248446
 30
0.0
 11
216.701175
 21
340.81383
 31
0.0
  0
LINE
  5
3FC
100
AcDbEntity
  8
LAY-6
  6
CONTINUOUS
 62
     1
100
AcDbLine
 10
737.6
 20
300.0
 30
0.0
 11
741.5
 21
300.0
 31
0.0
  0
TEXT
  5
3FD
100
AcDbEntity
  8
LAY-6
  6
CONTINUOUS
 62
     2
100
AcDbText
 10
739.5
 20
301.0
 30
0.0
 40
5.0
  1
１０
 50
90.0
 41
0.672
  7
EXCADSTD
 72
     5
 11
739.5
 21
308.3328
 31
0.0
100
AcDbText
  0
LINE
  5
3FE
100
AcDbEntity
  8
LAY-6
  6
CONTINUOUS
 62
     1
100
AcDbLine
 10
697.0
 20
310.0
 30
0.0
 11
741.5
 21
310.0
 31
0.0
  0
LINE
  5
3FF
100
AcDbEntity
  8
LAY-6
  6
CONTINUOUS
 62
     1
100
AcDbLine
 10
740.0
 20
300.0
 30
0.0
 11
740.0
 21
310.0
 31
0.0
  0
LINE
  5
400
100
AcDbEntity
  8
LAY-6
  6
CONTINUOUS
 62
     1
100
AcDbLine
 10
739.666667
 20
302.0
 30
0.0
 11
740.0
 21
300.0
 31
0.0
  0
LINE
  5
401
100
AcDbEntity
  8
LAY-6
  6
CONTINUOUS
 62
     1
100
AcDbLine
 10
740.0
 20
300.0
 30
0.0
 11
740.333333
 21
302.0
 31
0.0
  0
LINE
  5
402
100
AcDbEntity
  8
LAY-6
  6
CONTINUOUS
 62
     1
100
AcDbLine
 10
740.333333
 20
308.0
 30
0.0
 11
740.0
 21
310.0
 31
0.0
  0
LINE
  5
403
100
AcDbEntity
  8
LAY-6
  6
CONTINUOUS
 62
     1
100
AcDbLine
 10
740.0
 20
310.0
 30
0.0
 11
739.666667
 21
308.0
 31
0.0
  0
LINE
  5
404
100
AcDbEntity
  8
LAY-6
  6
CONTINUOUS
 62
     1
100
AcDbLine
 10
695.5
 20
504.999969
 30
0.0
 11
741.5
 21
504.999969
 31
0.0
  0
TEXT
  5
405
100
AcDbEntity
  8
LAY-6
  6
CONTINUOUS
 62
     2
100
AcDbText
 10
739.5
 20
403.499984
 30
0.0
 40
5.0
  1
ＤＨ
 50
90.0
 41
0.672
  7
EXCADSTD
 72
     5
 11
739.5
 21
410.832785
 31
0.0
100
AcDbText
  0
LINE
  5
406
100
AcDbEntity
  8
LAY-6
  6
CONTINUOUS
 62
     1
100
AcDbLine
 10
740.0
 20
310.0
 30
0.0
 11
740.0
 21
504.999969
 31
0.0
  0
LINE
  5
407
100
AcDbEntity
  8
LAY-6
  6
CONTINUOUS
 62
     1
100
AcDbLine
 10
739.666667
 20
312.0
 30
0.0
 11
740.0
 21
310.0
 31
0.0
  0
LINE
  5
408
100
AcDbEntity
  8
LAY-6
  6
CONTINUOUS
 62
     1
100
AcDbLine
 10
740.0
 20
310.0
 30
0.0
 11
740.333333
 21
312.0
 31
0.0
  0
LINE
  5
409
100
AcDbEntity
  8
LAY-6
  6
CONTINUOUS
 62
     1
100
AcDbLine
 10
740.333333
 20
502.999969
 30
0.0
 11
740.0
 21
504.999969
 31
0.0
  0
LINE
  5
40A
100
AcDbEntity
  8
LAY-6
  6
CONTINUOUS
 62
     1
100
AcDbLine
 10
740.0
 20
504.999969
 30
0.0
 11
739.666667
 21
502.999969
 31
0.0
  0
LINE
  5
40B
100
AcDbEntity
  8
LAY-6
  6
CONTINUOUS
 62
     1
100
AcDbLine
 10
725.5
 20
508.0
 30
0.0
 11
741.5
 21
508.0
 31
0.0
  0
TEXT
  5
40C
100
AcDbEntity
  8
LAY-6
  6
CONTINUOUS
 62
     2
100
AcDbText
 10
739.5
 20
510.699985
 30
0.0
 40
5.0
  1
３
 50
90.0
 41
0.672
  7
EXCADSTD
 72
     5
 11
739.5
 21
513.899985
 31
0.0
100
AcDbText
  0
LINE
  5
40D
100
AcDbEntity
  8
LAY-6
  6
CONTINUOUS
 62
     1
100
AcDbLine
 10
740.0
 20
499.999969
 30
0.0
 11
740.0
 21
513.8
 31
0.0
  0
LINE
  5
40E
100
AcDbEntity
  8
LAY-6
  6
CONTINUOUS
 62
     1
100
AcDbLine
 10
740.333333
 20
502.999969
 30
0.0
 11
740.0
 21
504.999969
 31
0.0
  0
LINE
  5
40F
100
AcDbEntity
  8
LAY-6
  6
CONTINUOUS
 62
     1
100
AcDbLine
 10
740.0
 20
504.999969
 30
0.0
 11
739.666667
 21
502.999969
 31
0.0
  0
LINE
  5
410
100
AcDbEntity
  8
LAY-6
  6
CONTINUOUS
 62
     1
100
AcDbLine
 10
739.666667
 20
510.0
 30
0.0
 11
740.0
 21
508.0
 31
0.0
  0
LINE
  5
411
100
AcDbEntity
  8
LAY-6
  6
CONTINUOUS
 62
     1
100
AcDbLine
 10
740.0
 20
508.0
 30
0.0
 11
740.333333
 21
510.0
 31
0.0
  0
LINE
  5
412
100
AcDbEntity
  8
LAY-6
  6
CONTINUOUS
 62
     1
100
AcDbLine
 10
95.000016
 20
330.5
 30
0.0
 11
95.000016
 21
358.3
 31
0.0
  0
LINE
  5
413
100
AcDbEntity
  8
LAY-6
  6
CONTINUOUS
 62
     1
100
AcDbLine
 10
263.0
 20
330.5
 30
0.0
 11
263.0
 21
358.3
 31
0.0
  0
TEXT
  5
414
100
AcDbEntity
  8
LAY-6
  6
CONTINUOUS
 62
     2
100
AcDbText
 10
173.000008
 20
357.3
 30
0.0
 40
5.0
  1
１６８
 41
0.672
  7
EXCADSTD
 72
     5
 11
185.000008
 21
357.3
 31
0.0
100
AcDbText
  0
LINE
  5
415
100
AcDbEntity
  8
LAY-6
  6
CONTINUOUS
 62
     1
100
AcDbLine
 10
95.000016
 20
356.8
 30
0.0
 11
263.0
 21
356.8
 31
0.0
  0
LINE
  5
416
100
AcDbEntity
  8
LAY-6
  6
CONTINUOUS
 62
     1
100
AcDbLine
 10
97.000016
 20
357.133333
 30
0.0
 11
95.000016
 21
356.8
 31
0.0
  0
LINE
  5
417
100
AcDbEntity
  8
LAY-6
  6
CONTINUOUS
 62
     1
100
AcDbLine
 10
95.000016
 20
356.8
 30
0.0
 11
97.000016
 21
356.466667
 31
0.0
  0
LINE
  5
418
100
AcDbEntity
  8
LAY-6
  6
CONTINUOUS
 62
     1
100
AcDbLine
 10
261.0
 20
356.466667
 30
0.0
 11
263.0
 21
356.8
 31
0.0
  0
LINE
  5
419
100
AcDbEntity
  8
LAY-6
  6
CONTINUOUS
 62
     1
100
AcDbLine
 10
263.0
 20
356.8
 30
0.0
 11
261.0
 21
357.133333
 31
0.0
  0
LINE
  5
41A
100
AcDbEntity
  8
LAY-6
  6
CONTINUOUS
 62
     1
100
AcDbLine
 10
115.0
 20
335.0
 30
0.0
 11
115.0
 21
348.3
 31
0.0
  0
LINE
  5
41B
100
AcDbEntity
  8
LAY-6
  6
CONTINUOUS
 62
     1
100
AcDbLine
 10
263.0
 20
330.5
 30
0.0
 11
263.0
 21
348.3
 31
0.0
  0
TEXT
  5
41C
100
AcDbEntity
  8
LAY-6
  6
CONTINUOUS
 62
     2
100
AcDbText
 10
183.0
 20
347.3
 30
0.0
 40
5.0
  1
１４８
 41
0.672
  7
EXCADSTD
 72
     5
 11
195.0
 21
347.3
 31
0.0
100
AcDbText
  0
LINE
  5
41D
100
AcDbEntity
  8
LAY-6
  6
CONTINUOUS
 62
     1
100
AcDbLine
 10
115.0
 20
346.8
 30
0.0
 11
263.0
 21
346.8
 31
0.0
  0
LINE
  5
41E
100
AcDbEntity
  8
LAY-6
  6
CONTINUOUS
 62
     1
100
AcDbLine
 10
117.0
 20
347.133333
 30
0.0
 11
115.0
 21
346.8
 31
0.0
  0
LINE
  5
41F
100
AcDbEntity
  8
LAY-6
  6
CONTINUOUS
 62
     1
100
AcDbLine
 10
115.0
 20
346.8
 30
0.0
 11
117.0
 21
346.466667
 31
0.0
  0
LINE
  5
420
100
AcDbEntity
  8
LAY-6
  6
CONTINUOUS
 62
     1
100
AcDbLine
 10
261.0
 20
346.466667
 30
0.0
 11
263.0
 21
346.8
 31
0.0
  0
LINE
  5
421
100
AcDbEntity
  8
LAY-6
  6
CONTINUOUS
 62
     1
100
AcDbLine
 10
263.0
 20
346.8
 30
0.0
 11
261.0
 21
347.133333
 31
0.0
  0
LINE
  5
422
100
AcDbEntity
  8
LAY-6
  6
CONTINUOUS
 62
     1
100
AcDbLine
 10
665.500019
 20
546.50003
 30
0.0
 11
665.500019
 21
557.50003
 31
0.0
  0
LINE
  5
423
100
AcDbEntity
  8
LAY-6
  6
CONTINUOUS
 62
     1
100
AcDbLine
 10
684.500013
 20
546.50003
 30
0.0
 11
684.500013
 21
557.50003
 31
0.0
  0
TEXT
  5
424
100
AcDbEntity
  8
LAY-6
  6
CONTINUOUS
 62
     2
100
AcDbText
 10
669.000016
 20
556.50003
 30
0.0
 40
5.0
  1
φ
 41
0.672
  7
EXCADSTD
 72
     5
 11
672.200016
 21
556.50003
 31
0.0
100
AcDbText
  0
TEXT
  5
425
100
AcDbEntity
  8
LAY-6
  6
CONTINUOUS
 62
     2
100
AcDbText
 10
673.000016
 20
556.50003
 30
0.0
 40
5.0
  1
１９
 41
0.672
  7
EXCADSTD
 72
     5
 11
680.332816
 21
556.50003
 31
0.0
100
AcDbText
  0
LINE
  5
426
100
AcDbEntity
  8
LAY-6
  6
CONTINUOUS
 62
     1
100
AcDbLine
 10
665.500019
 20
556.00003
 30
0.0
 11
684.500013
 21
556.00003
 31
0.0
  0
LINE
  5
427
100
AcDbEntity
  8
LAY-6
  6
CONTINUOUS
 62
     1
100
AcDbLine
 10
667.500019
 20
556.333363
 30
0.0
 11
665.500019
 21
556.00003
 31
0.0
  0
LINE
  5
428
100
AcDbEntity
  8
LAY-6
  6
CONTINUOUS
 62
     1
100
AcDbLine
 10
665.500019
 20
556.00003
 30
0.0
 11
667.500019
 21
555.666697
 31
0.0
  0
LINE
  5
429
100
AcDbEntity
  8
LAY-6
  6
CONTINUOUS
 62
     1
100
AcDbLine
 10
682.500013
 20
555.666697
 30
0.0
 11
684.500013
 21
556.00003
 31
0.0
  0
LINE
  5
42A
100
AcDbEntity
  8
LAY-6
  6
CONTINUOUS
 62
     1
100
AcDbLine
 10
684.500013
 20
556.00003
 30
0.0
 11
682.500013
 21
556.333363
 31
0.0
  0
TEXT
  5
42B
100
AcDbEntity
  8
LAY-6
  6
CONTINUOUS
 62
     2
100
AcDbText
 10
635.5
 20
490.499969
 30
0.0
 40
5.0
  1
φ
 41
0.672
  7
EXCADSTD
 72
     5
 11
638.7
 21
490.499969
 31
0.0
100
AcDbText
  0
TEXT
  5
42C
100
AcDbEntity
  8
LAY-6
  6
CONTINUOUS
 62
     2
100
AcDbText
 10
639.5
 20
490.499969
 30
0.0
 40
5.0
  1
１７.５
 41
0.616
  7
EXCADSTD
 72
     5
 11
653.5
 21
490.499969
 31
0.0
100
AcDbText
  0
LINE
  5
42D
100
AcDbEntity
  8
LAY-6
  6
CONTINUOUS
 62
     1
100
AcDbLine
 10
636.5
 20
489.999969
 30
0.0
 11
683.75
 21
489.999969
 31
0.0
  0
LINE
  5
42E
100
AcDbEntity
  8
LAY-6
  6
CONTINUOUS
 62
     1
100
AcDbLine
 10
668.25
 20
490.333302
 30
0.0
 11
666.25
 21
489.999969
 31
0.0
  0
LINE
  5
42F
100
AcDbEntity
  8
LAY-6
  6
CONTINUOUS
 62
     1
100
AcDbLine
 10
666.25
 20
489.999969
 30
0.0
 11
668.25
 21
489.666636
 31
0.0
  0
LINE
  5
430
100
AcDbEntity
  8
LAY-6
  6
CONTINUOUS
 62
     1
100
AcDbLine
 10
681.75
 20
489.666636
 30
0.0
 11
683.75
 21
489.999969
 31
0.0
  0
LINE
  5
431
100
AcDbEntity
  8
LAY-6
  6
CONTINUOUS
 62
     1
100
AcDbLine
 10
683.75
 20
489.999969
 30
0.0
 11
681.75
 21
490.333302
 31
0.0
  0
LINE
  5
432
100
AcDbEntity
  8
LAY-6
  6
CONTINUOUS
 62
     1
100
AcDbLine
 10
668.749985
 20
504.499969
 30
0.0
 11
668.749985
 21
500.499969
 31
0.0
  0
LINE
  5
433
100
AcDbEntity
  8
LAY-6
  6
CONTINUOUS
 62
     1
100
AcDbLine
 10
681.249985
 20
504.499969
 30
0.0
 11
681.249985
 21
500.499969
 31
0.0
  0
LINE
  5
434
100
AcDbEntity
  8
LAY-6
  6
CONTINUOUS
 62
     1
100
AcDbLine
 10
663.749985
 20
501.999969
 30
0.0
 11
686.249985
 21
501.999969
 31
0.0
  0
LINE
  5
435
100
AcDbEntity
  8
LAY-6
  6
CONTINUOUS
 62
     1
100
AcDbLine
 10
666.749985
 20
501.666636
 30
0.0
 11
668.749985
 21
501.999969
 31
0.0
  0
LINE
  5
436
100
AcDbEntity
  8
LAY-6
  6
CONTINUOUS
 62
     1
100
AcDbLine
 10
668.749985
 20
501.999969
 30
0.0
 11
666.749985
 21
502.333302
 31
0.0
  0
LINE
  5
437
100
AcDbEntity
  8
LAY-6
  6
CONTINUOUS
 62
     1
100
AcDbLine
 10
683.249985
 20
502.333302
 30
0.0
 11
681.249985
 21
501.999969
 31
0.0
  0
LINE
  5
438
100
AcDbEntity
  8
LAY-6
  6
CONTINUOUS
 62
     1
100
AcDbLine
 10
681.249985
 20
501.999969
 30
0.0
 11
683.249985
 21
501.666636
 31
0.0
  0
TEXT
  5
439
100
AcDbEntity
  8
LAY-6
  6
CONTINUOUS
 62
     2
100
AcDbText
 10
710.05
 20
469.549984
 30
0.0
 40
5.0
  1
φ１２.５
 41
0.62784
  7
EXCADSTD
 72
     5
 11
728.05
 21
469.549984
 31
0.0
100
AcDbText
  0
POLYLINE
  5
43A
100
AcDbEntity
  8
LAY-6
  6
CONTINUOUS
 62
     1
100
AcDb2dPolyline
 66
     1
 10
0.0
 20
0.0
 30
0.0
 70
   128
  0
VERTEX
  5
43B
100
AcDbEntity
  8
LAY-6
  6
CONTINUOUS
 62
     1
100
AcDbVertex
100
AcDb2dVertex
 10
675.05
 20
501.999969
 30
0.0
  0
VERTEX
  5
43C
100
AcDbEntity
  8
LAY-6
  6
CONTINUOUS
 62
     1
100
AcDbVertex
100
AcDb2dVertex
 10
707.999984
 20
469.049984
 30
0.0
  0
VERTEX
  5
43D
100
AcDbEntity
  8
LAY-6
  6
CONTINUOUS
 62
     1
100
AcDbVertex
100
AcDb2dVertex
 10
728.05
 20
469.049984
 30
0.0
  0
SEQEND
  5
43E
100
AcDbEntity
  8
LAY-6
  6
CONTINUOUS
 62
     1
  0
LINE
  5
43F
100
AcDbEntity
  8
LAY-6
  6
CONTINUOUS
 62
     1
100
AcDbLine
 10
405.0
 20
391.3
 30
0.0
 11
405.0
 21
380.5
 31
0.0
  0
LINE
  5
440
100
AcDbEntity
  8
LAY-6
  6
CONTINUOUS
 62
     1
100
AcDbLine
 10
540.0
 20
401.5
 30
0.0
 11
540.0
 21
380.5
 31
0.0
  0
TEXT
  5
441
100
AcDbEntity
  8
LAY-6
  6
CONTINUOUS
 62
     2
100
AcDbText
 10
466.5
 20
382.5
 30
0.0
 40
5.0
  1
１３５
 41
0.672
  7
EXCADSTD
 72
     5
 11
478.5
 21
382.5
 31
0.0
100
AcDbText
  0
LINE
  5
442
100
AcDbEntity
  8
LAY-6
  6
CONTINUOUS
 62
     1
100
AcDbLine
 10
405.0
 20
382.0
 30
0.0
 11
540.0
 21
382.0
 31
0.0
  0
LINE
  5
443
100
AcDbEntity
  8
LAY-6
  6
CONTINUOUS
 62
     1
100
AcDbLine
 10
407.0
 20
382.333333
 30
0.0
 11
405.0
 21
382.0
 31
0.0
  0
LINE
  5
444
100
AcDbEntity
  8
LAY-6
  6
CONTINUOUS
 62
     1
100
AcDbLine
 10
405.0
 20
382.0
 30
0.0
 11
407.0
 21
381.666667
 31
0.0
  0
LINE
  5
445
100
AcDbEntity
  8
LAY-6
  6
CONTINUOUS
 62
     1
100
AcDbLine
 10
538.0
 20
381.666667
 30
0.0
 11
540.0
 21
382.0
 31
0.0
  0
LINE
  5
446
100
AcDbEntity
  8
LAY-6
  6
CONTINUOUS
 62
     1
100
AcDbLine
 10
540.0
 20
382.0
 30
0.0
 11
538.0
 21
382.333333
 31
0.0
  0
LINE
  5
447
100
AcDbEntity
  8
LAY-6
  6
CONTINUOUS
 62
     1
100
AcDbLine
 10
472.7
 20
410.0
 30
0.0
 11
456.5
 21
410.0
 31
0.0
  0
LINE
  5
448
100
AcDbEntity
  8
LAY-6
  6
CONTINUOUS
 62
     1
100
AcDbLine
 10
455.9
 20
418.0
 30
0.0
 11
459.5
 21
418.0
 31
0.0
  0
TEXT
  5
449
100
AcDbEntity
  8
LAY-6
  6
CONTINUOUS
 62
     2
100
AcDbText
 10
457.5
 20
412.0
 30
0.0
 40
5.0
  1
８
 50
90.0
 41
0.672
  7
EXCADSTD
 72
     5
 11
457.5
 21
415.2
 31
0.0
100
AcDbText
  0
LINE
  5
44A
100
AcDbEntity
  8
LAY-6
  6
CONTINUOUS
 62
     1
100
AcDbLine
 10
458.0
 20
405.0
 30
0.0
 11
458.0
 21
418.0
 31
0.0
  0
LINE
  5
44B
100
AcDbEntity
  8
LAY-6
  6
CONTINUOUS
 62
     1
100
AcDbLine
 10
458.333333
 20
408.0
 30
0.0
 11
458.0
 21
410.0
 31
0.0
  0
LINE
  5
44C
100
AcDbEntity
  8
LAY-6
  6
CONTINUOUS
 62
     1
100
AcDbLine
 10
458.0
 20
410.0
 30
0.0
 11
457.666667
 21
408.0
 31
0.0
  0
LINE
  5
44D
100
AcDbEntity
  8
LAY-6
  6
CONTINUOUS
 62
     1
100
AcDbLine
 10
443.7
 20
426.0
 30
0.0
 11
459.5
 21
426.0
 31
0.0
  0
TEXT
  5
44E
100
AcDbEntity
  8
LAY-6
  6
CONTINUOUS
 62
     2
100
AcDbText
 10
457.5
 20
420.0
 30
0.0
 40
5.0
  1
８
 50
90.0
 41
0.672
  7
EXCADSTD
 72
     5
 11
457.5
 21
423.2
 31
0.0
100
AcDbText
  0
LINE
  5
44F
100
AcDbEntity
  8
LAY-6
  6
CONTINUOUS
 62
     1
100
AcDbLine
 10
458.0
 20
418.0
 30
0.0
 11
458.0
 21
431.0
 31
0.0
  0
CIRCLE
  5
450
100
AcDbEntity
  8
LAY-6
  6
CONTINUOUS
 62
     1
100
AcDbCircle
 10
458.0
 20
418.0
 30
0.0
 40
0.5
  0
CIRCLE
  5
451
100
AcDbEntity
  8
LAY-6
  6
CONTINUOUS
 62
     1
100
AcDbCircle
 10
458.0
 20
418.0
 30
0.0
 40
0.25
  0
LINE
  5
452
100
AcDbEntity
  8
LAY-6
  6
CONTINUOUS
 62
     1
100
AcDbLine
 10
457.666667
 20
428.0
 30
0.0
 11
458.0
 21
426.0
 31
0.0
  0
LINE
  5
453
100
AcDbEntity
  8
LAY-6
  6
CONTINUOUS
 62
     1
100
AcDbLine
 10
458.0
 20
426.0
 30
0.0
 11
458.333333
 21
428.0
 31
0.0
  0
TEXT
  5
454
100
AcDbEntity
  8
LAY-6
  6
CONTINUOUS
 62
     2
100
AcDbText
 10
272.6
 20
540.6
 30
0.0
 40
5.0
  1
裏板４.５ｔ以上（別途）
 41
0.654222
  7
EXCADSTD
 72
     5
 11
318.6
 21
540.6
 31
0.0
100
AcDbText
  0
POLYLINE
  5
455
100
AcDbEntity
  8
LAY-6
  6
CONTINUOUS
 62
     1
100
AcDb2dPolyline
 66
     1
 10
0.0
 20
0.0
 30
0.0
 70
   128
  0
VERTEX
  5
456
100
AcDbEntity
  8
LAY-6
  6
CONTINUOUS
 62
     1
100
AcDbVertex
100
AcDb2dVertex
 10
250.0
 20
518.5
 30
0.0
  0
VERTEX
  5
457
100
AcDbEntity
  8
LAY-6
  6
CONTINUOUS
 62
     1
100
AcDbVertex
100
AcDb2dVertex
 10
271.6
 20
540.1
 30
0.0
  0
VERTEX
  5
458
100
AcDbEntity
  8
LAY-6
  6
CONTINUOUS
 62
     1
100
AcDbVertex
100
AcDb2dVertex
 10
318.6
 20
540.1
 30
0.0
  0
SEQEND
  5
459
100
AcDbEntity
  8
LAY-6
  6
CONTINUOUS
 62
     1
  0
LINE
  5
45A
100
AcDbEntity
  8
LAY-6
  6
CONTINUOUS
 62
     1
100
AcDbLine
 10
251.178511
 20
520.149916
 30
0.0
 11
250.0
 21
518.5
 31
0.0
  0
LINE
  5
45B
100
AcDbEntity
  8
LAY-6
  6
CONTINUOUS
 62
     1
100
AcDbLine
 10
250.0
 20
518.5
 30
0.0
 11
251.649916
 21
519.678511
 31
0.0
  0
LINE
  5
45C
100
AcDbEntity
  8
LAY-6
  6
CONTINUOUS
 62
     1
100
AcDbLine
 10
276.0
 20
300.0
 30
0.0
 11
284.5
 21
300.0
 31
0.0
  0
LINE
  5
45D
100
AcDbEntity
  8
LAY-6
  6
CONTINUOUS
 62
     1
100
AcDbLine
 10
272.1
 20
310.0
 30
0.0
 11
284.5
 21
310.0
 31
0.0
  0
TEXT
  5
45E
100
AcDbEntity
  8
LAY-6
  6
CONTINUOUS
 62
     2
100
AcDbText
 10
282.5
 20
301.0
 30
0.0
 40
5.0
  1
１０
 50
90.0
 41
0.672
  7
EXCADSTD
 72
     5
 11
282.5
 21
308.3328
 31
0.0
100
AcDbText
  0
LINE
  5
45F
100
AcDbEntity
  8
LAY-6
  6
CONTINUOUS
 62
     1
100
AcDbLine
 10
283.0
 20
300.0
 30
0.0
 11
283.0
 21
310.0
 31
0.0
  0
LINE
  5
460
100
AcDbEntity
  8
LAY-6
  6
CONTINUOUS
 62
     1
100
AcDbLine
 10
282.666667
 20
302.0
 30
0.0
 11
283.0
 21
300.0
 31
0.0
  0
LINE
  5
461
100
AcDbEntity
  8
LAY-6
  6
CONTINUOUS
 62
     1
100
AcDbLine
 10
283.0
 20
300.0
 30
0.0
 11
283.333333
 21
302.0
 31
0.0
  0
LINE
  5
462
100
AcDbEntity
  8
LAY-6
  6
CONTINUOUS
 62
     1
100
AcDbLine
 10
283.333333
 20
308.0
 30
0.0
 11
283.0
 21
310.0
 31
0.0
  0
LINE
  5
463
100
AcDbEntity
  8
LAY-6
  6
CONTINUOUS
 62
     1
100
AcDbLine
 10
283.0
 20
310.0
 30
0.0
 11
282.666667
 21
308.0
 31
0.0
  0
LINE
  5
464
100
AcDbEntity
  8
LAY-6
  6
CONTINUOUS
 62
     1
100
AcDbLine
 10
275.0
 20
330.0
 30
0.0
 11
284.5
 21
330.0
 31
0.0
  0
TEXT
  5
465
100
AcDbEntity
  8
LAY-6
  6
CONTINUOUS
 62
     2
100
AcDbText
 10
282.5
 20
316.0
 30
0.0
 40
5.0
  1
２０
 50
90.0
 41
0.672
  7
EXCADSTD
 72
     5
 11
282.5
 21
323.3328
 31
0.0
100
AcDbText
  0
LINE
  5
466
100
AcDbEntity
  8
LAY-6
  6
CONTINUOUS
 62
     1
100
AcDbLine
 10
283.0
 20
310.0
 30
0.0
 11
283.0
 21
330.0
 31
0.0
  0
LINE
  5
467
100
AcDbEntity
  8
LAY-6
  6
CONTINUOUS
 62
     1
100
AcDbLine
 10
282.666667
 20
312.0
 30
0.0
 11
283.0
 21
310.0
 31
0.0
  0
LINE
  5
468
100
AcDbEntity
  8
LAY-6
  6
CONTINUOUS
 62
     1
100
AcDbLine
 10
283.0
 20
310.0
 30
0.0
 11
283.333333
 21
312.0
 31
0.0
  0
LINE
  5
469
100
AcDbEntity
  8
LAY-6
  6
CONTINUOUS
 62
     1
100
AcDbLine
 10
283.333333
 20
328.0
 30
0.0
 11
283.0
 21
330.0
 31
0.0
  0
LINE
  5
46A
100
AcDbEntity
  8
LAY-6
  6
CONTINUOUS
 62
     1
100
AcDbLine
 10
283.0
 20
330.0
 30
0.0
 11
282.666667
 21
328.0
 31
0.0
  0
LINE
  5
46B
100
AcDbEntity
  8
LAY-6
  6
CONTINUOUS
 62
     1
100
AcDbLine
 10
283.0
 20
172.0
 30
0.0
 11
283.0
 21
148.0
 31
0.0
  0
LINE
  5
46C
100
AcDbEntity
  8
LAY-6
  6
CONTINUOUS
 62
     1
100
AcDbLine
 10
283.333333
 20
170.0
 30
0.0
 11
283.0
 21
172.0
 31
0.0
  0
LINE
  5
46D
100
AcDbEntity
  8
LAY-6
  6
CONTINUOUS
 62
     1
100
AcDbLine
 10
283.0
 20
172.0
 30
0.0
 11
282.666667
 21
170.0
 31
0.0
  0
LINE
  5
46E
100
AcDbEntity
  8
LAY-6
  6
CONTINUOUS
 62
     1
100
AcDbLine
 10
282.666667
 20
150.0
 30
0.0
 11
283.0
 21
148.0
 31
0.0
  0
LINE
  5
46F
100
AcDbEntity
  8
LAY-6
  6
CONTINUOUS
 62
     1
100
AcDbLine
 10
283.0
 20
148.0
 30
0.0
 11
283.333333
 21
150.0
 31
0.0
  0
TEXT
  5
470
100
AcDbEntity
  8
LAY-6
  6
CONTINUOUS
 62
     2
100
AcDbText
 10
282.5
 20
156.0
 30
0.0
 40
5.0
  1
２４
 50
90.0
 41
0.672
  7
EXCADSTD
 72
     5
 11
282.5
 21
163.3328
 31
0.0
100
AcDbText
  0
LINE
  5
471
100
AcDbEntity
  8
LAY-6
  6
CONTINUOUS
 62
     1
100
AcDbLine
 10
262.0
 20
172.0
 30
0.0
 11
284.5
 21
172.0
 31
0.0
  0
LINE
  5
472
100
AcDbEntity
  8
LAY-6
  6
CONTINUOUS
 62
     1
100
AcDbLine
 10
262.0
 20
148.0
 30
0.0
 11
284.5
 21
148.0
 31
0.0
  0
LINE
  5
473
100
AcDbEntity
  8
LAY-6
  6
CONTINUOUS
 62
     1
100
AcDbLine
 10
179.000061
 20
165.0
 30
0.0
 11
193.5
 21
165.0
 31
0.0
  0
LINE
  5
474
100
AcDbEntity
  8
LAY-6
  6
CONTINUOUS
 62
     1
100
AcDbLine
 10
204.708916
 20
155.0
 30
0.0
 11
191.5
 21
155.0
 31
0.0
  0
TEXT
  5
475
100
AcDbEntity
  8
LAY-6
  6
CONTINUOUS
 62
     2
100
AcDbText
 10
192.0
 20
156.0
 30
0.0
 40
5.0
  1
１０
 50
90.0
 41
0.672
  7
EXCADSTD
 72
     5
 11
192.0
 21
163.3328
 31
0.0
100
AcDbText
  0
LINE
  5
476
100
AcDbEntity
  8
LAY-6
  6
CONTINUOUS
 62
     1
100
AcDbLine
 10
192.5
 20
165.0
 30
0.0
 11
192.5
 21
155.0
 31
0.0
  0
LINE
  5
477
100
AcDbEntity
  8
LAY-6
  6
CONTINUOUS
 62
     1
100
AcDbLine
 10
192.833333
 20
163.0
 30
0.0
 11
192.5
 21
165.0
 31
0.0
  0
LINE
  5
478
100
AcDbEntity
  8
LAY-6
  6
CONTINUOUS
 62
     1
100
AcDbLine
 10
192.5
 20
165.0
 30
0.0
 11
192.166667
 21
163.0
 31
0.0
  0
LINE
  5
479
100
AcDbEntity
  8
LAY-6
  6
CONTINUOUS
 62
     1
100
AcDbLine
 10
192.166667
 20
157.0
 30
0.0
 11
192.5
 21
155.0
 31
0.0
  0
LINE
  5
47A
100
AcDbEntity
  8
LAY-6
  6
CONTINUOUS
 62
     1
100
AcDbLine
 10
192.5
 20
155.0
 30
0.0
 11
192.833333
 21
157.0
 31
0.0
  0
POLYLINE
  5
47B
100
AcDbEntity
  8
LAY-6
  6
CONTINUOUS
 62
     1
100
AcDb2dPolyline
 66
     1
 10
0.0
 20
0.0
 30
0.0
 70
   128
  0
VERTEX
  5
47C
100
AcDbEntity
  8
LAY-6
  6
CONTINUOUS
 62
     1
100
AcDbVertex
100
AcDb2dVertex
 10
255.929904
 20
172.125
 30
0.0
  0
VERTEX
  5
47D
100
AcDbEntity
  8
LAY-6
  6
CONTINUOUS
 62
     1
100
AcDbVertex
100
AcDb2dVertex
 10
271.999356
 20
199.958107
 30
0.0
  0
VERTEX
  5
47E
100
AcDbEntity
  8
LAY-6
  6
CONTINUOUS
 62
     1
100
AcDbVertex
100
AcDb2dVertex
 10
290.0
 20
199.958107
 30
0.0
  0
SEQEND
  5
47F
100
AcDbEntity
  8
LAY-6
  6
CONTINUOUS
 62
     1
  0
LINE
  5
480
100
AcDbEntity
  8
LAY-6
  6
CONTINUOUS
 62
     1
100
AcDbLine
 10
256.641229
 20
174.023717
 30
0.0
 11
255.929904
 21
172.125
 31
0.0
  0
LINE
  5
481
100
AcDbEntity
  8
LAY-6
  6
CONTINUOUS
 62
     1
100
AcDbLine
 10
255.929904
 20
172.125
 30
0.0
 11
257.218579
 21
173.690384
 31
0.0
  0
TEXT
  5
482
100
AcDbEntity
  8
LAY-6
  6
CONTINUOUS
 62
     2
100
AcDbText
 10
278.0
 20
200.458107
 30
0.0
 40
5.0
  1
アーム
 41
0.672
  7
EXCADSTD
 72
     5
 11
290.0
 21
200.458107
 31
0.0
100
AcDbText
  0
TEXT
  5
483
100
AcDbEntity
  8
LAY-6
  6
CONTINUOUS
 62
     2
100
AcDbText
 10
213.0
 20
75.500008
 30
0.0
 40
5.0
  1
３３４
 41
0.672
  7
EXCADSTD
 72
     5
 11
225.0
 21
75.500008
 31
0.0
100
AcDbText
  0
LINE
  5
484
100
AcDbEntity
  8
LAY-6
  6
CONTINUOUS
 62
     1
100
AcDbLine
 10
52.0
 20
75.000008
 30
0.0
 11
386.0
 21
75.000008
 31
0.0
  0
LINE
  5
485
100
AcDbEntity
  8
LAY-6
  6
CONTINUOUS
 62
     1
100
AcDbLine
 10
54.0
 20
75.333341
 30
0.0
 11
52.0
 21
75.000008
 31
0.0
  0
LINE
  5
486
100
AcDbEntity
  8
LAY-6
  6
CONTINUOUS
 62
     1
100
AcDbLine
 10
52.0
 20
75.000008
 30
0.0
 11
54.0
 21
74.666675
 31
0.0
  0
LINE
  5
487
100
AcDbEntity
  8
LAY-6
  6
CONTINUOUS
 62
     1
100
AcDbLine
 10
384.0
 20
74.666675
 30
0.0
 11
386.0
 21
75.000008
 31
0.0
  0
LINE
  5
488
100
AcDbEntity
  8
LAY-6
  6
CONTINUOUS
 62
     1
100
AcDbLine
 10
386.0
 20
75.000008
 30
0.0
 11
384.0
 21
75.333341
 31
0.0
  0
LINE
  5
489
100
AcDbEntity
  8
LAY-6
  6
CONTINUOUS
 62
     1
100
AcDbLine
 10
52.0
 20
108.0
 30
0.0
 11
52.0
 21
73.500008
 31
0.0
  0
LINE
  5
48A
100
AcDbEntity
  8
LAY-6
  6
CONTINUOUS
 62
     1
100
AcDbLine
 10
386.0
 20
108.0
 30
0.0
 11
386.0
 21
73.500008
 31
0.0
  0
LINE
  5
48B
100
AcDbEntity
  8
LAY-6
  6
CONTINUOUS
 62
     1
100
AcDbLine
 10
52.0
 20
86.500008
 30
0.0
 11
52.0
 21
83.500008
 31
0.0
  0
LINE
  5
48C
100
AcDbEntity
  8
LAY-6
  6
CONTINUOUS
 62
     1
100
AcDbLine
 10
184.0
 20
86.500008
 30
0.0
 11
184.0
 21
83.500008
 31
0.0
  0
TEXT
  5
48D
100
AcDbEntity
  8
LAY-6
  6
CONTINUOUS
 62
     2
100
AcDbText
 10
112.0
 20
85.500008
 30
0.0
 40
5.0
  1
１３２
 41
0.672
  7
EXCADSTD
 72
     5
 11
124.0
 21
85.500008
 31
0.0
100
AcDbText
  0
LINE
  5
48E
100
AcDbEntity
  8
LAY-6
  6
CONTINUOUS
 62
     1
100
AcDbLine
 10
52.0
 20
85.000008
 30
0.0
 11
184.0
 21
85.000008
 31
0.0
  0
LINE
  5
48F
100
AcDbEntity
  8
LAY-6
  6
CONTINUOUS
 62
     1
100
AcDbLine
 10
54.0
 20
85.333341
 30
0.0
 11
52.0
 21
85.000008
 31
0.0
  0
LINE
  5
490
100
AcDbEntity
  8
LAY-6
  6
CONTINUOUS
 62
     1
100
AcDbLine
 10
52.0
 20
85.000008
 30
0.0
 11
54.0
 21
84.666675
 31
0.0
  0
LINE
  5
491
100
AcDbEntity
  8
LAY-6
  6
CONTINUOUS
 62
     1
100
AcDbLine
 10
182.0
 20
84.666675
 30
0.0
 11
184.0
 21
85.000008
 31
0.0
  0
LINE
  5
492
100
AcDbEntity
  8
LAY-6
  6
CONTINUOUS
 62
     1
100
AcDbLine
 10
184.0
 20
85.000008
 30
0.0
 11
182.0
 21
85.333341
 31
0.0
  0
LINE
  5
493
100
AcDbEntity
  8
LAY-6
  6
CONTINUOUS
 62
     1
100
AcDbLine
 10
184.0
 20
86.500008
 30
0.0
 11
184.0
 21
109.5
 31
0.0
  0
TEXT
  5
494
100
AcDbEntity
  8
LAY-6
  6
CONTINUOUS
 62
     2
100
AcDbText
 10
145.5
 20
95.500008
 30
0.0
 40
5.0
  1
６９
 41
0.672
  7
EXCADSTD
 72
     5
 11
152.8328
 21
95.500008
 31
0.0
100
AcDbText
  0
LINE
  5
495
100
AcDbEntity
  8
LAY-6
  6
CONTINUOUS
 62
     1
100
AcDbLine
 10
115.0
 20
95.000008
 30
0.0
 11
184.0
 21
95.000008
 31
0.0
  0
LINE
  5
496
100
AcDbEntity
  8
LAY-6
  6
CONTINUOUS
 62
     1
100
AcDbLine
 10
117.0
 20
95.333341
 30
0.0
 11
115.0
 21
95.000008
 31
0.0
  0
LINE
  5
497
100
AcDbEntity
  8
LAY-6
  6
CONTINUOUS
 62
     1
100
AcDbLine
 10
115.0
 20
95.000008
 30
0.0
 11
117.0
 21
94.666675
 31
0.0
  0
LINE
  5
498
100
AcDbEntity
  8
LAY-6
  6
CONTINUOUS
 62
     1
100
AcDbLine
 10
182.0
 20
94.666675
 30
0.0
 11
184.0
 21
95.000008
 31
0.0
  0
LINE
  5
499
100
AcDbEntity
  8
LAY-6
  6
CONTINUOUS
 62
     1
100
AcDbLine
 10
184.0
 20
95.000008
 30
0.0
 11
182.0
 21
95.333341
 31
0.0
  0
LINE
  5
49A
100
AcDbEntity
  8
LAY-6
  6
CONTINUOUS
 62
     1
100
AcDbLine
 10
386.0
 20
86.500008
 30
0.0
 11
386.0
 21
83.500008
 31
0.0
  0
TEXT
  5
49B
100
AcDbEntity
  8
LAY-6
  6
CONTINUOUS
 62
     2
100
AcDbText
 10
279.0
 20
85.500008
 30
0.0
 40
5.0
  1
２０２
 41
0.672
  7
EXCADSTD
 72
     5
 11
291.0
 21
85.500008
 31
0.0
100
AcDbText
  0
LINE
  5
49C
100
AcDbEntity
  8
LAY-6
  6
CONTINUOUS
 62
     1
100
AcDbLine
 10
184.0
 20
85.000008
 30
0.0
 11
386.0
 21
85.000008
 31
0.0
  0
LINE
  5
49D
100
AcDbEntity
  8
LAY-6
  6
CONTINUOUS
 62
     1
100
AcDbLine
 10
186.0
 20
85.333341
 30
0.0
 11
184.0
 21
85.000008
 31
0.0
  0
LINE
  5
49E
100
AcDbEntity
  8
LAY-6
  6
CONTINUOUS
 62
     1
100
AcDbLine
 10
184.0
 20
85.000008
 30
0.0
 11
186.0
 21
84.666675
 31
0.0
  0
LINE
  5
49F
100
AcDbEntity
  8
LAY-6
  6
CONTINUOUS
 62
     1
100
AcDbLine
 10
384.0
 20
84.666675
 30
0.0
 11
386.0
 21
85.000008
 31
0.0
  0
LINE
  5
4A0
100
AcDbEntity
  8
LAY-6
  6
CONTINUOUS
 62
     1
100
AcDbLine
 10
386.0
 20
85.000008
 30
0.0
 11
384.0
 21
85.333341
 31
0.0
  0
LINE
  5
4A1
100
AcDbEntity
  8
LAY-6
  6
CONTINUOUS
 62
     1
100
AcDbLine
 10
115.0
 20
101.9
 30
0.0
 11
115.0
 21
93.500008
 31
0.0
  0
TEXT
  5
4A2
100
AcDbEntity
  8
LAY-6
  6
CONTINUOUS
 62
     2
100
AcDbText
 10
79.5
 20
95.500008
 30
0.0
 40
5.0
  1
６３
 41
0.672
  7
EXCADSTD
 72
     5
 11
86.8328
 21
95.500008
 31
0.0
100
AcDbText
  0
LINE
  5
4A3
100
AcDbEntity
  8
LAY-6
  6
CONTINUOUS
 62
     1
100
AcDbLine
 10
52.0
 20
95.000008
 30
0.0
 11
115.0
 21
95.000008
 31
0.0
  0
LINE
  5
4A4
100
AcDbEntity
  8
LAY-6
  6
CONTINUOUS
 62
     1
100
AcDbLine
 10
54.0
 20
95.333341
 30
0.0
 11
52.0
 21
95.000008
 31
0.0
  0
LINE
  5
4A5
100
AcDbEntity
  8
LAY-6
  6
CONTINUOUS
 62
     1
100
AcDbLine
 10
52.0
 20
95.000008
 30
0.0
 11
54.0
 21
94.666675
 31
0.0
  0
LINE
  5
4A6
100
AcDbEntity
  8
LAY-6
  6
CONTINUOUS
 62
     1
100
AcDbLine
 10
113.0
 20
94.666675
 30
0.0
 11
115.0
 21
95.000008
 31
0.0
  0
LINE
  5
4A7
100
AcDbEntity
  8
LAY-6
  6
CONTINUOUS
 62
     1
100
AcDbLine
 10
115.0
 20
95.000008
 30
0.0
 11
113.0
 21
95.333341
 31
0.0
  0
LINE
  5
4A8
100
AcDbEntity
  8
LAY-6
  6
CONTINUOUS
 62
     1
100
AcDbLine
 10
52.0
 20
108.0
 30
0.0
 11
52.0
 21
93.500008
 31
0.0
  0
TEXT
  5
4A9
100
AcDbEntity
  8
LAY-6
  6
CONTINUOUS
 62
     2
100
AcDbText
 10
400.7
 20
156.600004
 30
0.0
 40
5.0
  1
１００
 50
90.0
 41
0.672
  7
EXCADSTD
 72
     5
 11
400.7
 21
168.600004
 31
0.0
100
AcDbText
  0
LINE
  5
4AA
100
AcDbEntity
  8
LAY-6
  6
CONTINUOUS
 62
     1
100
AcDbLine
 10
401.0
 20
210.0
 30
0.0
 11
401.0
 21
110.000008
 31
0.0
  0
LINE
  5
4AB
100
AcDbEntity
  8
LAY-6
  6
CONTINUOUS
 62
     1
100
AcDbLine
 10
401.333333
 20
208.0
 30
0.0
 11
401.0
 21
210.0
 31
0.0
  0
LINE
  5
4AC
100
AcDbEntity
  8
LAY-6
  6
CONTINUOUS
 62
     1
100
AcDbLine
 10
401.0
 20
210.0
 30
0.0
 11
400.666667
 21
208.0
 31
0.0
  0
LINE
  5
4AD
100
AcDbEntity
  8
LAY-6
  6
CONTINUOUS
 62
     1
100
AcDbLine
 10
400.666667
 20
112.000008
 30
0.0
 11
401.0
 21
110.000008
 31
0.0
  0
LINE
  5
4AE
100
AcDbEntity
  8
LAY-6
  6
CONTINUOUS
 62
     1
100
AcDbLine
 10
401.0
 20
110.000008
 30
0.0
 11
401.333333
 21
112.000008
 31
0.0
  0
LINE
  5
4AF
100
AcDbEntity
  8
LAY-6
  6
CONTINUOUS
 62
     1
100
AcDbLine
 10
388.0
 20
110.000008
 30
0.0
 11
402.5
 21
110.000008
 31
0.0
  0
LINE
  5
4B0
100
AcDbEntity
  8
LAY-6
  6
CONTINUOUS
 62
     1
100
AcDbLine
 10
388.0
 20
210.0
 30
0.0
 11
402.5
 21
210.0
 31
0.0
  0
LINE
  5
4B1
100
AcDbEntity
  8
LAY-6
  6
CONTINUOUS
 62
     1
100
AcDbLine
 10
95.0
 20
191.947952
 30
0.0
 11
95.0
 21
231.5
 31
0.0
  0
LINE
  5
4B2
100
AcDbEntity
  8
LAY-6
  6
CONTINUOUS
 62
     1
100
AcDbLine
 10
263.0
 20
171.0
 30
0.0
 11
263.0
 21
231.5
 31
0.0
  0
TEXT
  5
4B3
100
AcDbEntity
  8
LAY-6
  6
CONTINUOUS
 62
     2
100
AcDbText
 10
173.0
 20
230.5
 30
0.0
 40
5.0
  1
１６８
 41
0.672
  7
EXCADSTD
 72
     5
 11
185.0
 21
230.5
 31
0.0
100
AcDbText
  0
LINE
  5
4B4
100
AcDbEntity
  8
LAY-6
  6
CONTINUOUS
 62
     1
100
AcDbLine
 10
95.0
 20
230.0
 30
0.0
 11
263.0
 21
230.0
 31
0.0
  0
LINE
  5
4B5
100
AcDbEntity
  8
LAY-6
  6
CONTINUOUS
 62
     1
100
AcDbLine
 10
97.0
 20
230.333333
 30
0.0
 11
95.0
 21
230.0
 31
0.0
  0
LINE
  5
4B6
100
AcDbEntity
  8
LAY-6
  6
CONTINUOUS
 62
     1
100
AcDbLine
 10
95.0
 20
230.0
 30
0.0
 11
97.0
 21
229.666667
 31
0.0
  0
LINE
  5
4B7
100
AcDbEntity
  8
LAY-6
  6
CONTINUOUS
 62
     1
100
AcDbLine
 10
261.0
 20
229.666667
 30
0.0
 11
263.0
 21
230.0
 31
0.0
  0
LINE
  5
4B8
100
AcDbEntity
  8
LAY-6
  6
CONTINUOUS
 62
     1
100
AcDbLine
 10
263.0
 20
230.0
 30
0.0
 11
261.0
 21
230.333333
 31
0.0
  0
LINE
  5
4B9
100
AcDbEntity
  8
LAY-6
  6
CONTINUOUS
 62
     1
100
AcDbLine
 10
95.0
 20
171.0
 30
0.0
 11
95.0
 21
221.5
 31
0.0
  0
LINE
  5
4BA
100
AcDbEntity
  8
LAY-6
  6
CONTINUOUS
 62
     1
100
AcDbLine
 10
115.0
 20
176.347952
 30
0.0
 11
115.0
 21
221.5
 31
0.0
  0
TEXT
  5
4BB
100
AcDbEntity
  8
LAY-6
  6
CONTINUOUS
 62
     2
100
AcDbText
 10
101.0
 20
220.5
 30
0.0
 40
5.0
  1
２０
 41
0.672
  7
EXCADSTD
 72
     5
 11
108.3328
 21
220.5
 31
0.0
100
AcDbText
  0
LINE
  5
4BC
100
AcDbEntity
  8
LAY-6
  6
CONTINUOUS
 62
     1
100
AcDbLine
 10
95.0
 20
220.0
 30
0.0
 11
115.0
 21
220.0
 31
0.0
  0
LINE
  5
4BD
100
AcDbEntity
  8
LAY-6
  6
CONTINUOUS
 62
     1
100
AcDbLine
 10
97.0
 20
220.333333
 30
0.0
 11
95.0
 21
220.0
 31
0.0
  0
LINE
  5
4BE
100
AcDbEntity
  8
LAY-6
  6
CONTINUOUS
 62
     1
100
AcDbLine
 10
95.0
 20
220.0
 30
0.0
 11
97.0
 21
219.666667
 31
0.0
  0
LINE
  5
4BF
100
AcDbEntity
  8
LAY-6
  6
CONTINUOUS
 62
     1
100
AcDbLine
 10
113.0
 20
219.666667
 30
0.0
 11
115.0
 21
220.0
 31
0.0
  0
LINE
  5
4C0
100
AcDbEntity
  8
LAY-6
  6
CONTINUOUS
 62
     1
100
AcDbLine
 10
115.0
 20
220.0
 30
0.0
 11
113.0
 21
220.333333
 31
0.0
  0
TEXT
  5
4C1
100
AcDbEntity
  8
LAY-6
  6
CONTINUOUS
 62
     2
100
AcDbText
 10
124.25
 20
220.5
 30
0.0
 40
5.0
  1
３２.５
 41
0.616
  7
EXCADSTD
 72
     5
 11
138.25
 21
220.5
 31
0.0
100
AcDbText
  0
LINE
  5
4C2
100
AcDbEntity
  8
LAY-6
  6
CONTINUOUS
 62
     1
100
AcDbLine
 10
115.0
 20
220.0
 30
0.0
 11
147.5
 21
220.0
 31
0.0
  0
LINE
  5
4C3
100
AcDbEntity
  8
LAY-6
  6
CONTINUOUS
 62
     1
100
AcDbLine
 10
117.0
 20
220.333333
 30
0.0
 11
115.0
 21
220.0
 31
0.0
  0
LINE
  5
4C4
100
AcDbEntity
  8
LAY-6
  6
CONTINUOUS
 62
     1
100
AcDbLine
 10
115.0
 20
220.0
 30
0.0
 11
117.0
 21
219.666667
 31
0.0
  0
LINE
  5
4C5
100
AcDbEntity
  8
LAY-6
  6
CONTINUOUS
 62
     1
100
AcDbLine
 10
145.5
 20
219.666667
 30
0.0
 11
147.5
 21
220.0
 31
0.0
  0
LINE
  5
4C6
100
AcDbEntity
  8
LAY-6
  6
CONTINUOUS
 62
     1
100
AcDbLine
 10
147.5
 20
220.0
 30
0.0
 11
145.5
 21
220.333333
 31
0.0
  0
LINE
  5
4C7
100
AcDbEntity
  8
LAY-6
  6
CONTINUOUS
 62
     1
100
AcDbLine
 10
212.5
 20
161.0
 30
0.0
 11
212.5
 21
221.5
 31
0.0
  0
TEXT
  5
4C8
100
AcDbEntity
  8
LAY-6
  6
CONTINUOUS
 62
     2
100
AcDbText
 10
188.5
 20
220.5
 30
0.0
 40
5.0
  1
４０
 41
0.672
  7
EXCADSTD
 72
     5
 11
195.8328
 21
220.5
 31
0.0
100
AcDbText
  0
LINE
  5
4C9
100
AcDbEntity
  8
LAY-6
  6
CONTINUOUS
 62
     1
100
AcDbLine
 10
172.5
 20
220.0
 30
0.0
 11
212.5
 21
220.0
 31
0.0
  0
LINE
  5
4CA
100
AcDbEntity
  8
LAY-6
  6
CONTINUOUS
 62
     1
100
AcDbLine
 10
174.5
 20
220.333333
 30
0.0
 11
172.5
 21
220.0
 31
0.0
  0
LINE
  5
4CB
100
AcDbEntity
  8
LAY-6
  6
CONTINUOUS
 62
     1
100
AcDbLine
 10
172.5
 20
220.0
 30
0.0
 11
174.5
 21
219.666667
 31
0.0
  0
LINE
  5
4CC
100
AcDbEntity
  8
LAY-6
  6
CONTINUOUS
 62
     1
100
AcDbLine
 10
210.5
 20
219.666667
 30
0.0
 11
212.5
 21
220.0
 31
0.0
  0
LINE
  5
4CD
100
AcDbEntity
  8
LAY-6
  6
CONTINUOUS
 62
     1
100
AcDbLine
 10
212.5
 20
220.0
 30
0.0
 11
210.5
 21
220.333333
 31
0.0
  0
LINE
  5
4CE
100
AcDbEntity
  8
LAY-6
  6
CONTINUOUS
 62
     1
100
AcDbLine
 10
212.5
 20
160.5
 30
0.0
 11
212.5
 21
221.5
 31
0.0
  0
LINE
  5
4CF
100
AcDbEntity
  8
LAY-6
  6
CONTINUOUS
 62
     1
100
AcDbLine
 10
252.5
 20
172.0
 30
0.0
 11
252.5
 21
221.5
 31
0.0
  0
TEXT
  5
4D0
100
AcDbEntity
  8
LAY-6
  6
CONTINUOUS
 62
     2
100
AcDbText
 10
228.5
 20
220.5
 30
0.0
 40
5.0
  1
４０
 41
0.672
  7
EXCADSTD
 72
     5
 11
235.8328
 21
220.5
 31
0.0
100
AcDbText
  0
LINE
  5
4D1
100
AcDbEntity
  8
LAY-6
  6
CONTINUOUS
 62
     1
100
AcDbLine
 10
212.5
 20
220.0
 30
0.0
 11
252.5
 21
220.0
 31
0.0
  0
LINE
  5
4D2
100
AcDbEntity
  8
LAY-6
  6
CONTINUOUS
 62
     1
100
AcDbLine
 10
214.5
 20
220.333333
 30
0.0
 11
212.5
 21
220.0
 31
0.0
  0
LINE
  5
4D3
100
AcDbEntity
  8
LAY-6
  6
CONTINUOUS
 62
     1
100
AcDbLine
 10
212.5
 20
220.0
 30
0.0
 11
214.5
 21
219.666667
 31
0.0
  0
LINE
  5
4D4
100
AcDbEntity
  8
LAY-6
  6
CONTINUOUS
 62
     1
100
AcDbLine
 10
250.5
 20
219.666667
 30
0.0
 11
252.5
 21
220.0
 31
0.0
  0
LINE
  5
4D5
100
AcDbEntity
  8
LAY-6
  6
CONTINUOUS
 62
     1
100
AcDbLine
 10
252.5
 20
220.0
 30
0.0
 11
250.5
 21
220.333333
 31
0.0
  0
LINE
  5
4D6
100
AcDbEntity
  8
LAY-6
  6
CONTINUOUS
 62
     1
100
AcDbLine
 10
147.5
 20
161.4
 30
0.0
 11
147.5
 21
221.5
 31
0.0
  0
LINE
  5
4D7
100
AcDbEntity
  8
LAY-6
  6
CONTINUOUS
 62
     1
100
AcDbLine
 10
172.5
 20
172.0
 30
0.0
 11
172.5
 21
221.5
 31
0.0
  0
TEXT
  5
4D8
100
AcDbEntity
  8
LAY-6
  6
CONTINUOUS
 62
     2
100
AcDbText
 10
156.0
 20
220.5
 30
0.0
 40
5.0
  1
２５
 41
0.672
  7
EXCADSTD
 72
     5
 11
163.3328
 21
220.5
 31
0.0
100
AcDbText
  0
LINE
  5
4D9
100
AcDbEntity
  8
LAY-6
  6
CONTINUOUS
 62
     1
100
AcDbLine
 10
147.5
 20
220.0
 30
0.0
 11
172.5
 21
220.0
 31
0.0
  0
LINE
  5
4DA
100
AcDbEntity
  8
LAY-6
  6
CONTINUOUS
 62
     1
100
AcDbLine
 10
149.5
 20
220.333333
 30
0.0
 11
147.5
 21
220.0
 31
0.0
  0
LINE
  5
4DB
100
AcDbEntity
  8
LAY-6
  6
CONTINUOUS
 62
     1
100
AcDbLine
 10
147.5
 20
220.0
 30
0.0
 11
149.5
 21
219.666667
 31
0.0
  0
LINE
  5
4DC
100
AcDbEntity
  8
LAY-6
  6
CONTINUOUS
 62
     1
100
AcDbLine
 10
170.5
 20
219.666667
 30
0.0
 11
172.5
 21
220.0
 31
0.0
  0
LINE
  5
4DD
100
AcDbEntity
  8
LAY-6
  6
CONTINUOUS
 62
     1
100
AcDbLine
 10
172.5
 20
220.0
 30
0.0
 11
170.5
 21
220.333333
 31
0.0
  0
LINE
  5
4DE
100
AcDbEntity
  8
LAY-6
  6
CONTINUOUS
 62
     1
100
AcDbLine
 10
720.2
 20
248.999985
 30
0.0
 11
756.5
 21
248.999985
 31
0.0
  0
LINE
  5
4DF
100
AcDbEntity
  8
LAY-6
  6
CONTINUOUS
 62
     1
100
AcDbLine
 10
720.2
 20
252.0
 30
0.0
 11
756.5
 21
252.0
 31
0.0
  0
TEXT
  5
4E0
100
AcDbEntity
  8
LAY-6
  6
CONTINUOUS
 62
     2
100
AcDbText
 10
754.5
 20
242.599992
 30
0.0
 40
5.0
  1
３
 50
90.0
 41
0.672
  7
EXCADSTD
 72
     5
 11
754.5
 21
245.799992
 31
0.0
100
AcDbText
  0
LINE
  5
4E1
100
AcDbEntity
  8
LAY-6
  6
CONTINUOUS
 62
     1
100
AcDbLine
 10
755.0
 20
242.700005
 30
0.0
 11
755.0
 21
257.0
 31
0.0
  0
LINE
  5
4E2
100
AcDbEntity
  8
LAY-6
  6
CONTINUOUS
 62
     1
100
AcDbLine
 10
755.333333
 20
246.999985
 30
0.0
 11
755.0
 21
248.999985
 31
0.0
  0
LINE
  5
4E3
100
AcDbEntity
  8
LAY-6
  6
CONTINUOUS
 62
     1
100
AcDbLine
 10
755.0
 20
248.999985
 30
0.0
 11
754.666667
 21
246.999985
 31
0.0
  0
LINE
  5
4E4
100
AcDbEntity
  8
LAY-6
  6
CONTINUOUS
 62
     1
100
AcDbLine
 10
754.666667
 20
254.0
 30
0.0
 11
755.0
 21
252.0
 31
0.0
  0
LINE
  5
4E5
100
AcDbEntity
  8
LAY-6
  6
CONTINUOUS
 62
     1
100
AcDbLine
 10
755.0
 20
252.0
 30
0.0
 11
755.333333
 21
254.0
 31
0.0
  0
TEXT
  5
4E6
100
AcDbEntity
  8
LAY-6
  6
CONTINUOUS
 62
     2
100
AcDbText
 10
754.5
 20
271.5
 30
0.0
 40
5.0
  1
４７
 50
90.0
 41
0.672
  7
EXCADSTD
 72
     5
 11
754.5
 21
278.8328
 31
0.0
100
AcDbText
  0
LINE
  5
4E7
100
AcDbEntity
  8
LAY-6
  6
CONTINUOUS
 62
     1
100
AcDbLine
 10
726.5
 20
299.0
 30
0.0
 11
756.5
 21
299.0
 31
0.0
  0
LINE
  5
4E8
100
AcDbEntity
  8
LAY-6
  6
CONTINUOUS
 62
     1
100
AcDbLine
 10
755.0
 20
252.0
 30
0.0
 11
755.0
 21
299.0
 31
0.0
  0
LINE
  5
4E9
100
AcDbEntity
  8
LAY-6
  6
CONTINUOUS
 62
     1
100
AcDbLine
 10
754.666667
 20
254.0
 30
0.0
 11
755.0
 21
252.0
 31
0.0
  0
LINE
  5
4EA
100
AcDbEntity
  8
LAY-6
  6
CONTINUOUS
 62
     1
100
AcDbLine
 10
755.0
 20
252.0
 30
0.0
 11
755.333333
 21
254.0
 31
0.0
  0
LINE
  5
4EB
100
AcDbEntity
  8
LAY-6
  6
CONTINUOUS
 62
     1
100
AcDbLine
 10
755.333333
 20
297.0
 30
0.0
 11
755.0
 21
299.0
 31
0.0
  0
LINE
  5
4EC
100
AcDbEntity
  8
LAY-6
  6
CONTINUOUS
 62
     1
100
AcDbLine
 10
755.0
 20
299.0
 30
0.0
 11
754.666667
 21
297.0
 31
0.0
  0
TEXT
  5
4ED
100
AcDbEntity
  8
LAY-6
  6
CONTINUOUS
 62
     2
100
AcDbText
 10
754.5
 20
307.4
 30
0.0
 40
5.0
  1
１.０
 50
90.0
 41
0.595556
  7
EXCADSTD
 72
     5
 11
754.5
 21
317.4
 31
0.0
100
AcDbText
  0
TEXT
  5
4EE
100
AcDbEntity
  8
LAY-6
  6
CONTINUOUS
 62
     2
100
AcDbText
 10
754.5
 20
317.4
 30
0.0
 40
5.0
  1
ｔ
 50
90.0
 41
0.672
  7
EXCADSTD
 72
     5
 11
754.5
 21
320.6
 31
0.0
100
AcDbText
  0
LINE
  5
4EF
100
AcDbEntity
  8
LAY-6
  6
CONTINUOUS
 62
     1
100
AcDbLine
 10
726.5
 20
299.0
 30
0.0
 11
756.5
 21
299.0
 31
0.0
  0
LINE
  5
4F0
100
AcDbEntity
  8
LAY-6
  6
CONTINUOUS
 62
     1
100
AcDbLine
 10
726.5
 20
300.0
 30
0.0
 11
756.5
 21
300.0
 31
0.0
  0
LINE
  5
4F1
100
AcDbEntity
  8
LAY-6
  6
CONTINUOUS
 62
     1
100
AcDbLine
 10
755.0
 20
294.0
 30
0.0
 11
755.0
 21
320.700001
 31
0.0
  0
LINE
  5
4F2
100
AcDbEntity
  8
LAY-6
  6
CONTINUOUS
 62
     1
100
AcDbLine
 10
755.333333
 20
297.0
 30
0.0
 11
755.0
 21
299.0
 31
0.0
  0
LINE
  5
4F3
100
AcDbEntity
  8
LAY-6
  6
CONTINUOUS
 62
     1
100
AcDbLine
 10
755.0
 20
299.0
 30
0.0
 11
754.666667
 21
297.0
 31
0.0
  0
LINE
  5
4F4
100
AcDbEntity
  8
LAY-6
  6
CONTINUOUS
 62
     1
100
AcDbLine
 10
754.666667
 20
302.0
 30
0.0
 11
755.0
 21
300.0
 31
0.0
  0
LINE
  5
4F5
100
AcDbEntity
  8
LAY-6
  6
CONTINUOUS
 62
     1
100
AcDbLine
 10
755.0
 20
300.0
 30
0.0
 11
755.333333
 21
302.0
 31
0.0
  0
LINE
  5
4F6
100
AcDbEntity
  8
LAY-6
  6
CONTINUOUS
 62
     1
100
AcDbLine
 10
115.0
 20
281.6
 30
0.0
 11
115.0
 21
274.0
 31
0.0
  0
TEXT
  5
4F7
100
AcDbEntity
  8
LAY-6
  6
CONTINUOUS
 62
     2
100
AcDbText
 10
243.5
 20
276.0
 30
0.0
 40
5.0
  1
２６９
 41
0.672
  7
EXCADSTD
 72
     5
 11
255.5
 21
276.0
 31
0.0
100
AcDbText
  0
LINE
  5
4F8
100
AcDbEntity
  8
LAY-6
  6
CONTINUOUS
 62
     1
100
AcDbLine
 10
384.0
 20
275.5
 30
0.0
 11
115.0
 21
275.5
 31
0.0
  0
LINE
  5
4F9
100
AcDbEntity
  8
LAY-6
  6
CONTINUOUS
 62
     1
100
AcDbLine
 10
382.0
 20
275.166667
 30
0.0
 11
384.0
 21
275.5
 31
0.0
  0
LINE
  5
4FA
100
AcDbEntity
  8
LAY-6
  6
CONTINUOUS
 62
     1
100
AcDbLine
 10
384.0
 20
275.5
 30
0.0
 11
382.0
 21
275.833333
 31
0.0
  0
LINE
  5
4FB
100
AcDbEntity
  8
LAY-6
  6
CONTINUOUS
 62
     1
100
AcDbLine
 10
117.0
 20
275.833333
 30
0.0
 11
115.0
 21
275.5
 31
0.0
  0
LINE
  5
4FC
100
AcDbEntity
  8
LAY-6
  6
CONTINUOUS
 62
     1
100
AcDbLine
 10
115.0
 20
275.5
 30
0.0
 11
117.0
 21
275.166667
 31
0.0
  0
LINE
  5
4FD
100
AcDbEntity
  8
LAY-6
  6
CONTINUOUS
 62
     1
100
AcDbLine
 10
384.0
 20
296.0
 30
0.0
 11
384.0
 21
274.0
 31
0.0
  0
LINE
  5
4FE
100
AcDbEntity
  8
LAY-6
  6
CONTINUOUS
 62
     1
100
AcDbLine
 10
115.0
 20
288.5
 30
0.0
 11
115.0
 21
274.0
 31
0.0
  0
TEXT
  5
4FF
100
AcDbEntity
  8
LAY-6
  6
CONTINUOUS
 62
     2
100
AcDbText
 10
80.0
 20
276.0
 30
0.0
 40
5.0
  1
６２
 41
0.672
  7
EXCADSTD
 72
     5
 11
87.3328
 21
276.0
 31
0.0
100
AcDbText
  0
LINE
  5
500
100
AcDbEntity
  8
LAY-6
  6
CONTINUOUS
 62
     1
100
AcDbLine
 10
115.0
 20
275.5
 30
0.0
 11
53.0
 21
275.5
 31
0.0
  0
LINE
  5
501
100
AcDbEntity
  8
LAY-6
  6
CONTINUOUS
 62
     1
100
AcDbLine
 10
113.0
 20
275.166667
 30
0.0
 11
115.0
 21
275.5
 31
0.0
  0
LINE
  5
502
100
AcDbEntity
  8
LAY-6
  6
CONTINUOUS
 62
     1
100
AcDbLine
 10
115.0
 20
275.5
 30
0.0
 11
113.0
 21
275.833333
 31
0.0
  0
LINE
  5
503
100
AcDbEntity
  8
LAY-6
  6
CONTINUOUS
 62
     1
100
AcDbLine
 10
55.0
 20
275.833333
 30
0.0
 11
53.0
 21
275.5
 31
0.0
  0
LINE
  5
504
100
AcDbEntity
  8
LAY-6
  6
CONTINUOUS
 62
     1
100
AcDbLine
 10
53.0
 20
275.5
 30
0.0
 11
55.0
 21
275.166667
 31
0.0
  0
LINE
  5
505
100
AcDbEntity
  8
LAY-6
  6
CONTINUOUS
 62
     1
100
AcDbLine
 10
53.0
 20
296.0
 30
0.0
 11
53.0
 21
274.0
 31
0.0
  0
TEXT
  5
506
100
AcDbEntity
  8
LAY-6
  6
CONTINUOUS
 62
     2
100
AcDbText
 10
212.5
 20
266.0
 30
0.0
 40
5.0
  1
３３１
 41
0.672
  7
EXCADSTD
 72
     5
 11
224.5
 21
266.0
 31
0.0
100
AcDbText
  0
LINE
  5
507
100
AcDbEntity
  8
LAY-6
  6
CONTINUOUS
 62
     1
100
AcDbLine
 10
53.0
 20
265.5
 30
0.0
 11
384.0
 21
265.5
 31
0.0
  0
LINE
  5
508
100
AcDbEntity
  8
LAY-6
  6
CONTINUOUS
 62
     1
100
AcDbLine
 10
55.0
 20
265.833333
 30
0.0
 11
53.0
 21
265.5
 31
0.0
  0
LINE
  5
509
100
AcDbEntity
  8
LAY-6
  6
CONTINUOUS
 62
     1
100
AcDbLine
 10
53.0
 20
265.5
 30
0.0
 11
55.0
 21
265.166667
 31
0.0
  0
LINE
  5
50A
100
AcDbEntity
  8
LAY-6
  6
CONTINUOUS
 62
     1
100
AcDbLine
 10
382.0
 20
265.166667
 30
0.0
 11
384.0
 21
265.5
 31
0.0
  0
LINE
  5
50B
100
AcDbEntity
  8
LAY-6
  6
CONTINUOUS
 62
     1
100
AcDbLine
 10
384.0
 20
265.5
 30
0.0
 11
382.0
 21
265.833333
 31
0.0
  0
LINE
  5
50C
100
AcDbEntity
  8
LAY-6
  6
CONTINUOUS
 62
     1
100
AcDbLine
 10
384.0
 20
296.0
 30
0.0
 11
384.0
 21
264.0
 31
0.0
  0
LINE
  5
50D
100
AcDbEntity
  8
LAY-6
  6
CONTINUOUS
 62
     1
100
AcDbLine
 10
53.0
 20
296.0
 30
0.0
 11
53.0
 21
264.0
 31
0.0
  0
TEXT
  5
50E
100
AcDbEntity
  8
LAY-6
  6
CONTINUOUS
 62
     2
100
AcDbText
 10
667.0
 20
266.0
 30
0.0
 40
5.0
  1
９８.４
 41
0.616
  7
EXCADSTD
 72
     5
 11
681.0
 21
266.0
 31
0.0
100
AcDbText
  0
LINE
  5
50F
100
AcDbEntity
  8
LAY-6
  6
CONTINUOUS
 62
     1
100
AcDbLine
 10
724.2
 20
265.5
 30
0.0
 11
625.8
 21
265.5
 31
0.0
  0
LINE
  5
510
100
AcDbEntity
  8
LAY-6
  6
CONTINUOUS
 62
     1
100
AcDbLine
 10
722.2
 20
265.166667
 30
0.0
 11
724.2
 21
265.5
 31
0.0
  0
LINE
  5
511
100
AcDbEntity
  8
LAY-6
  6
CONTINUOUS
 62
     1
100
AcDbLine
 10
724.2
 20
265.5
 30
0.0
 11
722.2
 21
265.833333
 31
0.0
  0
LINE
  5
512
100
AcDbEntity
  8
LAY-6
  6
CONTINUOUS
 62
     1
100
AcDbLine
 10
627.8
 20
265.833333
 30
0.0
 11
625.8
 21
265.5
 31
0.0
  0
LINE
  5
513
100
AcDbEntity
  8
LAY-6
  6
CONTINUOUS
 62
     1
100
AcDbLine
 10
625.8
 20
265.5
 30
0.0
 11
627.8
 21
265.166667
 31
0.0
  0
LINE
  5
514
100
AcDbEntity
  8
LAY-6
  6
CONTINUOUS
 62
     1
100
AcDbLine
 10
625.8
 20
296.0
 30
0.0
 11
625.8
 21
264.0
 31
0.0
  0
LINE
  5
515
100
AcDbEntity
  8
LAY-6
  6
CONTINUOUS
 62
     1
100
AcDbLine
 10
724.2
 20
296.0
 30
0.0
 11
724.2
 21
264.0
 31
0.0
  0
POLYLINE
  5
516
100
AcDbEntity
  8
LAY-6
  6
CONTINUOUS
 62
     1
100
AcDb2dPolyline
 66
     1
 10
0.0
 20
0.0
 30
0.0
 70
   128
  0
VERTEX
  5
517
100
AcDbEntity
  8
LAY-6
  6
CONTINUOUS
 62
     1
100
AcDbVertex
100
AcDb2dVertex
 10
273.0
 20
334.5
 30
0.0
  0
VERTEX
  5
518
100
AcDbEntity
  8
LAY-6
  6
CONTINUOUS
 62
     1
100
AcDbVertex
100
AcDb2dVertex
 10
281.0645
 20
348.468123
 30
0.0
  0
VERTEX
  5
519
100
AcDbEntity
  8
LAY-6
  6
CONTINUOUS
 62
     1
100
AcDbVertex
100
AcDb2dVertex
 10
329.121313
 20
348.468123
 30
0.0
  0
SEQEND
  5
51A
100
AcDbEntity
  8
LAY-6
  6
CONTINUOUS
 62
     1
  0
LINE
  5
51B
100
AcDbEntity
  8
LAY-6
  6
CONTINUOUS
 62
     1
100
AcDbLine
 10
273.711325
 20
336.398717
 30
0.0
 11
273.0
 21
334.5
 31
0.0
  0
LINE
  5
51C
100
AcDbEntity
  8
LAY-6
  6
CONTINUOUS
 62
     1
100
AcDbLine
 10
273.0
 20
334.5
 30
0.0
 11
274.288675
 21
336.065384
 31
0.0
  0
TEXT
  5
51D
100
AcDbEntity
  8
LAY-6
  6
CONTINUOUS
 62
     2
100
AcDbText
 10
283.121313
 20
348.968123
 30
0.0
 40
5.0
  1
裏板４.５ｔ以上（別途）
 41
0.654222
  7
EXCADSTD
 72
     5
 11
329.121313
 21
348.968123
 31
0.0
100
AcDbText
  0
LINE
  5
51E
100
AcDbEntity
  8
LAY-6
  6
CONTINUOUS
 62
     1
100
AcDbLine
 10
644.0
 20
297.5
 30
0.0
 11
644.0
 21
284.0
 31
0.0
  0
LINE
  5
51F
100
AcDbEntity
  8
LAY-6
  6
CONTINUOUS
 62
     1
100
AcDbLine
 10
706.0
 20
297.5
 30
0.0
 11
706.0
 21
284.0
 31
0.0
  0
TEXT
  5
520
100
AcDbEntity
  8
LAY-6
  6
CONTINUOUS
 62
     2
100
AcDbText
 10
667.0
 20
286.0
 30
0.0
 40
5.0
  1
φ６２
 41
0.672
  7
EXCADSTD
 72
     5
 11
679.0
 21
286.0
 31
0.0
100
AcDbText
  0
LINE
  5
521
100
AcDbEntity
  8
LAY-6
  6
CONTINUOUS
 62
     1
100
AcDbLine
 10
644.0
 20
285.5
 30
0.0
 11
706.0
 21
285.5
 31
0.0
  0
LINE
  5
522
100
AcDbEntity
  8
LAY-6
  6
CONTINUOUS
 62
     1
100
AcDbLine
 10
646.0
 20
285.833333
 30
0.0
 11
644.0
 21
285.5
 31
0.0
  0
LINE
  5
523
100
AcDbEntity
  8
LAY-6
  6
CONTINUOUS
 62
     1
100
AcDbLine
 10
644.0
 20
285.5
 30
0.0
 11
646.0
 21
285.166667
 31
0.0
  0
LINE
  5
524
100
AcDbEntity
  8
LAY-6
  6
CONTINUOUS
 62
     1
100
AcDbLine
 10
704.0
 20
285.166667
 30
0.0
 11
706.0
 21
285.5
 31
0.0
  0
LINE
  5
525
100
AcDbEntity
  8
LAY-6
  6
CONTINUOUS
 62
     1
100
AcDbLine
 10
706.0
 20
285.5
 30
0.0
 11
704.0
 21
285.833333
 31
0.0
  0
TEXT
  5
526
100
AcDbEntity
  8
LAY-6
  6
CONTINUOUS
 62
     2
100
AcDbText
 10
667.0
 20
276.0
 30
0.0
 40
5.0
  1
９０.４
 41
0.616
  7
EXCADSTD
 72
     5
 11
681.0
 21
276.0
 31
0.0
100
AcDbText
  0
LINE
  5
527
100
AcDbEntity
  8
LAY-6
  6
CONTINUOUS
 62
     1
100
AcDbLine
 10
720.2
 20
275.5
 30
0.0
 11
629.8
 21
275.5
 31
0.0
  0
LINE
  5
528
100
AcDbEntity
  8
LAY-6
  6
CONTINUOUS
 62
     1
100
AcDbLine
 10
718.2
 20
275.166667
 30
0.0
 11
720.2
 21
275.5
 31
0.0
  0
LINE
  5
529
100
AcDbEntity
  8
LAY-6
  6
CONTINUOUS
 62
     1
100
AcDbLine
 10
720.2
 20
275.5
 30
0.0
 11
718.2
 21
275.833333
 31
0.0
  0
LINE
  5
52A
100
AcDbEntity
  8
LAY-6
  6
CONTINUOUS
 62
     1
100
AcDbLine
 10
631.8
 20
275.833333
 30
0.0
 11
629.8
 21
275.5
 31
0.0
  0
LINE
  5
52B
100
AcDbEntity
  8
LAY-6
  6
CONTINUOUS
 62
     1
100
AcDbLine
 10
629.8
 20
275.5
 30
0.0
 11
631.8
 21
275.166667
 31
0.0
  0
LINE
  5
52C
100
AcDbEntity
  8
LAY-6
  6
CONTINUOUS
 62
     1
100
AcDbLine
 10
629.8
 20
296.0
 30
0.0
 11
629.8
 21
274.0
 31
0.0
  0
LINE
  5
52D
100
AcDbEntity
  8
LAY-6
  6
CONTINUOUS
 62
     1
100
AcDbLine
 10
720.2
 20
296.0
 30
0.0
 11
720.2
 21
274.0
 31
0.0
  0
LINE
  5
52E
100
AcDbEntity
  8
LAY-6
  6
CONTINUOUS
 62
     1
100
AcDbLine
 10
641.0
 20
300.0
 30
0.0
 11
632.5
 21
300.0
 31
0.0
  0
TEXT
  5
52F
100
AcDbEntity
  8
LAY-6
  6
CONTINUOUS
 62
     2
100
AcDbText
 10
633.5
 20
301.5
 30
0.0
 40
5.0
  1
７
 50
90.0
 41
0.672
  7
EXCADSTD
 72
     5
 11
633.5
 21
304.7
 31
0.0
100
AcDbText
  0
LINE
  5
530
100
AcDbEntity
  8
LAY-6
  6
CONTINUOUS
 62
     1
100
AcDbLine
 10
643.5
 20
307.0
 30
0.0
 11
632.5
 21
307.0
 31
0.0
  0
LINE
  5
531
100
AcDbEntity
  8
LAY-6
  6
CONTINUOUS
 62
     1
100
AcDbLine
 10
634.0
 20
312.0
 30
0.0
 11
634.0
 21
295.0
 31
0.0
  0
LINE
  5
532
100
AcDbEntity
  8
LAY-6
  6
CONTINUOUS
 62
     1
100
AcDbLine
 10
633.666667
 20
309.0
 30
0.0
 11
634.0
 21
307.0
 31
0.0
  0
LINE
  5
533
100
AcDbEntity
  8
LAY-6
  6
CONTINUOUS
 62
     1
100
AcDbLine
 10
634.0
 20
307.0
 30
0.0
 11
634.333333
 21
309.0
 31
0.0
  0
LINE
  5
534
100
AcDbEntity
  8
LAY-6
  6
CONTINUOUS
 62
     1
100
AcDbLine
 10
634.333333
 20
298.0
 30
0.0
 11
634.0
 21
300.0
 31
0.0
  0
LINE
  5
535
100
AcDbEntity
  8
LAY-6
  6
CONTINUOUS
 62
     1
100
AcDbLine
 10
634.0
 20
300.0
 30
0.0
 11
633.666667
 21
298.0
 31
0.0
  0
TEXT
  5
536
100
AcDbEntity
  8
LAY-6
  6
CONTINUOUS
 62
     2
100
AcDbText
 10
573.0
 20
289.697937
 30
0.0
 40
6.0
  1
床　面
 41
0.672
  7
EXCADSTD
 72
     5
 11
587.400001
 21
289.697937
 31
0.0
100
AcDbText
  0
TEXT
  5
537
100
AcDbEntity
  8
LAY-6
  6
CONTINUOUS
 62
     2
100
AcDbText
 10
36.928156
 20
169.447937
 30
0.0
 40
6.0
  1
竪　枠
 41
0.8
  7
EXCADVERT
 72
     3
 11
36.928156
 21
151.447937
 31
0.0
100
AcDbText
  0
INSERT
  5
538
100
AcDbEntity
  8
LAY-6
  6
CONTINUOUS
 62
     0
100
AcDbBlockReference
  2
SYM-2
 10
753.461798
 20
305.941238
 30
0.0
 50
90.0
  0
TEXT
  5
539
100
AcDbEntity
  8
LAY-6
  6
CONTINUOUS
 62
     2
100
AcDbText
 10
431.078687
 20
166.147937
 30
0.0
 40
6.0
  1
ド　ア
 41
0.672
  7
EXCADSTD
 72
     5
 11
445.478688
 21
166.147937
 31
0.0
100
AcDbText
  0
INSERT
  5
53A
100
AcDbEntity
  8
LAY-6
  6
CONTINUOUS
 62
     0
100
AcDbBlockReference
  2
SYM-2
 10
399.700578
 20
155.105469
 30
0.0
 50
90.0
  0
INSERT
  5
53B
100
AcDbEntity
  8
LAY-6
  6
CONTINUOUS
 62
     0
100
AcDbBlockReference
  2
SYM-2
 10
211.278687
 20
76.447937
 30
0.0
  0
INSERT
  5
53C
100
AcDbEntity
  8
LAY-6
  6
CONTINUOUS
 62
     0
100
AcDbBlockReference
  2
SYM-2
 10
110.278687
 20
86.447937
 30
0.0
  0
INSERT
  5
53D
100
AcDbEntity
  8
LAY-6
  6
CONTINUOUS
 62
     0
100
AcDbBlockReference
  2
SYM-2
 10
277.178687
 20
86.447937
 30
0.0
  0
TEXT
  5
53E
100
AcDbEntity
  8
LAY-6
  6
CONTINUOUS
 62
     2
100
AcDbText
 10
335.478687
 20
286.747943
 30
0.0
 40
6.0
  1
セメントケース
 41
0.672
  7
EXCADSTD
 72
     5
 11
369.078688
 21
286.747943
 31
0.0
100
AcDbText
  0
TEXT
  5
53F
100
AcDbEntity
  8
LAY-6
  6
CONTINUOUS
 62
     2
100
AcDbText
 10
414.710979
 20
289.697937
 30
0.0
 40
6.0
  1
床　面
 41
0.672
  7
EXCADSTD
 72
     5
 11
429.11098
 21
289.697937
 31
0.0
100
AcDbText
  0
TEXT
  5
540
100
AcDbEntity
  8
LAY-6
  6
CONTINUOUS
 62
     2
100
AcDbText
 10
740.547581
 20
65.288526
 30
0.0
 40
10.0
  1
一方開きの場合
 41
0.672
  7
EXCADSTD
 72
     5
 11
796.547581
 21
65.288526
 31
0.0
100
AcDbText
  0
TEXT
  5
541
100
AcDbEntity
  8
LAY-6
  6
CONTINUOUS
 62
     2
100
AcDbText
 10
740.547581
 20
55.288526
 30
0.0
 40
10.0
  1
本図は左開きを示す。
 41
0.672
  7
EXCADSTD
 72
     5
 11
820.547581
 21
55.288526
 31
0.0
100
AcDbText
  0
LINE
  5
542
100
AcDbEntity
  8
LAY-6
  6
CONTINUOUS
 62
     1
100
AcDbLine
 10
52.0
 20
462.0
 30
0.0
 11
52.0
 21
457.499969
 31
0.0
  0
LINE
  5
543
100
AcDbEntity
  8
LAY-6
  6
CONTINUOUS
 62
     1
100
AcDbLine
 10
55.0
 20
461.5
 30
0.0
 11
55.0
 21
457.499969
 31
0.0
  0
TEXT
  5
544
100
AcDbEntity
  8
LAY-6
  6
CONTINUOUS
 62
     2
100
AcDbText
 10
45.54
 20
459.499969
 30
0.0
 40
5.0
  1
３
 41
0.672
  7
EXCADSTD
 72
     5
 11
48.74
 21
459.499969
 31
0.0
100
AcDbText
  0
LINE
  5
545
100
AcDbEntity
  8
LAY-6
  6
CONTINUOUS
 62
     1
100
AcDbLine
 10
45.56
 20
458.999969
 30
0.0
 11
55.0
 21
458.999969
 31
0.0
  0
LINE
  5
546
100
AcDbEntity
  8
LAY-6
  6
CONTINUOUS
 62
     1
100
AcDbLine
 10
50.0
 20
458.666636
 30
0.0
 11
52.0
 21
458.999969
 31
0.0
  0
LINE
  5
547
100
AcDbEntity
  8
LAY-6
  6
CONTINUOUS
 62
     1
100
AcDbLine
 10
52.0
 20
458.999969
 30
0.0
 11
50.0
 21
459.333302
 31
0.0
  0
LINE
  5
548
100
AcDbEntity
  8
LAY-6
  6
CONTINUOUS
 62
     1
100
AcDbLine
 10
115.0
 20
461.2
 30
0.0
 11
115.0
 21
457.499969
 31
0.0
  0
TEXT
  5
549
100
AcDbEntity
  8
LAY-6
  6
CONTINUOUS
 62
     2
100
AcDbText
 10
81.0
 20
459.499969
 30
0.0
 40
5.0
  1
６０
 41
0.672
  7
EXCADSTD
 72
     5
 11
88.3328
 21
459.499969
 31
0.0
100
AcDbText
  0
LINE
  5
54A
100
AcDbEntity
  8
LAY-6
  6
CONTINUOUS
 62
     1
100
AcDbLine
 10
55.0
 20
458.999969
 30
0.0
 11
115.0
 21
458.999969
 31
0.0
  0
LINE
  5
54B
100
AcDbEntity
  8
LAY-6
  6
CONTINUOUS
 62
     1
100
AcDbLine
 10
57.0
 20
459.333302
 30
0.0
 11
55.0
 21
458.999969
 31
0.0
  0
LINE
  5
54C
100
AcDbEntity
  8
LAY-6
  6
CONTINUOUS
 62
     1
100
AcDbLine
 10
55.0
 20
458.999969
 30
0.0
 11
57.0
 21
458.666636
 31
0.0
  0
LINE
  5
54D
100
AcDbEntity
  8
LAY-6
  6
CONTINUOUS
 62
     1
100
AcDbLine
 10
113.0
 20
458.666636
 30
0.0
 11
115.0
 21
458.999969
 31
0.0
  0
LINE
  5
54E
100
AcDbEntity
  8
LAY-6
  6
CONTINUOUS
 62
     1
100
AcDbLine
 10
115.0
 20
458.999969
 30
0.0
 11
113.0
 21
459.333302
 31
0.0
  0
TEXT
  5
54F
100
AcDbEntity
  8
LAY-6
  6
CONTINUOUS
 62
     2
100
AcDbText
 10
38.778687
 20
558.629028
 30
0.0
 40
6.0
  1
トップピボット
 41
0.672
  7
EXCADSTD
 72
     5
 11
72.378688
 21
558.629028
 31
0.0
100
AcDbText
  0
TEXT
  5
550
100
AcDbEntity
  8
LAY-6
  6
CONTINUOUS
 62
     2
100
AcDbText
 10
295.478687
 20
513.129028
 30
0.0
 40
6.0
  1
上 枠
 41
0.595556
  7
EXCADSTD
 72
     5
 11
307.478687
 21
513.129028
 31
0.0
100
AcDbText
  0
TEXT
  5
551
100
AcDbEntity
  8
LAY-6
  6
CONTINUOUS
 62
     2
100
AcDbText
 10
295.878687
 20
493.029028
 30
0.0
 40
6.0
  1
ド ア
 41
0.595556
  7
EXCADSTD
 72
     5
 11
307.878687
 21
493.029028
 31
0.0
100
AcDbText
  0
LINE
  5
552
100
AcDbEntity
  8
LAY-6
  6
CONTINUOUS
 62
     1
100
AcDbLine
 10
313.778687
 20
508.0
 30
0.0
 11
255.978687
 21
508.0
 31
0.0
  0
LINE
  5
553
100
AcDbEntity
  8
LAY-6
  6
CONTINUOUS
 62
     1
100
AcDbLine
 10
312.778687
 20
504.999969
 30
0.0
 11
250.0
 21
504.999969
 31
0.0
  0
TEXT
  5
554
100
AcDbEntity
  8
LAY-6
  6
CONTINUOUS
 62
     2
100
AcDbText
 10
40.178687
 20
501.429028
 30
0.0
 40
6.0
  1
竪　枠
 41
0.8
  7
EXCADVERT
 72
     3
 11
40.178687
 21
483.429028
 31
0.0
100
AcDbText
  0
TEXT
  5
555
100
AcDbEntity
  8
LAY-6
  6
CONTINUOUS
 62
     2
100
AcDbText
 10
667.89962
 20
432.463061
 30
0.0
 40
6.0
  1
ド　ア
 41
0.672
  7
EXCADSTD
 72
     5
 11
682.299621
 21
432.463061
 31
0.0
100
AcDbText
  0
INSERT
  5
556
100
AcDbEntity
  8
LAY-6
  6
CONTINUOUS
 62
     0
100
AcDbBlockReference
  2
SYM-2
 10
447.178687
 20
548.059082
 30
0.0
  0
TEXT
  5
557
100
AcDbEntity
  8
LAY-6
  6
CONTINUOUS
 62
     2
100
AcDbText
 10
335.778687
 20
557.9
 30
0.0
 40
6.0
  1
トップピボット（上枠側）
 41
0.672
  7
EXCADSTD
 72
     5
 11
393.378689
 21
557.9
 31
0.0
100
AcDbText
  0
INSERT
  5
558
100
AcDbEntity
  8
LAY-6
  6
CONTINUOUS
 62
     0
100
AcDbBlockReference
  2
SYM-2
 10
352.49029
 20
503.162191
 30
0.0
 50
90.0
  0
INSERT
  5
559
100
AcDbEntity
  8
LAY-6
  6
CONTINUOUS
 62
     0
100
AcDbBlockReference
  2
SYM-2
 10
565.116599
 20
555.62117
 30
0.0
  0
TEXT
  5
55A
100
AcDbEntity
  8
LAY-6
  6
CONTINUOUS
 62
     2
100
AcDbText
 10
692.027966
 20
89.266283
 30
0.0
 40
10.0
  1
一方開きには左右勝手があります。
 41
0.672
  7
EXCADSTD
 72
     5
 11
820.027966
 21
89.266283
 31
0.0
100
AcDbText
  0
TEXT
  5
55B
100
AcDbEntity
  8
LAY-6
  6
CONTINUOUS
 62
     2
100
AcDbText
 10
335.209157
 20
445.754575
 30
0.0
 40
6.0
  1
トップピボット（ドア側）
 41
0.672
  7
EXCADSTD
 72
     5
 11
392.809159
 21
445.754575
 31
0.0
100
AcDbText
  0
LINE
  5
55C
100
AcDbEntity
  8
LAY-9
  6
CONTINUOUS
 62
     1
100
AcDbLine
 10
664.053268
 20
330.0
 30
0.0
 11
668.553268
 21
334.5
 31
0.0
  0
LINE
  5
55D
100
AcDbEntity
  8
LAY-9
  6
CONTINUOUS
 62
     1
100
AcDbLine
 10
666.881695
 20
330.0
 30
0.0
 11
671.381695
 21
334.5
 31
0.0
  0
LINE
  5
55E
100
AcDbEntity
  8
LAY-9
  6
CONTINUOUS
 62
     1
100
AcDbLine
 10
683.852258
 20
330.0
 30
0.0
 11
688.352258
 21
334.5
 31
0.0
  0
LINE
  5
55F
100
AcDbEntity
  8
LAY-9
  6
CONTINUOUS
 62
     1
100
AcDbLine
 10
659.5
 20
334.432013
 30
0.0
 11
659.567987
 21
334.5
 31
0.0
  0
LINE
  5
560
100
AcDbEntity
  8
LAY-9
  6
CONTINUOUS
 62
     1
100
AcDbLine
 10
686.680685
 20
330.0
 30
0.0
 11
690.5
 21
333.819315
 31
0.0
  0
LINE
  5
561
100
AcDbEntity
  8
LAY-9
  6
CONTINUOUS
 62
     1
100
AcDbLine
 10
83.036961
 20
514.0
 30
0.0
 11
87.536961
 21
518.5
 31
0.0
  0
LINE
  5
562
100
AcDbEntity
  8
LAY-9
  6
CONTINUOUS
 62
     1
100
AcDbLine
 10
85.865388
 20
514.0
 30
0.0
 11
90.365388
 21
518.5
 31
0.0
  0
LINE
  5
563
100
AcDbEntity
  8
LAY-9
  6
CONTINUOUS
 62
     1
100
AcDbLine
 10
236.821232
 20
514.0
 30
0.0
 11
241.321232
 21
518.5
 31
0.0
  0
LINE
  5
564
100
AcDbEntity
  8
LAY-9
  6
CONTINUOUS
 62
     1
100
AcDbLine
 10
239.649659
 20
514.0
 30
0.0
 11
244.149659
 21
518.5
 31
0.0
  0
LINE
  5
565
100
AcDbEntity
  8
LAY-9
  6
CONTINUOUS
 62
     1
100
AcDbLine
 10
150.0
 20
494.499969
 30
0.0
 11
154.5
 21
498.999969
 31
0.0
  0
LINE
  5
566
100
AcDbEntity
  8
LAY-9
  6
CONTINUOUS
 62
     1
100
AcDbLine
 10
152.828427
 20
494.499969
 30
0.0
 11
157.328427
 21
498.999969
 31
0.0
  0
LINE
  5
567
100
AcDbEntity
  8
LAY-9
  6
CONTINUOUS
 62
     1
100
AcDbLine
 10
100.000016
 20
330.0
 30
0.0
 11
104.500016
 21
334.5
 31
0.0
  0
LINE
  5
568
100
AcDbEntity
  8
LAY-9
  6
CONTINUOUS
 62
     1
100
AcDbLine
 10
102.828443
 20
330.0
 30
0.0
 11
107.328443
 21
334.5
 31
0.0
  0
LINE
  5
569
100
AcDbEntity
  8
LAY-9
  6
CONTINUOUS
 62
     1
100
AcDbLine
 10
180.0
 20
494.499969
 30
0.0
 11
184.5
 21
498.999969
 31
0.0
  0
LINE
  5
56A
100
AcDbEntity
  8
LAY-9
  6
CONTINUOUS
 62
     1
100
AcDbLine
 10
182.828427
 20
494.499969
 30
0.0
 11
187.328427
 21
498.999969
 31
0.0
  0
LINE
  5
56B
100
AcDbEntity
  8
LAY-9
  6
CONTINUOUS
 62
     1
100
AcDbLine
 10
210.0
 20
494.499969
 30
0.0
 11
214.5
 21
498.999969
 31
0.0
  0
LINE
  5
56C
100
AcDbEntity
  8
LAY-9
  6
CONTINUOUS
 62
     1
100
AcDbLine
 10
212.828427
 20
494.499969
 30
0.0
 11
217.328427
 21
498.999969
 31
0.0
  0
LINE
  5
56D
100
AcDbEntity
  8
LAY-9
  6
CONTINUOUS
 62
     1
100
AcDbLine
 10
240.0
 20
494.499969
 30
0.0
 11
244.5
 21
498.999969
 31
0.0
  0
LINE
  5
56E
100
AcDbEntity
  8
LAY-9
  6
CONTINUOUS
 62
     1
100
AcDbLine
 10
242.828427
 20
494.499969
 30
0.0
 11
247.328427
 21
498.999969
 31
0.0
  0
LINE
  5
56F
100
AcDbEntity
  8
LAY-9
  6
CONTINUOUS
 62
     1
100
AcDbLine
 10
130.000016
 20
330.0
 30
0.0
 11
134.500016
 21
334.5
 31
0.0
  0
LINE
  5
570
100
AcDbEntity
  8
LAY-9
  6
CONTINUOUS
 62
     1
100
AcDbLine
 10
132.828443
 20
330.0
 30
0.0
 11
137.328443
 21
334.5
 31
0.0
  0
LINE
  5
571
100
AcDbEntity
  8
LAY-9
  6
CONTINUOUS
 62
     1
100
AcDbLine
 10
160.000016
 20
330.0
 30
0.0
 11
164.500016
 21
334.5
 31
0.0
  0
LINE
  5
572
100
AcDbEntity
  8
LAY-9
  6
CONTINUOUS
 62
     1
100
AcDbLine
 10
162.828443
 20
330.0
 30
0.0
 11
167.328443
 21
334.5
 31
0.0
  0
LINE
  5
573
100
AcDbEntity
  8
LAY-9
  6
CONTINUOUS
 62
     1
100
AcDbLine
 10
190.000016
 20
330.0
 30
0.0
 11
194.500016
 21
334.5
 31
0.0
  0
LINE
  5
574
100
AcDbEntity
  8
LAY-9
  6
CONTINUOUS
 62
     1
100
AcDbLine
 10
192.828443
 20
330.0
 30
0.0
 11
197.328443
 21
334.5
 31
0.0
  0
LINE
  5
575
100
AcDbEntity
  8
LAY-9
  6
CONTINUOUS
 62
     1
100
AcDbLine
 10
220.000016
 20
330.0
 30
0.0
 11
224.500016
 21
334.5
 31
0.0
  0
LINE
  5
576
100
AcDbEntity
  8
LAY-9
  6
CONTINUOUS
 62
     1
100
AcDbLine
 10
222.828443
 20
330.0
 30
0.0
 11
227.328443
 21
334.5
 31
0.0
  0
LINE
  5
577
100
AcDbEntity
  8
LAY-9
  6
CONTINUOUS
 62
     1
100
AcDbLine
 10
250.000016
 20
330.0
 30
0.0
 11
254.500016
 21
334.5
 31
0.0
  0
LINE
  5
578
100
AcDbEntity
  8
LAY-9
  6
CONTINUOUS
 62
     1
100
AcDbLine
 10
252.828443
 20
330.0
 30
0.0
 11
257.328443
 21
334.5
 31
0.0
  0
POLYLINE
  5
579
100
AcDbEntity
  8
LAY-9
  6
CONTINUOUS
 62
     1
100
AcDb2dPolyline
 66
     1
 10
0.0
 20
0.0
 30
0.0
 70
   128
  0
VERTEX
  5
57A
100
AcDbEntity
  8
LAY-9
  6
CONTINUOUS
 62
     1
100
AcDbVertex
100
AcDb2dVertex
 10
473.057389
 20
130.5
 30
0.0
  0
VERTEX
  5
57B
100
AcDbEntity
  8
LAY-9
  6
CONTINUOUS
 62
     1
100
AcDbVertex
100
AcDb2dVertex
 10
473.057389
 20
75.0
 30
0.0
  0
VERTEX
  5
57C
100
AcDbEntity
  8
LAY-9
  6
CONTINUOUS
 62
     1
100
AcDbVertex
100
AcDb2dVertex
 10
503.057389
 20
75.0
 30
0.0
  0
SEQEND
  5
57D
100
AcDbEntity
  8
LAY-9
  6
CONTINUOUS
 62
     1
  0
LINE
  5
57E
100
AcDbEntity
  8
LAY-9
  6
CONTINUOUS
 62
     1
100
AcDbLine
 10
473.390722
 20
128.5
 30
0.0
 11
473.057389
 21
130.5
 31
0.0
  0
LINE
  5
57F
100
AcDbEntity
  8
LAY-9
  6
CONTINUOUS
 62
     1
100
AcDbLine
 10
473.057389
 20
130.5
 30
0.0
 11
472.724056
 21
128.5
 31
0.0
  0
TEXT
  5
580
100
AcDbEntity
  8
LAY-9
  6
CONTINUOUS
 62
     2
100
AcDbText
 10
510.197581
 20
84.738526
 30
0.0
 40
10.0
  1
一方開き用ヒンジには押し代がついています。
 41
0.672
  7
EXCADSTD
 72
     5
 11
678.197581
 21
84.738526
 31
0.0
100
AcDbText
  0
TEXT
  5
581
100
AcDbEntity
  8
LAY-9
  6
CONTINUOUS
 62
     2
100
AcDbText
 10
510.197581
 20
74.738526
 30
0.0
 40
10.0
  1
ドアを閉めた時に、反対側へ５゜行き過ぎて
 41
0.672
  7
EXCADSTD
 72
     5
 11
670.197581
 21
74.738526
 31
0.0
100
AcDbText
  0
TEXT
  5
582
100
AcDbEntity
  8
LAY-9
  6
CONTINUOUS
 62
     2
100
AcDbText
 10
510.197581
 20
64.738526
 30
0.0
 40
10.0
  1
停止しますので、必ず戸当り（別途）を設置
 41
0.672
  7
EXCADSTD
 72
     5
 11
670.197581
 21
64.738526
 31
0.0
100
AcDbText
  0
TEXT
  5
583
100
AcDbEntity
  8
LAY-9
  6
CONTINUOUS
 62
     2
100
AcDbText
 10
510.197581
 20
54.738526
 30
0.0
 40
10.0
  1
して下さい。
 41
0.672
  7
EXCADSTD
 72
     5
 11
558.197581
 21
54.738526
 31
0.0
100
AcDbText
  0
LINE
  5
584
100
AcDbEntity
  8
LAY-9
  6
CONTINUOUS
 62
     1
100
AcDbLine
 10
55.0
 20
310.0
 30
0.0
 11
102.600022
 21
310.0
 31
0.0
  0
LINE
  5
585
100
AcDbEntity
  8
LAY-9
  6
CONTINUOUS
 62
     1
100
AcDbLine
 10
695.0
 20
310.0
 30
0.0
 11
693.4
 21
310.0
 31
0.0
  0
LINE
  5
586
100
AcDbEntity
  8
LAY-9
  6
CONTINUOUS
 62
     1
100
AcDbLine
 10
655.0
 20
310.0
 30
0.0
 11
656.6
 21
310.0
 31
0.0
  0
POLYLINE
  5
587
100
AcDbEntity
  8
LAY-9
  6
CONTINUOUS
 62
     1
100
AcDb2dPolyline
 66
     1
 10
0.0
 20
0.0
 30
0.0
 70
   128
  0
VERTEX
  5
588
100
AcDbEntity
  8
LAY-9
  6
CONTINUOUS
 62
     1
100
AcDbVertex
100
AcDb2dVertex
 10
566.250195
 20
300.0
 30
0.0
  0
VERTEX
  5
589
100
AcDbEntity
  8
LAY-9
  6
CONTINUOUS
 62
     1
100
AcDbVertex
100
AcDb2dVertex
 10
566.281983
 20
299.886996
 30
0.0
  0
VERTEX
  5
58A
100
AcDbEntity
  8
LAY-9
  6
CONTINUOUS
 62
     1
100
AcDbVertex
100
AcDb2dVertex
 10
566.369591
 20
299.566238
 30
0.0
  0
VERTEX
  5
58B
100
AcDbEntity
  8
LAY-9
  6
CONTINUOUS
 62
     1
100
AcDbVertex
100
AcDb2dVertex
 10
566.501384
 20
299.065103
 30
0.0
  0
VERTEX
  5
58C
100
AcDbEntity
  8
LAY-9
  6
CONTINUOUS
 62
     1
100
AcDbVertex
100
AcDb2dVertex
 10
566.665727
 20
298.410971
 30
0.0
  0
VERTEX
  5
58D
100
AcDbEntity
  8
LAY-9
  6
CONTINUOUS
 62
     1
100
AcDbVertex
100
AcDb2dVertex
 10
566.850986
 20
297.631221
 30
0.0
  0
VERTEX
  5
58E
100
AcDbEntity
  8
LAY-9
  6
CONTINUOUS
 62
     1
100
AcDbVertex
100
AcDb2dVertex
 10
567.045524
 20
296.75323
 30
0.0
  0
VERTEX
  5
58F
100
AcDbEntity
  8
LAY-9
  6
CONTINUOUS
 62
     1
100
AcDbVertex
100
AcDb2dVertex
 10
567.237707
 20
295.804379
 30
0.0
  0
VERTEX
  5
590
100
AcDbEntity
  8
LAY-9
  6
CONTINUOUS
 62
     1
100
AcDbVertex
100
AcDb2dVertex
 10
567.415901
 20
294.812045
 30
0.0
  0
VERTEX
  5
591
100
AcDbEntity
  8
LAY-9
  6
CONTINUOUS
 62
     1
100
AcDbVertex
100
AcDb2dVertex
 10
567.56847
 20
293.803607
 30
0.0
  0
VERTEX
  5
592
100
AcDbEntity
  8
LAY-9
  6
CONTINUOUS
 62
     1
100
AcDbVertex
100
AcDb2dVertex
 10
567.68378
 20
292.806445
 30
0.0
  0
VERTEX
  5
593
100
AcDbEntity
  8
LAY-9
  6
CONTINUOUS
 62
     1
100
AcDbVertex
100
AcDb2dVertex
 10
567.750195
 20
291.847937
 30
0.0
  0
VERTEX
  5
594
100
AcDbEntity
  8
LAY-9
  6
CONTINUOUS
 62
     1
100
AcDbVertex
100
AcDb2dVertex
 10
567.761649
 20
291.120181
 30
0.0
  0
VERTEX
  5
595
100
AcDbEntity
  8
LAY-9
  6
CONTINUOUS
 62
     1
100
AcDbVertex
100
AcDb2dVertex
 10
567.736308
 20
290.431344
 30
0.0
  0
VERTEX
  5
596
100
AcDbEntity
  8
LAY-9
  6
CONTINUOUS
 62
     1
100
AcDbVertex
100
AcDb2dVertex
 10
567.676585
 20
289.777576
 30
0.0
  0
VERTEX
  5
597
100
AcDbEntity
  8
LAY-9
  6
CONTINUOUS
 62
     1
100
AcDbVertex
100
AcDb2dVertex
 10
567.584887
 20
289.155027
 30
0.0
  0
VERTEX
  5
598
100
AcDbEntity
  8
LAY-9
  6
CONTINUOUS
 62
     1
100
AcDbVertex
100
AcDb2dVertex
 10
567.463626
 20
288.559847
 30
0.0
  0
VERTEX
  5
599
100
AcDbEntity
  8
LAY-9
  6
CONTINUOUS
 62
     1
100
AcDbVertex
100
AcDb2dVertex
 10
567.315211
 20
287.988187
 30
0.0
  0
VERTEX
  5
59A
100
AcDbEntity
  8
LAY-9
  6
CONTINUOUS
 62
     1
100
AcDbVertex
100
AcDb2dVertex
 10
567.142054
 20
287.436196
 30
0.0
  0
VERTEX
  5
59B
100
AcDbEntity
  8
LAY-9
  6
CONTINUOUS
 62
     1
100
AcDbVertex
100
AcDb2dVertex
 10
566.946563
 20
286.900026
 30
0.0
  0
VERTEX
  5
59C
100
AcDbEntity
  8
LAY-9
  6
CONTINUOUS
 62
     1
100
AcDbVertex
100
AcDb2dVertex
 10
566.73115
 20
286.375826
 30
0.0
  0
VERTEX
  5
59D
100
AcDbEntity
  8
LAY-9
  6
CONTINUOUS
 62
     1
100
AcDbVertex
100
AcDb2dVertex
 10
566.498224
 20
285.859746
 30
0.0
  0
VERTEX
  5
59E
100
AcDbEntity
  8
LAY-9
  6
CONTINUOUS
 62
     1
100
AcDbVertex
100
AcDb2dVertex
 10
566.250195
 20
285.347937
 30
0.0
  0
VERTEX
  5
59F
100
AcDbEntity
  8
LAY-9
  6
CONTINUOUS
 62
     1
100
AcDbVertex
100
AcDb2dVertex
 10
565.975993
 20
284.808704
 30
0.0
  0
VERTEX
  5
5A0
100
AcDbEntity
  8
LAY-9
  6
CONTINUOUS
 62
     1
100
AcDbVertex
100
AcDb2dVertex
 10
565.696735
 20
284.265875
 30
0.0
  0
VERTEX
  5
5A1
100
AcDbEntity
  8
LAY-9
  6
CONTINUOUS
 62
     1
100
AcDbVertex
100
AcDb2dVertex
 10
565.421477
 20
283.715384
 30
0.0
  0
VERTEX
  5
5A2
100
AcDbEntity
  8
LAY-9
  6
CONTINUOUS
 62
     1
100
AcDbVertex
100
AcDb2dVertex
 10
565.159276
 20
283.153169
 30
0.0
  0
VERTEX
  5
5A3
100
AcDbEntity
  8
LAY-9
  6
CONTINUOUS
 62
     1
100
AcDbVertex
100
AcDb2dVertex
 10
564.919188
 20
282.575163
 30
0.0
  0
VERTEX
  5
5A4
100
AcDbEntity
  8
LAY-9
  6
CONTINUOUS
 62
     1
100
AcDbVertex
100
AcDb2dVertex
 10
564.710269
 20
281.977303
 30
0.0
  0
VERTEX
  5
5A5
100
AcDbEntity
  8
LAY-9
  6
CONTINUOUS
 62
     1
100
AcDbVertex
100
AcDb2dVertex
 10
564.541576
 20
281.355525
 30
0.0
  0
VERTEX
  5
5A6
100
AcDbEntity
  8
LAY-9
  6
CONTINUOUS
 62
     1
100
AcDbVertex
100
AcDb2dVertex
 10
564.422166
 20
280.705764
 30
0.0
  0
VERTEX
  5
5A7
100
AcDbEntity
  8
LAY-9
  6
CONTINUOUS
 62
     1
100
AcDbVertex
100
AcDb2dVertex
 10
564.361095
 20
280.023955
 30
0.0
  0
VERTEX
  5
5A8
100
AcDbEntity
  8
LAY-9
  6
CONTINUOUS
 62
     1
100
AcDbVertex
100
AcDb2dVertex
 10
564.367419
 20
279.306034
 30
0.0
  0
VERTEX
  5
5A9
100
AcDbEntity
  8
LAY-9
  6
CONTINUOUS
 62
     1
100
AcDbVertex
100
AcDb2dVertex
 10
564.450195
 20
278.547937
 30
0.0
  0
VERTEX
  5
5AA
100
AcDbEntity
  8
LAY-9
  6
CONTINUOUS
 62
     1
100
AcDbVertex
100
AcDb2dVertex
 10
564.602967
 20
277.794629
 30
0.0
  0
VERTEX
  5
5AB
100
AcDbEntity
  8
LAY-9
  6
CONTINUOUS
 62
     1
100
AcDbVertex
100
AcDb2dVertex
 10
564.816296
 20
277.021166
 30
0.0
  0
VERTEX
  5
5AC
100
AcDbEntity
  8
LAY-9
  6
CONTINUOUS
 62
     1
100
AcDbVertex
100
AcDb2dVertex
 10
565.074359
 20
276.246909
 30
0.0
  0
VERTEX
  5
5AD
100
AcDbEntity
  8
LAY-9
  6
CONTINUOUS
 62
     1
100
AcDbVertex
100
AcDb2dVertex
 10
565.36133
 20
275.491223
 30
0.0
  0
VERTEX
  5
5AE
100
AcDbEntity
  8
LAY-9
  6
CONTINUOUS
 62
     1
100
AcDbVertex
100
AcDb2dVertex
 10
565.661382
 20
274.773471
 30
0.0
  0
VERTEX
  5
5AF
100
AcDbEntity
  8
LAY-9
  6
CONTINUOUS
 62
     1
100
AcDbVertex
100
AcDb2dVertex
 10
565.958691
 20
274.113017
 30
0.0
  0
VERTEX
  5
5B0
100
AcDbEntity
  8
LAY-9
  6
CONTINUOUS
 62
     1
100
AcDbVertex
100
AcDb2dVertex
 10
566.237431
 20
273.529224
 30
0.0
  0
VERTEX
  5
5B1
100
AcDbEntity
  8
LAY-9
  6
CONTINUOUS
 62
     1
100
AcDbVertex
100
AcDb2dVertex
 10
566.481777
 20
273.041456
 30
0.0
  0
VERTEX
  5
5B2
100
AcDbEntity
  8
LAY-9
  6
CONTINUOUS
 62
     1
100
AcDbVertex
100
AcDb2dVertex
 10
566.675903
 20
272.669077
 30
0.0
  0
VERTEX
  5
5B3
100
AcDbEntity
  8
LAY-9
  6
CONTINUOUS
 62
     1
100
AcDbVertex
100
AcDb2dVertex
 10
566.803985
 20
272.431449
 30
0.0
  0
VERTEX
  5
5B4
100
AcDbEntity
  8
LAY-9
  6
CONTINUOUS
 62
     1
100
AcDbVertex
100
AcDb2dVertex
 10
566.850195
 20
272.347937
 30
0.0
  0
SEQEND
  5
5B5
100
AcDbEntity
  8
LAY-9
  6
CONTINUOUS
 62
     1
  0
POLYLINE
  5
5B6
100
AcDbEntity
  8
LAY-9
  6
CONTINUOUS
 62
     1
100
AcDb2dPolyline
 66
     1
 10
0.0
 20
0.0
 30
0.0
 70
   128
  0
VERTEX
  5
5B7
100
AcDbEntity
  8
LAY-9
  6
CONTINUOUS
 62
     1
100
AcDbVertex
100
AcDb2dVertex
 10
791.450195
 20
300.0
 30
0.0
  0
VERTEX
  5
5B8
100
AcDbEntity
  8
LAY-9
  6
CONTINUOUS
 62
     1
100
AcDbVertex
100
AcDb2dVertex
 10
791.481983
 20
299.886996
 30
0.0
  0
VERTEX
  5
5B9
100
AcDbEntity
  8
LAY-9
  6
CONTINUOUS
 62
     1
100
AcDbVertex
100
AcDb2dVertex
 10
791.569591
 20
299.566238
 30
0.0
  0
VERTEX
  5
5BA
100
AcDbEntity
  8
LAY-9
  6
CONTINUOUS
 62
     1
100
AcDbVertex
100
AcDb2dVertex
 10
791.701384
 20
299.065103
 30
0.0
  0
VERTEX
  5
5BB
100
AcDbEntity
  8
LAY-9
  6
CONTINUOUS
 62
     1
100
AcDbVertex
100
AcDb2dVertex
 10
791.865727
 20
298.410971
 30
0.0
  0
VERTEX
  5
5BC
100
AcDbEntity
  8
LAY-9
  6
CONTINUOUS
 62
     1
100
AcDbVertex
100
AcDb2dVertex
 10
792.050986
 20
297.631221
 30
0.0
  0
VERTEX
  5
5BD
100
AcDbEntity
  8
LAY-9
  6
CONTINUOUS
 62
     1
100
AcDbVertex
100
AcDb2dVertex
 10
792.245524
 20
296.75323
 30
0.0
  0
VERTEX
  5
5BE
100
AcDbEntity
  8
LAY-9
  6
CONTINUOUS
 62
     1
100
AcDbVertex
100
AcDb2dVertex
 10
792.437707
 20
295.804379
 30
0.0
  0
VERTEX
  5
5BF
100
AcDbEntity
  8
LAY-9
  6
CONTINUOUS
 62
     1
100
AcDbVertex
100
AcDb2dVertex
 10
792.615901
 20
294.812045
 30
0.0
  0
VERTEX
  5
5C0
100
AcDbEntity
  8
LAY-9
  6
CONTINUOUS
 62
     1
100
AcDbVertex
100
AcDb2dVertex
 10
792.76847
 20
293.803607
 30
0.0
  0
VERTEX
  5
5C1
100
AcDbEntity
  8
LAY-9
  6
CONTINUOUS
 62
     1
100
AcDbVertex
100
AcDb2dVertex
 10
792.88378
 20
292.806445
 30
0.0
  0
VERTEX
  5
5C2
100
AcDbEntity
  8
LAY-9
  6
CONTINUOUS
 62
     1
100
AcDbVertex
100
AcDb2dVertex
 10
792.950195
 20
291.847937
 30
0.0
  0
VERTEX
  5
5C3
100
AcDbEntity
  8
LAY-9
  6
CONTINUOUS
 62
     1
100
AcDbVertex
100
AcDb2dVertex
 10
792.961649
 20
291.120181
 30
0.0
  0
VERTEX
  5
5C4
100
AcDbEntity
  8
LAY-9
  6
CONTINUOUS
 62
     1
100
AcDbVertex
100
AcDb2dVertex
 10
792.936308
 20
290.431344
 30
0.0
  0
VERTEX
  5
5C5
100
AcDbEntity
  8
LAY-9
  6
CONTINUOUS
 62
     1
100
AcDbVertex
100
AcDb2dVertex
 10
792.876585
 20
289.777576
 30
0.0
  0
VERTEX
  5
5C6
100
AcDbEntity
  8
LAY-9
  6
CONTINUOUS
 62
     1
100
AcDbVertex
100
AcDb2dVertex
 10
792.784887
 20
289.155027
 30
0.0
  0
VERTEX
  5
5C7
100
AcDbEntity
  8
LAY-9
  6
CONTINUOUS
 62
     1
100
AcDbVertex
100
AcDb2dVertex
 10
792.663626
 20
288.559847
 30
0.0
  0
VERTEX
  5
5C8
100
AcDbEntity
  8
LAY-9
  6
CONTINUOUS
 62
     1
100
AcDbVertex
100
AcDb2dVertex
 10
792.515211
 20
287.988187
 30
0.0
  0
VERTEX
  5
5C9
100
AcDbEntity
  8
LAY-9
  6
CONTINUOUS
 62
     1
100
AcDbVertex
100
AcDb2dVertex
 10
792.342054
 20
287.436196
 30
0.0
  0
VERTEX
  5
5CA
100
AcDbEntity
  8
LAY-9
  6
CONTINUOUS
 62
     1
100
AcDbVertex
100
AcDb2dVertex
 10
792.146563
 20
286.900026
 30
0.0
  0
VERTEX
  5
5CB
100
AcDbEntity
  8
LAY-9
  6
CONTINUOUS
 62
     1
100
AcDbVertex
100
AcDb2dVertex
 10
791.93115
 20
286.375826
 30
0.0
  0
VERTEX
  5
5CC
100
AcDbEntity
  8
LAY-9
  6
CONTINUOUS
 62
     1
100
AcDbVertex
100
AcDb2dVertex
 10
791.698224
 20
285.859746
 30
0.0
  0
VERTEX
  5
5CD
100
AcDbEntity
  8
LAY-9
  6
CONTINUOUS
 62
     1
100
AcDbVertex
100
AcDb2dVertex
 10
791.450195
 20
285.347937
 30
0.0
  0
VERTEX
  5
5CE
100
AcDbEntity
  8
LAY-9
  6
CONTINUOUS
 62
     1
100
AcDbVertex
100
AcDb2dVertex
 10
791.175993
 20
284.808704
 30
0.0
  0
VERTEX
  5
5CF
100
AcDbEntity
  8
LAY-9
  6
CONTINUOUS
 62
     1
100
AcDbVertex
100
AcDb2dVertex
 10
790.896735
 20
284.265875
 30
0.0
  0
VERTEX
  5
5D0
100
AcDbEntity
  8
LAY-9
  6
CONTINUOUS
 62
     1
100
AcDbVertex
100
AcDb2dVertex
 10
790.621477
 20
283.715384
 30
0.0
  0
VERTEX
  5
5D1
100
AcDbEntity
  8
LAY-9
  6
CONTINUOUS
 62
     1
100
AcDbVertex
100
AcDb2dVertex
 10
790.359276
 20
283.153169
 30
0.0
  0
VERTEX
  5
5D2
100
AcDbEntity
  8
LAY-9
  6
CONTINUOUS
 62
     1
100
AcDbVertex
100
AcDb2dVertex
 10
790.119188
 20
282.575163
 30
0.0
  0
VERTEX
  5
5D3
100
AcDbEntity
  8
LAY-9
  6
CONTINUOUS
 62
     1
100
AcDbVertex
100
AcDb2dVertex
 10
789.910269
 20
281.977303
 30
0.0
  0
VERTEX
  5
5D4
100
AcDbEntity
  8
LAY-9
  6
CONTINUOUS
 62
     1
100
AcDbVertex
100
AcDb2dVertex
 10
789.741576
 20
281.355525
 30
0.0
  0
VERTEX
  5
5D5
100
AcDbEntity
  8
LAY-9
  6
CONTINUOUS
 62
     1
100
AcDbVertex
100
AcDb2dVertex
 10
789.622166
 20
280.705764
 30
0.0
  0
VERTEX
  5
5D6
100
AcDbEntity
  8
LAY-9
  6
CONTINUOUS
 62
     1
100
AcDbVertex
100
AcDb2dVertex
 10
789.561095
 20
280.023955
 30
0.0
  0
VERTEX
  5
5D7
100
AcDbEntity
  8
LAY-9
  6
CONTINUOUS
 62
     1
100
AcDbVertex
100
AcDb2dVertex
 10
789.567419
 20
279.306034
 30
0.0
  0
VERTEX
  5
5D8
100
AcDbEntity
  8
LAY-9
  6
CONTINUOUS
 62
     1
100
AcDbVertex
100
AcDb2dVertex
 10
789.650195
 20
278.547937
 30
0.0
  0
VERTEX
  5
5D9
100
AcDbEntity
  8
LAY-9
  6
CONTINUOUS
 62
     1
100
AcDbVertex
100
AcDb2dVertex
 10
789.802967
 20
277.794629
 30
0.0
  0
VERTEX
  5
5DA
100
AcDbEntity
  8
LAY-9
  6
CONTINUOUS
 62
     1
100
AcDbVertex
100
AcDb2dVertex
 10
790.016296
 20
277.021166
 30
0.0
  0
VERTEX
  5
5DB
100
AcDbEntity
  8
LAY-9
  6
CONTINUOUS
 62
     1
100
AcDbVertex
100
AcDb2dVertex
 10
790.274359
 20
276.246909
 30
0.0
  0
VERTEX
  5
5DC
100
AcDbEntity
  8
LAY-9
  6
CONTINUOUS
 62
     1
100
AcDbVertex
100
AcDb2dVertex
 10
790.56133
 20
275.491223
 30
0.0
  0
VERTEX
  5
5DD
100
AcDbEntity
  8
LAY-9
  6
CONTINUOUS
 62
     1
100
AcDbVertex
100
AcDb2dVertex
 10
790.861382
 20
274.773471
 30
0.0
  0
VERTEX
  5
5DE
100
AcDbEntity
  8
LAY-9
  6
CONTINUOUS
 62
     1
100
AcDbVertex
100
AcDb2dVertex
 10
791.158691
 20
274.113017
 30
0.0
  0
VERTEX
  5
5DF
100
AcDbEntity
  8
LAY-9
  6
CONTINUOUS
 62
     1
100
AcDbVertex
100
AcDb2dVertex
 10
791.437431
 20
273.529224
 30
0.0
  0
VERTEX
  5
5E0
100
AcDbEntity
  8
LAY-9
  6
CONTINUOUS
 62
     1
100
AcDbVertex
100
AcDb2dVertex
 10
791.681777
 20
273.041456
 30
0.0
  0
VERTEX
  5
5E1
100
AcDbEntity
  8
LAY-9
  6
CONTINUOUS
 62
     1
100
AcDbVertex
100
AcDb2dVertex
 10
791.875903
 20
272.669077
 30
0.0
  0
VERTEX
  5
5E2
100
AcDbEntity
  8
LAY-9
  6
CONTINUOUS
 62
     1
100
AcDbVertex
100
AcDb2dVertex
 10
792.003985
 20
272.431449
 30
0.0
  0
VERTEX
  5
5E3
100
AcDbEntity
  8
LAY-9
  6
CONTINUOUS
 62
     1
100
AcDbVertex
100
AcDb2dVertex
 10
792.050195
 20
272.347937
 30
0.0
  0
SEQEND
  5
5E4
100
AcDbEntity
  8
LAY-9
  6
CONTINUOUS
 62
     1
  0
LINE
  5
5E5
100
AcDbEntity
  8
LAY-9
  6
CONTINUOUS
 62
     1
100
AcDbLine
 10
690.5
 20
334.5
 30
0.0
 11
690.5
 21
330.0
 31
0.0
  0
LINE
  5
5E6
100
AcDbEntity
  8
LAY-9
  6
CONTINUOUS
 62
     1
100
AcDbLine
 10
658.9
 20
334.499969
 30
0.0
 11
691.1
 21
334.499969
 31
0.0
  0
LINE
  5
5E7
100
AcDbEntity
  8
LAY-9
  6
CONTINUOUS
 62
     1
100
AcDbLine
 10
659.5
 20
334.5
 30
0.0
 11
659.5
 21
330.0
 31
0.0
  0
LINE
  5
5E8
100
AcDbEntity
  8
LAY-9
  6
CONTINUOUS
 62
     1
100
AcDbLine
 10
659.5
 20
330.0
 30
0.0
 11
690.5
 21
330.0
 31
0.0
  0
LINE
  5
5E9
100
AcDbEntity
  8
LAY-9
  6
CONTINUOUS
 62
     1
100
AcDbLine
 10
658.9
 20
336.799969
 30
0.0
 11
691.1
 21
336.799969
 31
0.0
  0
ARC
  5
5EA
100
AcDbEntity
  8
LAY-9
  6
CONTINUOUS
 62
     1
100
AcDbCircle
 10
658.9
 20
334.499969
 30
0.0
 40
2.3
100
AcDbArc
 50
90.0
 51
180.0
  0
ARC
  5
5EB
100
AcDbEntity
  8
LAY-9
  6
CONTINUOUS
 62
     1
100
AcDbCircle
 10
691.1
 20
334.499969
 30
0.0
 40
2.3
100
AcDbArc
 50
0.0
 51
90.0
  0
LINE
  5
5EC
100
AcDbEntity
  8
LAY-9
  6
CONTINUOUS
 62
     1
100
AcDbLine
 10
52.0
 20
208.4
 30
0.0
 11
52.0
 21
111.6
 31
0.0
  0
ARC
  5
5ED
100
AcDbEntity
  8
LAY-9
  6
CONTINUOUS
 62
     1
100
AcDbCircle
 10
50.4
 20
208.4
 30
0.0
 40
1.6
100
AcDbArc
 50
0.0
 51
90.0
  0
ARC
  5
5EE
100
AcDbEntity
  8
LAY-9
  6
CONTINUOUS
 62
     1
100
AcDbCircle
 10
50.4
 20
111.6
 30
0.0
 40
1.6
100
AcDbArc
 50
270.0
 51
0.0
  0
LINE
  5
5EF
100
AcDbEntity
  8
LAY-9
  6
CONTINUOUS
 62
     1
100
AcDbLine
 10
50.4
 20
208.4
 30
0.0
 11
50.4
 21
111.6
 31
0.0
  0
ARC
  5
5F0
100
AcDbEntity
  8
LAY-9
  6
CONTINUOUS
 62
     1
100
AcDbCircle
 10
115.0
 20
160.0
 30
0.0
 40
60.0
100
AcDbArc
 50
160.528779
 51
199.471221
  0
ARC
  5
5F1
100
AcDbEntity
  8
LAY-9
  6
CONTINUOUS
 62
     1
100
AcDbCircle
 10
115.0
 20
160.0
 30
0.0
 40
58.4
100
AcDbArc
 50
161.635051
 51
198.364949
  0
LINE
  5
5F2
100
AcDbEntity
  8
LAY-9
  6
CONTINUOUS
 62
     1
100
AcDbLine
 10
50.4
 20
210.0
 30
0.0
 11
27.0
 21
210.0
 31
0.0
  0
LINE
  5
5F3
100
AcDbEntity
  8
LAY-9
  6
CONTINUOUS
 62
     1
100
AcDbLine
 10
50.4
 20
110.0
 30
0.0
 11
27.0
 21
110.0
 31
0.0
  0
LINE
  5
5F4
100
AcDbEntity
  8
LAY-9
  6
CONTINUOUS
 62
     1
100
AcDbLine
 10
50.4
 20
111.6
 30
0.0
 11
27.0
 21
111.6
 31
0.0
  0
LINE
  5
5F5
100
AcDbEntity
  8
LAY-9
  6
CONTINUOUS
 62
     1
100
AcDbLine
 10
50.4
 20
208.4
 30
0.0
 11
27.0
 21
208.4
 31
0.0
  0
POLYLINE
  5
5F6
100
AcDbEntity
  8
LAY-9
  6
CONTINUOUS
 62
     1
100
AcDb2dPolyline
 66
     1
 10
0.0
 20
0.0
 30
0.0
 70
   128
  0
VERTEX
  5
5F7
100
AcDbEntity
  8
LAY-9
  6
CONTINUOUS
 62
     1
100
AcDbVertex
100
AcDb2dVertex
 10
415.478687
 20
180.0
 30
0.0
  0
VERTEX
  5
5F8
100
AcDbEntity
  8
LAY-9
  6
CONTINUOUS
 62
     1
100
AcDbVertex
100
AcDb2dVertex
 10
415.525678
 20
179.825481
 30
0.0
  0
VERTEX
  5
5F9
100
AcDbEntity
  8
LAY-9
  6
CONTINUOUS
 62
     1
100
AcDbVertex
100
AcDb2dVertex
 10
415.653804
 20
179.330898
 30
0.0
  0
VERTEX
  5
5FA
100
AcDbEntity
  8
LAY-9
  6
CONTINUOUS
 62
     1
100
AcDbVertex
100
AcDb2dVertex
 10
415.843797
 20
178.559713
 30
0.0
  0
VERTEX
  5
5FB
100
AcDbEntity
  8
LAY-9
  6
CONTINUOUS
 62
     1
100
AcDbVertex
100
AcDb2dVertex
 10
416.076388
 20
177.555387
 30
0.0
  0
VERTEX
  5
5FC
100
AcDbEntity
  8
LAY-9
  6
CONTINUOUS
 62
     1
100
AcDbVertex
100
AcDb2dVertex
 10
416.332309
 20
176.361382
 30
0.0
  0
VERTEX
  5
5FD
100
AcDbEntity
  8
LAY-9
  6
CONTINUOUS
 62
     1
100
AcDbVertex
100
AcDb2dVertex
 10
416.592289
 20
175.021159
 30
0.0
  0
VERTEX
  5
5FE
100
AcDbEntity
  8
LAY-9
  6
CONTINUOUS
 62
     1
100
AcDbVertex
100
AcDb2dVertex
 10
416.837061
 20
173.57818
 30
0.0
  0
VERTEX
  5
5FF
100
AcDbEntity
  8
LAY-9
  6
CONTINUOUS
 62
     1
100
AcDbVertex
100
AcDb2dVertex
 10
417.047356
 20
172.075907
 30
0.0
  0
VERTEX
  5
600
100
AcDbEntity
  8
LAY-9
  6
CONTINUOUS
 62
     1
100
AcDbVertex
100
AcDb2dVertex
 10
417.203904
 20
170.557801
 30
0.0
  0
VERTEX
  5
601
100
AcDbEntity
  8
LAY-9
  6
CONTINUOUS
 62
     1
100
AcDbVertex
100
AcDb2dVertex
 10
417.287438
 20
169.067324
 30
0.0
  0
VERTEX
  5
602
100
AcDbEntity
  8
LAY-9
  6
CONTINUOUS
 62
     1
100
AcDbVertex
100
AcDb2dVertex
 10
417.278687
 20
167.647937
 30
0.0
  0
VERTEX
  5
603
100
AcDbEntity
  8
LAY-9
  6
CONTINUOUS
 62
     1
100
AcDbVertex
100
AcDb2dVertex
 10
417.216524
 20
166.785062
 30
0.0
  0
VERTEX
  5
604
100
AcDbEntity
  8
LAY-9
  6
CONTINUOUS
 62
     1
100
AcDbVertex
100
AcDb2dVertex
 10
417.112888
 20
165.965855
 30
0.0
  0
VERTEX
  5
605
100
AcDbEntity
  8
LAY-9
  6
CONTINUOUS
 62
     1
100
AcDbVertex
100
AcDb2dVertex
 10
416.97302
 20
165.186011
 30
0.0
  0
VERTEX
  5
606
100
AcDbEntity
  8
LAY-9
  6
CONTINUOUS
 62
     1
100
AcDbVertex
100
AcDb2dVertex
 10
416.802161
 20
164.441228
 30
0.0
  0
VERTEX
  5
607
100
AcDbEntity
  8
LAY-9
  6
CONTINUOUS
 62
     1
100
AcDbVertex
100
AcDb2dVertex
 10
416.605553
 20
163.727202
 30
0.0
  0
VERTEX
  5
608
100
AcDbEntity
  8
LAY-9
  6
CONTINUOUS
 62
     1
100
AcDbVertex
100
AcDb2dVertex
 10
416.388437
 20
163.039628
 30
0.0
  0
VERTEX
  5
609
100
AcDbEntity
  8
LAY-9
  6
CONTINUOUS
 62
     1
100
AcDbVertex
100
AcDb2dVertex
 10
416.156054
 20
162.374205
 30
0.0
  0
VERTEX
  5
60A
100
AcDbEntity
  8
LAY-9
  6
CONTINUOUS
 62
     1
100
AcDbVertex
100
AcDb2dVertex
 10
415.913646
 20
161.726627
 30
0.0
  0
VERTEX
  5
60B
100
AcDbEntity
  8
LAY-9
  6
CONTINUOUS
 62
     1
100
AcDbVertex
100
AcDb2dVertex
 10
415.666455
 20
161.092593
 30
0.0
  0
VERTEX
  5
60C
100
AcDbEntity
  8
LAY-9
  6
CONTINUOUS
 62
     1
100
AcDbVertex
100
AcDb2dVertex
 10
415.419721
 20
160.467797
 30
0.0
  0
VERTEX
  5
60D
100
AcDbEntity
  8
LAY-9
  6
CONTINUOUS
 62
     1
100
AcDbVertex
100
AcDb2dVertex
 10
415.178687
 20
159.847937
 30
0.0
  0
VERTEX
  5
60E
100
AcDbEntity
  8
LAY-9
  6
CONTINUOUS
 62
     1
100
AcDbVertex
100
AcDb2dVertex
 10
414.851573
 20
158.959717
 30
0.0
  0
VERTEX
  5
60F
100
AcDbEntity
  8
LAY-9
  6
CONTINUOUS
 62
     1
100
AcDbVertex
100
AcDb2dVertex
 10
414.551329
 20
158.06461
 30
0.0
  0
VERTEX
  5
610
100
AcDbEntity
  8
LAY-9
  6
CONTINUOUS
 62
     1
100
AcDbVertex
100
AcDb2dVertex
 10
414.28232
 20
157.154429
 30
0.0
  0
VERTEX
  5
611
100
AcDbEntity
  8
LAY-9
  6
CONTINUOUS
 62
     1
100
AcDbVertex
100
AcDb2dVertex
 10
414.048913
 20
156.220988
 30
0.0
  0
VERTEX
  5
612
100
AcDbEntity
  8
LAY-9
  6
CONTINUOUS
 62
     1
100
AcDbVertex
100
AcDb2dVertex
 10
413.855474
 20
155.256101
 30
0.0
  0
VERTEX
  5
613
100
AcDbEntity
  8
LAY-9
  6
CONTINUOUS
 62
     1
100
AcDbVertex
100
AcDb2dVertex
 10
413.70637
 20
154.25158
 30
0.0
  0
VERTEX
  5
614
100
AcDbEntity
  8
LAY-9
  6
CONTINUOUS
 62
     1
100
AcDbVertex
100
AcDb2dVertex
 10
413.605967
 20
153.199239
 30
0.0
  0
VERTEX
  5
615
100
AcDbEntity
  8
LAY-9
  6
CONTINUOUS
 62
     1
100
AcDbVertex
100
AcDb2dVertex
 10
413.558631
 20
152.090891
 30
0.0
  0
VERTEX
  5
616
100
AcDbEntity
  8
LAY-9
  6
CONTINUOUS
 62
     1
100
AcDbVertex
100
AcDb2dVertex
 10
413.568728
 20
150.918349
 30
0.0
  0
VERTEX
  5
617
100
AcDbEntity
  8
LAY-9
  6
CONTINUOUS
 62
     1
100
AcDbVertex
100
AcDb2dVertex
 10
413.640625
 20
149.673426
 30
0.0
  0
VERTEX
  5
618
100
AcDbEntity
  8
LAY-9
  6
CONTINUOUS
 62
     1
100
AcDbVertex
100
AcDb2dVertex
 10
413.778687
 20
148.347937
 30
0.0
  0
VERTEX
  5
619
100
AcDbEntity
  8
LAY-9
  6
CONTINUOUS
 62
     1
100
AcDbVertex
100
AcDb2dVertex
 10
413.923179
 20
147.3218
 30
0.0
  0
VERTEX
  5
61A
100
AcDbEntity
  8
LAY-9
  6
CONTINUOUS
 62
     1
100
AcDbVertex
100
AcDb2dVertex
 10
414.096781
 20
146.273028
 30
0.0
  0
VERTEX
  5
61B
100
AcDbEntity
  8
LAY-9
  6
CONTINUOUS
 62
     1
100
AcDbVertex
100
AcDb2dVertex
 10
414.29046
 20
145.226981
 30
0.0
  0
VERTEX
  5
61C
100
AcDbEntity
  8
LAY-9
  6
CONTINUOUS
 62
     1
100
AcDbVertex
100
AcDb2dVertex
 10
414.495181
 20
144.20902
 30
0.0
  0
VERTEX
  5
61D
100
AcDbEntity
  8
LAY-9
  6
CONTINUOUS
 62
     1
100
AcDbVertex
100
AcDb2dVertex
 10
414.701914
 20
143.244506
 30
0.0
  0
VERTEX
  5
61E
100
AcDbEntity
  8
LAY-9
  6
CONTINUOUS
 62
     1
100
AcDbVertex
100
AcDb2dVertex
 10
414.901624
 20
142.358799
 30
0.0
  0
VERTEX
  5
61F
100
AcDbEntity
  8
LAY-9
  6
CONTINUOUS
 62
     1
100
AcDbVertex
100
AcDb2dVertex
 10
415.085279
 20
141.57726
 30
0.0
  0
VERTEX
  5
620
100
AcDbEntity
  8
LAY-9
  6
CONTINUOUS
 62
     1
100
AcDbVertex
100
AcDb2dVertex
 10
415.243846
 20
140.92525
 30
0.0
  0
VERTEX
  5
621
100
AcDbEntity
  8
LAY-9
  6
CONTINUOUS
 62
     1
100
AcDbVertex
100
AcDb2dVertex
 10
415.368291
 20
140.428129
 30
0.0
  0
VERTEX
  5
622
100
AcDbEntity
  8
LAY-9
  6
CONTINUOUS
 62
     1
100
AcDbVertex
100
AcDb2dVertex
 10
415.449583
 20
140.111259
 30
0.0
  0
VERTEX
  5
623
100
AcDbEntity
  8
LAY-9
  6
CONTINUOUS
 62
     1
100
AcDbVertex
100
AcDb2dVertex
 10
415.478687
 20
140.0
 30
0.0
  0
SEQEND
  5
624
100
AcDbEntity
  8
LAY-9
  6
CONTINUOUS
 62
     1
  0
ARC
  5
625
100
AcDbEntity
  8
LAY-9
  6
CONTINUOUS
 62
     1
100
AcDbCircle
 10
417.557389
 20
160.0
 30
0.0
 40
58.4
100
AcDbArc
 50
341.635051
 51
18.364949
  0
ARC
  5
626
100
AcDbEntity
  8
LAY-9
  6
CONTINUOUS
 62
     1
100
AcDbCircle
 10
417.557389
 20
160.0
 30
0.0
 40
60.0
100
AcDbArc
 50
340.528779
 51
19.471221
  0
LINE
  5
627
100
AcDbEntity
  8
LAY-9
  6
CONTINUOUS
 62
     1
100
AcDbLine
 10
415.478687
 20
180.0
 30
0.0
 11
474.125931
 21
180.0
 31
0.0
  0
LINE
  5
628
100
AcDbEntity
  8
LAY-9
  6
CONTINUOUS
 62
     1
100
AcDbLine
 10
415.880785
 20
178.4
 30
0.0
 11
472.983015
 21
178.4
 31
0.0
  0
LINE
  5
629
100
AcDbEntity
  8
LAY-9
  6
CONTINUOUS
 62
     1
100
AcDbLine
 10
472.983015
 20
141.6
 30
0.0
 11
415.079935
 21
141.6
 31
0.0
  0
LINE
  5
62A
100
AcDbEntity
  8
LAY-9
  6
CONTINUOUS
 62
     1
100
AcDbLine
 10
415.478687
 20
140.0
 30
0.0
 11
474.125931
 21
140.0
 31
0.0
  0
LINE
  5
62B
100
AcDbEntity
  8
LAY-9
  6
CONTINUOUS
 62
     1
100
AcDbLine
 10
482.157389
 20
208.400015
 30
0.0
 11
482.157389
 21
111.600015
 31
0.0
  0
ARC
  5
62C
100
AcDbEntity
  8
LAY-9
  6
CONTINUOUS
 62
     1
100
AcDbCircle
 10
482.157389
 20
208.400015
 30
0.0
 40
1.6
100
AcDbArc
 50
90.0
 51
180.0
  0
ARC
  5
62D
100
AcDbEntity
  8
LAY-9
  6
CONTINUOUS
 62
     1
100
AcDbCircle
 10
482.157389
 20
111.600015
 30
0.0
 40
1.6
100
AcDbArc
 50
180.0
 51
270.0
  0
LINE
  5
62E
100
AcDbEntity
  8
LAY-9
  6
CONTINUOUS
 62
     1
100
AcDbLine
 10
480.557389
 20
208.400015
 30
0.0
 11
480.557389
 21
111.600015
 31
0.0
  0
LINE
  5
62F
100
AcDbEntity
  8
LAY-9
  6
CONTINUOUS
 62
     1
100
AcDbLine
 10
482.157389
 20
208.400015
 30
0.0
 11
505.557389
 21
208.400015
 31
0.0
  0
LINE
  5
630
100
AcDbEntity
  8
LAY-9
  6
CONTINUOUS
 62
     1
100
AcDbLine
 10
482.157389
 20
210.000015
 30
0.0
 11
505.557389
 21
210.000015
 31
0.0
  0
LINE
  5
631
100
AcDbEntity
  8
LAY-9
  6
CONTINUOUS
 62
     1
100
AcDbLine
 10
482.157389
 20
110.000015
 30
0.0
 11
505.557389
 21
110.000015
 31
0.0
  0
LINE
  5
632
100
AcDbEntity
  8
LAY-9
  6
CONTINUOUS
 62
     1
100
AcDbLine
 10
482.157389
 20
111.600015
 30
0.0
 11
505.557389
 21
111.600015
 31
0.0
  0
LINE
  5
633
100
AcDbEntity
  8
LAY-9
  6
CONTINUOUS
 62
     1
100
AcDbLine
 10
58.431458
 20
180.0
 30
0.0
 11
371.238916
 21
180.0
 31
0.0
  0
LINE
  5
634
100
AcDbEntity
  8
LAY-9
  6
CONTINUOUS
 62
     1
100
AcDbLine
 10
58.431458
 20
140.0
 30
0.0
 11
371.238916
 21
140.0
 31
0.0
  0
LINE
  5
635
100
AcDbEntity
  8
LAY-9
  6
CONTINUOUS
 62
     1
100
AcDbLine
 10
59.574374
 20
141.6
 30
0.0
 11
370.877138
 21
141.6
 31
0.0
  0
LINE
  5
636
100
AcDbEntity
  8
LAY-9
  6
CONTINUOUS
 62
     1
100
AcDbLine
 10
371.93523
 20
178.4
 30
0.0
 11
59.574374
 21
178.4
 31
0.0
  0
POLYLINE
  5
637
100
AcDbEntity
  8
LAY-9
  6
CONTINUOUS
 62
     1
100
AcDb2dPolyline
 66
     1
 10
0.0
 20
0.0
 30
0.0
 70
   128
  0
VERTEX
  5
638
100
AcDbEntity
  8
LAY-9
  6
CONTINUOUS
 62
     1
100
AcDbVertex
100
AcDb2dVertex
 10
371.238916
 20
180.0
 30
0.0
  0
VERTEX
  5
639
100
AcDbEntity
  8
LAY-9
  6
CONTINUOUS
 62
     1
100
AcDbVertex
100
AcDb2dVertex
 10
371.292598
 20
179.849784
 30
0.0
  0
VERTEX
  5
63A
100
AcDbEntity
  8
LAY-9
  6
CONTINUOUS
 62
     1
100
AcDbVertex
100
AcDb2dVertex
 10
371.440436
 20
179.42335
 30
0.0
  0
VERTEX
  5
63B
100
AcDbEntity
  8
LAY-9
  6
CONTINUOUS
 62
     1
100
AcDbVertex
100
AcDb2dVertex
 10
371.662616
 20
178.757013
 30
0.0
  0
VERTEX
  5
63C
100
AcDbEntity
  8
LAY-9
  6
CONTINUOUS
 62
     1
100
AcDbVertex
100
AcDb2dVertex
 10
371.939328
 20
177.887092
 30
0.0
  0
VERTEX
  5
63D
100
AcDbEntity
  8
LAY-9
  6
CONTINUOUS
 62
     1
100
AcDbVertex
100
AcDb2dVertex
 10
372.250757
 20
176.849904
 30
0.0
  0
VERTEX
  5
63E
100
AcDbEntity
  8
LAY-9
  6
CONTINUOUS
 62
     1
100
AcDbVertex
100
AcDb2dVertex
 10
372.577093
 20
175.681766
 30
0.0
  0
VERTEX
  5
63F
100
AcDbEntity
  8
LAY-9
  6
CONTINUOUS
 62
     1
100
AcDbVertex
100
AcDb2dVertex
 10
372.898521
 20
174.418997
 30
0.0
  0
VERTEX
  5
640
100
AcDbEntity
  8
LAY-9
  6
CONTINUOUS
 62
     1
100
AcDbVertex
100
AcDb2dVertex
 10
373.19523
 20
173.097913
 30
0.0
  0
VERTEX
  5
641
100
AcDbEntity
  8
LAY-9
  6
CONTINUOUS
 62
     1
100
AcDbVertex
100
AcDb2dVertex
 10
373.447407
 20
171.754833
 30
0.0
  0
VERTEX
  5
642
100
AcDbEntity
  8
LAY-9
  6
CONTINUOUS
 62
     1
100
AcDbVertex
100
AcDb2dVertex
 10
373.63524
 20
170.426073
 30
0.0
  0
VERTEX
  5
643
100
AcDbEntity
  8
LAY-9
  6
CONTINUOUS
 62
     1
100
AcDbVertex
100
AcDb2dVertex
 10
373.738916
 20
169.147952
 30
0.0
  0
VERTEX
  5
644
100
AcDbEntity
  8
LAY-9
  6
CONTINUOUS
 62
     1
100
AcDbVertex
100
AcDb2dVertex
 10
373.751402
 20
168.213722
 30
0.0
  0
VERTEX
  5
645
100
AcDbEntity
  8
LAY-9
  6
CONTINUOUS
 62
     1
100
AcDbVertex
100
AcDb2dVertex
 10
373.707992
 20
167.327026
 30
0.0
  0
VERTEX
  5
646
100
AcDbEntity
  8
LAY-9
  6
CONTINUOUS
 62
     1
100
AcDbVertex
100
AcDb2dVertex
 10
373.614971
 20
166.483391
 30
0.0
  0
VERTEX
  5
647
100
AcDbEntity
  8
LAY-9
  6
CONTINUOUS
 62
     1
100
AcDbVertex
100
AcDb2dVertex
 10
373.478623
 20
165.678347
 30
0.0
  0
VERTEX
  5
648
100
AcDbEntity
  8
LAY-9
  6
CONTINUOUS
 62
     1
100
AcDbVertex
100
AcDb2dVertex
 10
373.305232
 20
164.907421
 30
0.0
  0
VERTEX
  5
649
100
AcDbEntity
  8
LAY-9
  6
CONTINUOUS
 62
     1
100
AcDbVertex
100
AcDb2dVertex
 10
373.101083
 20
164.166142
 30
0.0
  0
VERTEX
  5
64A
100
AcDbEntity
  8
LAY-9
  6
CONTINUOUS
 62
     1
100
AcDbVertex
100
AcDb2dVertex
 10
372.87246
 20
163.45004
 30
0.0
  0
VERTEX
  5
64B
100
AcDbEntity
  8
LAY-9
  6
CONTINUOUS
 62
     1
100
AcDbVertex
100
AcDb2dVertex
 10
372.625647
 20
162.754641
 30
0.0
  0
VERTEX
  5
64C
100
AcDbEntity
  8
LAY-9
  6
CONTINUOUS
 62
     1
100
AcDbVertex
100
AcDb2dVertex
 10
372.366929
 20
162.075474
 30
0.0
  0
VERTEX
  5
64D
100
AcDbEntity
  8
LAY-9
  6
CONTINUOUS
 62
     1
100
AcDbVertex
100
AcDb2dVertex
 10
372.102591
 20
161.408068
 30
0.0
  0
VERTEX
  5
64E
100
AcDbEntity
  8
LAY-9
  6
CONTINUOUS
 62
     1
100
AcDbVertex
100
AcDb2dVertex
 10
371.838916
 20
160.747952
 30
0.0
  0
VERTEX
  5
64F
100
AcDbEntity
  8
LAY-9
  6
CONTINUOUS
 62
     1
100
AcDbVertex
100
AcDb2dVertex
 10
371.469133
 20
159.797213
 30
0.0
  0
VERTEX
  5
650
100
AcDbEntity
  8
LAY-9
  6
CONTINUOUS
 62
     1
100
AcDbVertex
100
AcDb2dVertex
 10
371.119659
 20
158.842526
 30
0.0
  0
VERTEX
  5
651
100
AcDbEntity
  8
LAY-9
  6
CONTINUOUS
 62
     1
100
AcDbVertex
100
AcDb2dVertex
 10
370.796255
 20
157.874045
 30
0.0
  0
VERTEX
  5
652
100
AcDbEntity
  8
LAY-9
  6
CONTINUOUS
 62
     1
100
AcDbVertex
100
AcDb2dVertex
 10
370.504683
 20
156.881923
 30
0.0
  0
VERTEX
  5
653
100
AcDbEntity
  8
LAY-9
  6
CONTINUOUS
 62
     1
100
AcDbVertex
100
AcDb2dVertex
 10
370.250704
 20
155.856311
 30
0.0
  0
VERTEX
  5
654
100
AcDbEntity
  8
LAY-9
  6
CONTINUOUS
 62
     1
100
AcDbVertex
100
AcDb2dVertex
 10
370.040078
 20
154.787364
 30
0.0
  0
VERTEX
  5
655
100
AcDbEntity
  8
LAY-9
  6
CONTINUOUS
 62
     1
100
AcDbVertex
100
AcDb2dVertex
 10
369.878569
 20
153.665235
 30
0.0
  0
VERTEX
  5
656
100
AcDbEntity
  8
LAY-9
  6
CONTINUOUS
 62
     1
100
AcDbVertex
100
AcDb2dVertex
 10
369.771936
 20
152.480076
 30
0.0
  0
VERTEX
  5
657
100
AcDbEntity
  8
LAY-9
  6
CONTINUOUS
 62
     1
100
AcDbVertex
100
AcDb2dVertex
 10
369.725942
 20
151.222041
 30
0.0
  0
VERTEX
  5
658
100
AcDbEntity
  8
LAY-9
  6
CONTINUOUS
 62
     1
100
AcDbVertex
100
AcDb2dVertex
 10
369.746349
 20
149.881282
 30
0.0
  0
VERTEX
  5
659
100
AcDbEntity
  8
LAY-9
  6
CONTINUOUS
 62
     1
100
AcDbVertex
100
AcDb2dVertex
 10
369.838916
 20
148.447952
 30
0.0
  0
VERTEX
  5
65A
100
AcDbEntity
  8
LAY-9
  6
CONTINUOUS
 62
     1
100
AcDbVertex
100
AcDb2dVertex
 10
369.945674
 20
147.409045
 30
0.0
  0
VERTEX
  5
65B
100
AcDbEntity
  8
LAY-9
  6
CONTINUOUS
 62
     1
100
AcDbVertex
100
AcDb2dVertex
 10
370.081054
 20
146.347412
 30
0.0
  0
VERTEX
  5
65C
100
AcDbEntity
  8
LAY-9
  6
CONTINUOUS
 62
     1
100
AcDbVertex
100
AcDb2dVertex
 10
370.236883
 20
145.288689
 30
0.0
  0
VERTEX
  5
65D
100
AcDbEntity
  8
LAY-9
  6
CONTINUOUS
 62
     1
100
AcDbVertex
100
AcDb2dVertex
 10
370.404988
 20
144.258513
 30
0.0
  0
VERTEX
  5
65E
100
AcDbEntity
  8
LAY-9
  6
CONTINUOUS
 62
     1
100
AcDbVertex
100
AcDb2dVertex
 10
370.577196
 20
143.282519
 30
0.0
  0
VERTEX
  5
65F
100
AcDbEntity
  8
LAY-9
  6
CONTINUOUS
 62
     1
100
AcDbVertex
100
AcDb2dVertex
 10
370.745334
 20
142.386344
 30
0.0
  0
VERTEX
  5
660
100
AcDbEntity
  8
LAY-9
  6
CONTINUOUS
 62
     1
100
AcDbVertex
100
AcDb2dVertex
 10
370.901229
 20
141.595623
 30
0.0
  0
VERTEX
  5
661
100
AcDbEntity
  8
LAY-9
  6
CONTINUOUS
 62
     1
100
AcDbVertex
100
AcDb2dVertex
 10
371.036707
 20
140.935992
 30
0.0
  0
VERTEX
  5
662
100
AcDbEntity
  8
LAY-9
  6
CONTINUOUS
 62
     1
100
AcDbVertex
100
AcDb2dVertex
 10
371.143597
 20
140.433087
 30
0.0
  0
VERTEX
  5
663
100
AcDbEntity
  8
LAY-9
  6
CONTINUOUS
 62
     1
100
AcDbVertex
100
AcDb2dVertex
 10
371.213724
 20
140.112544
 30
0.0
  0
VERTEX
  5
664
100
AcDbEntity
  8
LAY-9
  6
CONTINUOUS
 62
     1
100
AcDbVertex
100
AcDb2dVertex
 10
371.238916
 20
140.0
 30
0.0
  0
SEQEND
  5
665
100
AcDbEntity
  8
LAY-9
  6
CONTINUOUS
 62
     1
  0
POLYLINE
  5
666
100
AcDbEntity
  8
LAY-9
  6
CONTINUOUS
 62
     1
100
AcDb2dPolyline
 66
     1
 10
0.0
 20
0.0
 30
0.0
 70
   128
  0
VERTEX
  5
667
100
AcDbEntity
  8
LAY-9
  6
CONTINUOUS
 62
     1
100
AcDbVertex
100
AcDb2dVertex
 10
438.778687
 20
310.0
 30
0.0
  0
VERTEX
  5
668
100
AcDbEntity
  8
LAY-9
  6
CONTINUOUS
 62
     1
100
AcDbVertex
100
AcDb2dVertex
 10
438.688967
 20
310.136896
 30
0.0
  0
VERTEX
  5
669
100
AcDbEntity
  8
LAY-9
  6
CONTINUOUS
 62
     1
100
AcDbVertex
100
AcDb2dVertex
 10
438.442473
 20
310.525215
 30
0.0
  0
VERTEX
  5
66A
100
AcDbEntity
  8
LAY-9
  6
CONTINUOUS
 62
     1
100
AcDbVertex
100
AcDb2dVertex
 10
438.073201
 20
311.131405
 30
0.0
  0
VERTEX
  5
66B
100
AcDbEntity
  8
LAY-9
  6
CONTINUOUS
 62
     1
100
AcDbVertex
100
AcDb2dVertex
 10
437.615148
 20
311.921912
 30
0.0
  0
VERTEX
  5
66C
100
AcDbEntity
  8
LAY-9
  6
CONTINUOUS
 62
     1
100
AcDbVertex
100
AcDb2dVertex
 10
437.102313
 20
312.863185
 30
0.0
  0
VERTEX
  5
66D
100
AcDbEntity
  8
LAY-9
  6
CONTINUOUS
 62
     1
100
AcDbVertex
100
AcDb2dVertex
 10
436.568691
 20
313.92167
 30
0.0
  0
VERTEX
  5
66E
100
AcDbEntity
  8
LAY-9
  6
CONTINUOUS
 62
     1
100
AcDbVertex
100
AcDb2dVertex
 10
436.048279
 20
315.063815
 30
0.0
  0
VERTEX
  5
66F
100
AcDbEntity
  8
LAY-9
  6
CONTINUOUS
 62
     1
100
AcDbVertex
100
AcDb2dVertex
 10
435.575076
 20
316.256067
 30
0.0
  0
VERTEX
  5
670
100
AcDbEntity
  8
LAY-9
  6
CONTINUOUS
 62
     1
100
AcDbVertex
100
AcDb2dVertex
 10
435.183079
 20
317.464873
 30
0.0
  0
VERTEX
  5
671
100
AcDbEntity
  8
LAY-9
  6
CONTINUOUS
 62
     1
100
AcDbVertex
100
AcDb2dVertex
 10
434.906283
 20
318.656681
 30
0.0
  0
VERTEX
  5
672
100
AcDbEntity
  8
LAY-9
  6
CONTINUOUS
 62
     1
100
AcDbVertex
100
AcDb2dVertex
 10
434.778687
 20
319.797937
 30
0.0
  0
VERTEX
  5
673
100
AcDbEntity
  8
LAY-9
  6
CONTINUOUS
 62
     1
100
AcDbVertex
100
AcDb2dVertex
 10
434.802721
 20
320.668009
 30
0.0
  0
VERTEX
  5
674
100
AcDbEntity
  8
LAY-9
  6
CONTINUOUS
 62
     1
100
AcDbVertex
100
AcDb2dVertex
 10
434.932452
 20
321.488468
 30
0.0
  0
VERTEX
  5
675
100
AcDbEntity
  8
LAY-9
  6
CONTINUOUS
 62
     1
100
AcDbVertex
100
AcDb2dVertex
 10
435.152864
 20
322.26512
 30
0.0
  0
VERTEX
  5
676
100
AcDbEntity
  8
LAY-9
  6
CONTINUOUS
 62
     1
100
AcDbVertex
100
AcDb2dVertex
 10
435.44894
 20
323.00377
 30
0.0
  0
VERTEX
  5
677
100
AcDbEntity
  8
LAY-9
  6
CONTINUOUS
 62
     1
100
AcDbVertex
100
AcDb2dVertex
 10
435.805664
 20
323.710224
 30
0.0
  0
VERTEX
  5
678
100
AcDbEntity
  8
LAY-9
  6
CONTINUOUS
 62
     1
100
AcDbVertex
100
AcDb2dVertex
 10
436.208019
 20
324.390286
 30
0.0
  0
VERTEX
  5
679
100
AcDbEntity
  8
LAY-9
  6
CONTINUOUS
 62
     1
100
AcDbVertex
100
AcDb2dVertex
 10
436.640989
 20
325.049764
 30
0.0
  0
VERTEX
  5
67A
100
AcDbEntity
  8
LAY-9
  6
CONTINUOUS
 62
     1
100
AcDbVertex
100
AcDb2dVertex
 10
437.089558
 20
325.694463
 30
0.0
  0
VERTEX
  5
67B
100
AcDbEntity
  8
LAY-9
  6
CONTINUOUS
 62
     1
100
AcDbVertex
100
AcDb2dVertex
 10
437.538708
 20
326.330187
 30
0.0
  0
VERTEX
  5
67C
100
AcDbEntity
  8
LAY-9
  6
CONTINUOUS
 62
     1
100
AcDbVertex
100
AcDb2dVertex
 10
437.973423
 20
326.962743
 30
0.0
  0
VERTEX
  5
67D
100
AcDbEntity
  8
LAY-9
  6
CONTINUOUS
 62
     1
100
AcDbVertex
100
AcDb2dVertex
 10
438.378687
 20
327.597937
 30
0.0
  0
VERTEX
  5
67E
100
AcDbEntity
  8
LAY-9
  6
CONTINUOUS
 62
     1
100
AcDbVertex
100
AcDb2dVertex
 10
438.79088
 20
328.334033
 30
0.0
  0
VERTEX
  5
67F
100
AcDbEntity
  8
LAY-9
  6
CONTINUOUS
 62
     1
100
AcDbVertex
100
AcDb2dVertex
 10
439.147967
 20
329.085307
 30
0.0
  0
VERTEX
  5
680
100
AcDbEntity
  8
LAY-9
  6
CONTINUOUS
 62
     1
100
AcDbVertex
100
AcDb2dVertex
 10
439.452957
 20
329.855899
 30
0.0
  0
VERTEX
  5
681
100
AcDbEntity
  8
LAY-9
  6
CONTINUOUS
 62
     1
100
AcDbVertex
100
AcDb2dVertex
 10
439.708861
 20
330.649954
 30
0.0
  0
VERTEX
  5
682
100
AcDbEntity
  8
LAY-9
  6
CONTINUOUS
 62
     1
100
AcDbVertex
100
AcDb2dVertex
 10
439.91869
 20
331.471612
 30
0.0
  0
VERTEX
  5
683
100
AcDbEntity
  8
LAY-9
  6
CONTINUOUS
 62
     1
100
AcDbVertex
100
AcDb2dVertex
 10
440.085455
 20
332.325018
 30
0.0
  0
VERTEX
  5
684
100
AcDbEntity
  8
LAY-9
  6
CONTINUOUS
 62
     1
100
AcDbVertex
100
AcDb2dVertex
 10
440.212166
 20
333.214312
 30
0.0
  0
VERTEX
  5
685
100
AcDbEntity
  8
LAY-9
  6
CONTINUOUS
 62
     1
100
AcDbVertex
100
AcDb2dVertex
 10
440.301834
 20
334.143637
 30
0.0
  0
VERTEX
  5
686
100
AcDbEntity
  8
LAY-9
  6
CONTINUOUS
 62
     1
100
AcDbVertex
100
AcDb2dVertex
 10
440.35747
 20
335.117137
 30
0.0
  0
VERTEX
  5
687
100
AcDbEntity
  8
LAY-9
  6
CONTINUOUS
 62
     1
100
AcDbVertex
100
AcDb2dVertex
 10
440.382084
 20
336.138952
 30
0.0
  0
VERTEX
  5
688
100
AcDbEntity
  8
LAY-9
  6
CONTINUOUS
 62
     1
100
AcDbVertex
100
AcDb2dVertex
 10
440.378687
 20
337.213226
 30
0.0
  0
VERTEX
  5
689
100
AcDbEntity
  8
LAY-9
  6
CONTINUOUS
 62
     1
100
AcDbVertex
100
AcDb2dVertex
 10
440.328203
 20
338.910625
 30
0.0
  0
VERTEX
  5
68A
100
AcDbEntity
  8
LAY-9
  6
CONTINUOUS
 62
     1
100
AcDbVertex
100
AcDb2dVertex
 10
440.232655
 20
340.683811
 30
0.0
  0
VERTEX
  5
68B
100
AcDbEntity
  8
LAY-9
  6
CONTINUOUS
 62
     1
100
AcDbVertex
100
AcDb2dVertex
 10
440.102551
 20
342.482753
 30
0.0
  0
VERTEX
  5
68C
100
AcDbEntity
  8
LAY-9
  6
CONTINUOUS
 62
     1
100
AcDbVertex
100
AcDb2dVertex
 10
439.9484
 20
344.257422
 30
0.0
  0
VERTEX
  5
68D
100
AcDbEntity
  8
LAY-9
  6
CONTINUOUS
 62
     1
100
AcDbVertex
100
AcDb2dVertex
 10
439.780708
 20
345.957787
 30
0.0
  0
VERTEX
  5
68E
100
AcDbEntity
  8
LAY-9
  6
CONTINUOUS
 62
     1
100
AcDbVertex
100
AcDb2dVertex
 10
439.609986
 20
347.53382
 30
0.0
  0
VERTEX
  5
68F
100
AcDbEntity
  8
LAY-9
  6
CONTINUOUS
 62
     1
100
AcDbVertex
100
AcDb2dVertex
 10
439.44674
 20
348.935489
 30
0.0
  0
VERTEX
  5
690
100
AcDbEntity
  8
LAY-9
  6
CONTINUOUS
 62
     1
100
AcDbVertex
100
AcDb2dVertex
 10
439.301479
 20
350.112765
 30
0.0
  0
VERTEX
  5
691
100
AcDbEntity
  8
LAY-9
  6
CONTINUOUS
 62
     1
100
AcDbVertex
100
AcDb2dVertex
 10
439.184711
 20
351.015618
 30
0.0
  0
VERTEX
  5
692
100
AcDbEntity
  8
LAY-9
  6
CONTINUOUS
 62
     1
100
AcDbVertex
100
AcDb2dVertex
 10
439.106944
 20
351.594019
 30
0.0
  0
VERTEX
  5
693
100
AcDbEntity
  8
LAY-9
  6
CONTINUOUS
 62
     1
100
AcDbVertex
100
AcDb2dVertex
 10
439.078687
 20
351.797937
 30
0.0
  0
SEQEND
  5
694
100
AcDbEntity
  8
LAY-9
  6
CONTINUOUS
 62
     1
  0
POLYLINE
  5
695
100
AcDbEntity
  8
LAY-9
  6
CONTINUOUS
 62
     1
100
AcDb2dPolyline
 66
     1
 10
0.0
 20
0.0
 30
0.0
 70
   128
  0
VERTEX
  5
696
100
AcDbEntity
  8
LAY-9
  6
CONTINUOUS
 62
     1
100
AcDbVertex
100
AcDb2dVertex
 10
437.778687
 20
300.0
 30
0.0
  0
VERTEX
  5
697
100
AcDbEntity
  8
LAY-9
  6
CONTINUOUS
 62
     1
100
AcDbVertex
100
AcDb2dVertex
 10
437.854727
 20
299.853947
 30
0.0
  0
VERTEX
  5
698
100
AcDbEntity
  8
LAY-9
  6
CONTINUOUS
 62
     1
100
AcDbVertex
100
AcDb2dVertex
 10
438.063342
 20
299.439822
 30
0.0
  0
VERTEX
  5
699
100
AcDbEntity
  8
LAY-9
  6
CONTINUOUS
 62
     1
100
AcDbVertex
100
AcDb2dVertex
 10
438.375269
 20
298.793676
 30
0.0
  0
VERTEX
  5
69A
100
AcDbEntity
  8
LAY-9
  6
CONTINUOUS
 62
     1
100
AcDbVertex
100
AcDb2dVertex
 10
438.761249
 20
297.951561
 30
0.0
  0
VERTEX
  5
69B
100
AcDbEntity
  8
LAY-9
  6
CONTINUOUS
 62
     1
100
AcDbVertex
100
AcDb2dVertex
 10
439.192021
 20
296.949528
 30
0.0
  0
VERTEX
  5
69C
100
AcDbEntity
  8
LAY-9
  6
CONTINUOUS
 62
     1
100
AcDbVertex
100
AcDb2dVertex
 10
439.638324
 20
295.823629
 30
0.0
  0
VERTEX
  5
69D
100
AcDbEntity
  8
LAY-9
  6
CONTINUOUS
 62
     1
100
AcDbVertex
100
AcDb2dVertex
 10
440.070898
 20
294.609914
 30
0.0
  0
VERTEX
  5
69E
100
AcDbEntity
  8
LAY-9
  6
CONTINUOUS
 62
     1
100
AcDbVertex
100
AcDb2dVertex
 10
440.460482
 20
293.344437
 30
0.0
  0
VERTEX
  5
69F
100
AcDbEntity
  8
LAY-9
  6
CONTINUOUS
 62
     1
100
AcDbVertex
100
AcDb2dVertex
 10
440.777815
 20
292.063247
 30
0.0
  0
VERTEX
  5
6A0
100
AcDbEntity
  8
LAY-9
  6
CONTINUOUS
 62
     1
100
AcDbVertex
100
AcDb2dVertex
 10
440.993637
 20
290.802397
 30
0.0
  0
VERTEX
  5
6A1
100
AcDbEntity
  8
LAY-9
  6
CONTINUOUS
 62
     1
100
AcDbVertex
100
AcDb2dVertex
 10
441.078687
 20
289.597937
 30
0.0
  0
VERTEX
  5
6A2
100
AcDbEntity
  8
LAY-9
  6
CONTINUOUS
 62
     1
100
AcDbVertex
100
AcDb2dVertex
 10
441.039147
 20
288.712027
 30
0.0
  0
VERTEX
  5
6A3
100
AcDbEntity
  8
LAY-9
  6
CONTINUOUS
 62
     1
100
AcDbVertex
100
AcDb2dVertex
 10
440.91271
 20
287.877176
 30
0.0
  0
VERTEX
  5
6A4
100
AcDbEntity
  8
LAY-9
  6
CONTINUOUS
 62
     1
100
AcDbVertex
100
AcDb2dVertex
 10
440.710979
 20
287.087546
 30
0.0
  0
VERTEX
  5
6A5
100
AcDbEntity
  8
LAY-9
  6
CONTINUOUS
 62
     1
100
AcDbVertex
100
AcDb2dVertex
 10
440.445554
 20
286.337299
 30
0.0
  0
VERTEX
  5
6A6
100
AcDbEntity
  8
LAY-9
  6
CONTINUOUS
 62
     1
100
AcDbVertex
100
AcDb2dVertex
 10
440.128038
 20
285.620599
 30
0.0
  0
VERTEX
  5
6A7
100
AcDbEntity
  8
LAY-9
  6
CONTINUOUS
 62
     1
100
AcDbVertex
100
AcDb2dVertex
 10
439.770031
 20
284.931606
 30
0.0
  0
VERTEX
  5
6A8
100
AcDbEntity
  8
LAY-9
  6
CONTINUOUS
 62
     1
100
AcDbVertex
100
AcDb2dVertex
 10
439.383134
 20
284.264483
 30
0.0
  0
VERTEX
  5
6A9
100
AcDbEntity
  8
LAY-9
  6
CONTINUOUS
 62
     1
100
AcDbVertex
100
AcDb2dVertex
 10
438.97895
 20
283.613393
 30
0.0
  0
VERTEX
  5
6AA
100
AcDbEntity
  8
LAY-9
  6
CONTINUOUS
 62
     1
100
AcDbVertex
100
AcDb2dVertex
 10
438.56908
 20
282.972497
 30
0.0
  0
VERTEX
  5
6AB
100
AcDbEntity
  8
LAY-9
  6
CONTINUOUS
 62
     1
100
AcDbVertex
100
AcDb2dVertex
 10
438.165125
 20
282.335957
 30
0.0
  0
VERTEX
  5
6AC
100
AcDbEntity
  8
LAY-9
  6
CONTINUOUS
 62
     1
100
AcDbVertex
100
AcDb2dVertex
 10
437.778687
 20
281.697937
 30
0.0
  0
VERTEX
  5
6AD
100
AcDbEntity
  8
LAY-9
  6
CONTINUOUS
 62
     1
100
AcDbVertex
100
AcDb2dVertex
 10
437.395957
 20
281.007603
 30
0.0
  0
VERTEX
  5
6AE
100
AcDbEntity
  8
LAY-9
  6
CONTINUOUS
 62
     1
100
AcDbVertex
100
AcDb2dVertex
 10
437.04963
 20
280.304595
 30
0.0
  0
VERTEX
  5
6AF
100
AcDbEntity
  8
LAY-9
  6
CONTINUOUS
 62
     1
100
AcDbVertex
100
AcDb2dVertex
 10
436.742784
 20
279.584614
 30
0.0
  0
VERTEX
  5
6B0
100
AcDbEntity
  8
LAY-9
  6
CONTINUOUS
 62
     1
100
AcDbVertex
100
AcDb2dVertex
 10
436.478497
 20
278.843362
 30
0.0
  0
VERTEX
  5
6B1
100
AcDbEntity
  8
LAY-9
  6
CONTINUOUS
 62
     1
100
AcDbVertex
100
AcDb2dVertex
 10
436.259847
 20
278.076539
 30
0.0
  0
VERTEX
  5
6B2
100
AcDbEntity
  8
LAY-9
  6
CONTINUOUS
 62
     1
100
AcDbVertex
100
AcDb2dVertex
 10
436.089911
 20
277.279849
 30
0.0
  0
VERTEX
  5
6B3
100
AcDbEntity
  8
LAY-9
  6
CONTINUOUS
 62
     1
100
AcDbVertex
100
AcDb2dVertex
 10
435.971769
 20
276.448993
 30
0.0
  0
VERTEX
  5
6B4
100
AcDbEntity
  8
LAY-9
  6
CONTINUOUS
 62
     1
100
AcDbVertex
100
AcDb2dVertex
 10
435.908497
 20
275.579672
 30
0.0
  0
VERTEX
  5
6B5
100
AcDbEntity
  8
LAY-9
  6
CONTINUOUS
 62
     1
100
AcDbVertex
100
AcDb2dVertex
 10
435.903174
 20
274.667588
 30
0.0
  0
VERTEX
  5
6B6
100
AcDbEntity
  8
LAY-9
  6
CONTINUOUS
 62
     1
100
AcDbVertex
100
AcDb2dVertex
 10
435.958878
 20
273.708442
 30
0.0
  0
VERTEX
  5
6B7
100
AcDbEntity
  8
LAY-9
  6
CONTINUOUS
 62
     1
100
AcDbVertex
100
AcDb2dVertex
 10
436.078687
 20
272.697937
 30
0.0
  0
VERTEX
  5
6B8
100
AcDbEntity
  8
LAY-9
  6
CONTINUOUS
 62
     1
100
AcDbVertex
100
AcDb2dVertex
 10
436.275166
 20
271.574657
 30
0.0
  0
VERTEX
  5
6B9
100
AcDbEntity
  8
LAY-9
  6
CONTINUOUS
 62
     1
100
AcDbVertex
100
AcDb2dVertex
 10
436.53042
 20
270.418604
 30
0.0
  0
VERTEX
  5
6BA
100
AcDbEntity
  8
LAY-9
  6
CONTINUOUS
 62
     1
100
AcDbVertex
100
AcDb2dVertex
 10
436.828124
 20
269.259223
 30
0.0
  0
VERTEX
  5
6BB
100
AcDbEntity
  8
LAY-9
  6
CONTINUOUS
 62
     1
100
AcDbVertex
100
AcDb2dVertex
 10
437.15195
 20
268.125961
 30
0.0
  0
VERTEX
  5
6BC
100
AcDbEntity
  8
LAY-9
  6
CONTINUOUS
 62
     1
100
AcDbVertex
100
AcDb2dVertex
 10
437.485572
 20
267.048265
 30
0.0
  0
VERTEX
  5
6BD
100
AcDbEntity
  8
LAY-9
  6
CONTINUOUS
 62
     1
100
AcDbVertex
100
AcDb2dVertex
 10
437.812661
 20
266.055579
 30
0.0
  0
VERTEX
  5
6BE
100
AcDbEntity
  8
LAY-9
  6
CONTINUOUS
 62
     1
100
AcDbVertex
100
AcDb2dVertex
 10
438.116892
 20
265.177351
 30
0.0
  0
VERTEX
  5
6BF
100
AcDbEntity
  8
LAY-9
  6
CONTINUOUS
 62
     1
100
AcDbVertex
100
AcDb2dVertex
 10
438.381937
 20
264.443027
 30
0.0
  0
VERTEX
  5
6C0
100
AcDbEntity
  8
LAY-9
  6
CONTINUOUS
 62
     1
100
AcDbVertex
100
AcDb2dVertex
 10
438.591469
 20
263.882052
 30
0.0
  0
VERTEX
  5
6C1
100
AcDbEntity
  8
LAY-9
  6
CONTINUOUS
 62
     1
100
AcDbVertex
100
AcDb2dVertex
 10
438.729161
 20
263.523873
 30
0.0
  0
VERTEX
  5
6C2
100
AcDbEntity
  8
LAY-9
  6
CONTINUOUS
 62
     1
100
AcDbVertex
100
AcDb2dVertex
 10
438.778687
 20
263.397937
 30
0.0
  0
SEQEND
  5
6C3
100
AcDbEntity
  8
LAY-9
  6
CONTINUOUS
 62
     1
  0
LINE
  5
6C4
100
AcDbEntity
  8
LAY-9
  6
CONTINUOUS
 62
     1
100
AcDbLine
 10
658.9
 20
311.800008
 30
0.0
 11
656.6
 21
311.800008
 31
0.0
  0
LINE
  5
6C5
100
AcDbEntity
  8
LAY-9
  6
CONTINUOUS
 62
     1
100
AcDbLine
 10
658.9
 20
334.499969
 30
0.0
 11
658.9
 21
311.800008
 31
0.0
  0
LINE
  5
6C6
100
AcDbEntity
  8
LAY-9
  6
CONTINUOUS
 62
     1
100
AcDbLine
 10
693.4
 20
311.800008
 30
0.0
 11
691.1
 21
311.800008
 31
0.0
  0
LINE
  5
6C7
100
AcDbEntity
  8
LAY-9
  6
CONTINUOUS
 62
     1
100
AcDbLine
 10
691.1
 20
334.499969
 30
0.0
 11
691.1
 21
311.800008
 31
0.0
  0
LINE
  5
6C8
100
AcDbEntity
  8
LAY-9
  6
CONTINUOUS
 62
     1
100
AcDbLine
 10
85.000016
 20
334.5
 30
0.0
 11
85.000016
 21
330.0
 31
0.0
  0
LINE
  5
6C9
100
AcDbEntity
  8
LAY-9
  6
CONTINUOUS
 62
     1
100
AcDbLine
 10
85.000016
 20
330.0
 30
0.0
 11
273.0
 21
330.0
 31
0.0
  0
LINE
  5
6CA
100
AcDbEntity
  8
LAY-9
  6
CONTINUOUS
 62
     1
100
AcDbLine
 10
273.0
 20
334.5
 30
0.0
 11
273.0
 21
330.0
 31
0.0
  0
LINE
  5
6CB
100
AcDbEntity
  8
LAY-9
  6
CONTINUOUS
 62
     1
100
AcDbLine
 10
465.557389
 20
138.0
 30
0.0
 11
465.557389
 21
123.0
 31
0.0
  0
LINE
  5
6CC
100
AcDbEntity
  8
LAY-9
  6
CONTINUOUS
 62
     1
100
AcDbLine
 10
480.557389
 20
138.0
 30
0.0
 11
465.557389
 21
138.0
 31
0.0
  0
LINE
  5
6CD
100
AcDbEntity
  8
LAY-9
  6
CONTINUOUS
 62
     1
100
AcDbLine
 10
480.557389
 20
123.0
 30
0.0
 11
465.557389
 21
123.0
 31
0.0
  0
LINE
  5
6CE
100
AcDbEntity
  8
LAY-9
  6
CONTINUOUS
 62
     1
100
AcDbLine
 10
503.057389
 20
100.0
 30
0.0
 11
503.057389
 21
50.0
 31
0.0
  0
LINE
  5
6CF
100
AcDbEntity
  8
LAY-9
  6
CONTINUOUS
 62
     1
100
AcDbLine
 10
503.057389
 20
50.0
 30
0.0
 11
683.057389
 21
50.0
 31
0.0
  0
LINE
  5
6D0
100
AcDbEntity
  8
LAY-9
  6
CONTINUOUS
 62
     1
100
AcDbLine
 10
683.057389
 20
100.0
 30
0.0
 11
683.057389
 21
50.0
 31
0.0
  0
LINE
  5
6D1
100
AcDbEntity
  8
LAY-9
  6
CONTINUOUS
 62
     1
100
AcDbLine
 10
503.057389
 20
100.0
 30
0.0
 11
683.057389
 21
100.0
 31
0.0
  0
LINE
  5
6D2
100
AcDbEntity
  8
LAY-9
  6
CONTINUOUS
 62
     1
100
AcDbLine
 10
791.450195
 20
300.0
 30
0.0
 11
566.250195
 21
300.0
 31
0.0
  0
LINE
  5
6D3
100
AcDbEntity
  8
LAY-9
  6
CONTINUOUS
 62
     1
100
AcDbLine
 10
127.400025
 20
310.0
 30
0.0
 11
438.778687
 21
310.0
 31
0.0
  0
LINE
  5
6D4
100
AcDbEntity
  8
LAY-9
  6
CONTINUOUS
 62
     1
100
AcDbLine
 10
52.0
 20
300.0
 30
0.0
 11
437.778687
 21
300.0
 31
0.0
  0
LINE
  5
6D5
100
AcDbEntity
  8
LAY-9
  6
CONTINUOUS
 62
     1
100
AcDbLine
 10
56.6
 20
334.5
 30
0.0
 11
440.215727
 21
334.5
 31
0.0
  0
LINE
  5
6D6
100
AcDbEntity
  8
LAY-9
  6
CONTINUOUS
 62
     1
100
AcDbLine
 10
56.6
 20
336.8
 30
0.0
 11
440.364104
 21
336.8
 31
0.0
  0
LINE
  5
6D7
100
AcDbEntity
  8
LAY-9
  6
CONTINUOUS
 62
     1
100
AcDbLine
 10
52.0
 20
285.0
 30
0.0
 11
27.0
 21
285.0
 31
0.0
  0
LINE
  5
6D8
100
AcDbEntity
  8
LAY-9
  6
CONTINUOUS
 62
     1
100
AcDbLine
 10
52.0
 20
509.6
 30
0.0
 11
81.0
 21
509.6
 31
0.0
  0
LINE
  5
6D9
100
AcDbEntity
  8
LAY-9
  6
CONTINUOUS
 62
     1
100
AcDbLine
 10
81.0
 20
514.0
 30
0.0
 11
81.0
 21
518.5
 31
0.0
  0
LINE
  5
6DA
100
AcDbEntity
  8
LAY-9
  6
CONTINUOUS
 62
     1
100
AcDbLine
 10
81.0
 20
518.5
 30
0.0
 11
101.0
 21
518.5
 31
0.0
  0
LINE
  5
6DB
100
AcDbEntity
  8
LAY-9
  6
CONTINUOUS
 62
     1
100
AcDbLine
 10
101.0
 20
518.5
 30
0.0
 11
101.0
 21
514.0
 31
0.0
  0
LINE
  5
6DC
100
AcDbEntity
  8
LAY-9
  6
CONTINUOUS
 62
     1
100
AcDbLine
 10
250.0
 20
514.0
 30
0.0
 11
250.0
 21
518.5
 31
0.0
  0
LINE
  5
6DD
100
AcDbEntity
  8
LAY-9
  6
CONTINUOUS
 62
     1
100
AcDbLine
 10
250.0
 20
518.5
 30
0.0
 11
231.0
 21
518.5
 31
0.0
  0
LINE
  5
6DE
100
AcDbEntity
  8
LAY-9
  6
CONTINUOUS
 62
     1
100
AcDbLine
 10
231.0
 20
518.5
 30
0.0
 11
231.0
 21
514.0
 31
0.0
  0
LINE
  5
6DF
100
AcDbEntity
  8
LAY-9
  6
CONTINUOUS
 62
     1
100
AcDbLine
 10
250.0
 20
498.999969
 30
0.0
 11
250.0
 21
494.499969
 31
0.0
  0
LINE
  5
6E0
100
AcDbEntity
  8
LAY-9
  6
CONTINUOUS
 62
     1
100
AcDbLine
 10
250.0
 20
494.499969
 30
0.0
 11
135.0
 21
494.499969
 31
0.0
  0
LINE
  5
6E1
100
AcDbEntity
  8
LAY-9
  6
CONTINUOUS
 62
     1
100
AcDbLine
 10
135.0
 20
494.499969
 30
0.0
 11
135.0
 21
498.999969
 31
0.0
  0
LINE
  5
6E2
100
AcDbEntity
  8
LAY-9
  6
CONTINUOUS
 62
     1
100
AcDbLine
 10
56.6
 20
503.399969
 30
0.0
 11
98.999985
 21
503.399969
 31
0.0
  0
LINE
  5
6E3
100
AcDbEntity
  8
LAY-9
  6
CONTINUOUS
 62
     1
100
AcDbLine
 10
52.0
 20
508.0
 30
0.0
 11
73.978687
 21
508.0
 31
0.0
  0
LINE
  5
6E4
100
AcDbEntity
  8
LAY-9
  6
CONTINUOUS
 62
     1
100
AcDbLine
 10
55.0
 20
504.999969
 30
0.0
 11
98.999985
 21
504.999969
 31
0.0
  0
LINE
  5
6E5
100
AcDbEntity
  8
LAY-9
  6
CONTINUOUS
 62
     1
100
AcDbLine
 10
250.0
 20
509.6
 30
0.0
 11
314.855849
 21
509.6
 31
0.0
  0
LINE
  5
6E6
100
AcDbEntity
  8
LAY-9
  6
CONTINUOUS
 62
     1
100
AcDbLine
 10
250.0
 20
503.399969
 30
0.0
 11
311.748742
 21
503.399969
 31
0.0
  0
POLYLINE
  5
6E7
100
AcDbEntity
  8
LAY-9
  6
CONTINUOUS
 62
     1
100
AcDb2dPolyline
 66
     1
 10
0.0
 20
0.0
 30
0.0
 70
   128
  0
VERTEX
  5
6E8
100
AcDbEntity
  8
LAY-9
  6
CONTINUOUS
 62
     1
100
AcDbVertex
100
AcDb2dVertex
 10
312.778687
 20
504.999969
 30
0.0
  0
VERTEX
  5
6E9
100
AcDbEntity
  8
LAY-9
  6
CONTINUOUS
 62
     1
100
AcDbVertex
100
AcDb2dVertex
 10
312.728255
 20
504.912067
 30
0.0
  0
VERTEX
  5
6EA
100
AcDbEntity
  8
LAY-9
  6
CONTINUOUS
 62
     1
100
AcDbVertex
100
AcDb2dVertex
 10
312.588536
 20
504.662791
 30
0.0
  0
VERTEX
  5
6EB
100
AcDbEntity
  8
LAY-9
  6
CONTINUOUS
 62
     1
100
AcDbVertex
100
AcDb2dVertex
 10
312.376897
 20
504.273788
 30
0.0
  0
VERTEX
  5
6EC
100
AcDbEntity
  8
LAY-9
  6
CONTINUOUS
 62
     1
100
AcDbVertex
100
AcDb2dVertex
 10
312.110706
 20
503.766702
 30
0.0
  0
VERTEX
  5
6ED
100
AcDbEntity
  8
LAY-9
  6
CONTINUOUS
 62
     1
100
AcDbVertex
100
AcDb2dVertex
 10
311.807328
 20
503.163179
 30
0.0
  0
VERTEX
  5
6EE
100
AcDbEntity
  8
LAY-9
  6
CONTINUOUS
 62
     1
100
AcDbVertex
100
AcDb2dVertex
 10
311.48413
 20
502.484866
 30
0.0
  0
VERTEX
  5
6EF
100
AcDbEntity
  8
LAY-9
  6
CONTINUOUS
 62
     1
100
AcDbVertex
100
AcDb2dVertex
 10
311.15848
 20
501.753406
 30
0.0
  0
VERTEX
  5
6F0
100
AcDbEntity
  8
LAY-9
  6
CONTINUOUS
 62
     1
100
AcDbVertex
100
AcDb2dVertex
 10
310.847744
 20
500.990448
 30
0.0
  0
VERTEX
  5
6F1
100
AcDbEntity
  8
LAY-9
  6
CONTINUOUS
 62
     1
100
AcDbVertex
100
AcDb2dVertex
 10
310.569288
 20
500.217634
 30
0.0
  0
VERTEX
  5
6F2
100
AcDbEntity
  8
LAY-9
  6
CONTINUOUS
 62
     1
100
AcDbVertex
100
AcDb2dVertex
 10
310.34048
 20
499.456613
 30
0.0
  0
VERTEX
  5
6F3
100
AcDbEntity
  8
LAY-9
  6
CONTINUOUS
 62
     1
100
AcDbVertex
100
AcDb2dVertex
 10
310.178687
 20
498.729028
 30
0.0
  0
VERTEX
  5
6F4
100
AcDbEntity
  8
LAY-9
  6
CONTINUOUS
 62
     1
100
AcDbVertex
100
AcDb2dVertex
 10
310.13385
 20
498.432625
 30
0.0
  0
VERTEX
  5
6F5
100
AcDbEntity
  8
LAY-9
  6
CONTINUOUS
 62
     1
100
AcDbVertex
100
AcDb2dVertex
 10
310.103767
 20
498.145434
 30
0.0
  0
VERTEX
  5
6F6
100
AcDbEntity
  8
LAY-9
  6
CONTINUOUS
 62
     1
100
AcDbVertex
100
AcDb2dVertex
 10
310.087723
 20
497.866571
 30
0.0
  0
VERTEX
  5
6F7
100
AcDbEntity
  8
LAY-9
  6
CONTINUOUS
 62
     1
100
AcDbVertex
100
AcDb2dVertex
 10
310.084999
 20
497.595147
 30
0.0
  0
VERTEX
  5
6F8
100
AcDbEntity
  8
LAY-9
  6
CONTINUOUS
 62
     1
100
AcDbVertex
100
AcDb2dVertex
 10
310.09488
 20
497.330277
 30
0.0
  0
VERTEX
  5
6F9
100
AcDbEntity
  8
LAY-9
  6
CONTINUOUS
 62
     1
100
AcDbVertex
100
AcDb2dVertex
 10
310.116647
 20
497.071074
 30
0.0
  0
VERTEX
  5
6FA
100
AcDbEntity
  8
LAY-9
  6
CONTINUOUS
 62
     1
100
AcDbVertex
100
AcDb2dVertex
 10
310.149583
 20
496.816651
 30
0.0
  0
VERTEX
  5
6FB
100
AcDbEntity
  8
LAY-9
  6
CONTINUOUS
 62
     1
100
AcDbVertex
100
AcDb2dVertex
 10
310.192973
 20
496.566121
 30
0.0
  0
VERTEX
  5
6FC
100
AcDbEntity
  8
LAY-9
  6
CONTINUOUS
 62
     1
100
AcDbVertex
100
AcDb2dVertex
 10
310.246098
 20
496.318599
 30
0.0
  0
VERTEX
  5
6FD
100
AcDbEntity
  8
LAY-9
  6
CONTINUOUS
 62
     1
100
AcDbVertex
100
AcDb2dVertex
 10
310.308242
 20
496.073196
 30
0.0
  0
VERTEX
  5
6FE
100
AcDbEntity
  8
LAY-9
  6
CONTINUOUS
 62
     1
100
AcDbVertex
100
AcDb2dVertex
 10
310.378687
 20
495.829028
 30
0.0
  0
VERTEX
  5
6FF
100
AcDbEntity
  8
LAY-9
  6
CONTINUOUS
 62
     1
100
AcDbVertex
100
AcDb2dVertex
 10
310.565949
 20
495.27762
 30
0.0
  0
VERTEX
  5
700
100
AcDbEntity
  8
LAY-9
  6
CONTINUOUS
 62
     1
100
AcDbVertex
100
AcDb2dVertex
 10
310.788051
 20
494.729209
 30
0.0
  0
VERTEX
  5
701
100
AcDbEntity
  8
LAY-9
  6
CONTINUOUS
 62
     1
100
AcDbVertex
100
AcDb2dVertex
 10
311.040895
 20
494.185012
 30
0.0
  0
VERTEX
  5
702
100
AcDbEntity
  8
LAY-9
  6
CONTINUOUS
 62
     1
100
AcDbVertex
100
AcDb2dVertex
 10
311.320384
 20
493.646245
 30
0.0
  0
VERTEX
  5
703
100
AcDbEntity
  8
LAY-9
  6
CONTINUOUS
 62
     1
100
AcDbVertex
100
AcDb2dVertex
 10
311.622421
 20
493.114124
 30
0.0
  0
VERTEX
  5
704
100
AcDbEntity
  8
LAY-9
  6
CONTINUOUS
 62
     1
100
AcDbVertex
100
AcDb2dVertex
 10
311.942907
 20
492.589863
 30
0.0
  0
VERTEX
  5
705
100
AcDbEntity
  8
LAY-9
  6
CONTINUOUS
 62
     1
100
AcDbVertex
100
AcDb2dVertex
 10
312.277747
 20
492.074679
 30
0.0
  0
VERTEX
  5
706
100
AcDbEntity
  8
LAY-9
  6
CONTINUOUS
 62
     1
100
AcDbVertex
100
AcDb2dVertex
 10
312.622842
 20
491.569788
 30
0.0
  0
VERTEX
  5
707
100
AcDbEntity
  8
LAY-9
  6
CONTINUOUS
 62
     1
100
AcDbVertex
100
AcDb2dVertex
 10
312.974096
 20
491.076405
 30
0.0
  0
VERTEX
  5
708
100
AcDbEntity
  8
LAY-9
  6
CONTINUOUS
 62
     1
100
AcDbVertex
100
AcDb2dVertex
 10
313.32741
 20
490.595747
 30
0.0
  0
VERTEX
  5
709
100
AcDbEntity
  8
LAY-9
  6
CONTINUOUS
 62
     1
100
AcDbVertex
100
AcDb2dVertex
 10
313.678687
 20
490.129028
 30
0.0
  0
VERTEX
  5
70A
100
AcDbEntity
  8
LAY-9
  6
CONTINUOUS
 62
     1
100
AcDbVertex
100
AcDb2dVertex
 10
313.993188
 20
489.716145
 30
0.0
  0
VERTEX
  5
70B
100
AcDbEntity
  8
LAY-9
  6
CONTINUOUS
 62
     1
100
AcDbVertex
100
AcDb2dVertex
 10
314.299972
 20
489.308772
 30
0.0
  0
VERTEX
  5
70C
100
AcDbEntity
  8
LAY-9
  6
CONTINUOUS
 62
     1
100
AcDbVertex
100
AcDb2dVertex
 10
314.596403
 20
488.899872
 30
0.0
  0
VERTEX
  5
70D
100
AcDbEntity
  8
LAY-9
  6
CONTINUOUS
 62
     1
100
AcDbVertex
100
AcDb2dVertex
 10
314.879844
 20
488.482405
 30
0.0
  0
VERTEX
  5
70E
100
AcDbEntity
  8
LAY-9
  6
CONTINUOUS
 62
     1
100
AcDbVertex
100
AcDb2dVertex
 10
315.147657
 20
488.049333
 30
0.0
  0
VERTEX
  5
70F
100
AcDbEntity
  8
LAY-9
  6
CONTINUOUS
 62
     1
100
AcDbVertex
100
AcDb2dVertex
 10
315.397206
 20
487.593617
 30
0.0
  0
VERTEX
  5
710
100
AcDbEntity
  8
LAY-9
  6
CONTINUOUS
 62
     1
100
AcDbVertex
100
AcDb2dVertex
 10
315.625854
 20
487.108218
 30
0.0
  0
VERTEX
  5
711
100
AcDbEntity
  8
LAY-9
  6
CONTINUOUS
 62
     1
100
AcDbVertex
100
AcDb2dVertex
 10
315.830963
 20
486.586099
 30
0.0
  0
VERTEX
  5
712
100
AcDbEntity
  8
LAY-9
  6
CONTINUOUS
 62
     1
100
AcDbVertex
100
AcDb2dVertex
 10
316.009896
 20
486.02022
 30
0.0
  0
VERTEX
  5
713
100
AcDbEntity
  8
LAY-9
  6
CONTINUOUS
 62
     1
100
AcDbVertex
100
AcDb2dVertex
 10
316.160016
 20
485.403543
 30
0.0
  0
VERTEX
  5
714
100
AcDbEntity
  8
LAY-9
  6
CONTINUOUS
 62
     1
100
AcDbVertex
100
AcDb2dVertex
 10
316.278687
 20
484.729028
 30
0.0
  0
VERTEX
  5
715
100
AcDbEntity
  8
LAY-9
  6
CONTINUOUS
 62
     1
100
AcDbVertex
100
AcDb2dVertex
 10
316.335497
 20
484.282232
 30
0.0
  0
VERTEX
  5
716
100
AcDbEntity
  8
LAY-9
  6
CONTINUOUS
 62
     1
100
AcDbVertex
100
AcDb2dVertex
 10
316.380603
 20
483.822358
 30
0.0
  0
VERTEX
  5
717
100
AcDbEntity
  8
LAY-9
  6
CONTINUOUS
 62
     1
100
AcDbVertex
100
AcDb2dVertex
 10
316.415332
 20
483.361129
 30
0.0
  0
VERTEX
  5
718
100
AcDbEntity
  8
LAY-9
  6
CONTINUOUS
 62
     1
100
AcDbVertex
100
AcDb2dVertex
 10
316.441009
 20
482.910266
 30
0.0
  0
VERTEX
  5
719
100
AcDbEntity
  8
LAY-9
  6
CONTINUOUS
 62
     1
100
AcDbVertex
100
AcDb2dVertex
 10
316.458961
 20
482.481489
 30
0.0
  0
VERTEX
  5
71A
100
AcDbEntity
  8
LAY-9
  6
CONTINUOUS
 62
     1
100
AcDbVertex
100
AcDb2dVertex
 10
316.470513
 20
482.086519
 30
0.0
  0
VERTEX
  5
71B
100
AcDbEntity
  8
LAY-9
  6
CONTINUOUS
 62
     1
100
AcDbVertex
100
AcDb2dVertex
 10
316.476991
 20
481.737079
 30
0.0
  0
VERTEX
  5
71C
100
AcDbEntity
  8
LAY-9
  6
CONTINUOUS
 62
     1
100
AcDbVertex
100
AcDb2dVertex
 10
316.479722
 20
481.444888
 30
0.0
  0
VERTEX
  5
71D
100
AcDbEntity
  8
LAY-9
  6
CONTINUOUS
 62
     1
100
AcDbVertex
100
AcDb2dVertex
 10
316.480031
 20
481.221669
 30
0.0
  0
VERTEX
  5
71E
100
AcDbEntity
  8
LAY-9
  6
CONTINUOUS
 62
     1
100
AcDbVertex
100
AcDb2dVertex
 10
316.479244
 20
481.079142
 30
0.0
  0
VERTEX
  5
71F
100
AcDbEntity
  8
LAY-9
  6
CONTINUOUS
 62
     1
100
AcDbVertex
100
AcDb2dVertex
 10
316.478687
 20
481.029028
 30
0.0
  0
SEQEND
  5
720
100
AcDbEntity
  8
LAY-9
  6
CONTINUOUS
 62
     1
  0
LINE
  5
721
100
AcDbEntity
  8
LAY-9
  6
CONTINUOUS
 62
     1
100
AcDbLine
 10
275.678687
 20
508.0
 30
0.0
 11
313.778687
 21
508.0
 31
0.0
  0
LINE
  5
722
100
AcDbEntity
  8
LAY-9
  6
CONTINUOUS
 62
     1
100
AcDbLine
 10
275.178687
 20
504.999969
 30
0.0
 11
312.778687
 21
504.999969
 31
0.0
  0
POLYLINE
  5
723
100
AcDbEntity
  8
LAY-9
  6
CONTINUOUS
 62
     1
100
AcDb2dPolyline
 66
     1
 10
0.0
 20
0.0
 30
0.0
 70
   128
  0
VERTEX
  5
724
100
AcDbEntity
  8
LAY-9
  6
CONTINUOUS
 62
     1
100
AcDbVertex
100
AcDb2dVertex
 10
313.961692
 20
507.950964
 30
0.0
  0
VERTEX
  5
725
100
AcDbEntity
  8
LAY-9
  6
CONTINUOUS
 62
     1
100
AcDbVertex
100
AcDb2dVertex
 10
314.012124
 20
508.038866
 30
0.0
  0
VERTEX
  5
726
100
AcDbEntity
  8
LAY-9
  6
CONTINUOUS
 62
     1
100
AcDbVertex
100
AcDb2dVertex
 10
314.151843
 20
508.288142
 30
0.0
  0
VERTEX
  5
727
100
AcDbEntity
  8
LAY-9
  6
CONTINUOUS
 62
     1
100
AcDbVertex
100
AcDb2dVertex
 10
314.363482
 20
508.677145
 30
0.0
  0
VERTEX
  5
728
100
AcDbEntity
  8
LAY-9
  6
CONTINUOUS
 62
     1
100
AcDbVertex
100
AcDb2dVertex
 10
314.629673
 20
509.184231
 30
0.0
  0
VERTEX
  5
729
100
AcDbEntity
  8
LAY-9
  6
CONTINUOUS
 62
     1
100
AcDbVertex
100
AcDb2dVertex
 10
314.933051
 20
509.787754
 30
0.0
  0
VERTEX
  5
72A
100
AcDbEntity
  8
LAY-9
  6
CONTINUOUS
 62
     1
100
AcDbVertex
100
AcDb2dVertex
 10
315.256249
 20
510.466067
 30
0.0
  0
VERTEX
  5
72B
100
AcDbEntity
  8
LAY-9
  6
CONTINUOUS
 62
     1
100
AcDbVertex
100
AcDb2dVertex
 10
315.581899
 20
511.197526
 30
0.0
  0
VERTEX
  5
72C
100
AcDbEntity
  8
LAY-9
  6
CONTINUOUS
 62
     1
100
AcDbVertex
100
AcDb2dVertex
 10
315.892635
 20
511.960485
 30
0.0
  0
VERTEX
  5
72D
100
AcDbEntity
  8
LAY-9
  6
CONTINUOUS
 62
     1
100
AcDbVertex
100
AcDb2dVertex
 10
316.171091
 20
512.733299
 30
0.0
  0
VERTEX
  5
72E
100
AcDbEntity
  8
LAY-9
  6
CONTINUOUS
 62
     1
100
AcDbVertex
100
AcDb2dVertex
 10
316.399899
 20
513.49432
 30
0.0
  0
VERTEX
  5
72F
100
AcDbEntity
  8
LAY-9
  6
CONTINUOUS
 62
     1
100
AcDbVertex
100
AcDb2dVertex
 10
316.561692
 20
514.221905
 30
0.0
  0
VERTEX
  5
730
100
AcDbEntity
  8
LAY-9
  6
CONTINUOUS
 62
     1
100
AcDbVertex
100
AcDb2dVertex
 10
316.606529
 20
514.518308
 30
0.0
  0
VERTEX
  5
731
100
AcDbEntity
  8
LAY-9
  6
CONTINUOUS
 62
     1
100
AcDbVertex
100
AcDb2dVertex
 10
316.636612
 20
514.805499
 30
0.0
  0
VERTEX
  5
732
100
AcDbEntity
  8
LAY-9
  6
CONTINUOUS
 62
     1
100
AcDbVertex
100
AcDb2dVertex
 10
316.652656
 20
515.084362
 30
0.0
  0
VERTEX
  5
733
100
AcDbEntity
  8
LAY-9
  6
CONTINUOUS
 62
     1
100
AcDbVertex
100
AcDb2dVertex
 10
316.65538
 20
515.355786
 30
0.0
  0
VERTEX
  5
734
100
AcDbEntity
  8
LAY-9
  6
CONTINUOUS
 62
     1
100
AcDbVertex
100
AcDb2dVertex
 10
316.645499
 20
515.620656
 30
0.0
  0
VERTEX
  5
735
100
AcDbEntity
  8
LAY-9
  6
CONTINUOUS
 62
     1
100
AcDbVertex
100
AcDb2dVertex
 10
316.623732
 20
515.879859
 30
0.0
  0
VERTEX
  5
736
100
AcDbEntity
  8
LAY-9
  6
CONTINUOUS
 62
     1
100
AcDbVertex
100
AcDb2dVertex
 10
316.590796
 20
516.134282
 30
0.0
  0
VERTEX
  5
737
100
AcDbEntity
  8
LAY-9
  6
CONTINUOUS
 62
     1
100
AcDbVertex
100
AcDb2dVertex
 10
316.547406
 20
516.384812
 30
0.0
  0
VERTEX
  5
738
100
AcDbEntity
  8
LAY-9
  6
CONTINUOUS
 62
     1
100
AcDbVertex
100
AcDb2dVertex
 10
316.494281
 20
516.632334
 30
0.0
  0
VERTEX
  5
739
100
AcDbEntity
  8
LAY-9
  6
CONTINUOUS
 62
     1
100
AcDbVertex
100
AcDb2dVertex
 10
316.432137
 20
516.877737
 30
0.0
  0
VERTEX
  5
73A
100
AcDbEntity
  8
LAY-9
  6
CONTINUOUS
 62
     1
100
AcDbVertex
100
AcDb2dVertex
 10
316.361692
 20
517.121905
 30
0.0
  0
VERTEX
  5
73B
100
AcDbEntity
  8
LAY-9
  6
CONTINUOUS
 62
     1
100
AcDbVertex
100
AcDb2dVertex
 10
316.17443
 20
517.673313
 30
0.0
  0
VERTEX
  5
73C
100
AcDbEntity
  8
LAY-9
  6
CONTINUOUS
 62
     1
100
AcDbVertex
100
AcDb2dVertex
 10
315.952328
 20
518.221724
 30
0.0
  0
VERTEX
  5
73D
100
AcDbEntity
  8
LAY-9
  6
CONTINUOUS
 62
     1
100
AcDbVertex
100
AcDb2dVertex
 10
315.699484
 20
518.76592
 30
0.0
  0
VERTEX
  5
73E
100
AcDbEntity
  8
LAY-9
  6
CONTINUOUS
 62
     1
100
AcDbVertex
100
AcDb2dVertex
 10
315.419995
 20
519.304688
 30
0.0
  0
VERTEX
  5
73F
100
AcDbEntity
  8
LAY-9
  6
CONTINUOUS
 62
     1
100
AcDbVertex
100
AcDb2dVertex
 10
315.117958
 20
519.836809
 30
0.0
  0
VERTEX
  5
740
100
AcDbEntity
  8
LAY-9
  6
CONTINUOUS
 62
     1
100
AcDbVertex
100
AcDb2dVertex
 10
314.797471
 20
520.36107
 30
0.0
  0
VERTEX
  5
741
100
AcDbEntity
  8
LAY-9
  6
CONTINUOUS
 62
     1
100
AcDbVertex
100
AcDb2dVertex
 10
314.462632
 20
520.876254
 30
0.0
  0
VERTEX
  5
742
100
AcDbEntity
  8
LAY-9
  6
CONTINUOUS
 62
     1
100
AcDbVertex
100
AcDb2dVertex
 10
314.117537
 20
521.381145
 30
0.0
  0
VERTEX
  5
743
100
AcDbEntity
  8
LAY-9
  6
CONTINUOUS
 62
     1
100
AcDbVertex
100
AcDb2dVertex
 10
313.766283
 20
521.874528
 30
0.0
  0
VERTEX
  5
744
100
AcDbEntity
  8
LAY-9
  6
CONTINUOUS
 62
     1
100
AcDbVertex
100
AcDb2dVertex
 10
313.412969
 20
522.355186
 30
0.0
  0
VERTEX
  5
745
100
AcDbEntity
  8
LAY-9
  6
CONTINUOUS
 62
     1
100
AcDbVertex
100
AcDb2dVertex
 10
313.061692
 20
522.821905
 30
0.0
  0
VERTEX
  5
746
100
AcDbEntity
  8
LAY-9
  6
CONTINUOUS
 62
     1
100
AcDbVertex
100
AcDb2dVertex
 10
312.747191
 20
523.234788
 30
0.0
  0
VERTEX
  5
747
100
AcDbEntity
  8
LAY-9
  6
CONTINUOUS
 62
     1
100
AcDbVertex
100
AcDb2dVertex
 10
312.440407
 20
523.642161
 30
0.0
  0
VERTEX
  5
748
100
AcDbEntity
  8
LAY-9
  6
CONTINUOUS
 62
     1
100
AcDbVertex
100
AcDb2dVertex
 10
312.143976
 20
524.051061
 30
0.0
  0
VERTEX
  5
749
100
AcDbEntity
  8
LAY-9
  6
CONTINUOUS
 62
     1
100
AcDbVertex
100
AcDb2dVertex
 10
311.860535
 20
524.468528
 30
0.0
  0
VERTEX
  5
74A
100
AcDbEntity
  8
LAY-9
  6
CONTINUOUS
 62
     1
100
AcDbVertex
100
AcDb2dVertex
 10
311.592722
 20
524.9016
 30
0.0
  0
VERTEX
  5
74B
100
AcDbEntity
  8
LAY-9
  6
CONTINUOUS
 62
     1
100
AcDbVertex
100
AcDb2dVertex
 10
311.343173
 20
525.357316
 30
0.0
  0
VERTEX
  5
74C
100
AcDbEntity
  8
LAY-9
  6
CONTINUOUS
 62
     1
100
AcDbVertex
100
AcDb2dVertex
 10
311.114525
 20
525.842714
 30
0.0
  0
VERTEX
  5
74D
100
AcDbEntity
  8
LAY-9
  6
CONTINUOUS
 62
     1
100
AcDbVertex
100
AcDb2dVertex
 10
310.909416
 20
526.364834
 30
0.0
  0
VERTEX
  5
74E
100
AcDbEntity
  8
LAY-9
  6
CONTINUOUS
 62
     1
100
AcDbVertex
100
AcDb2dVertex
 10
310.730483
 20
526.930713
 30
0.0
  0
VERTEX
  5
74F
100
AcDbEntity
  8
LAY-9
  6
CONTINUOUS
 62
     1
100
AcDbVertex
100
AcDb2dVertex
 10
310.580363
 20
527.54739
 30
0.0
  0
VERTEX
  5
750
100
AcDbEntity
  8
LAY-9
  6
CONTINUOUS
 62
     1
100
AcDbVertex
100
AcDb2dVertex
 10
310.461692
 20
528.221905
 30
0.0
  0
VERTEX
  5
751
100
AcDbEntity
  8
LAY-9
  6
CONTINUOUS
 62
     1
100
AcDbVertex
100
AcDb2dVertex
 10
310.404882
 20
528.668701
 30
0.0
  0
VERTEX
  5
752
100
AcDbEntity
  8
LAY-9
  6
CONTINUOUS
 62
     1
100
AcDbVertex
100
AcDb2dVertex
 10
310.359776
 20
529.128575
 30
0.0
  0
VERTEX
  5
753
100
AcDbEntity
  8
LAY-9
  6
CONTINUOUS
 62
     1
100
AcDbVertex
100
AcDb2dVertex
 10
310.325047
 20
529.589804
 30
0.0
  0
VERTEX
  5
754
100
AcDbEntity
  8
LAY-9
  6
CONTINUOUS
 62
     1
100
AcDbVertex
100
AcDb2dVertex
 10
310.29937
 20
530.040667
 30
0.0
  0
VERTEX
  5
755
100
AcDbEntity
  8
LAY-9
  6
CONTINUOUS
 62
     1
100
AcDbVertex
100
AcDb2dVertex
 10
310.281418
 20
530.469444
 30
0.0
  0
VERTEX
  5
756
100
AcDbEntity
  8
LAY-9
  6
CONTINUOUS
 62
     1
100
AcDbVertex
100
AcDb2dVertex
 10
310.269866
 20
530.864414
 30
0.0
  0
VERTEX
  5
757
100
AcDbEntity
  8
LAY-9
  6
CONTINUOUS
 62
     1
100
AcDbVertex
100
AcDb2dVertex
 10
310.263388
 20
531.213854
 30
0.0
  0
VERTEX
  5
758
100
AcDbEntity
  8
LAY-9
  6
CONTINUOUS
 62
     1
100
AcDbVertex
100
AcDb2dVertex
 10
310.260657
 20
531.506045
 30
0.0
  0
VERTEX
  5
759
100
AcDbEntity
  8
LAY-9
  6
CONTINUOUS
 62
     1
100
AcDbVertex
100
AcDb2dVertex
 10
310.260348
 20
531.729264
 30
0.0
  0
VERTEX
  5
75A
100
AcDbEntity
  8
LAY-9
  6
CONTINUOUS
 62
     1
100
AcDbVertex
100
AcDb2dVertex
 10
310.261135
 20
531.871791
 30
0.0
  0
VERTEX
  5
75B
100
AcDbEntity
  8
LAY-9
  6
CONTINUOUS
 62
     1
100
AcDbVertex
100
AcDb2dVertex
 10
310.261692
 20
531.921905
 30
0.0
  0
SEQEND
  5
75C
100
AcDbEntity
  8
LAY-9
  6
CONTINUOUS
 62
     1
  0
LINE
  5
75D
100
AcDbEntity
  8
LAY-9
  6
CONTINUOUS
 62
     1
100
AcDbLine
 10
56.6
 20
405.0
 30
0.0
 11
56.6
 21
310.0
 31
0.0
  0
LINE
  5
75E
100
AcDbEntity
  8
LAY-9
  6
CONTINUOUS
 62
     1
100
AcDbLine
 10
55.0
 20
405.0
 30
0.0
 11
55.0
 21
310.0
 31
0.0
  0
LINE
  5
75F
100
AcDbEntity
  8
LAY-9
  6
CONTINUOUS
 62
     1
100
AcDbLine
 10
52.0
 20
405.0
 30
0.0
 11
52.0
 21
285.0
 31
0.0
  0
LINE
  5
760
100
AcDbEntity
  8
LAY-9
  6
CONTINUOUS
 62
     1
100
AcDbLine
 10
50.4
 20
405.0
 30
0.0
 11
50.4
 21
285.0
 31
0.0
  0
LINE
  5
761
100
AcDbEntity
  8
LAY-9
  6
CONTINUOUS
 62
     1
100
AcDbLine
 10
56.6
 20
503.399969
 30
0.0
 11
56.6
 21
410.0
 31
0.0
  0
LINE
  5
762
100
AcDbEntity
  8
LAY-9
  6
CONTINUOUS
 62
     1
100
AcDbLine
 10
55.0
 20
504.999969
 30
0.0
 11
55.0
 21
410.0
 31
0.0
  0
LINE
  5
763
100
AcDbEntity
  8
LAY-9
  6
DIVIDE
 62
     1
100
AcDbLine
 10
32.578687
 20
410.0
 30
0.0
 11
92.578687
 21
410.0
 31
0.0
  0
LINE
  5
764
100
AcDbEntity
  8
LAY-9
  6
DIVIDE
 62
     1
100
AcDbLine
 10
32.578687
 20
405.0
 30
0.0
 11
92.578687
 21
405.0
 31
0.0
  0
LINE
  5
765
100
AcDbEntity
  8
LAY-9
  6
CONTINUOUS
 62
     1
100
AcDbLine
 10
52.0
 20
538.0
 30
0.0
 11
52.0
 21
410.0
 31
0.0
  0
LINE
  5
766
100
AcDbEntity
  8
LAY-9
  6
CONTINUOUS
 62
     1
100
AcDbLine
 10
50.4
 20
538.0
 30
0.0
 11
50.4
 21
410.0
 31
0.0
  0
LINE
  5
767
100
AcDbEntity
  8
LAY-9
  6
CONTINUOUS
 62
     1
100
AcDbLine
 10
626.6
 20
509.6
 30
0.0
 11
658.999985
 21
509.6
 31
0.0
  0
LINE
  5
768
100
AcDbEntity
  8
LAY-9
  6
CONTINUOUS
 62
     1
100
AcDbLine
 10
691.000015
 20
509.6
 30
0.0
 11
723.4
 21
509.6
 31
0.0
  0
ARC
  5
769
100
AcDbEntity
  8
LAY-9
  6
CONTINUOUS
 62
     1
100
AcDbCircle
 10
656.6
 20
503.399969
 30
0.0
 40
1.6
100
AcDbArc
 50
90.0
 51
180.0
  0
LINE
  5
76A
100
AcDbEntity
  8
LAY-9
  6
CONTINUOUS
 62
     1
100
AcDbLine
 10
656.6
 20
504.999969
 30
0.0
 11
693.4
 21
504.999969
 31
0.0
  0
ARC
  5
76B
100
AcDbEntity
  8
LAY-9
  6
CONTINUOUS
 62
     1
100
AcDbCircle
 10
693.4
 20
503.399969
 30
0.0
 40
1.6
100
AcDbArc
 50
0.0
 51
90.0
  0
LINE
  5
76C
100
AcDbEntity
  8
LAY-9
  6
CONTINUOUS
 62
     1
100
AcDbLine
 10
691.000015
 20
503.399969
 30
0.0
 11
693.4
 21
503.399969
 31
0.0
  0
LINE
  5
76D
100
AcDbEntity
  8
LAY-9
  6
CONTINUOUS
 62
     1
100
AcDbLine
 10
656.6
 20
503.399969
 30
0.0
 11
658.999985
 21
503.399969
 31
0.0
  0
LINE
  5
76E
100
AcDbEntity
  8
LAY-9
  6
CONTINUOUS
 62
     1
100
AcDbLine
 10
656.6
 20
478.399969
 30
0.0
 11
658.9
 21
478.399969
 31
0.0
  0
LINE
  5
76F
100
AcDbEntity
  8
LAY-9
  6
CONTINUOUS
 62
     1
100
AcDbLine
 10
658.9
 20
501.099969
 30
0.0
 11
658.999985
 21
501.099969
 31
0.0
  0
LINE
  5
770
100
AcDbEntity
  8
LAY-9
  6
CONTINUOUS
 62
     1
100
AcDbLine
 10
658.9
 20
478.399969
 30
0.0
 11
658.9
 21
501.099969
 31
0.0
  0
ARC
  5
771
100
AcDbEntity
  8
LAY-9
  6
CONTINUOUS
 62
     1
100
AcDbCircle
 10
658.9
 20
501.099969
 30
0.0
 40
2.3
100
AcDbArc
 50
87.508468
 51
180.0
  0
LINE
  5
772
100
AcDbEntity
  8
LAY-9
  6
CONTINUOUS
 62
     1
100
AcDbLine
 10
693.4
 20
478.399969
 30
0.0
 11
691.1
 21
478.399969
 31
0.0
  0
LINE
  5
773
100
AcDbEntity
  8
LAY-9
  6
CONTINUOUS
 62
     1
100
AcDbLine
 10
691.1
 20
478.399969
 30
0.0
 11
691.1
 21
501.099969
 31
0.0
  0
LINE
  5
774
100
AcDbEntity
  8
LAY-9
  6
CONTINUOUS
 62
     1
100
AcDbLine
 10
691.1
 20
501.099969
 30
0.0
 11
691.000015
 21
501.099969
 31
0.0
  0
ARC
  5
775
100
AcDbEntity
  8
LAY-9
  6
CONTINUOUS
 62
     1
100
AcDbCircle
 10
691.1
 20
501.099969
 30
0.0
 40
2.3
100
AcDbArc
 50
0.0
 51
92.491532
  0
LINE
  5
776
100
AcDbEntity
  8
LAY-9
  6
DIVIDE
 62
     1
100
AcDbLine
 10
718.9
 20
518.5
 30
0.0
 11
718.9
 21
529.0
 31
0.0
  0
LINE
  5
777
100
AcDbEntity
  8
LAY-9
  6
DIVIDE
 62
     1
100
AcDbLine
 10
718.9
 20
529.0
 30
0.0
 11
723.4
 21
529.0
 31
0.0
  0
ARC
  5
778
100
AcDbEntity
  8
LAY-9
  6
DIVIDE
 62
     1
100
AcDbCircle
 10
718.9
 20
518.5
 30
0.0
 40
4.5
100
AcDbArc
 50
270.0
 51
0.0
  0
LINE
  5
779
100
AcDbEntity
  8
LAY-9
  6
DIVIDE
 62
     1
100
AcDbLine
 10
631.1
 20
529.0
 30
0.0
 11
626.6
 21
529.0
 31
0.0
  0
ARC
  5
77A
100
AcDbEntity
  8
LAY-9
  6
DIVIDE
 62
     1
100
AcDbCircle
 10
631.1
 20
518.5
 30
0.0
 40
4.5
100
AcDbArc
 50
180.0
 51
270.0
  0
LINE
  5
77B
100
AcDbEntity
  8
LAY-9
  6
DIVIDE
 62
     1
100
AcDbLine
 10
631.1
 20
518.5
 30
0.0
 11
718.9
 21
518.5
 31
0.0
  0
LINE
  5
77C
100
AcDbEntity
  8
LAY-9
  6
DIVIDE
 62
     1
100
AcDbLine
 10
631.1
 20
518.5
 30
0.0
 11
631.1
 21
529.0
 31
0.0
  0
LINE
  5
77D
100
AcDbEntity
  8
LAY-9
  6
DIVIDE
 62
     1
100
AcDbLine
 10
631.1
 20
514.0
 30
0.0
 11
718.9
 21
514.0
 31
0.0
  0
LINE
  5
77E
100
AcDbEntity
  8
LAY-9
  6
DIVIDE
 62
     1
100
AcDbLine
 10
691.1
 20
494.499969
 30
0.0
 11
658.9
 21
494.499969
 31
0.0
  0
LINE
  5
77F
100
AcDbEntity
  8
LAY-9
  6
DIVIDE
 62
     1
100
AcDbLine
 10
691.1
 20
498.999969
 30
0.0
 11
658.9
 21
498.999969
 31
0.0
  0
LINE
  5
780
100
AcDbEntity
  8
LAY-9
  6
DIVIDE
 62
     1
100
AcDbLine
 10
707.828427
 20
518.5
 30
0.0
 11
703.328427
 21
514.0
 31
0.0
  0
LINE
  5
781
100
AcDbEntity
  8
LAY-9
  6
DIVIDE
 62
     1
100
AcDbLine
 10
705.0
 20
518.5
 30
0.0
 11
700.5
 21
514.0
 31
0.0
  0
LINE
  5
782
100
AcDbEntity
  8
LAY-9
  6
DIVIDE
 62
     1
100
AcDbLine
 10
677.828427
 20
518.5
 30
0.0
 11
673.328427
 21
514.0
 31
0.0
  0
LINE
  5
783
100
AcDbEntity
  8
LAY-9
  6
DIVIDE
 62
     1
100
AcDbLine
 10
675.0
 20
518.5
 30
0.0
 11
670.5
 21
514.0
 31
0.0
  0
LINE
  5
784
100
AcDbEntity
  8
LAY-9
  6
DIVIDE
 62
     1
100
AcDbLine
 10
647.828427
 20
518.5
 30
0.0
 11
643.328427
 21
514.0
 31
0.0
  0
LINE
  5
785
100
AcDbEntity
  8
LAY-9
  6
DIVIDE
 62
     1
100
AcDbLine
 10
645.0
 20
518.5
 30
0.0
 11
640.5
 21
514.0
 31
0.0
  0
LINE
  5
786
100
AcDbEntity
  8
LAY-9
  6
DIVIDE
 62
     1
100
AcDbLine
 10
691.1
 20
498.999969
 30
0.0
 11
686.6
 21
494.499969
 31
0.0
  0
LINE
  5
787
100
AcDbEntity
  8
LAY-9
  6
DIVIDE
 62
     1
100
AcDbLine
 10
688.271573
 20
498.999969
 30
0.0
 11
683.771573
 21
494.499969
 31
0.0
  0
LINE
  5
788
100
AcDbEntity
  8
LAY-9
  6
DIVIDE
 62
     1
100
AcDbLine
 10
671.1
 20
498.999969
 30
0.0
 11
666.6
 21
494.499969
 31
0.0
  0
LINE
  5
789
100
AcDbEntity
  8
LAY-9
  6
DIVIDE
 62
     1
100
AcDbLine
 10
668.271573
 20
498.999969
 30
0.0
 11
663.771573
 21
494.499969
 31
0.0
  0
ARC
  5
78A
100
AcDbEntity
  8
LAY-9
  6
CONTINUOUS
 62
     1
100
AcDbCircle
 10
723.4
 20
509.6
 30
0.0
 40
1.6
100
AcDbArc
 50
270.0
 51
0.0
  0
LINE
  5
78B
100
AcDbEntity
  8
LAY-9
  6
CONTINUOUS
 62
     1
100
AcDbLine
 10
626.6
 20
508.0
 30
0.0
 11
723.4
 21
508.0
 31
0.0
  0
ARC
  5
78C
100
AcDbEntity
  8
LAY-9
  6
CONTINUOUS
 62
     1
100
AcDbCircle
 10
626.6
 20
509.6
 30
0.0
 40
1.6
100
AcDbArc
 50
180.0
 51
270.0
  0
LINE
  5
78D
100
AcDbEntity
  8
LAY-9
  6
CONTINUOUS
 62
     1
100
AcDbLine
 10
723.4
 20
509.6
 30
0.0
 11
723.4
 21
538.0
 31
0.0
  0
LINE
  5
78E
100
AcDbEntity
  8
LAY-9
  6
CONTINUOUS
 62
     1
100
AcDbLine
 10
725.0
 20
509.6
 30
0.0
 11
725.0
 21
538.0
 31
0.0
  0
LINE
  5
78F
100
AcDbEntity
  8
LAY-9
  6
CONTINUOUS
 62
     1
100
AcDbLine
 10
626.6
 20
509.6
 30
0.0
 11
626.6
 21
538.0
 31
0.0
  0
LINE
  5
790
100
AcDbEntity
  8
LAY-9
  6
CONTINUOUS
 62
     1
100
AcDbLine
 10
625.0
 20
509.6
 30
0.0
 11
625.0
 21
538.0
 31
0.0
  0
LINE
  5
791
100
AcDbEntity
  8
LAY-9
  6
DIVIDE
 62
     1
100
AcDbLine
 10
645.0
 20
410.0
 30
0.0
 11
705.0
 21
410.0
 31
0.0
  0
LINE
  5
792
100
AcDbEntity
  8
LAY-9
  6
DIVIDE
 62
     1
100
AcDbLine
 10
645.0
 20
405.0
 30
0.0
 11
705.0
 21
405.0
 31
0.0
  0
LINE
  5
793
100
AcDbEntity
  8
LAY-9
  6
CONTINUOUS
 62
     1
100
AcDbLine
 10
655.0
 20
405.0
 30
0.0
 11
655.0
 21
310.0
 31
0.0
  0
LINE
  5
794
100
AcDbEntity
  8
LAY-9
  6
CONTINUOUS
 62
     1
100
AcDbLine
 10
656.6
 20
405.0
 30
0.0
 11
656.6
 21
310.0
 31
0.0
  0
LINE
  5
795
100
AcDbEntity
  8
LAY-9
  6
CONTINUOUS
 62
     1
100
AcDbLine
 10
693.4
 20
405.0
 30
0.0
 11
693.4
 21
310.0
 31
0.0
  0
LINE
  5
796
100
AcDbEntity
  8
LAY-9
  6
CONTINUOUS
 62
     1
100
AcDbLine
 10
695.0
 20
405.0
 30
0.0
 11
695.0
 21
310.0
 31
0.0
  0
LINE
  5
797
100
AcDbEntity
  8
LAY-9
  6
CONTINUOUS
 62
     1
100
AcDbLine
 10
656.6
 20
410.0
 30
0.0
 11
656.6
 21
503.399969
 31
0.0
  0
LINE
  5
798
100
AcDbEntity
  8
LAY-9
  6
CONTINUOUS
 62
     1
100
AcDbLine
 10
693.4
 20
410.0
 30
0.0
 11
693.4
 21
503.399969
 31
0.0
  0
LINE
  5
799
100
AcDbEntity
  8
LAY-9
  6
CONTINUOUS
 62
     1
100
AcDbLine
 10
655.0
 20
410.0
 30
0.0
 11
655.0
 21
503.399969
 31
0.0
  0
LINE
  5
79A
100
AcDbEntity
  8
LAY-9
  6
CONTINUOUS
 62
     1
100
AcDbLine
 10
695.0
 20
410.0
 30
0.0
 11
695.0
 21
503.399969
 31
0.0
  0
LINE
  5
79B
100
AcDbEntity
  8
LAY-10
  6
CONTINUOUS
 62
     5
100
AcDbLine
 10
15.0
 20
15.0
 30
0.0
 11
826.0
 21
15.0
 31
0.0
  0
LINE
  5
79C
100
AcDbEntity
  8
LAY-10
  6
CONTINUOUS
 62
     5
100
AcDbLine
 10
826.0
 20
15.0
 30
0.0
 11
826.0
 21
579.0
 31
0.0
  0
LINE
  5
79D
100
AcDbEntity
  8
LAY-10
  6
CONTINUOUS
 62
     5
100
AcDbLine
 10
15.0
 20
579.0
 30
0.0
 11
826.0
 21
579.0
 31
0.0
  0
LINE
  5
79E
100
AcDbEntity
  8
LAY-10
  6
CONTINUOUS
 62
     5
100
AcDbLine
 10
15.0
 20
40.0
 30
0.0
 11
826.0
 21
40.0
 31
0.0
  0
LINE
  5
79F
100
AcDbEntity
  8
LAY-10
  6
CONTINUOUS
 62
     1
100
AcDbLine
 10
224.0
 20
40.0
 30
0.0
 11
224.0
 21
15.0
 31
0.0
  0
LINE
  5
7A0
100
AcDbEntity
  8
LAY-10
  6
CONTINUOUS
 62
     1
100
AcDbLine
 10
249.5
 20
40.0
 30
0.0
 11
249.5
 21
15.0
 31
0.0
  0
LINE
  5
7A1
100
AcDbEntity
  8
LAY-10
  6
CONTINUOUS
 62
     1
100
AcDbLine
 10
275.0
 20
40.0
 30
0.0
 11
275.0
 21
15.0
 31
0.0
  0
LINE
  5
7A2
100
AcDbEntity
  8
LAY-10
  6
CONTINUOUS
 62
     1
100
AcDbLine
 10
300.5
 20
40.0
 30
0.0
 11
300.5
 21
15.0
 31
0.0
  0
LINE
  5
7A3
100
AcDbEntity
  8
LAY-10
  6
CONTINUOUS
 62
     1
100
AcDbLine
 10
326.0
 20
40.0
 30
0.0
 11
326.0
 21
15.0
 31
0.0
  0
LINE
  5
7A4
100
AcDbEntity
  8
LAY-10
  6
CONTINUOUS
 62
     1
100
AcDbLine
 10
377.0
 20
40.0
 30
0.0
 11
377.0
 21
15.0
 31
0.0
  0
LINE
  5
7A5
100
AcDbEntity
  8
LAY-10
  6
CONTINUOUS
 62
     1
100
AcDbLine
 10
738.0
 20
40.0
 30
0.0
 11
738.0
 21
15.0
 31
0.0
  0
LINE
  5
7A6
100
AcDbEntity
  8
LAY-10
  6
CONTINUOUS
 62
     1
100
AcDbLine
 10
224.0
 20
32.0
 30
0.0
 11
377.0
 21
32.0
 31
0.0
  0
TEXT
  5
7A7
100
AcDbEntity
  8
LAY-10
  6
CONTINUOUS
 62
     4
100
AcDbText
 10
227.5
 20
33.0
 30
0.0
 40
6.0
  1
検　  図
 41
0.57856
  7
EXCADSTD
 72
     5
 11
246.700001
 21
33.0
 31
0.0
100
AcDbText
  0
TEXT
  5
7A8
100
AcDbEntity
  8
LAY-10
  6
CONTINUOUS
 62
     4
100
AcDbText
 10
253.2
 20
33.0
 30
0.0
 40
6.0
  1
担　　当
 41
0.672
  7
EXCADSTD
 72
     5
 11
272.400001
 21
33.0
 31
0.0
100
AcDbText
  0
TEXT
  5
7A9
100
AcDbEntity
  8
LAY-10
  6
CONTINUOUS
 62
     4
100
AcDbText
 10
278.4
 20
33.0
 30
0.0
 40
6.0
  1
製　　図
 41
0.672
  7
EXCADSTD
 72
     5
 11
297.600001
 21
33.0
 31
0.0
100
AcDbText
  0
TEXT
  5
7AA
100
AcDbEntity
  8
LAY-10
  6
CONTINUOUS
 62
     4
100
AcDbText
 10
303.9
 20
33.0
 30
0.0
 40
6.0
  1
尺　　度
 41
0.672
  7
EXCADSTD
 72
     5
 11
323.100001
 21
33.0
 31
0.0
100
AcDbText
  0
TEXT
  5
7AB
100
AcDbEntity
  8
LAY-10
  6
CONTINUOUS
 62
     4
100
AcDbText
 10
339.5
 20
33.0
 30
0.0
 40
6.0
  1
作成年月日
 41
0.672
  7
EXCADSTD
 72
     5
 11
363.500001
 21
33.0
 31
0.0
100
AcDbText
  0
TEXT
  5
7AC
100
AcDbEntity
  8
LAY-10
  6
CONTINUOUS
 62
   134
100
AcDbText
 10
42.98
 20
20.91
 30
0.0
 40
13.0
  1
日本ドアーチエック製造株式会社
 41
0.653908
  7
EXCADSTD
 72
     5
 11
194.779994
 21
20.91
 31
0.0
100
AcDbText
  0
LINE
  5
7AD
100
AcDbEntity
  8
LAY-10
  6
CONTINUOUS
 62
     1
100
AcDbLine
 10
841.0
 20
0.0
 30
0.0
 11
841.0
 21
2.0
 31
0.0
  0
LINE
  5
7AE
100
AcDbEntity
  8
LAY-10
  6
CONTINUOUS
 62
     1
100
AcDbLine
 10
841.0
 20
592.0
 30
0.0
 11
841.0
 21
594.0
 31
0.0
  0
LINE
  5
7AF
100
AcDbEntity
  8
LAY-10
  6
CONTINUOUS
 62
     1
100
AcDbLine
 10
841.0
 20
594.0
 30
0.0
 11
839.0
 21
594.0
 31
0.0
  0
LINE
  5
7B0
100
AcDbEntity
  8
LAY-10
  6
CONTINUOUS
 62
     1
100
AcDbLine
 10
2.0
 20
594.0
 30
0.0
 11
0.0
 21
594.0
 31
0.0
  0
LINE
  5
7B1
100
AcDbEntity
  8
LAY-10
  6
CONTINUOUS
 62
     1
100
AcDbLine
 10
0.0
 20
594.0
 30
0.0
 11
0.0
 21
592.0
 31
0.0
  0
LINE
  5
7B2
100
AcDbEntity
  8
LAY-10
  6
CONTINUOUS
 62
     1
100
AcDbLine
 10
0.0
 20
2.0
 30
0.0
 11
0.0
 21
0.0
 31
0.0
  0
LINE
  5
7B3
100
AcDbEntity
  8
LAY-10
  6
CONTINUOUS
 62
     1
100
AcDbLine
 10
0.0
 20
0.0
 30
0.0
 11
2.0
 21
0.0
 31
0.0
  0
LINE
  5
7B4
100
AcDbEntity
  8
LAY-10
  6
CONTINUOUS
 62
     1
100
AcDbLine
 10
839.0
 20
0.0
 30
0.0
 11
841.0
 21
0.0
 31
0.0
  0
TEXT
  5
7B5
100
AcDbEntity
  8
LAY-10
  6
CONTINUOUS
 62
     4
100
AcDbText
 10
383.0
 20
33.0
 30
0.0
 40
6.0
  1
図 面 名
 41
0.57856
  7
EXCADSTD
 72
     5
 11
402.200001
 21
33.0
 31
0.0
100
AcDbText
  0
TEXT
  5
7B6
100
AcDbEntity
  8
LAY-10
  6
CONTINUOUS
 62
     4
100
AcDbText
 10
744.0
 20
33.0
 30
0.0
 40
6.0
  1
図面番号
 41
0.672
  7
EXCADSTD
 72
     5
 11
763.200001
 21
33.0
 31
0.0
100
AcDbText
  0
TEXT
  5
7B7
100
AcDbEntity
  8
LAY-10
  6
CONTINUOUS
 62
     2
100
AcDbText
 10
306.5
 20
20.2
 30
0.0
 40
6.0
  1
１／１
 41
0.672
  7
EXCADSTD
 72
     5
 11
320.900001
 21
20.2
 31
0.0
100
AcDbText
  0
LINE
  5
7B8
100
AcDbEntity
  8
LAY-10
  6
CONTINUOUS
 62
     5
100
AcDbLine
 10
15.0
 20
15.0
 30
0.0
 11
15.0
 21
579.0
 31
0.0
  0
TEXT
  5
7B9
100
AcDbEntity
  8
LAY-10
  6
CONTINUOUS
 62
     2
100
AcDbText
 10
410.828367
 20
26.474519
 30
0.0
 40
10.0
  1
フロアヒンジ　Ｈ(Ｓ）－５０１／ Ｈ(Ｓ)－５１１／ Ｈ(Ｓ)－５２２　納まり図
 41
0.643524
  7
EXCADSTD
 72
     5
 11
694.828367
 21
26.474519
 31
0.0
100
AcDbText
  0
TEXT
  5
7BA
100
AcDbEntity
  8
LAY-10
  6
CONTINUOUS
 62
     2
100
AcDbText
 10
410.828367
 20
16.474519
 30
0.0
 40
10.0
  1
　　　　　　　Ｈ(Ｓ）－５０５／ Ｈ(Ｓ)－５１５／ Ｈ(Ｓ)－５２５
 41
0.639016
  7
EXCADSTD
 72
     5
 11
654.828367
 21
16.474519
 31
0.0
100
AcDbText
  0
TEXT
  5
7BB
100
AcDbEntity
  8
LAY-10
  6
CONTINUOUS
 62
     2
100
AcDbText
 10
332.6
 20
20.2
 30
0.0
 40
6.0
  1
Ｈ１８.　４.　１
 41
0.622617
  7
EXCADSTD
 72
     5
 11
371.000002
 21
20.2
 31
0.0
100
AcDbText
  0
ENDSEC
  0
SECTION
  2
OBJECTS
  0
DICTIONARY
  5
19
100
AcDbDictionary
  3
ACAD_GROUP
350
1A
  3
ACAD_MLINESTYLE
350
1B
  0
DICTIONARY
  5
1A
102
{ACAD_REACTORS
330
19
102
}
100
AcDbDictionary
  0
DICTIONARY
  5
1B
102
{ACAD_REACTORS
330
19
102
}
100
AcDbDictionary
  3
STANDARD
350
1C
  0
MLINESTYLE
  5
1C
102
{ACAD_REACTORS
330
1B
102
}
100
AcDbMlineStyle
  2
Standard
 70
     0
  3

 62
     0
 51
90.0
 52
90.0
 71
     2
 49
0.5
 62
   256
  6
ByLayer
 49
-0.5
 62
   256
  6
ByLayer
  0
ENDSEC
  0
EOF
