  0
SECTION
  2
HEADER
  9
$ACADVER
  1
AC1014
  9
$ACADMAINTVER
 70
     0
  9
$DWGCODEPAGE
  3
ANSI_932
  9
$INSBASE
 10
0.0
 20
0.0
 30
0.0
  9
$EXTMIN
 10
0.0
 20
0.0
 30
0.0
  9
$EXTMAX
 10
841.0
 20
594.0
 30
0.0
  9
$LIMMIN
 10
0.0
 20
0.0
  9
$LIMMAX
 10
841.0
 20
594.0
  9
$ORTHOMODE
 70
     0
  9
$REGENMODE
 70
     1
  9
$FILLMODE
 70
     1
  9
$QTEXTMODE
 70
     0
  9
$MIRRTEXT
 70
     1
  9
$DRAGMODE
 70
     2
  9
$LTSCALE
 40
1.0
  9
$OSMODE
 70
     0
  9
$ATTMODE
 70
     1
  9
$TEXTSIZE
 40
0.2
  9
$TRACEWID
 40
0.05
  9
$TEXTSTYLE
  7
STANDARD
  9
$CLAYER
  8
LAY-1
  9
$CELTYPE
  6
CONTINUOUS
  9
$CECOLOR
 62
   256
  9
$CELTSCALE
 40
1.0
  9
$DELOBJ
 70
     1
  9
$DISPSILH
 70
     0
  9
$DIMSCALE
 40
1.0
  9
$DIMASZ
 40
0.18
  9
$DIMEXO
 40
0.0625
  9
$DIMDLI
 40
0.38
  9
$DIMRND
 40
0.0
  9
$DIMDLE
 40
0.0
  9
$DIMEXE
 40
0.18
  9
$DIMTP
 40
0.0
  9
$DIMTM
 40
0.0
  9
$DIMTXT
 40
0.18
  9
$DIMCEN
 40
0.09
  9
$DIMTSZ
 40
0.0
  9
$DIMTOL
 70
     0
  9
$DIMLIM
 70
     0
  9
$DIMTIH
 70
     1
  9
$DIMTOH
 70
     1
  9
$DIMSE1
 70
     0
  9
$DIMSE2
 70
     0
  9
$DIMTAD
 70
     0
  9
$DIMZIN
 70
     0
  9
$DIMBLK
  1

  9
$DIMASO
 70
     1
  9
$DIMSHO
 70
     1
  9
$DIMPOST
  1

  9
$DIMAPOST
  1

  9
$DIMALT
 70
     0
  9
$DIMALTD
 70
     2
  9
$DIMALTF
 40
25.4
  9
$DIMLFAC
 40
1.0
  9
$DIMTOFL
 70
     0
  9
$DIMTVP
 40
0.0
  9
$DIMTIX
 70
     0
  9
$DIMSOXD
 70
     0
  9
$DIMSAH
 70
     0
  9
$DIMBLK1
  1

  9
$DIMBLK2
  1

  9
$DIMSTYLE
  2
STANDARD
  9
$DIMCLRD
 70
     0
  9
$DIMCLRE
 70
     0
  9
$DIMCLRT
 70
     0
  9
$DIMTFAC
 40
1.0
  9
$DIMGAP
 40
0.09
  9
$DIMJUST
 70
     0
  9
$DIMSD1
 70
     0
  9
$DIMSD2
 70
     0
  9
$DIMTOLJ
 70
     1
  9
$DIMTZIN
 70
     0
  9
$DIMALTZ
 70
     0
  9
$DIMALTTZ
 70
     0
  9
$DIMFIT
 70
     3
  9
$DIMUPT
 70
     0
  9
$DIMUNIT
 70
     2
  9
$DIMDEC
 70
     4
  9
$DIMTDEC
 70
     4
  9
$DIMALTU
 70
     2
  9
$DIMALTTD
 70
     2
  9
$DIMTXSTY
  7
STANDARD
  9
$DIMAUNIT
 70
     0
  9
$LUNITS
 70
     2
  9
$LUPREC
 70
     4
  9
$SKETCHINC
 40
0.1
  9
$FILLETRAD
 40
0.0
  9
$AUNITS
 70
     0
  9
$AUPREC
 70
     0
  9
$MENU
  1
acad
  9
$ELEVATION
 40
0.0
  9
$PELEVATION
 40
0.0
  9
$THICKNESS
 40
0.0
  9
$LIMCHECK
 70
     0
  9
$BLIPMODE
 70
     1
  9
$CHAMFERA
 40
0.0
  9
$CHAMFERB
 40
0.0
  9
$CHAMFERC
 40
0.0
  9
$CHAMFERD
 40
0.0
  9
$SKPOLY
 70
     0
  9
$TDCREATE
 40
2454542.103952188
  9
$TDUPDATE
 40
2454542.103952188
  9
$TDINDWG
 40
0.0000000000
  9
$TDUSRTIMER
 40
0.0000000000
  9
$USRTIMER
 70
     1
  9
$ANGBASE
 50
0.0
  9
$ANGDIR
 70
     0
  9
$PDMODE
 70
     0
  9
$PDSIZE
 40
0.0
  9
$PLINEWID
 40
0.0
  9
$COORDS
 70
     1
  9
$SPLFRAME
 70
     0
  9
$SPLINETYPE
 70
     6
  9
$SPLINESEGS
 70
     8
  9
$ATTDIA
 70
     0
  9
$ATTREQ
 70
     1
  9
$HANDLING
 70
     1
  9
$HANDSEED
  5
815
  9
$SURFTAB1
 70
     6
  9
$SURFTAB2
 70
     6
  9
$SURFTYPE
 70
     6
  9
$SURFU
 70
     6
  9
$SURFV
 70
     6
  9
$UCSNAME
  2

  9
$UCSORG
 10
0.0
 20
0.0
 30
0.0
  9
$UCSXDIR
 10
1.0
 20
0.0
 30
0.0
  9
$UCSYDIR
 10
0.0
 20
1.0
 30
0.0
  9
$PUCSNAME
  2

  9
$PUCSORG
 10
0.0
 20
0.0
 30
0.0
  9
$PUCSXDIR
 10
1.0
 20
0.0
 30
0.0
  9
$PUCSYDIR
 10
0.0
 20
1.0
 30
0.0
  9
$USERI1
 70
     0
  9
$USERI2
 70
     0
  9
$USERI3
 70
     0
  9
$USERI4
 70
     0
  9
$USERI5
 70
     0
  9
$USERR1
 40
0.0
  9
$USERR2
 40
0.0
  9
$USERR3
 40
0.0
  9
$USERR4
 40
0.0
  9
$USERR5
 40
0.0
  9
$WORLDVIEW
 70
     1
  9
$SHADEDGE
 70
     3
  9
$SHADEDIF
 70
    70
  9
$TILEMODE
 70
     1
  9
$MAXACTVP
 70
    16
  9
$PINSBASE
 10
0.0
 20
0.0
 30
0.0
  9
$PLIMCHECK
 70
     0
  9
$PEXTMIN
 10
1.000000E+20
 20
1.000000E+20
 30
1.000000E+20
  9
$PEXTMAX
 10
-1.000000E+20
 20
-1.000000E+20
 30
-1.000000E+20
  9
$PLIMMIN
 10
0.0
 20
0.0
  9
$PLIMMAX
 10
12.0
 20
9.0
  9
$UNITMODE
 70
     0
  9
$VISRETAIN
 70
     0
  9
$PLINEGEN
 70
     1
  9
$PSLTSCALE
 70
     0
  9
$TREEDEPTH
 70
  3020
  9
$PICKSTYLE
 70
     1
  9
$CMLSTYLE
  2
Standard
  9
$CMLJUST
 70
     0
  9
$CMLSCALE
 40
1.0
  9
$PROXYGRAPHICS
 70
     0
  9
$MEASUREMENT
 70
     0
  0
ENDSEC
  0
SECTION
  2
CLASSES
  0
CLASS
  1
LWPOLYLINE
  2
AcDbPolyline
  3
"AutoCAD"
 90
        0
280
     0
281
     1
  0
CLASS
  1
IMAGE
  2
AcDbRasterImage
  3
ISM
 90
      127
280
     0
281
     1
  0
CLASS
  1
OLE2FRAME
  2
AcDbOle2Frame
  3
""
 90
        0
280
     0
281
     1
  0
CLASS
  1
HATCH
  2
AcDbHatch
  3
"ACAD_SEDONA"
 90
        0
280
     0
281
     1
  0
CLASS
  1
DICTIONARYVAR
  2
AcDbDictionaryVar
  3
"AutoCAD"
 90
        0
280
     0
281
     0
  0
CLASS
  1
RASTERVARIABLES
  2
AcDbRasterVariables
  3
ISM
 90
        0
280
     0
281
     0
  0
CLASS
  1
IMAGEDEF
  2
AcDbRasterImageDef
  3
ISM
 90
        0
280
     0
281
     0
  0
CLASS
  1
IMAGEDEF_REACTOR
  2
AcDbRasterImageDefReactor
  3
ISM
 90
        1
280
     0
281
     0
  0
CLASS
  1
IDBUFFER
  2
AcDbIdBuffer
  3
"Acad"
 90
        0
280
     0
281
     0
  0
CLASS
  1
SPATIAL_FILTER
  2
AcDbSpatialFilter
  3
"Acad"
 90
        0
280
     0
281
     0
  0
CLASS
  1
XRECORD
  2
AcDbXrecord
  3
"<Built In>"
 90
        0
280
     0
281
     0
  0
CLASS
  1
SORTENTSTABLE
  2
AcDbSortentsTable
  3
"AutoCAD"
 90
        0
280
     0
281
     0
  0
CLASS
  1
LAYER_INDEX
  2
AcDbLayerIndex
  3
"Acad"
 90
        0
280
     0
281
     0
  0
CLASS
  1
SPATIAL_INDEX
  2
AcDbSpatialIndex
  3
"Acad"
 90
        0
280
     0
281
     0
  0
CLASS
  1
OBJECT_PTR
  2
CAseDLPNTableRecord
  3
"ASE-LPNTableRecord"
 90
        1
280
     0
281
     0
  0
CLASS
  1
LAYOUT
  2
AcDbLayout
  3
"AutoCAD 2000"
 90
        0
280
     0
281
     0
  0
CLASS
  1
PLOTSETTINGS
  2
AcDbPlotSettings
  3
"AutoCAD 2000"
 90
        0
280
     0
281
     0
  0
CLASS
  1
ACDBDICTIONARYWDFLT
  2
AcDbDictionaryWithDefault
  3
"AutoCAD 2000"
 90
        0
280
     0
281
     0
  0
CLASS
  1
ACDBPLACEHOLDER
  2
AcDbPlaceHolder
  3
"AutoCAD 2000"
 90
        0
280
     0
281
     0
  0
CLASS
  1
VBA_PROJECT
  2
AcDbVbaProject
  3
"acadvba"
 90
        0
280
     0
281
     0
  0
CLASS
  1
WIPEOUT
  2
AcDbWipeout
  3
WipeOut|AutoCAD Express Tool|expresstools@autodesk.com
 90
      127
280
     0
281
     1
  0
CLASS
  1
WIPEOUTVARIABLES
  2
AcDbWipeoutVariables
  3
WipeOut|AutoCAD Express Tool|expresstools@autodesk.com
 90
        0
280
     0
281
     0
  0
CLASS
  1
RTEXT
  2
RText
  3
RText|AutoCAD Express Tool|expresstools@autodesk.com
 90
        0
280
     0
281
     1
  0
CLASS
  1
ARCALIGNEDTEXT
  2
AcDbArcAlignedText
  3
ATEXT|AutoCAD Express Tool|expresstools@autodesk.com
 90
        0
280
     0
281
     1
  0
ENDSEC
  0
SECTION
  2
TABLES
  0
TABLE
  2
VPORT
  5
7
100
AcDbSymbolTable
 70
     1
  0
VPORT
  5
15
100
AcDbSymbolTableRecord
100
AcDbViewportTableRecord
  2
*ACTIVE
 70
     0
 10
0.0
 20
0.0
 11
1.0
 21
1.0
 12
420.5
 22
297.0
 13
0.0
 23
0.0
 14
1.0
 24
1.0
 15
0.0
 25
0.0
 16
0.0
 26
0.0
 36
1.0
 17
0.0
 27
0.0
 37
0.0
 40
594.0
 41
1.722533
 42
50.0
 43
0.0
 44
0.0
 50
0.0
 51
0.0
 71
     0
 72
   100
 73
     1
 74
     1
 75
     0
 76
     0
 77
     0
 78
     0
  0
ENDTAB
  0
TABLE
  2
LTYPE
  5
4
100
AcDbSymbolTable
 70
     9
  0
LTYPE
  5
11
100
AcDbSymbolTableRecord
100
AcDbLinetypeTableRecord
  2
BYBLOCK
 70
    64
  3

 72
    65
 73
     0
 40
0.0
  0
LTYPE
  5
12
100
AcDbSymbolTableRecord
100
AcDbLinetypeTableRecord
  2
BYLAYER
 70
    64
  3

 72
    65
 73
     0
 40
0.0
  0
LTYPE
  5
13
100
AcDbSymbolTableRecord
100
AcDbLinetypeTableRecord
  2
CONTINUOUS
 70
    64
  3
実線
 72
    65
 73
     0
 40
0.0
  0
LTYPE
  5
1D
100
AcDbSymbolTableRecord
100
AcDbLinetypeTableRecord
  2
DASHED
 70
    64
  3
Dashed __ __ __ __ __ __ __ __ __ __ __ __ __ _
 72
    65
 73
     2
 40
19.05
 49
12.7
 74
     0
 49
-6.35
 74
     0
  0
LTYPE
  5
1E
100
AcDbSymbolTableRecord
100
AcDbLinetypeTableRecord
  2
DASHED2
 70
    64
  3
Dashed (.5x) _ _ _ _ _ _ _ _ _ _ _ _ _ _ _ _ _ 
 72
    65
 73
     2
 40
9.525
 49
6.35
 74
     0
 49
-3.175
 74
     0
  0
LTYPE
  5
1F
100
AcDbSymbolTableRecord
100
AcDbLinetypeTableRecord
  2
DASHDOT
 70
    64
  3
Dash dot __ . __ . __ . __ . __ . __ . __ . __
 72
    65
 73
     4
 40
25.4
 49
12.7
 74
     0
 49
-6.35
 74
     0
 49
0.0
 74
     0
 49
-6.35
 74
     0
  0
LTYPE
  5
20
100
AcDbSymbolTableRecord
100
AcDbLinetypeTableRecord
  2
DIVIDE
 70
    64
  3
Divide ____ . . ____ . . ____ . . ____ . . ____
 72
    65
 73
     6
 40
31.75
 49
12.7
 74
     0
 49
-6.35
 74
     0
 49
0.0
 74
     0
 49
-6.35
 74
     0
 49
0.0
 74
     0
 49
-6.35
 74
     0
  0
LTYPE
  5
21
100
AcDbSymbolTableRecord
100
AcDbLinetypeTableRecord
  2
ACAD_ISO06W100
 70
    64
  3
ISO long-dash triple-dot ____ ... ____ ... ____
 72
    65
 73
     8
 40
36.0
 49
24.0
 74
     0
 49
-3.0
 74
     0
 49
0.0
 74
     0
 49
-3.0
 74
     0
 49
0.0
 74
     0
 49
-3.0
 74
     0
 49
0.0
 74
     0
 49
-3.0
 74
     0
  0
LTYPE
  5
22
100
AcDbSymbolTableRecord
100
AcDbLinetypeTableRecord
  2
ACAD_ISO15W100
 70
    64
  3
ISO double-dash triple-dot __ __ . . . __ __ . .
 72
    65
 73
    10
 40
39.0
 49
12.0
 74
     0
 49
-3.0
 74
     0
 49
12.0
 74
     0
 49
-3.0
 74
     0
 49
0.0
 74
     0
 49
-3.0
 74
     0
 49
0.0
 74
     0
 49
-3.0
 74
     0
 49
0.0
 74
     0
 49
-3.0
 74
     0
  0
ENDTAB
  0
TABLE
  2
LAYER
  5
2
100
AcDbSymbolTable
 70
     9
  0
LAYER
  5
14
100
AcDbSymbolTableRecord
100
AcDbLayerTableRecord
  2
0
 70
     0
 62
     7
  6
CONTINUOUS
  0
LAYER
  5
25
100
AcDbSymbolTableRecord
100
AcDbLayerTableRecord
  2
LAY-1
 70
    64
 62
     3
  6
CONTINUOUS
  0
LAYER
  5
26
100
AcDbSymbolTableRecord
100
AcDbLayerTableRecord
  2
LAY-2
 70
    64
 62
     3
  6
CONTINUOUS
  0
LAYER
  5
27
100
AcDbSymbolTableRecord
100
AcDbLayerTableRecord
  2
LAY-3
 70
    64
 62
     3
  6
CONTINUOUS
  0
LAYER
  5
28
100
AcDbSymbolTableRecord
100
AcDbLayerTableRecord
  2
LAY-4
 70
    64
 62
     3
  6
CONTINUOUS
  0
LAYER
  5
29
100
AcDbSymbolTableRecord
100
AcDbLayerTableRecord
  2
LAY-5
 70
    64
 62
     1
  6
DASHDOT
  0
LAYER
  5
2A
100
AcDbSymbolTableRecord
100
AcDbLayerTableRecord
  2
LAY-6
 70
    64
 62
     2
  6
CONTINUOUS
  0
LAYER
  5
2B
100
AcDbSymbolTableRecord
100
AcDbLayerTableRecord
  2
LAY-9
 70
    64
 62
     1
  6
CONTINUOUS
  0
LAYER
  5
2C
100
AcDbSymbolTableRecord
100
AcDbLayerTableRecord
  2
LAY-10
 70
    64
 62
     5
  6
CONTINUOUS
  0
ENDTAB
  0
TABLE
  2
STYLE
  5
3
100
AcDbSymbolTable
 70
     3
  0
STYLE
  5
17
100
AcDbSymbolTableRecord
100
AcDbTextStyleTableRecord
  2
STANDARD
 70
     0
 40
0.0
 41
1.0
 50
0.0
 71
     0
 42
0.0
  3
monotxt
  4
extfont
  0
STYLE
  5
23
100
AcDbSymbolTableRecord
100
AcDbTextStyleTableRecord
  2
EXCADSTD
 70
    64
 40
0.0
 41
1.0
 50
0.0
 71
     0
 42
0.2
  3
monotxt
  4
extfont
  0
STYLE
  5
24
100
AcDbSymbolTableRecord
100
AcDbTextStyleTableRecord
  2
EXCADVERT
 70
    68
 40
0.0
 41
1.0
 50
0.0
 71
     0
 42
0.286885
  3
monotxt
  4
extfont
  0
ENDTAB
  0
TABLE
  2
VIEW
  5
5
100
AcDbSymbolTable
 70
     0
  0
ENDTAB
  0
TABLE
  2
UCS
  5
6
100
AcDbSymbolTable
 70
     0
  0
ENDTAB
  0
TABLE
  2
APPID
  5
8
100
AcDbSymbolTable
 70
     1
  0
APPID
  5
16
100
AcDbSymbolTableRecord
100
AcDbRegAppTableRecord
  2
ACAD
 70
     0
  0
ENDTAB
  0
TABLE
  2
DIMSTYLE
  5
9
100
AcDbSymbolTable
 70
     1
  0
DIMSTYLE
105
18
100
AcDbSymbolTableRecord
100
AcDbDimStyleTableRecord
  2
STANDARD
 70
     0
  3

  4

  5

  6

  7

 40
1.0
 41
0.18
 42
0.0625
 43
0.38
 44
0.18
 45
0.0
 46
0.0
 47
0.0
 48
0.0
 71
     0
 72
     0
 73
     1
 74
     1
 75
     0
 76
     0
 77
     0
 78
     0
140
0.18
141
0.09
142
0.0
143
25.4
144
1.0
145
0.0
146
1.0
147
0.09
170
     0
171
     2
172
     1
173
     0
174
     0
175
     0
176
     0
177
     0
178
     0
270
     2
271
     4
272
     4
273
     2
274
     2
275
     0
280
     0
281
     0
282
     0
283
     1
284
     0
285
     0
286
     0
287
     3
288
     0
340
17
  0
ENDTAB
  0
TABLE
  2
BLOCK_RECORD
  5
1
100
AcDbSymbolTable
 70
    15
  0
BLOCK_RECORD
  5
A
100
AcDbSymbolTableRecord
100
AcDbBlockTableRecord
  2
*MODEL_SPACE
  0
BLOCK_RECORD
  5
B
100
AcDbSymbolTableRecord
100
AcDbBlockTableRecord
  2
*PAPER_SPACE
  0
BLOCK_RECORD
  5
2D
100
AcDbSymbolTableRecord
100
AcDbBlockTableRecord
  2
_EX_NORM
  0
BLOCK_RECORD
  5
2E
100
AcDbSymbolTableRecord
100
AcDbBlockTableRecord
  2
_EX_BNORM
  0
BLOCK_RECORD
  5
2F
100
AcDbSymbolTableRecord
100
AcDbBlockTableRecord
  2
_EX_BCIR
  0
BLOCK_RECORD
  5
30
100
AcDbSymbolTableRecord
100
AcDbBlockTableRecord
  2
_EX_RCIVIL
  0
BLOCK_RECORD
  5
31
100
AcDbSymbolTableRecord
100
AcDbBlockTableRecord
  2
_EX_SLANT
  0
BLOCK_RECORD
  5
32
100
AcDbSymbolTableRecord
100
AcDbBlockTableRecord
  2
_EX_NONE
  0
BLOCK_RECORD
  5
33
100
AcDbSymbolTableRecord
100
AcDbBlockTableRecord
  2
_EX_CIVIL
  0
BLOCK_RECORD
  5
34
100
AcDbSymbolTableRecord
100
AcDbBlockTableRecord
  2
_EX_WCIR
  0
BLOCK_RECORD
  5
35
100
AcDbSymbolTableRecord
100
AcDbBlockTableRecord
  2
_EX_WCIR2
  0
BLOCK_RECORD
  5
36
100
AcDbSymbolTableRecord
100
AcDbBlockTableRecord
  2
_EX_WNORM
  0
BLOCK_RECORD
  5
37
100
AcDbSymbolTableRecord
100
AcDbBlockTableRecord
  2
_EX_NNORM
  0
BLOCK_RECORD
  5
38
100
AcDbSymbolTableRecord
100
AcDbBlockTableRecord
  2
_EX_BBOX
  0
BLOCK_RECORD
  5
39
100
AcDbSymbolTableRecord
100
AcDbBlockTableRecord
  2
_EX_WBOX
  0
BLOCK_RECORD
  5
3A
100
AcDbSymbolTableRecord
100
AcDbBlockTableRecord
  2
_EX_INTEGRAL
  0
BLOCK_RECORD
  5
3B
100
AcDbSymbolTableRecord
100
AcDbBlockTableRecord
  2
SYM-1
  0
ENDTAB
  0
ENDSEC
  0
SECTION
  2
BLOCKS
  0
BLOCK
  5
D
100
AcDbEntity
  8
0
100
AcDbBlockBegin
  2
*MODEL_SPACE
 70
     0
 10
0.0
 20
0.0
 30
0.0
  3
*MODEL_SPACE
  1

  0
ENDBLK
  5
E
100
AcDbEntity
  8
0
100
AcDbBlockEnd
  0
BLOCK
  5
F
100
AcDbEntity
 67
     1
  8
0
100
AcDbBlockBegin
  2
*PAPER_SPACE
 70
     0
 10
0.0
 20
0.0
 30
0.0
  3
*PAPER_SPACE
  1

  0
ENDBLK
  5
10
100
AcDbEntity
 67
     1
  8
0
100
AcDbBlockEnd
  0
BLOCK
  5
3C
100
AcDbEntity
  8
0
100
AcDbBlockBegin
  2
_EX_NORM
 70
     0
 10
0.0
 20
0.0
 30
0.0
  3
_EX_NORM
  1

  0
LINE
  5
3D
100
AcDbEntity
  8
0
  6
CONTINUOUS
 62
     0
100
AcDbLine
 10
0.0
 20
0.0
 30
0.0
 11
-1.0
 21
0.0
 31
0.0
  0
LINE
  5
3E
100
AcDbEntity
  8
0
  6
CONTINUOUS
 62
     0
100
AcDbLine
 10
0.0
 20
0.0
 30
0.0
 11
-1.0
 21
0.166667
 31
0.0
  0
LINE
  5
3F
100
AcDbEntity
  8
0
  6
CONTINUOUS
 62
     0
100
AcDbLine
 10
0.0
 20
0.0
 30
0.0
 11
-1.0
 21
-0.166667
 31
0.0
  0
ENDBLK
  5
40
100
AcDbEntity
  8
0
100
AcDbBlockEnd
  0
BLOCK
  5
41
100
AcDbEntity
  8
0
100
AcDbBlockBegin
  2
_EX_BNORM
 70
     0
 10
0.0
 20
0.0
 30
0.0
  3
_EX_BNORM
  1

  0
LINE
  5
42
100
AcDbEntity
  8
0
  6
CONTINUOUS
 62
     0
100
AcDbLine
 10
0.0
 20
0.0
 30
0.0
 11
-1.0
 21
0.0
 31
0.0
  0
LINE
  5
43
100
AcDbEntity
  8
0
  6
CONTINUOUS
 62
     0
100
AcDbLine
 10
0.0
 20
0.0
 30
0.0
 11
-1.0
 21
0.166667
 31
0.0
  0
LINE
  5
44
100
AcDbEntity
  8
0
  6
CONTINUOUS
 62
     0
100
AcDbLine
 10
0.0
 20
0.0
 30
0.0
 11
-1.0
 21
-0.166667
 31
0.0
  0
LINE
  5
45
100
AcDbEntity
  8
0
  6
CONTINUOUS
 62
     0
100
AcDbLine
 10
0.0
 20
0.0
 30
0.0
 11
-1.0
 21
0.083333
 31
0.0
  0
LINE
  5
46
100
AcDbEntity
  8
0
  6
CONTINUOUS
 62
     0
100
AcDbLine
 10
0.0
 20
0.0
 30
0.0
 11
-1.0
 21
-0.083333
 31
0.0
  0
LINE
  5
47
100
AcDbEntity
  8
0
  6
CONTINUOUS
 62
     0
100
AcDbLine
 10
-1.0
 20
0.166667
 30
0.0
 11
-1.0
 21
-0.166667
 31
0.0
  0
ENDBLK
  5
48
100
AcDbEntity
  8
0
100
AcDbBlockEnd
  0
BLOCK
  5
49
100
AcDbEntity
  8
0
100
AcDbBlockBegin
  2
_EX_BCIR
 70
     0
 10
0.0
 20
0.0
 30
0.0
  3
_EX_BCIR
  1

  0
LINE
  5
4A
100
AcDbEntity
  8
0
  6
CONTINUOUS
 62
     0
100
AcDbLine
 10
0.0
 20
0.0
 30
0.0
 11
-1.0
 21
0.0
 31
0.0
  0
CIRCLE
  5
4B
100
AcDbEntity
  8
0
  6
CONTINUOUS
 62
     0
100
AcDbCircle
 10
0.0
 20
0.0
 30
0.0
 40
0.5
  0
CIRCLE
  5
4C
100
AcDbEntity
  8
0
  6
CONTINUOUS
 62
     0
100
AcDbCircle
 10
0.0
 20
0.0
 30
0.0
 40
0.25
  0
ENDBLK
  5
4D
100
AcDbEntity
  8
0
100
AcDbBlockEnd
  0
BLOCK
  5
4E
100
AcDbEntity
  8
0
100
AcDbBlockBegin
  2
_EX_RCIVIL
 70
     0
 10
0.0
 20
0.0
 30
0.0
  3
_EX_RCIVIL
  1

  0
LINE
  5
4F
100
AcDbEntity
  8
0
  6
CONTINUOUS
 62
     0
100
AcDbLine
 10
0.0
 20
0.0
 30
0.0
 11
-1.0
 21
0.0
 31
0.0
  0
LINE
  5
50
100
AcDbEntity
  8
0
  6
CONTINUOUS
 62
     0
100
AcDbLine
 10
-1.0
 20
-0.25
 30
0.0
 11
0.0
 21
-0.25
 31
0.0
  0
LINE
  5
51
100
AcDbEntity
  8
0
  6
CONTINUOUS
 62
     0
100
AcDbLine
 10
-1.0
 20
-0.125
 30
0.0
 11
0.0
 21
-0.125
 31
0.0
  0
ENDBLK
  5
52
100
AcDbEntity
  8
0
100
AcDbBlockEnd
  0
BLOCK
  5
53
100
AcDbEntity
  8
0
100
AcDbBlockBegin
  2
_EX_SLANT
 70
     0
 10
0.0
 20
0.0
 30
0.0
  3
_EX_SLANT
  1

  0
LINE
  5
54
100
AcDbEntity
  8
0
  6
CONTINUOUS
 62
     0
100
AcDbLine
 10
0.0
 20
0.0
 30
0.0
 11
-1.0
 21
0.0
 31
0.0
  0
LINE
  5
55
100
AcDbEntity
  8
0
  6
CONTINUOUS
 62
     0
100
AcDbLine
 10
0.707107
 20
0.707107
 30
0.0
 11
-0.707107
 21
-0.707107
 31
0.0
  0
ENDBLK
  5
56
100
AcDbEntity
  8
0
100
AcDbBlockEnd
  0
BLOCK
  5
57
100
AcDbEntity
  8
0
100
AcDbBlockBegin
  2
_EX_NONE
 70
     0
 10
0.0
 20
0.0
 30
0.0
  3
_EX_NONE
  1

  0
LINE
  5
58
100
AcDbEntity
  8
0
  6
CONTINUOUS
 62
     0
100
AcDbLine
 10
0.0
 20
0.0
 30
0.0
 11
-1.0
 21
0.0
 31
0.0
  0
ENDBLK
  5
59
100
AcDbEntity
  8
0
100
AcDbBlockEnd
  0
BLOCK
  5
5A
100
AcDbEntity
  8
0
100
AcDbBlockBegin
  2
_EX_CIVIL
 70
     0
 10
0.0
 20
0.0
 30
0.0
  3
_EX_CIVIL
  1

  0
LINE
  5
5B
100
AcDbEntity
  8
0
  6
CONTINUOUS
 62
     0
100
AcDbLine
 10
0.0
 20
0.0
 30
0.0
 11
-1.0
 21
0.0
 31
0.0
  0
LINE
  5
5C
100
AcDbEntity
  8
0
  6
CONTINUOUS
 62
     0
100
AcDbLine
 10
-1.0
 20
0.25
 30
0.0
 11
0.0
 21
0.25
 31
0.0
  0
LINE
  5
5D
100
AcDbEntity
  8
0
  6
CONTINUOUS
 62
     0
100
AcDbLine
 10
-1.0
 20
0.125
 30
0.0
 11
0.0
 21
0.125
 31
0.0
  0
ENDBLK
  5
5E
100
AcDbEntity
  8
0
100
AcDbBlockEnd
  0
BLOCK
  5
5F
100
AcDbEntity
  8
0
100
AcDbBlockBegin
  2
_EX_WCIR
 70
     0
 10
0.0
 20
0.0
 30
0.0
  3
_EX_WCIR
  1

  0
LINE
  5
60
100
AcDbEntity
  8
0
  6
CONTINUOUS
 62
     0
100
AcDbLine
 10
0.0
 20
0.0
 30
0.0
 11
-1.0
 21
0.0
 31
0.0
  0
CIRCLE
  5
61
100
AcDbEntity
  8
0
  6
CONTINUOUS
 62
     0
100
AcDbCircle
 10
0.0
 20
0.0
 30
0.0
 40
0.5
  0
ENDBLK
  5
62
100
AcDbEntity
  8
0
100
AcDbBlockEnd
  0
BLOCK
  5
63
100
AcDbEntity
  8
0
100
AcDbBlockBegin
  2
_EX_WCIR2
 70
     0
 10
0.0
 20
0.0
 30
0.0
  3
_EX_WCIR2
  1

  0
LINE
  5
64
100
AcDbEntity
  8
0
  6
CONTINUOUS
 62
     0
100
AcDbLine
 10
-0.5
 20
0.0
 30
0.0
 11
-1.0
 21
0.0
 31
0.0
  0
CIRCLE
  5
65
100
AcDbEntity
  8
0
  6
CONTINUOUS
 62
     0
100
AcDbCircle
 10
0.0
 20
0.0
 30
0.0
 40
0.5
  0
ENDBLK
  5
66
100
AcDbEntity
  8
0
100
AcDbBlockEnd
  0
BLOCK
  5
67
100
AcDbEntity
  8
0
100
AcDbBlockBegin
  2
_EX_WNORM
 70
     0
 10
0.0
 20
0.0
 30
0.0
  3
_EX_WNORM
  1

  0
LINE
  5
68
100
AcDbEntity
  8
0
  6
CONTINUOUS
 62
     0
100
AcDbLine
 10
-1.0
 20
0.0
 30
0.0
 11
-1.0
 21
0.0
 31
0.0
  0
LINE
  5
69
100
AcDbEntity
  8
0
  6
CONTINUOUS
 62
     0
100
AcDbLine
 10
0.0
 20
0.0
 30
0.0
 11
-1.0
 21
0.166667
 31
0.0
  0
LINE
  5
6A
100
AcDbEntity
  8
0
  6
CONTINUOUS
 62
     0
100
AcDbLine
 10
0.0
 20
0.0
 30
0.0
 11
-1.0
 21
-0.166667
 31
0.0
  0
LINE
  5
6B
100
AcDbEntity
  8
0
  6
CONTINUOUS
 62
     0
100
AcDbLine
 10
-1.0
 20
0.166667
 30
0.0
 11
-1.0
 21
-0.166667
 31
0.0
  0
ENDBLK
  5
6C
100
AcDbEntity
  8
0
100
AcDbBlockEnd
  0
BLOCK
  5
6D
100
AcDbEntity
  8
0
100
AcDbBlockBegin
  2
_EX_NNORM
 70
     0
 10
0.0
 20
0.0
 30
0.0
  3
_EX_NNORM
  1

  0
LINE
  5
6E
100
AcDbEntity
  8
0
  6
CONTINUOUS
 62
     0
100
AcDbLine
 10
0.0
 20
0.0
 30
0.0
 11
-1.0
 21
0.0
 31
0.0
  0
LINE
  5
6F
100
AcDbEntity
  8
0
  6
CONTINUOUS
 62
     0
100
AcDbLine
 10
0.0
 20
0.0
 30
0.0
 11
-1.0
 21
0.166667
 31
0.0
  0
LINE
  5
70
100
AcDbEntity
  8
0
  6
CONTINUOUS
 62
     0
100
AcDbLine
 10
0.0
 20
0.0
 30
0.0
 11
-1.0
 21
-0.166667
 31
0.0
  0
LINE
  5
71
100
AcDbEntity
  8
0
  6
CONTINUOUS
 62
     0
100
AcDbLine
 10
-1.0
 20
0.166667
 30
0.0
 11
-1.0
 21
-0.166667
 31
0.0
  0
ENDBLK
  5
72
100
AcDbEntity
  8
0
100
AcDbBlockEnd
  0
BLOCK
  5
73
100
AcDbEntity
  8
0
100
AcDbBlockBegin
  2
_EX_BBOX
 70
     0
 10
0.0
 20
0.0
 30
0.0
  3
_EX_BBOX
  1

  0
LINE
  5
74
100
AcDbEntity
  8
0
  6
CONTINUOUS
 62
     0
100
AcDbLine
 10
0.0
 20
0.0
 30
0.0
 11
-1.0
 21
0.0
 31
0.0
  0
LINE
  5
75
100
AcDbEntity
  8
0
  6
CONTINUOUS
 62
     0
100
AcDbLine
 10
-0.5
 20
0.5
 30
0.0
 11
0.5
 21
0.5
 31
0.0
  0
LINE
  5
76
100
AcDbEntity
  8
0
  6
CONTINUOUS
 62
     0
100
AcDbLine
 10
0.5
 20
0.5
 30
0.0
 11
0.5
 21
-0.5
 31
0.0
  0
LINE
  5
77
100
AcDbEntity
  8
0
  6
CONTINUOUS
 62
     0
100
AcDbLine
 10
0.5
 20
-0.5
 30
0.0
 11
-0.5
 21
-0.5
 31
0.0
  0
LINE
  5
78
100
AcDbEntity
  8
0
  6
CONTINUOUS
 62
     0
100
AcDbLine
 10
-0.5
 20
-0.5
 30
0.0
 11
-0.5
 21
0.5
 31
0.0
  0
LINE
  5
79
100
AcDbEntity
  8
0
  6
CONTINUOUS
 62
     0
100
AcDbLine
 10
-0.25
 20
0.25
 30
0.0
 11
0.25
 21
0.25
 31
0.0
  0
LINE
  5
7A
100
AcDbEntity
  8
0
  6
CONTINUOUS
 62
     0
100
AcDbLine
 10
0.25
 20
0.25
 30
0.0
 11
0.25
 21
-0.25
 31
0.0
  0
LINE
  5
7B
100
AcDbEntity
  8
0
  6
CONTINUOUS
 62
     0
100
AcDbLine
 10
0.25
 20
-0.25
 30
0.0
 11
-0.25
 21
-0.25
 31
0.0
  0
LINE
  5
7C
100
AcDbEntity
  8
0
  6
CONTINUOUS
 62
     0
100
AcDbLine
 10
-0.25
 20
-0.25
 30
0.0
 11
-0.25
 21
0.25
 31
0.0
  0
ENDBLK
  5
7D
100
AcDbEntity
  8
0
100
AcDbBlockEnd
  0
BLOCK
  5
7E
100
AcDbEntity
  8
0
100
AcDbBlockBegin
  2
_EX_WBOX
 70
     0
 10
0.0
 20
0.0
 30
0.0
  3
_EX_WBOX
  1

  0
LINE
  5
7F
100
AcDbEntity
  8
0
  6
CONTINUOUS
 62
     0
100
AcDbLine
 10
-0.5
 20
0.0
 30
0.0
 11
-1.0
 21
0.0
 31
0.0
  0
LINE
  5
80
100
AcDbEntity
  8
0
  6
CONTINUOUS
 62
     0
100
AcDbLine
 10
-0.5
 20
0.5
 30
0.0
 11
0.5
 21
0.5
 31
0.0
  0
LINE
  5
81
100
AcDbEntity
  8
0
  6
CONTINUOUS
 62
     0
100
AcDbLine
 10
0.5
 20
0.5
 30
0.0
 11
0.5
 21
-0.5
 31
0.0
  0
LINE
  5
82
100
AcDbEntity
  8
0
  6
CONTINUOUS
 62
     0
100
AcDbLine
 10
0.5
 20
-0.5
 30
0.0
 11
-0.5
 21
-0.5
 31
0.0
  0
LINE
  5
83
100
AcDbEntity
  8
0
  6
CONTINUOUS
 62
     0
100
AcDbLine
 10
-0.5
 20
-0.5
 30
0.0
 11
-0.5
 21
0.5
 31
0.0
  0
ENDBLK
  5
84
100
AcDbEntity
  8
0
100
AcDbBlockEnd
  0
BLOCK
  5
85
100
AcDbEntity
  8
0
100
AcDbBlockBegin
  2
_EX_INTEGRAL
 70
     0
 10
0.0
 20
0.0
 30
0.0
  3
_EX_INTEGRAL
  1

  0
LINE
  5
86
100
AcDbEntity
  8
0
  6
CONTINUOUS
 62
     0
100
AcDbLine
 10
0.0
 20
0.0
 30
0.0
 11
-1.0
 21
0.0
 31
0.0
  0
ARC
  5
87
100
AcDbEntity
  8
0
  6
CONTINUOUS
 62
     0
100
AcDbCircle
 10
0.542115
 20
0.164992
 30
0.0
 40
0.56667
100
AcDbArc
 50
73.07249
 51
196.927513
  0
ARC
  5
88
100
AcDbEntity
  8
0
  6
CONTINUOUS
 62
     0
100
AcDbCircle
 10
-0.542115
 20
-0.164992
 30
0.0
 40
0.56667
100
AcDbArc
 50
253.072487
 51
16.927513
  0
ENDBLK
  5
89
100
AcDbEntity
  8
0
100
AcDbBlockEnd
  0
BLOCK
  5
8A
100
AcDbEntity
  8
0
100
AcDbBlockBegin
  2
SYM-1
 70
     0
 10
0.0
 20
0.0
 30
0.0
  3
SYM-1
  1

  0
TEXT
  5
8B
100
AcDbEntity
  8
0
  6
CONTINUOUS
 62
     2
100
AcDbText
 10
-2.7
 20
-1.0
 30
0.0
 40
5.0
  1
Ｐ
 41
0.672
  7
EXCADSTD
 72
     5
 11
0.5
 21
-1.0
 31
0.0
100
AcDbText
  0
TEXT
  5
8C
100
AcDbEntity
  8
0
  6
CONTINUOUS
 62
     2
100
AcDbText
 10
-1.8
 20
-0.9
 30
0.0
 40
5.0
  1
Ｌ
 41
0.672
  7
EXCADSTD
 72
     5
 11
1.4
 21
-0.9
 31
0.0
100
AcDbText
  0
ENDBLK
  5
8D
100
AcDbEntity
  8
0
100
AcDbBlockEnd
  0
ENDSEC
  0
SECTION
  2
ENTITIES
  0
LINE
  5
8E
100
AcDbEntity
  8
LAY-1
  6
CONTINUOUS
 62
     3
100
AcDbLine
 10
117.721313
 20
497.912347
 30
0.0
 11
117.721313
 21
500.112347
 31
0.0
  0
LINE
  5
8F
100
AcDbEntity
  8
LAY-1
  6
CONTINUOUS
 62
     3
100
AcDbLine
 10
136.721313
 20
497.912347
 30
0.0
 11
136.721313
 21
500.112347
 31
0.0
  0
LINE
  5
90
100
AcDbEntity
  8
LAY-1
  6
CONTINUOUS
 62
     3
100
AcDbLine
 10
110.221313
 20
500.912335
 30
0.0
 11
262.221313
 21
500.912335
 31
0.0
  0
LINE
  5
91
100
AcDbEntity
  8
LAY-1
  6
CONTINUOUS
 62
     3
100
AcDbLine
 10
223.221344
 20
507.312329
 30
0.0
 11
223.221344
 21
513.112347
 31
0.0
  0
LINE
  5
92
100
AcDbEntity
  8
LAY-1
  6
CONTINUOUS
 62
     3
100
AcDbLine
 10
233.221329
 20
507.312329
 30
0.0
 11
233.221344
 21
513.112347
 31
0.0
  0
LINE
  5
93
100
AcDbEntity
  8
LAY-1
  6
CONTINUOUS
 62
     3
100
AcDbLine
 10
223.221344
 20
513.112347
 30
0.0
 11
233.221344
 21
513.112347
 31
0.0
  0
LINE
  5
94
100
AcDbEntity
  8
LAY-1
  6
CONTINUOUS
 62
     3
100
AcDbLine
 10
224.721344
 20
517.738965
 30
0.0
 11
224.721344
 21
513.112347
 31
0.0
  0
LINE
  5
95
100
AcDbEntity
  8
LAY-1
  6
CONTINUOUS
 62
     3
100
AcDbLine
 10
231.721344
 20
517.738965
 30
0.0
 11
231.721344
 21
513.112347
 31
0.0
  0
ARC
  5
96
100
AcDbEntity
  8
LAY-1
  6
CONTINUOUS
 62
     3
100
AcDbCircle
 10
228.221359
 20
522.612347
 30
0.0
 40
6.0
100
AcDbArc
 50
305.685302
 51
234.314568
  0
LINE
  5
97
100
AcDbEntity
  8
LAY-1
  6
CONTINUOUS
 62
     3
100
AcDbLine
 10
224.721344
 20
517.738965
 30
0.0
 11
231.721344
 21
517.738965
 31
0.0
  0
ARC
  5
98
100
AcDbEntity
  8
LAY-1
  6
CONTINUOUS
 62
     3
100
AcDbCircle
 10
228.221329
 20
522.612347
 30
0.0
 40
11.0
100
AcDbArc
 50
333.214091
 51
359.999982
  0
ARC
  5
99
100
AcDbEntity
  8
LAY-1
  6
CONTINUOUS
 62
     3
100
AcDbCircle
 10
227.221329
 20
525.112347
 30
0.0
 40
12.0
100
AcDbArc
 50
0.0
 51
98.022021
  0
LINE
  5
9A
100
AcDbEntity
  8
LAY-1
  6
CONTINUOUS
 62
     3
100
AcDbLine
 10
239.221329
 20
525.112347
 30
0.0
 11
239.221329
 21
522.612347
 31
0.0
  0
ARC
  5
9B
100
AcDbEntity
  8
LAY-1
  6
CONTINUOUS
 62
     3
100
AcDbCircle
 10
235.827988
 20
519.008923
 30
0.0
 40
2.5
100
AcDbArc
 50
180.00002
 51
328.367269
  0
LINE
  5
9C
100
AcDbEntity
  8
LAY-1
  6
CONTINUOUS
 62
     3
100
AcDbLine
 10
141.221344
 20
515.12959
 30
0.0
 11
225.560516
 21
536.941479
 31
0.0
  0
LINE
  5
9D
100
AcDbEntity
  8
LAY-1
  6
CONTINUOUS
 62
     3
100
AcDbLine
 10
224.221344
 20
518.14021
 30
0.0
 11
224.221344
 21
515.404401
 31
0.0
  0
ARC
  5
9E
100
AcDbEntity
  8
LAY-1
  6
CONTINUOUS
 62
     3
100
AcDbCircle
 10
223.221344
 20
515.404401
 30
0.0
 40
1.0
100
AcDbArc
 50
283.240597
 51
359.999982
  0
ARC
  5
9F
100
AcDbEntity
  8
LAY-1
  6
CONTINUOUS
 62
     3
100
AcDbCircle
 10
228.221329
 20
522.612347
 30
0.0
 40
6.25
100
AcDbArc
 50
324.791955
 51
228.189706
  0
LINE
  5
A0
100
AcDbEntity
  8
LAY-1
  6
CONTINUOUS
 62
     3
100
AcDbLine
 10
181.948868
 20
509.869
 30
0.0
 11
141.221344
 21
508.671185
 31
0.0
  0
LINE
  5
A1
100
AcDbEntity
  8
LAY-1
  6
CONTINUOUS
 62
     3
100
AcDbLine
 10
191.491928
 20
510.149701
 30
0.0
 11
201.221344
 21
510.435834
 31
0.0
  0
LINE
  5
A2
100
AcDbEntity
  8
LAY-1
  6
CONTINUOUS
 62
     3
100
AcDbLine
 10
201.221344
 20
507.312329
 30
0.0
 11
201.221344
 21
518.412305
 31
0.0
  0
LINE
  5
A3
100
AcDbEntity
  8
LAY-1
  6
CONTINUOUS
 62
     3
100
AcDbLine
 10
213.221344
 20
507.312329
 30
0.0
 11
213.221344
 21
518.412305
 31
0.0
  0
ARC
  5
A4
100
AcDbEntity
  8
LAY-1
  6
CONTINUOUS
 62
     3
100
AcDbCircle
 10
207.221344
 20
518.412305
 30
0.0
 40
6.0
100
AcDbArc
 50
0.0
 51
180.00002
  0
CIRCLE
  5
A5
100
AcDbEntity
  8
LAY-1
  6
CONTINUOUS
 62
     3
100
AcDbCircle
 10
207.221344
 20
518.412305
 30
0.0
 40
4.5
  0
LINE
  5
A6
100
AcDbEntity
  8
LAY-1
  6
CONTINUOUS
 62
     3
100
AcDbLine
 10
213.221344
 20
512.024182
 30
0.0
 11
223.450348
 21
514.430981
 31
0.0
  0
LINE
  5
A7
100
AcDbEntity
  8
LAY-1
  6
CONTINUOUS
 62
     3
100
AcDbLine
 10
268.221313
 20
500.912305
 30
0.0
 11
268.221313
 21
500.112317
 31
0.0
  0
LINE
  5
A8
100
AcDbEntity
  8
LAY-1
  6
CONTINUOUS
 62
     3
100
AcDbLine
 10
81.221313
 20
500.912305
 30
0.0
 11
81.221313
 21
500.112317
 31
0.0
  0
LINE
  5
A9
100
AcDbEntity
  8
LAY-1
  6
CONTINUOUS
 62
     3
100
AcDbLine
 10
262.221298
 20
507.312329
 30
0.0
 11
262.221298
 21
500.912335
 31
0.0
  0
LINE
  5
AA
100
AcDbEntity
  8
LAY-1
  6
CONTINUOUS
 62
     3
100
AcDbLine
 10
87.221313
 20
507.312329
 30
0.0
 11
87.221313
 21
500.912335
 31
0.0
  0
LINE
  5
AB
100
AcDbEntity
  8
LAY-1
  6
CONTINUOUS
 62
     3
100
AcDbLine
 10
268.221313
 20
500.912305
 30
0.0
 11
81.221313
 21
500.912305
 31
0.0
  0
LINE
  5
AC
100
AcDbEntity
  8
LAY-1
  6
CONTINUOUS
 62
     3
100
AcDbLine
 10
268.221313
 20
500.112317
 30
0.0
 11
81.221313
 21
500.112317
 31
0.0
  0
LINE
  5
AD
100
AcDbEntity
  8
LAY-1
  6
CONTINUOUS
 62
     3
100
AcDbLine
 10
268.221313
 20
500.912305
 30
0.0
 11
268.221313
 21
500.112317
 31
0.0
  0
LINE
  5
AE
100
AcDbEntity
  8
LAY-1
  6
CONTINUOUS
 62
     3
100
AcDbLine
 10
81.221313
 20
500.912305
 30
0.0
 11
81.221313
 21
500.112317
 31
0.0
  0
LINE
  5
AF
100
AcDbEntity
  8
LAY-1
  6
CONTINUOUS
 62
     3
100
AcDbLine
 10
87.221306
 20
507.312329
 30
0.0
 11
262.221283
 21
507.312329
 31
0.0
  0
LINE
  5
B0
100
AcDbEntity
  8
LAY-1
  6
CONTINUOUS
 62
     3
100
AcDbLine
 10
87.221306
 20
500.912335
 30
0.0
 11
262.221283
 21
500.912335
 31
0.0
  0
LINE
  5
B1
100
AcDbEntity
  8
LAY-1
  6
CONTINUOUS
 62
     3
100
AcDbLine
 10
262.221283
 20
507.312329
 30
0.0
 11
262.221283
 21
500.912335
 31
0.0
  0
LINE
  5
B2
100
AcDbEntity
  8
LAY-1
  6
CONTINUOUS
 62
     3
100
AcDbLine
 10
87.221306
 20
507.312329
 30
0.0
 11
87.221306
 21
500.912335
 31
0.0
  0
ARC
  5
B3
100
AcDbEntity
  8
LAY-1
  6
CONTINUOUS
 62
     3
100
AcDbCircle
 10
181.978271
 20
508.869427
 30
0.0
 40
1.0
100
AcDbArc
 50
32.083058
 51
91.684649
  0
ARC
  5
B4
100
AcDbEntity
  8
LAY-1
  6
CONTINUOUS
 62
     3
100
AcDbCircle
 10
191.521332
 20
509.150128
 30
0.0
 40
1.0
100
AcDbArc
 50
91.684764
 51
180.00002
  0
LINE
  5
B5
100
AcDbEntity
  8
LAY-1
  6
CONTINUOUS
 62
     3
100
AcDbLine
 10
190.521332
 20
509.150128
 30
0.0
 11
190.521332
 21
507.112347
 31
0.0
  0
LINE
  5
B6
100
AcDbEntity
  8
LAY-1
  6
CONTINUOUS
 62
     3
100
AcDbLine
 10
182.825546
 20
509.400586
 30
0.0
 11
184.26001
 21
507.112347
 31
0.0
  0
CIRCLE
  5
B7
100
AcDbEntity
  8
LAY-1
  6
CONTINUOUS
 62
     3
100
AcDbCircle
 10
540.221344
 20
537.428711
 30
0.0
 40
3.3
  0
CIRCLE
  5
B8
100
AcDbEntity
  8
LAY-1
  6
DASHED2
 62
     3
100
AcDbCircle
 10
540.221344
 20
537.428711
 30
0.0
 40
6.1
  0
CIRCLE
  5
B9
100
AcDbEntity
  8
LAY-1
  6
CONTINUOUS
 62
     3
100
AcDbCircle
 10
540.221344
 20
517.428711
 30
0.0
 40
3.3
  0
CIRCLE
  5
BA
100
AcDbEntity
  8
LAY-1
  6
DASHED2
 62
     3
100
AcDbCircle
 10
540.221344
 20
517.428711
 30
0.0
 40
6.1
  0
CIRCLE
  5
BB
100
AcDbEntity
  8
LAY-1
  6
CONTINUOUS
 62
     3
100
AcDbCircle
 10
418.221313
 20
527.428711
 30
0.0
 40
14.0
  0
CIRCLE
  5
BC
100
AcDbEntity
  8
LAY-1
  6
CONTINUOUS
 62
     3
100
AcDbCircle
 10
418.221313
 20
527.428711
 30
0.0
 40
9.5
  0
CIRCLE
  5
BD
100
AcDbEntity
  8
LAY-1
  6
CONTINUOUS
 62
     3
100
AcDbCircle
 10
418.221313
 20
527.428711
 30
0.0
 40
9.0
  0
LINE
  5
BE
100
AcDbEntity
  8
LAY-1
  6
CONTINUOUS
 62
     3
100
AcDbLine
 10
432.039337
 20
529.67865
 30
0.0
 11
530.221313
 21
529.67865
 31
0.0
  0
LINE
  5
BF
100
AcDbEntity
  8
LAY-1
  6
CONTINUOUS
 62
     3
100
AcDbLine
 10
432.039337
 20
525.17865
 30
0.0
 11
530.221313
 21
525.17865
 31
0.0
  0
LINE
  5
C0
100
AcDbEntity
  8
LAY-1
  6
CONTINUOUS
 62
     3
100
AcDbLine
 10
530.221313
 20
529.67865
 30
0.0
 11
530.221313
 21
525.17865
 31
0.0
  0
LINE
  5
C1
100
AcDbEntity
  8
LAY-1
  6
CONTINUOUS
 62
     3
100
AcDbLine
 10
504.22049
 20
524.928711
 30
0.0
 11
492.222137
 21
524.92865
 31
0.0
  0
LINE
  5
C2
100
AcDbEntity
  8
LAY-1
  6
CONTINUOUS
 62
     3
100
AcDbLine
 10
504.220459
 20
529.92865
 30
0.0
 11
492.222137
 21
529.92865
 31
0.0
  0
LINE
  5
C3
100
AcDbEntity
  8
LAY-1
  6
CONTINUOUS
 62
     3
100
AcDbLine
 10
504.22049
 20
521.728638
 30
0.0
 11
492.222137
 21
521.728638
 31
0.0
  0
LINE
  5
C4
100
AcDbEntity
  8
LAY-1
  6
CONTINUOUS
 62
     3
100
AcDbLine
 10
504.220459
 20
533.128662
 30
0.0
 11
492.222137
 21
533.128662
 31
0.0
  0
LINE
  5
C5
100
AcDbEntity
  8
LAY-1
  6
CONTINUOUS
 62
     3
100
AcDbLine
 10
492.222137
 20
521.728638
 30
0.0
 11
492.222137
 21
524.92865
 31
0.0
  0
LINE
  5
C6
100
AcDbEntity
  8
LAY-1
  6
CONTINUOUS
 62
     3
100
AcDbLine
 10
492.222137
 20
529.92865
 30
0.0
 11
492.222137
 21
533.128662
 31
0.0
  0
LINE
  5
C7
100
AcDbEntity
  8
LAY-1
  6
CONTINUOUS
 62
     3
100
AcDbLine
 10
504.22049
 20
521.728638
 30
0.0
 11
504.22049
 21
524.92865
 31
0.0
  0
LINE
  5
C8
100
AcDbEntity
  8
LAY-1
  6
CONTINUOUS
 62
     3
100
AcDbLine
 10
504.22049
 20
529.92865
 30
0.0
 11
504.22049
 21
533.128662
 31
0.0
  0
LINE
  5
C9
100
AcDbEntity
  8
LAY-1
  6
CONTINUOUS
 62
     3
100
AcDbLine
 10
493.721344
 20
519.728638
 30
0.0
 11
502.721344
 21
519.728638
 31
0.0
  0
LINE
  5
CA
100
AcDbEntity
  8
LAY-1
  6
CONTINUOUS
 62
     3
100
AcDbLine
 10
502.721344
 20
521.728638
 30
0.0
 11
493.721344
 21
521.728638
 31
0.0
  0
LINE
  5
CB
100
AcDbEntity
  8
LAY-1
  6
CONTINUOUS
 62
     3
100
AcDbLine
 10
493.721344
 20
519.728638
 30
0.0
 11
493.721344
 21
521.728638
 31
0.0
  0
LINE
  5
CC
100
AcDbEntity
  8
LAY-1
  6
CONTINUOUS
 62
     3
100
AcDbLine
 10
502.721344
 20
519.728638
 30
0.0
 11
502.721344
 21
521.728638
 31
0.0
  0
LINE
  5
CD
100
AcDbEntity
  8
LAY-1
  6
CONTINUOUS
 62
     3
100
AcDbLine
 10
495.721344
 20
536.728638
 30
0.0
 11
500.721344
 21
536.728638
 31
0.0
  0
LINE
  5
CE
100
AcDbEntity
  8
LAY-1
  6
CONTINUOUS
 62
     3
100
AcDbLine
 10
500.721344
 20
536.728638
 30
0.0
 11
500.721344
 21
533.128662
 31
0.0
  0
LINE
  5
CF
100
AcDbEntity
  8
LAY-1
  6
CONTINUOUS
 62
     3
100
AcDbLine
 10
495.721344
 20
536.728638
 30
0.0
 11
495.721344
 21
533.128662
 31
0.0
  0
ARC
  5
D0
100
AcDbEntity
  8
LAY-1
  6
CONTINUOUS
 62
     3
100
AcDbCircle
 10
519.221313
 20
527.42865
 30
0.0
 40
6.0
100
AcDbArc
 50
22.024326
 51
156.695248
  0
ARC
  5
D1
100
AcDbEntity
  8
LAY-1
  6
CONTINUOUS
 62
     3
100
AcDbCircle
 10
519.221313
 20
527.42865
 30
0.0
 40
6.0
100
AcDbArc
 50
202.346692
 51
338.735456
  0
ARC
  5
D2
100
AcDbEntity
  8
LAY-1
  6
DASHED2
 62
     3
100
AcDbCircle
 10
519.221313
 20
527.42865
 30
0.0
 40
6.0
100
AcDbArc
 50
156.695363
 51
202.346577
  0
ARC
  5
D3
100
AcDbEntity
  8
LAY-1
  6
DASHED2
 62
     3
100
AcDbCircle
 10
519.221313
 20
527.42865
 30
0.0
 40
6.0
100
AcDbArc
 50
337.653425
 51
23.30464
  0
ARC
  5
D4
100
AcDbEntity
  8
LAY-1
  6
CONTINUOUS
 62
     3
100
AcDbCircle
 10
478.221313
 20
527.428711
 30
0.0
 40
5.0
100
AcDbArc
 50
26.742862
 51
153.2571
  0
ARC
  5
D5
100
AcDbEntity
  8
LAY-1
  6
DASHED2
 62
     3
100
AcDbCircle
 10
478.221313
 20
527.428711
 30
0.0
 40
5.0
100
AcDbArc
 50
153.2571
 51
206.744429
  0
ARC
  5
D6
100
AcDbEntity
  8
LAY-1
  6
CONTINUOUS
 62
     3
100
AcDbCircle
 10
478.221313
 20
527.428711
 30
0.0
 40
5.0
100
AcDbArc
 50
206.744429
 51
333.255573
  0
ARC
  5
D7
100
AcDbEntity
  8
LAY-1
  6
DASHED2
 62
     3
100
AcDbCircle
 10
478.221313
 20
527.428711
 30
0.0
 40
5.0
100
AcDbArc
 50
333.255573
 51
26.742902
  0
LINE
  5
D8
100
AcDbEntity
  8
LAY-1
  6
CONTINUOUS
 62
     3
100
AcDbLine
 10
378.221313
 20
510.428711
 30
0.0
 11
553.221313
 21
510.428711
 31
0.0
  0
LINE
  5
D9
100
AcDbEntity
  8
LAY-1
  6
CONTINUOUS
 62
     3
100
AcDbLine
 10
553.221313
 20
510.428711
 30
0.0
 11
553.221313
 21
544.428711
 31
0.0
  0
LINE
  5
DA
100
AcDbEntity
  8
LAY-1
  6
CONTINUOUS
 62
     3
100
AcDbLine
 10
553.221313
 20
544.428711
 30
0.0
 11
378.221313
 21
544.428711
 31
0.0
  0
LINE
  5
DB
100
AcDbEntity
  8
LAY-1
  6
CONTINUOUS
 62
     3
100
AcDbLine
 10
378.221313
 20
544.428711
 30
0.0
 11
378.221313
 21
510.428711
 31
0.0
  0
CIRCLE
  5
DC
100
AcDbEntity
  8
LAY-1
  6
DASHED2
 62
     3
100
AcDbCircle
 10
388.221313
 20
537.428711
 30
0.0
 40
6.1
  0
CIRCLE
  5
DD
100
AcDbEntity
  8
LAY-1
  6
CONTINUOUS
 62
     3
100
AcDbCircle
 10
388.221313
 20
537.428711
 30
0.0
 40
3.3
  0
CIRCLE
  5
DE
100
AcDbEntity
  8
LAY-1
  6
DASHED2
 62
     3
100
AcDbCircle
 10
388.221313
 20
517.428711
 30
0.0
 40
6.1
  0
CIRCLE
  5
DF
100
AcDbEntity
  8
LAY-1
  6
CONTINUOUS
 62
     3
100
AcDbCircle
 10
388.221313
 20
517.428711
 30
0.0
 40
3.3
  0
LINE
  5
E0
100
AcDbEntity
  8
LAY-1
  6
CONTINUOUS
 62
     3
100
AcDbLine
 10
372.221313
 20
507.428711
 30
0.0
 11
559.221313
 21
507.428711
 31
0.0
  0
LINE
  5
E1
100
AcDbEntity
  8
LAY-1
  6
CONTINUOUS
 62
     3
100
AcDbLine
 10
559.221313
 20
507.428711
 30
0.0
 11
559.221313
 21
547.428711
 31
0.0
  0
LINE
  5
E2
100
AcDbEntity
  8
LAY-1
  6
CONTINUOUS
 62
     3
100
AcDbLine
 10
559.221313
 20
547.428711
 30
0.0
 11
372.221313
 21
547.428711
 31
0.0
  0
LINE
  5
E3
100
AcDbEntity
  8
LAY-1
  6
CONTINUOUS
 62
     3
100
AcDbLine
 10
372.221313
 20
547.428711
 30
0.0
 11
372.221313
 21
507.428711
 31
0.0
  0
LINE
  5
E4
100
AcDbEntity
  8
LAY-1
  6
CONTINUOUS
 62
     3
100
AcDbLine
 10
679.078491
 20
509.112347
 30
0.0
 11
679.078491
 21
511.312347
 31
0.0
  0
LINE
  5
E5
100
AcDbEntity
  8
LAY-1
  6
CONTINUOUS
 62
     3
100
AcDbLine
 10
698.078491
 20
509.112347
 30
0.0
 11
698.078491
 21
511.312347
 31
0.0
  0
LINE
  5
E6
100
AcDbEntity
  8
LAY-1
  6
CONTINUOUS
 62
     3
100
AcDbLine
 10
708.57843
 20
511.312347
 30
0.0
 11
668.57843
 21
511.312347
 31
0.0
  0
LINE
  5
E7
100
AcDbEntity
  8
LAY-1
  6
CONTINUOUS
 62
     3
100
AcDbLine
 10
708.57843
 20
512.112335
 30
0.0
 11
668.57843
 21
512.112335
 31
0.0
  0
LINE
  5
E8
100
AcDbEntity
  8
LAY-1
  6
CONTINUOUS
 62
     3
100
AcDbLine
 10
708.57843
 20
512.112335
 30
0.0
 11
708.57843
 21
511.312347
 31
0.0
  0
LINE
  5
E9
100
AcDbEntity
  8
LAY-1
  6
CONTINUOUS
 62
     3
100
AcDbLine
 10
668.57843
 20
512.112335
 30
0.0
 11
668.57843
 21
511.312347
 31
0.0
  0
LINE
  5
EA
100
AcDbEntity
  8
LAY-1
  6
CONTINUOUS
 62
     3
100
AcDbLine
 10
671.57843
 20
512.112335
 30
0.0
 11
671.57843
 21
518.512329
 31
0.0
  0
LINE
  5
EB
100
AcDbEntity
  8
LAY-1
  6
CONTINUOUS
 62
     3
100
AcDbLine
 10
705.57843
 20
512.112335
 30
0.0
 11
705.57843
 21
518.512329
 31
0.0
  0
LINE
  5
EC
100
AcDbEntity
  8
LAY-1
  6
CONTINUOUS
 62
     3
100
AcDbLine
 10
671.57843
 20
518.512329
 30
0.0
 11
705.57843
 21
518.512329
 31
0.0
  0
LINE
  5
ED
100
AcDbEntity
  8
LAY-1
  6
CONTINUOUS
 62
     3
100
AcDbLine
 10
702.578491
 20
552.062378
 30
0.0
 11
674.578491
 21
552.062378
 31
0.0
  0
LINE
  5
EE
100
AcDbEntity
  8
LAY-1
  6
CONTINUOUS
 62
     3
100
AcDbLine
 10
702.578491
 20
518.512329
 30
0.0
 11
702.578491
 21
552.062378
 31
0.0
  0
LINE
  5
EF
100
AcDbEntity
  8
LAY-1
  6
CONTINUOUS
 62
     3
100
AcDbLine
 10
674.578491
 20
552.062378
 30
0.0
 11
674.578491
 21
518.512329
 31
0.0
  0
LINE
  5
F0
100
AcDbEntity
  8
LAY-1
  6
CONTINUOUS
 62
     1
100
AcDbLine
 10
223.721344
 20
507.312329
 30
0.0
 11
223.721344
 21
513.112347
 31
0.0
  0
LINE
  5
F1
100
AcDbEntity
  8
LAY-1
  6
CONTINUOUS
 62
     1
100
AcDbLine
 10
232.721329
 20
507.312329
 30
0.0
 11
232.721344
 21
513.112347
 31
0.0
  0
LINE
  5
F2
100
AcDbEntity
  8
LAY-1
  6
DASHED2
 62
     3
100
AcDbLine
 10
243.221313
 20
501.312329
 30
0.0
 11
243.221313
 21
500.912335
 31
0.0
  0
LINE
  5
F3
100
AcDbEntity
  8
LAY-1
  6
DASHED2
 62
     3
100
AcDbLine
 10
249.221313
 20
501.312329
 30
0.0
 11
243.221313
 21
501.312329
 31
0.0
  0
LINE
  5
F4
100
AcDbEntity
  8
LAY-1
  6
DASHED2
 62
     3
100
AcDbLine
 10
246.221313
 20
504.312329
 30
0.0
 11
246.221313
 21
511.412335
 31
0.0
  0
LINE
  5
F5
100
AcDbEntity
  8
LAY-1
  6
DASHED2
 62
     3
100
AcDbLine
 10
249.221313
 20
504.312329
 30
0.0
 11
246.221313
 21
504.312329
 31
0.0
  0
LINE
  5
F6
100
AcDbEntity
  8
LAY-1
  6
DASHED2
 62
     3
100
AcDbLine
 10
246.221313
 20
504.312329
 30
0.0
 11
243.221313
 21
501.312329
 31
0.0
  0
LINE
  5
F7
100
AcDbEntity
  8
LAY-1
  6
DASHED2
 62
     1
100
AcDbLine
 10
246.721313
 20
504.312329
 30
0.0
 11
246.721313
 21
511.412335
 31
0.0
  0
LINE
  5
F8
100
AcDbEntity
  8
LAY-1
  6
DASHED2
 62
     1
100
AcDbLine
 10
251.721313
 20
504.312329
 30
0.0
 11
251.721313
 21
511.412335
 31
0.0
  0
LINE
  5
F9
100
AcDbEntity
  8
LAY-1
  6
DASHED2
 62
     3
100
AcDbLine
 10
252.221313
 20
504.312329
 30
0.0
 11
252.221313
 21
511.412335
 31
0.0
  0
LINE
  5
FA
100
AcDbEntity
  8
LAY-1
  6
DASHED2
 62
     3
100
AcDbLine
 10
249.221313
 20
504.312329
 30
0.0
 11
252.221313
 21
504.312329
 31
0.0
  0
LINE
  5
FB
100
AcDbEntity
  8
LAY-1
  6
DASHED2
 62
     3
100
AcDbLine
 10
252.221313
 20
504.312329
 30
0.0
 11
255.221313
 21
501.312329
 31
0.0
  0
LINE
  5
FC
100
AcDbEntity
  8
LAY-1
  6
DASHED2
 62
     3
100
AcDbLine
 10
255.221313
 20
501.312329
 30
0.0
 11
255.221313
 21
500.912335
 31
0.0
  0
LINE
  5
FD
100
AcDbEntity
  8
LAY-1
  6
DASHED2
 62
     3
100
AcDbLine
 10
249.221313
 20
501.312329
 30
0.0
 11
255.221313
 21
501.312329
 31
0.0
  0
LINE
  5
FE
100
AcDbEntity
  8
LAY-1
  6
DASHED2
 62
     3
100
AcDbLine
 10
91.221313
 20
501.312329
 30
0.0
 11
91.221313
 21
500.912335
 31
0.0
  0
LINE
  5
FF
100
AcDbEntity
  8
LAY-1
  6
DASHED2
 62
     3
100
AcDbLine
 10
97.221313
 20
501.312329
 30
0.0
 11
91.221313
 21
501.312329
 31
0.0
  0
LINE
  5
100
100
AcDbEntity
  8
LAY-1
  6
DASHED2
 62
     3
100
AcDbLine
 10
94.221313
 20
504.312329
 30
0.0
 11
94.221313
 21
511.412335
 31
0.0
  0
LINE
  5
101
100
AcDbEntity
  8
LAY-1
  6
DASHED2
 62
     3
100
AcDbLine
 10
97.221313
 20
504.312329
 30
0.0
 11
94.221313
 21
504.312329
 31
0.0
  0
LINE
  5
102
100
AcDbEntity
  8
LAY-1
  6
DASHED2
 62
     3
100
AcDbLine
 10
94.221313
 20
504.312329
 30
0.0
 11
91.221313
 21
501.312329
 31
0.0
  0
LINE
  5
103
100
AcDbEntity
  8
LAY-1
  6
DASHED2
 62
     1
100
AcDbLine
 10
94.721313
 20
504.312329
 30
0.0
 11
94.721313
 21
511.412335
 31
0.0
  0
LINE
  5
104
100
AcDbEntity
  8
LAY-1
  6
DASHED2
 62
     1
100
AcDbLine
 10
99.721313
 20
504.312329
 30
0.0
 11
99.721313
 21
511.412335
 31
0.0
  0
LINE
  5
105
100
AcDbEntity
  8
LAY-1
  6
DASHED2
 62
     3
100
AcDbLine
 10
100.221313
 20
504.312329
 30
0.0
 11
100.221313
 21
511.412335
 31
0.0
  0
LINE
  5
106
100
AcDbEntity
  8
LAY-1
  6
DASHED2
 62
     3
100
AcDbLine
 10
97.221313
 20
504.312329
 30
0.0
 11
100.221313
 21
504.312329
 31
0.0
  0
LINE
  5
107
100
AcDbEntity
  8
LAY-1
  6
DASHED2
 62
     3
100
AcDbLine
 10
100.221313
 20
504.312329
 30
0.0
 11
103.221313
 21
501.312329
 31
0.0
  0
LINE
  5
108
100
AcDbEntity
  8
LAY-1
  6
DASHED2
 62
     3
100
AcDbLine
 10
103.221313
 20
501.312329
 30
0.0
 11
103.221313
 21
500.912335
 31
0.0
  0
LINE
  5
109
100
AcDbEntity
  8
LAY-1
  6
DASHED2
 62
     3
100
AcDbLine
 10
97.221313
 20
501.312329
 30
0.0
 11
103.221313
 21
501.312329
 31
0.0
  0
LINE
  5
10A
100
AcDbEntity
  8
LAY-1
  6
CONTINUOUS
 62
     3
100
AcDbLine
 10
94.221313
 20
517.312335
 30
0.0
 11
97.221313
 21
517.312335
 31
0.0
  0
LINE
  5
10B
100
AcDbEntity
  8
LAY-1
  6
CONTINUOUS
 62
     3
100
AcDbLine
 10
94.221313
 20
511.412335
 30
0.0
 11
94.221313
 21
517.312335
 31
0.0
  0
LINE
  5
10C
100
AcDbEntity
  8
LAY-1
  6
CONTINUOUS
 62
     1
100
AcDbLine
 10
94.721313
 20
511.412335
 30
0.0
 11
94.721313
 21
517.312335
 31
0.0
  0
LINE
  5
10D
100
AcDbEntity
  8
LAY-1
  6
CONTINUOUS
 62
     3
100
AcDbLine
 10
100.221313
 20
517.312335
 30
0.0
 11
97.221313
 21
517.312335
 31
0.0
  0
LINE
  5
10E
100
AcDbEntity
  8
LAY-1
  6
CONTINUOUS
 62
     1
100
AcDbLine
 10
99.721313
 20
511.412335
 30
0.0
 11
99.721313
 21
517.312335
 31
0.0
  0
LINE
  5
10F
100
AcDbEntity
  8
LAY-1
  6
CONTINUOUS
 62
     3
100
AcDbLine
 10
100.221313
 20
511.412335
 30
0.0
 11
100.221313
 21
517.312335
 31
0.0
  0
LINE
  5
110
100
AcDbEntity
  8
LAY-1
  6
CONTINUOUS
 62
     3
100
AcDbLine
 10
246.221313
 20
517.312335
 30
0.0
 11
249.221313
 21
517.312335
 31
0.0
  0
LINE
  5
111
100
AcDbEntity
  8
LAY-1
  6
CONTINUOUS
 62
     3
100
AcDbLine
 10
246.221313
 20
511.412335
 30
0.0
 11
246.221313
 21
517.312335
 31
0.0
  0
LINE
  5
112
100
AcDbEntity
  8
LAY-1
  6
CONTINUOUS
 62
     1
100
AcDbLine
 10
246.721313
 20
511.412335
 30
0.0
 11
246.721313
 21
517.312335
 31
0.0
  0
LINE
  5
113
100
AcDbEntity
  8
LAY-1
  6
CONTINUOUS
 62
     3
100
AcDbLine
 10
252.221313
 20
517.312335
 30
0.0
 11
249.221313
 21
517.312335
 31
0.0
  0
LINE
  5
114
100
AcDbEntity
  8
LAY-1
  6
CONTINUOUS
 62
     1
100
AcDbLine
 10
251.721313
 20
511.412335
 30
0.0
 11
251.721313
 21
517.312335
 31
0.0
  0
LINE
  5
115
100
AcDbEntity
  8
LAY-1
  6
CONTINUOUS
 62
     3
100
AcDbLine
 10
252.221313
 20
511.412335
 30
0.0
 11
252.221313
 21
517.312335
 31
0.0
  0
LINE
  5
116
100
AcDbEntity
  8
LAY-1
  6
CONTINUOUS
 62
     3
100
AcDbLine
 10
141.221344
 20
507.312329
 30
0.0
 11
141.221344
 21
540.912323
 31
0.0
  0
LINE
  5
117
100
AcDbEntity
  8
LAY-1
  6
CONTINUOUS
 62
     3
100
AcDbLine
 10
141.221344
 20
540.912323
 30
0.0
 11
113.221344
 21
540.912323
 31
0.0
  0
LINE
  5
118
100
AcDbEntity
  8
LAY-1
  6
CONTINUOUS
 62
     3
100
AcDbLine
 10
113.221344
 20
540.912323
 30
0.0
 11
113.221344
 21
507.312329
 31
0.0
  0
LINE
  5
119
100
AcDbEntity
  8
LAY-2
  6
CONTINUOUS
 62
     3
100
AcDbLine
 10
705.57843
 20
502.612347
 30
0.0
 11
671.57843
 21
502.612347
 31
0.0
  0
LINE
  5
11A
100
AcDbEntity
  8
LAY-2
  6
CONTINUOUS
 62
     3
100
AcDbLine
 10
705.57843
 20
509.112347
 30
0.0
 11
671.57843
 21
509.112347
 31
0.0
  0
LINE
  5
11B
100
AcDbEntity
  8
LAY-2
  6
CONTINUOUS
 62
     3
100
AcDbLine
 10
705.57843
 20
509.112347
 30
0.0
 11
705.57843
 21
502.612347
 31
0.0
  0
LINE
  5
11C
100
AcDbEntity
  8
LAY-2
  6
CONTINUOUS
 62
     3
100
AcDbLine
 10
671.57843
 20
509.112347
 30
0.0
 11
671.57843
 21
502.612347
 31
0.0
  0
LINE
  5
11D
100
AcDbEntity
  8
LAY-2
  6
CONTINUOUS
 62
     3
100
AcDbLine
 10
676.57843
 20
487.112347
 30
0.0
 11
700.57843
 21
487.112347
 31
0.0
  0
ARC
  5
11E
100
AcDbEntity
  8
LAY-2
  6
CONTINUOUS
 62
     3
100
AcDbCircle
 10
676.57843
 20
490.112347
 30
0.0
 40
3.0
100
AcDbArc
 50
180.00002
 51
270.0
  0
ARC
  5
11F
100
AcDbEntity
  8
LAY-2
  6
CONTINUOUS
 62
     3
100
AcDbCircle
 10
700.57843
 20
490.112347
 30
0.0
 40
3.0
100
AcDbArc
 50
270.0
 51
359.999982
  0
LINE
  5
120
100
AcDbEntity
  8
LAY-2
  6
CONTINUOUS
 62
     3
100
AcDbLine
 10
703.57843
 20
502.612347
 30
0.0
 11
703.57843
 21
490.112347
 31
0.0
  0
LINE
  5
121
100
AcDbEntity
  8
LAY-2
  6
CONTINUOUS
 62
     3
100
AcDbLine
 10
673.57843
 20
502.612347
 30
0.0
 11
673.57843
 21
490.112347
 31
0.0
  0
LINE
  5
122
100
AcDbEntity
  8
LAY-2
  6
CONTINUOUS
 62
     3
100
AcDbLine
 10
553.221313
 20
434.161377
 30
0.0
 11
553.221313
 21
468.161377
 31
0.0
  0
CIRCLE
  5
123
100
AcDbEntity
  8
LAY-2
  6
CONTINUOUS
 62
     3
100
AcDbCircle
 10
418.221313
 20
451.161377
 30
0.0
 40
9.5
  0
CIRCLE
  5
124
100
AcDbEntity
  8
LAY-2
  6
CONTINUOUS
 62
     3
100
AcDbCircle
 10
418.221313
 20
451.161377
 30
0.0
 40
12.7
  0
LINE
  5
125
100
AcDbEntity
  8
LAY-2
  6
CONTINUOUS
 62
     3
100
AcDbLine
 10
378.221313
 20
468.161377
 30
0.0
 11
378.221313
 21
434.161377
 31
0.0
  0
LINE
  5
126
100
AcDbEntity
  8
LAY-2
  6
CONTINUOUS
 62
     3
100
AcDbLine
 10
378.221313
 20
434.161377
 30
0.0
 11
553.221313
 21
434.161377
 31
0.0
  0
LINE
  5
127
100
AcDbEntity
  8
LAY-2
  6
CONTINUOUS
 62
     3
100
AcDbLine
 10
553.221313
 20
468.161377
 30
0.0
 11
378.221313
 21
468.161377
 31
0.0
  0
LINE
  5
128
100
AcDbEntity
  8
LAY-2
  6
CONTINUOUS
 62
     3
100
AcDbLine
 10
262.221344
 20
491.512323
 30
0.0
 11
262.221344
 21
497.912347
 31
0.0
  0
LINE
  5
129
100
AcDbEntity
  8
LAY-2
  6
CONTINUOUS
 62
     3
100
AcDbLine
 10
115.221313
 20
475.912286
 30
0.0
 11
139.221313
 21
475.912286
 31
0.0
  0
ARC
  5
12A
100
AcDbEntity
  8
LAY-2
  6
CONTINUOUS
 62
     3
100
AcDbCircle
 10
115.221313
 20
478.912286
 30
0.0
 40
3.0
100
AcDbArc
 50
180.00002
 51
270.0
  0
ARC
  5
12B
100
AcDbEntity
  8
LAY-2
  6
CONTINUOUS
 62
     3
100
AcDbCircle
 10
139.221313
 20
478.912286
 30
0.0
 40
3.0
100
AcDbArc
 50
270.0
 51
359.999982
  0
LINE
  5
12C
100
AcDbEntity
  8
LAY-2
  6
CONTINUOUS
 62
     3
100
AcDbLine
 10
142.221306
 20
491.512292
 30
0.0
 11
142.221313
 21
478.912286
 31
0.0
  0
LINE
  5
12D
100
AcDbEntity
  8
LAY-2
  6
CONTINUOUS
 62
     3
100
AcDbLine
 10
112.221313
 20
491.512292
 30
0.0
 11
112.221313
 21
478.912286
 31
0.0
  0
LINE
  5
12E
100
AcDbEntity
  8
LAY-2
  6
CONTINUOUS
 62
     3
100
AcDbLine
 10
87.221313
 20
497.912347
 30
0.0
 11
87.221313
 21
491.512323
 31
0.0
  0
LINE
  5
12F
100
AcDbEntity
  8
LAY-2
  6
CONTINUOUS
 62
     3
100
AcDbLine
 10
87.221313
 20
491.512323
 30
0.0
 11
262.221344
 21
491.512323
 31
0.0
  0
LINE
  5
130
100
AcDbEntity
  8
LAY-2
  6
CONTINUOUS
 62
     3
100
AcDbLine
 10
262.221344
 20
497.912347
 30
0.0
 11
87.221313
 21
497.912347
 31
0.0
  0
CIRCLE
  5
131
100
AcDbEntity
  8
LAY-2
  6
CONTINUOUS
 62
     3
100
AcDbCircle
 10
388.221283
 20
461.161377
 30
0.0
 40
6.1
  0
CIRCLE
  5
132
100
AcDbEntity
  8
LAY-2
  6
CONTINUOUS
 62
     3
100
AcDbCircle
 10
388.221283
 20
461.161377
 30
0.0
 40
3.3
  0
CIRCLE
  5
133
100
AcDbEntity
  8
LAY-2
  6
CONTINUOUS
 62
     3
100
AcDbCircle
 10
388.221283
 20
441.161377
 30
0.0
 40
6.1
  0
CIRCLE
  5
134
100
AcDbEntity
  8
LAY-2
  6
CONTINUOUS
 62
     3
100
AcDbCircle
 10
388.221283
 20
441.161377
 30
0.0
 40
3.3
  0
CIRCLE
  5
135
100
AcDbEntity
  8
LAY-2
  6
CONTINUOUS
 62
     3
100
AcDbCircle
 10
448.221313
 20
451.161438
 30
0.0
 40
6.1
  0
CIRCLE
  5
136
100
AcDbEntity
  8
LAY-2
  6
CONTINUOUS
 62
     3
100
AcDbCircle
 10
448.221313
 20
451.161438
 30
0.0
 40
3.3
  0
CIRCLE
  5
137
100
AcDbEntity
  8
LAY-2
  6
CONTINUOUS
 62
     3
100
AcDbCircle
 10
540.221344
 20
461.161438
 30
0.0
 40
6.1
  0
CIRCLE
  5
138
100
AcDbEntity
  8
LAY-2
  6
CONTINUOUS
 62
     3
100
AcDbCircle
 10
540.221344
 20
461.161438
 30
0.0
 40
3.3
  0
CIRCLE
  5
139
100
AcDbEntity
  8
LAY-2
  6
CONTINUOUS
 62
     3
100
AcDbCircle
 10
540.221344
 20
441.161438
 30
0.0
 40
6.1
  0
CIRCLE
  5
13A
100
AcDbEntity
  8
LAY-2
  6
CONTINUOUS
 62
     3
100
AcDbCircle
 10
540.221344
 20
441.161438
 30
0.0
 40
3.3
  0
LINE
  5
13B
100
AcDbEntity
  8
LAY-2
  6
DASHED2
 62
     3
100
AcDbLine
 10
91.221313
 20
497.512304
 30
0.0
 11
91.221313
 21
497.912298
 31
0.0
  0
LINE
  5
13C
100
AcDbEntity
  8
LAY-2
  6
DASHED2
 62
     3
100
AcDbLine
 10
91.221313
 20
497.512304
 30
0.0
 11
97.221313
 21
497.512304
 31
0.0
  0
LINE
  5
13D
100
AcDbEntity
  8
LAY-2
  6
DASHED2
 62
     3
100
AcDbLine
 10
94.221313
 20
494.512304
 30
0.0
 11
94.221313
 21
487.412298
 31
0.0
  0
LINE
  5
13E
100
AcDbEntity
  8
LAY-2
  6
DASHED2
 62
     3
100
AcDbLine
 10
94.221313
 20
494.512304
 30
0.0
 11
97.221313
 21
494.512304
 31
0.0
  0
LINE
  5
13F
100
AcDbEntity
  8
LAY-2
  6
DASHED2
 62
     3
100
AcDbLine
 10
91.221313
 20
497.512304
 30
0.0
 11
94.221313
 21
494.512304
 31
0.0
  0
LINE
  5
140
100
AcDbEntity
  8
LAY-2
  6
DASHED2
 62
     1
100
AcDbLine
 10
94.721313
 20
494.512304
 30
0.0
 11
94.721313
 21
487.412298
 31
0.0
  0
LINE
  5
141
100
AcDbEntity
  8
LAY-2
  6
DASHED2
 62
     3
100
AcDbLine
 10
100.221313
 20
494.512304
 30
0.0
 11
97.221313
 21
494.512304
 31
0.0
  0
LINE
  5
142
100
AcDbEntity
  8
LAY-2
  6
DASHED2
 62
     3
100
AcDbLine
 10
103.221313
 20
497.512304
 30
0.0
 11
100.221313
 21
494.512304
 31
0.0
  0
LINE
  5
143
100
AcDbEntity
  8
LAY-2
  6
DASHED2
 62
     3
100
AcDbLine
 10
103.221313
 20
497.512304
 30
0.0
 11
97.221313
 21
497.512304
 31
0.0
  0
LINE
  5
144
100
AcDbEntity
  8
LAY-2
  6
DASHED2
 62
     3
100
AcDbLine
 10
103.221313
 20
497.512304
 30
0.0
 11
103.221313
 21
497.912298
 31
0.0
  0
LINE
  5
145
100
AcDbEntity
  8
LAY-2
  6
DASHED2
 62
     3
100
AcDbLine
 10
100.221313
 20
494.512304
 30
0.0
 11
100.221313
 21
487.412298
 31
0.0
  0
LINE
  5
146
100
AcDbEntity
  8
LAY-2
  6
DASHED2
 62
     1
100
AcDbLine
 10
99.721313
 20
494.512304
 30
0.0
 11
99.721313
 21
487.412298
 31
0.0
  0
LINE
  5
147
100
AcDbEntity
  8
LAY-2
  6
DASHED2
 62
     3
100
AcDbLine
 10
151.221313
 20
497.512304
 30
0.0
 11
151.221313
 21
497.912298
 31
0.0
  0
LINE
  5
148
100
AcDbEntity
  8
LAY-2
  6
DASHED2
 62
     3
100
AcDbLine
 10
151.221313
 20
497.512304
 30
0.0
 11
157.221313
 21
497.512304
 31
0.0
  0
LINE
  5
149
100
AcDbEntity
  8
LAY-2
  6
DASHED2
 62
     3
100
AcDbLine
 10
154.221313
 20
494.512304
 30
0.0
 11
154.221313
 21
487.412298
 31
0.0
  0
LINE
  5
14A
100
AcDbEntity
  8
LAY-2
  6
DASHED2
 62
     3
100
AcDbLine
 10
154.221313
 20
494.512304
 30
0.0
 11
157.221313
 21
494.512304
 31
0.0
  0
LINE
  5
14B
100
AcDbEntity
  8
LAY-2
  6
DASHED2
 62
     3
100
AcDbLine
 10
151.221313
 20
497.512304
 30
0.0
 11
154.221313
 21
494.512304
 31
0.0
  0
LINE
  5
14C
100
AcDbEntity
  8
LAY-2
  6
DASHED2
 62
     1
100
AcDbLine
 10
154.721313
 20
494.512304
 30
0.0
 11
154.721313
 21
487.412298
 31
0.0
  0
LINE
  5
14D
100
AcDbEntity
  8
LAY-2
  6
DASHED2
 62
     3
100
AcDbLine
 10
160.221313
 20
494.512304
 30
0.0
 11
157.221313
 21
494.512304
 31
0.0
  0
LINE
  5
14E
100
AcDbEntity
  8
LAY-2
  6
DASHED2
 62
     3
100
AcDbLine
 10
163.221313
 20
497.512304
 30
0.0
 11
160.221313
 21
494.512304
 31
0.0
  0
LINE
  5
14F
100
AcDbEntity
  8
LAY-2
  6
DASHED2
 62
     3
100
AcDbLine
 10
163.221313
 20
497.512304
 30
0.0
 11
157.221313
 21
497.512304
 31
0.0
  0
LINE
  5
150
100
AcDbEntity
  8
LAY-2
  6
DASHED2
 62
     3
100
AcDbLine
 10
163.221313
 20
497.512304
 30
0.0
 11
163.221313
 21
497.912298
 31
0.0
  0
LINE
  5
151
100
AcDbEntity
  8
LAY-2
  6
DASHED2
 62
     3
100
AcDbLine
 10
160.221313
 20
494.512304
 30
0.0
 11
160.221313
 21
487.412298
 31
0.0
  0
LINE
  5
152
100
AcDbEntity
  8
LAY-2
  6
DASHED2
 62
     1
100
AcDbLine
 10
159.721313
 20
494.512304
 30
0.0
 11
159.721313
 21
487.412298
 31
0.0
  0
LINE
  5
153
100
AcDbEntity
  8
LAY-2
  6
DASHED2
 62
     3
100
AcDbLine
 10
243.221313
 20
497.512304
 30
0.0
 11
243.221313
 21
497.912298
 31
0.0
  0
LINE
  5
154
100
AcDbEntity
  8
LAY-2
  6
DASHED2
 62
     3
100
AcDbLine
 10
243.221313
 20
497.512304
 30
0.0
 11
249.221313
 21
497.512304
 31
0.0
  0
LINE
  5
155
100
AcDbEntity
  8
LAY-2
  6
DASHED2
 62
     3
100
AcDbLine
 10
246.221313
 20
494.512304
 30
0.0
 11
246.221313
 21
487.412298
 31
0.0
  0
LINE
  5
156
100
AcDbEntity
  8
LAY-2
  6
DASHED2
 62
     3
100
AcDbLine
 10
246.221313
 20
494.512304
 30
0.0
 11
249.221313
 21
494.512304
 31
0.0
  0
LINE
  5
157
100
AcDbEntity
  8
LAY-2
  6
DASHED2
 62
     3
100
AcDbLine
 10
243.221313
 20
497.512304
 30
0.0
 11
246.221313
 21
494.512304
 31
0.0
  0
LINE
  5
158
100
AcDbEntity
  8
LAY-2
  6
DASHED2
 62
     1
100
AcDbLine
 10
246.721313
 20
494.512304
 30
0.0
 11
246.721313
 21
487.412298
 31
0.0
  0
LINE
  5
159
100
AcDbEntity
  8
LAY-2
  6
DASHED2
 62
     3
100
AcDbLine
 10
252.221313
 20
494.512304
 30
0.0
 11
249.221313
 21
494.512304
 31
0.0
  0
LINE
  5
15A
100
AcDbEntity
  8
LAY-2
  6
DASHED2
 62
     3
100
AcDbLine
 10
255.221313
 20
497.512304
 30
0.0
 11
252.221313
 21
494.512304
 31
0.0
  0
LINE
  5
15B
100
AcDbEntity
  8
LAY-2
  6
DASHED2
 62
     3
100
AcDbLine
 10
255.221313
 20
497.512304
 30
0.0
 11
249.221313
 21
497.512304
 31
0.0
  0
LINE
  5
15C
100
AcDbEntity
  8
LAY-2
  6
DASHED2
 62
     3
100
AcDbLine
 10
255.221313
 20
497.512304
 30
0.0
 11
255.221313
 21
497.912298
 31
0.0
  0
LINE
  5
15D
100
AcDbEntity
  8
LAY-2
  6
DASHED2
 62
     3
100
AcDbLine
 10
252.221313
 20
494.512304
 30
0.0
 11
252.221313
 21
487.412298
 31
0.0
  0
LINE
  5
15E
100
AcDbEntity
  8
LAY-2
  6
DASHED2
 62
     1
100
AcDbLine
 10
251.721313
 20
494.512304
 30
0.0
 11
251.721313
 21
487.412298
 31
0.0
  0
LINE
  5
15F
100
AcDbEntity
  8
LAY-2
  6
CONTINUOUS
 62
     3
100
AcDbLine
 10
249.221313
 20
481.512298
 30
0.0
 11
246.221313
 21
481.512298
 31
0.0
  0
LINE
  5
160
100
AcDbEntity
  8
LAY-2
  6
CONTINUOUS
 62
     3
100
AcDbLine
 10
246.221313
 20
487.412298
 30
0.0
 11
246.221313
 21
481.512298
 31
0.0
  0
LINE
  5
161
100
AcDbEntity
  8
LAY-2
  6
CONTINUOUS
 62
     1
100
AcDbLine
 10
246.721313
 20
487.412298
 30
0.0
 11
246.721313
 21
481.512298
 31
0.0
  0
LINE
  5
162
100
AcDbEntity
  8
LAY-2
  6
CONTINUOUS
 62
     1
100
AcDbLine
 10
251.721313
 20
487.412298
 30
0.0
 11
251.721313
 21
481.512298
 31
0.0
  0
LINE
  5
163
100
AcDbEntity
  8
LAY-2
  6
CONTINUOUS
 62
     3
100
AcDbLine
 10
252.221313
 20
487.412298
 30
0.0
 11
252.221313
 21
481.512298
 31
0.0
  0
LINE
  5
164
100
AcDbEntity
  8
LAY-2
  6
CONTINUOUS
 62
     3
100
AcDbLine
 10
249.221313
 20
481.512298
 30
0.0
 11
252.221313
 21
481.512298
 31
0.0
  0
LINE
  5
165
100
AcDbEntity
  8
LAY-2
  6
CONTINUOUS
 62
     3
100
AcDbLine
 10
157.221313
 20
481.512298
 30
0.0
 11
154.221313
 21
481.512298
 31
0.0
  0
LINE
  5
166
100
AcDbEntity
  8
LAY-2
  6
CONTINUOUS
 62
     3
100
AcDbLine
 10
154.221313
 20
487.412298
 30
0.0
 11
154.221313
 21
481.512298
 31
0.0
  0
LINE
  5
167
100
AcDbEntity
  8
LAY-2
  6
CONTINUOUS
 62
     1
100
AcDbLine
 10
154.721313
 20
487.412298
 30
0.0
 11
154.721313
 21
481.512298
 31
0.0
  0
LINE
  5
168
100
AcDbEntity
  8
LAY-2
  6
CONTINUOUS
 62
     1
100
AcDbLine
 10
159.721313
 20
487.412298
 30
0.0
 11
159.721313
 21
481.512298
 31
0.0
  0
LINE
  5
169
100
AcDbEntity
  8
LAY-2
  6
CONTINUOUS
 62
     3
100
AcDbLine
 10
160.221313
 20
487.412298
 30
0.0
 11
160.221313
 21
481.512298
 31
0.0
  0
LINE
  5
16A
100
AcDbEntity
  8
LAY-2
  6
CONTINUOUS
 62
     3
100
AcDbLine
 10
157.221313
 20
481.512298
 30
0.0
 11
160.221313
 21
481.512298
 31
0.0
  0
LINE
  5
16B
100
AcDbEntity
  8
LAY-2
  6
CONTINUOUS
 62
     3
100
AcDbLine
 10
97.221313
 20
481.512298
 30
0.0
 11
94.221313
 21
481.512298
 31
0.0
  0
LINE
  5
16C
100
AcDbEntity
  8
LAY-2
  6
CONTINUOUS
 62
     3
100
AcDbLine
 10
94.221313
 20
487.412298
 30
0.0
 11
94.221313
 21
481.512298
 31
0.0
  0
LINE
  5
16D
100
AcDbEntity
  8
LAY-2
  6
CONTINUOUS
 62
     1
100
AcDbLine
 10
94.721313
 20
487.412298
 30
0.0
 11
94.721313
 21
481.512298
 31
0.0
  0
LINE
  5
16E
100
AcDbEntity
  8
LAY-2
  6
CONTINUOUS
 62
     1
100
AcDbLine
 10
99.721313
 20
487.412298
 30
0.0
 11
99.721313
 21
481.512298
 31
0.0
  0
LINE
  5
16F
100
AcDbEntity
  8
LAY-2
  6
CONTINUOUS
 62
     3
100
AcDbLine
 10
100.221313
 20
487.412298
 30
0.0
 11
100.221313
 21
481.512298
 31
0.0
  0
LINE
  5
170
100
AcDbEntity
  8
LAY-2
  6
CONTINUOUS
 62
     3
100
AcDbLine
 10
97.221313
 20
481.512298
 30
0.0
 11
100.221313
 21
481.512298
 31
0.0
  0
LINE
  5
171
100
AcDbEntity
  8
LAY-3
  6
CONTINUOUS
 62
     3
100
AcDbLine
 10
477.221313
 20
378.947876
 30
0.0
 11
97.221329
 21
378.947876
 31
0.0
  0
LINE
  5
172
100
AcDbEntity
  8
LAY-3
  6
CONTINUOUS
 62
     3
100
AcDbLine
 10
97.221329
 20
378.947876
 30
0.0
 11
97.221329
 21
353.947876
 31
0.0
  0
LINE
  5
173
100
AcDbEntity
  8
LAY-3
  6
CONTINUOUS
 62
     3
100
AcDbLine
 10
477.221313
 20
364.947876
 30
0.0
 11
477.221313
 21
378.947876
 31
0.0
  0
LINE
  5
174
100
AcDbEntity
  8
LAY-3
  6
CONTINUOUS
 62
     3
100
AcDbLine
 10
156.221361
 20
352.947876
 30
0.0
 11
98.221329
 21
352.947876
 31
0.0
  0
LINE
  5
175
100
AcDbEntity
  8
LAY-3
  6
CONTINUOUS
 62
     3
100
AcDbLine
 10
159.22136
 20
363.947876
 30
0.0
 11
476.221313
 21
363.947876
 31
0.0
  0
ARC
  5
176
100
AcDbEntity
  8
LAY-3
  6
CONTINUOUS
 62
     3
100
AcDbCircle
 10
159.221359
 20
361.947876
 30
0.0
 40
2.0
100
AcDbArc
 50
89.999981
 51
180.00002
  0
LINE
  5
177
100
AcDbEntity
  8
LAY-3
  6
CONTINUOUS
 62
     3
100
AcDbLine
 10
157.221359
 20
361.947876
 30
0.0
 11
157.221359
 21
353.947907
 31
0.0
  0
ARC
  5
178
100
AcDbEntity
  8
LAY-3
  6
CONTINUOUS
 62
     3
100
AcDbCircle
 10
156.221359
 20
353.947907
 30
0.0
 40
1.0
100
AcDbArc
 50
270.000116
 51
359.999982
  0
ARC
  5
179
100
AcDbEntity
  8
LAY-3
  6
CONTINUOUS
 62
     3
100
AcDbCircle
 10
98.221329
 20
353.947876
 30
0.0
 40
1.0
100
AcDbArc
 50
180.00002
 51
270.0
  0
ARC
  5
17A
100
AcDbEntity
  8
LAY-3
  6
CONTINUOUS
 62
     3
100
AcDbCircle
 10
476.221313
 20
364.947876
 30
0.0
 40
1.0
100
AcDbArc
 50
270.0
 51
359.999982
  0
LINE
  5
17B
100
AcDbEntity
  8
LAY-3
  6
CONTINUOUS
 62
     3
100
AcDbLine
 10
673.57843
 20
378.947876
 30
0.0
 11
703.57843
 21
378.947876
 31
0.0
  0
LINE
  5
17C
100
AcDbEntity
  8
LAY-3
  6
CONTINUOUS
 62
     3
100
AcDbLine
 10
705.57843
 20
376.947876
 30
0.0
 11
705.57843
 21
354.947876
 31
0.0
  0
LINE
  5
17D
100
AcDbEntity
  8
LAY-3
  6
CONTINUOUS
 62
     3
100
AcDbLine
 10
671.57843
 20
376.947876
 30
0.0
 11
671.57843
 21
354.947876
 31
0.0
  0
ARC
  5
17E
100
AcDbEntity
  8
LAY-3
  6
CONTINUOUS
 62
     3
100
AcDbCircle
 10
673.57843
 20
376.947876
 30
0.0
 40
2.0
100
AcDbArc
 50
89.999981
 51
180.00002
  0
ARC
  5
17F
100
AcDbEntity
  8
LAY-3
  6
CONTINUOUS
 62
     3
100
AcDbCircle
 10
703.57843
 20
376.947876
 30
0.0
 40
2.0
100
AcDbArc
 50
0.0
 51
89.999981
  0
ARC
  5
180
100
AcDbEntity
  8
LAY-3
  6
CONTINUOUS
 62
     3
100
AcDbCircle
 10
673.57843
 20
354.947876
 30
0.0
 40
2.0
100
AcDbArc
 50
180.00002
 51
270.0
  0
ARC
  5
181
100
AcDbEntity
  8
LAY-3
  6
CONTINUOUS
 62
     3
100
AcDbCircle
 10
703.57843
 20
354.947876
 30
0.0
 40
2.0
100
AcDbArc
 50
270.0
 51
359.999982
  0
ARC
  5
182
100
AcDbEntity
  8
LAY-3
  6
CONTINUOUS
 62
     3
100
AcDbCircle
 10
127.221329
 20
154.552078
 30
0.0
 40
14.2875
100
AcDbArc
 50
325.949043
 51
34.050979
  0
ARC
  5
183
100
AcDbEntity
  8
LAY-3
  6
CONTINUOUS
 62
     3
100
AcDbCircle
 10
127.221329
 20
154.552078
 30
0.0
 40
14.2875
100
AcDbArc
 50
145.949081
 51
214.050959
  0
LINE
  5
184
100
AcDbEntity
  8
LAY-3
  6
DASHED2
 62
     3
100
AcDbLine
 10
139.059097
 20
162.552078
 30
0.0
 11
115.383591
 21
162.552078
 31
0.0
  0
LINE
  5
185
100
AcDbEntity
  8
LAY-3
  6
DASHED2
 62
     3
100
AcDbLine
 10
139.059097
 20
146.552078
 30
0.0
 11
115.383591
 21
146.552078
 31
0.0
  0
LINE
  5
186
100
AcDbEntity
  8
LAY-3
  6
CONTINUOUS
 62
     3
100
AcDbLine
 10
140.27861
 20
160.352081
 30
0.0
 11
114.164047
 21
160.352081
 31
0.0
  0
LINE
  5
187
100
AcDbEntity
  8
LAY-3
  6
CONTINUOUS
 62
     3
100
AcDbLine
 10
140.27861
 20
148.752075
 30
0.0
 11
114.164047
 21
148.752075
 31
0.0
  0
ARC
  5
188
100
AcDbEntity
  8
LAY-3
  6
CONTINUOUS
 62
     3
100
AcDbCircle
 10
475.221313
 20
169.552078
 30
0.0
 40
2.0
100
AcDbArc
 50
0.0
 51
89.999981
  0
LINE
  5
189
100
AcDbEntity
  8
LAY-3
  6
CONTINUOUS
 62
     3
100
AcDbLine
 10
477.221313
 20
169.552078
 30
0.0
 11
477.221313
 21
139.552078
 31
0.0
  0
LINE
  5
18A
100
AcDbEntity
  8
LAY-3
  6
CONTINUOUS
 62
     3
100
AcDbLine
 10
102.541183
 20
137.552078
 30
0.0
 11
475.221313
 21
137.552078
 31
0.0
  0
ARC
  5
18B
100
AcDbEntity
  8
LAY-3
  6
CONTINUOUS
 62
     3
100
AcDbCircle
 10
475.221313
 20
139.552078
 30
0.0
 40
2.0
100
AcDbArc
 50
270.0
 51
359.999982
  0
LINE
  5
18C
100
AcDbEntity
  8
LAY-3
  6
CONTINUOUS
 62
     3
100
AcDbLine
 10
102.502914
 20
171.552078
 30
0.0
 11
475.221313
 21
171.552078
 31
0.0
  0
ARC
  5
18D
100
AcDbEntity
  8
LAY-3
  6
CONTINUOUS
 62
     3
100
AcDbCircle
 10
127.221329
 20
154.552078
 30
0.0
 40
30.0
100
AcDbArc
 50
145.481893
 51
214.559567
  0
LINE
  5
18E
100
AcDbEntity
  8
LAY-3
  6
DASHED2
 62
     3
100
AcDbLine
 10
457.971313
 20
370.947876
 30
0.0
 11
457.971313
 21
363.947876
 31
0.0
  0
LINE
  5
18F
100
AcDbEntity
  8
LAY-3
  6
DASHED2
 62
     3
100
AcDbLine
 10
468.471313
 20
370.947876
 30
0.0
 11
468.471313
 21
363.947876
 31
0.0
  0
LINE
  5
190
100
AcDbEntity
  8
LAY-3
  6
DASHED2
 62
     3
100
AcDbLine
 10
457.971313
 20
370.947876
 30
0.0
 11
468.471313
 21
370.947876
 31
0.0
  0
LINE
  5
191
100
AcDbEntity
  8
LAY-3
  6
DASHED2
 62
     3
100
AcDbLine
 10
460.071313
 20
385.747876
 30
0.0
 11
460.071313
 21
370.947876
 31
0.0
  0
LINE
  5
192
100
AcDbEntity
  8
LAY-3
  6
DASHED2
 62
     3
100
AcDbLine
 10
466.371313
 20
385.747876
 30
0.0
 11
466.371313
 21
370.947876
 31
0.0
  0
CIRCLE
  5
193
100
AcDbEntity
  8
LAY-3
  6
DASHED2
 62
     3
100
AcDbCircle
 10
463.221313
 20
146.552078
 30
0.0
 40
5.25
  0
CIRCLE
  5
194
100
AcDbEntity
  8
LAY-3
  6
CONTINUOUS
 62
     3
100
AcDbCircle
 10
463.221313
 20
146.552078
 30
0.0
 40
3.15
  0
CIRCLE
  5
195
100
AcDbEntity
  8
LAY-3
  6
DASHED2
 62
     3
100
AcDbCircle
 10
433.221313
 20
162.552078
 30
0.0
 40
5.25
  0
CIRCLE
  5
196
100
AcDbEntity
  8
LAY-3
  6
CONTINUOUS
 62
     3
100
AcDbCircle
 10
433.221313
 20
162.552078
 30
0.0
 40
3.15
  0
CIRCLE
  5
197
100
AcDbEntity
  8
LAY-3
  6
DASHED2
 62
     3
100
AcDbCircle
 10
330.221313
 20
146.552078
 30
0.0
 40
5.25
  0
CIRCLE
  5
198
100
AcDbEntity
  8
LAY-3
  6
CONTINUOUS
 62
     3
100
AcDbCircle
 10
330.221313
 20
146.552078
 30
0.0
 40
3.15
  0
CIRCLE
  5
199
100
AcDbEntity
  8
LAY-3
  6
DASHED2
 62
     3
100
AcDbCircle
 10
300.221313
 20
162.552078
 30
0.0
 40
5.25
  0
CIRCLE
  5
19A
100
AcDbEntity
  8
LAY-3
  6
CONTINUOUS
 62
     3
100
AcDbCircle
 10
300.221313
 20
162.552078
 30
0.0
 40
3.15
  0
CIRCLE
  5
19B
100
AcDbEntity
  8
LAY-3
  6
DASHED2
 62
     3
100
AcDbCircle
 10
197.221329
 20
146.552078
 30
0.0
 40
5.25
  0
CIRCLE
  5
19C
100
AcDbEntity
  8
LAY-3
  6
CONTINUOUS
 62
     3
100
AcDbCircle
 10
197.221329
 20
146.552078
 30
0.0
 40
3.15
  0
CIRCLE
  5
19D
100
AcDbEntity
  8
LAY-3
  6
DASHED2
 62
     3
100
AcDbCircle
 10
167.221329
 20
162.552078
 30
0.0
 40
5.25
  0
CIRCLE
  5
19E
100
AcDbEntity
  8
LAY-3
  6
CONTINUOUS
 62
     3
100
AcDbCircle
 10
167.221329
 20
162.552078
 30
0.0
 40
3.15
  0
LINE
  5
19F
100
AcDbEntity
  8
LAY-3
  6
DASHED2
 62
     3
100
AcDbLine
 10
427.971313
 20
370.947876
 30
0.0
 11
427.971313
 21
363.947876
 31
0.0
  0
LINE
  5
1A0
100
AcDbEntity
  8
LAY-3
  6
DASHED2
 62
     3
100
AcDbLine
 10
438.471313
 20
370.947876
 30
0.0
 11
438.471313
 21
363.947876
 31
0.0
  0
LINE
  5
1A1
100
AcDbEntity
  8
LAY-3
  6
DASHED2
 62
     3
100
AcDbLine
 10
427.971313
 20
370.947876
 30
0.0
 11
438.471313
 21
370.947876
 31
0.0
  0
LINE
  5
1A2
100
AcDbEntity
  8
LAY-3
  6
DASHED2
 62
     3
100
AcDbLine
 10
430.071313
 20
385.747876
 30
0.0
 11
430.071313
 21
370.947876
 31
0.0
  0
LINE
  5
1A3
100
AcDbEntity
  8
LAY-3
  6
DASHED2
 62
     3
100
AcDbLine
 10
436.371313
 20
385.747876
 30
0.0
 11
436.371313
 21
370.947876
 31
0.0
  0
LINE
  5
1A4
100
AcDbEntity
  8
LAY-3
  6
DASHED2
 62
     3
100
AcDbLine
 10
324.971313
 20
370.947876
 30
0.0
 11
324.971313
 21
363.947876
 31
0.0
  0
LINE
  5
1A5
100
AcDbEntity
  8
LAY-3
  6
DASHED2
 62
     3
100
AcDbLine
 10
335.471313
 20
370.947876
 30
0.0
 11
335.471313
 21
363.947876
 31
0.0
  0
LINE
  5
1A6
100
AcDbEntity
  8
LAY-3
  6
DASHED2
 62
     3
100
AcDbLine
 10
324.971313
 20
370.947876
 30
0.0
 11
335.471313
 21
370.947876
 31
0.0
  0
LINE
  5
1A7
100
AcDbEntity
  8
LAY-3
  6
DASHED2
 62
     3
100
AcDbLine
 10
327.071313
 20
385.747876
 30
0.0
 11
327.071313
 21
370.947876
 31
0.0
  0
LINE
  5
1A8
100
AcDbEntity
  8
LAY-3
  6
DASHED2
 62
     3
100
AcDbLine
 10
333.371313
 20
385.747876
 30
0.0
 11
333.371313
 21
370.947876
 31
0.0
  0
LINE
  5
1A9
100
AcDbEntity
  8
LAY-3
  6
DASHED2
 62
     3
100
AcDbLine
 10
294.971313
 20
370.947876
 30
0.0
 11
294.971313
 21
363.947876
 31
0.0
  0
LINE
  5
1AA
100
AcDbEntity
  8
LAY-3
  6
DASHED2
 62
     3
100
AcDbLine
 10
305.471313
 20
370.947876
 30
0.0
 11
305.471313
 21
363.947876
 31
0.0
  0
LINE
  5
1AB
100
AcDbEntity
  8
LAY-3
  6
DASHED2
 62
     3
100
AcDbLine
 10
294.971313
 20
370.947876
 30
0.0
 11
305.471313
 21
370.947876
 31
0.0
  0
LINE
  5
1AC
100
AcDbEntity
  8
LAY-3
  6
DASHED2
 62
     3
100
AcDbLine
 10
297.071313
 20
385.747876
 30
0.0
 11
297.071313
 21
370.947876
 31
0.0
  0
LINE
  5
1AD
100
AcDbEntity
  8
LAY-3
  6
DASHED2
 62
     3
100
AcDbLine
 10
303.371313
 20
385.747876
 30
0.0
 11
303.371313
 21
370.947876
 31
0.0
  0
LINE
  5
1AE
100
AcDbEntity
  8
LAY-3
  6
DASHED2
 62
     3
100
AcDbLine
 10
161.971313
 20
370.947876
 30
0.0
 11
161.971313
 21
363.947876
 31
0.0
  0
LINE
  5
1AF
100
AcDbEntity
  8
LAY-3
  6
DASHED2
 62
     3
100
AcDbLine
 10
172.471313
 20
370.947876
 30
0.0
 11
172.471313
 21
363.947876
 31
0.0
  0
LINE
  5
1B0
100
AcDbEntity
  8
LAY-3
  6
DASHED2
 62
     3
100
AcDbLine
 10
161.971313
 20
370.947876
 30
0.0
 11
172.471313
 21
370.947876
 31
0.0
  0
LINE
  5
1B1
100
AcDbEntity
  8
LAY-3
  6
DASHED2
 62
     3
100
AcDbLine
 10
164.071313
 20
385.747876
 30
0.0
 11
164.071313
 21
370.947876
 31
0.0
  0
LINE
  5
1B2
100
AcDbEntity
  8
LAY-3
  6
DASHED2
 62
     3
100
AcDbLine
 10
170.371313
 20
385.747876
 30
0.0
 11
170.371313
 21
370.947876
 31
0.0
  0
LINE
  5
1B3
100
AcDbEntity
  8
LAY-3
  6
DASHED2
 62
     3
100
AcDbLine
 10
191.971328
 20
370.947876
 30
0.0
 11
191.971328
 21
363.947876
 31
0.0
  0
LINE
  5
1B4
100
AcDbEntity
  8
LAY-3
  6
DASHED2
 62
     3
100
AcDbLine
 10
202.471328
 20
370.947876
 30
0.0
 11
202.471328
 21
363.947876
 31
0.0
  0
LINE
  5
1B5
100
AcDbEntity
  8
LAY-3
  6
DASHED2
 62
     3
100
AcDbLine
 10
191.971328
 20
370.947876
 30
0.0
 11
202.471328
 21
370.947876
 31
0.0
  0
LINE
  5
1B6
100
AcDbEntity
  8
LAY-3
  6
DASHED2
 62
     3
100
AcDbLine
 10
194.071328
 20
385.747876
 30
0.0
 11
194.071328
 21
370.947876
 31
0.0
  0
LINE
  5
1B7
100
AcDbEntity
  8
LAY-3
  6
DASHED2
 62
     3
100
AcDbLine
 10
200.371328
 20
385.747876
 30
0.0
 11
200.371328
 21
370.947876
 31
0.0
  0
LINE
  5
1B8
100
AcDbEntity
  8
LAY-3
  6
CONTINUOUS
 62
     3
100
AcDbLine
 10
703.57843
 20
352.947749
 30
0.0
 11
673.57843
 21
352.947876
 31
0.0
  0
LINE
  5
1B9
100
AcDbEntity
  8
LAY-4
  6
CONTINUOUS
 62
     1
100
AcDbLine
 10
806.7
 20
271.047919
 30
0.0
 11
807.2
 21
271.047919
 31
0.0
  0
LINE
  5
1BA
100
AcDbEntity
  8
LAY-4
  6
DASHED2
 62
     3
100
AcDbLine
 10
468.221313
 20
369.947876
 30
0.0
 11
458.221313
 21
369.947876
 31
0.0
  0
LINE
  5
1BB
100
AcDbEntity
  8
LAY-4
  6
DASHED2
 62
     3
100
AcDbLine
 10
468.221313
 20
369.947876
 30
0.0
 11
468.221313
 21
364.547876
 31
0.0
  0
LINE
  5
1BC
100
AcDbEntity
  8
LAY-4
  6
DASHED2
 62
     3
100
AcDbLine
 10
458.221313
 20
369.947876
 30
0.0
 11
458.221313
 21
364.547876
 31
0.0
  0
LINE
  5
1BD
100
AcDbEntity
  8
LAY-4
  6
DASHED2
 62
     3
100
AcDbLine
 10
468.221313
 20
364.547876
 30
0.0
 11
458.221313
 21
364.547876
 31
0.0
  0
LINE
  5
1BE
100
AcDbEntity
  8
LAY-4
  6
DASHED2
 62
     3
100
AcDbLine
 10
468.221313
 20
364.547876
 30
0.0
 11
467.621313
 21
363.947876
 31
0.0
  0
LINE
  5
1BF
100
AcDbEntity
  8
LAY-4
  6
DASHED2
 62
     3
100
AcDbLine
 10
458.221313
 20
364.547876
 30
0.0
 11
458.821313
 21
363.947876
 31
0.0
  0
LINE
  5
1C0
100
AcDbEntity
  8
LAY-4
  6
DASHED2
 62
     3
100
AcDbLine
 10
467.621313
 20
363.947876
 30
0.0
 11
458.821313
 21
363.947876
 31
0.0
  0
LINE
  5
1C1
100
AcDbEntity
  8
LAY-4
  6
DASHED2
 62
     3
100
AcDbLine
 10
466.221313
 20
369.947876
 30
0.0
 11
466.221313
 21
385.747876
 31
0.0
  0
LINE
  5
1C2
100
AcDbEntity
  8
LAY-4
  6
DASHED2
 62
     3
100
AcDbLine
 10
460.221313
 20
369.947876
 30
0.0
 11
460.221313
 21
385.747876
 31
0.0
  0
LINE
  5
1C3
100
AcDbEntity
  8
LAY-4
  6
CONTINUOUS
 62
     1
100
AcDbLine
 10
466.221313
 20
389.347876
 30
0.0
 11
460.221313
 21
389.347876
 31
0.0
  0
LINE
  5
1C4
100
AcDbEntity
  8
LAY-4
  6
CONTINUOUS
 62
     3
100
AcDbLine
 10
466.221313
 20
389.347876
 30
0.0
 11
465.621313
 21
389.947876
 31
0.0
  0
LINE
  5
1C5
100
AcDbEntity
  8
LAY-4
  6
CONTINUOUS
 62
     3
100
AcDbLine
 10
460.221313
 20
389.347876
 30
0.0
 11
460.821313
 21
389.947876
 31
0.0
  0
LINE
  5
1C6
100
AcDbEntity
  8
LAY-4
  6
CONTINUOUS
 62
     3
100
AcDbLine
 10
465.621313
 20
389.947876
 30
0.0
 11
460.821313
 21
389.947876
 31
0.0
  0
LINE
  5
1C7
100
AcDbEntity
  8
LAY-4
  6
DASHED2
 62
     1
100
AcDbLine
 10
466.221313
 20
372.947876
 30
0.0
 11
460.221313
 21
372.947876
 31
0.0
  0
LINE
  5
1C8
100
AcDbEntity
  8
LAY-4
  6
CONTINUOUS
 62
     1
100
AcDbLine
 10
465.621313
 20
389.947876
 30
0.0
 11
465.621313
 21
385.747876
 31
0.0
  0
LINE
  5
1C9
100
AcDbEntity
  8
LAY-4
  6
CONTINUOUS
 62
     1
100
AcDbLine
 10
460.821313
 20
389.947876
 30
0.0
 11
460.821313
 21
385.747876
 31
0.0
  0
LINE
  5
1CA
100
AcDbEntity
  8
LAY-4
  6
DASHED2
 62
     1
100
AcDbLine
 10
465.621313
 20
372.947876
 30
0.0
 11
466.221313
 21
371.908676
 31
0.0
  0
LINE
  5
1CB
100
AcDbEntity
  8
LAY-4
  6
DASHED2
 62
     1
100
AcDbLine
 10
460.821313
 20
372.947876
 30
0.0
 11
460.221313
 21
371.908676
 31
0.0
  0
LINE
  5
1CC
100
AcDbEntity
  8
LAY-4
  6
CONTINUOUS
 62
     3
100
AcDbLine
 10
460.221313
 20
385.747876
 30
0.0
 11
460.221313
 21
389.347876
 31
0.0
  0
LINE
  5
1CD
100
AcDbEntity
  8
LAY-4
  6
DASHED2
 62
     1
100
AcDbLine
 10
460.821313
 20
385.747876
 30
0.0
 11
460.821313
 21
372.947876
 31
0.0
  0
LINE
  5
1CE
100
AcDbEntity
  8
LAY-4
  6
DASHED2
 62
     1
100
AcDbLine
 10
465.621313
 20
385.747876
 30
0.0
 11
465.621313
 21
372.947876
 31
0.0
  0
LINE
  5
1CF
100
AcDbEntity
  8
LAY-4
  6
CONTINUOUS
 62
     3
100
AcDbLine
 10
466.221313
 20
385.747876
 30
0.0
 11
466.221313
 21
389.347876
 31
0.0
  0
LINE
  5
1D0
100
AcDbEntity
  8
LAY-4
  6
DASHED2
 62
     3
100
AcDbLine
 10
438.221313
 20
369.947876
 30
0.0
 11
428.221313
 21
369.947876
 31
0.0
  0
LINE
  5
1D1
100
AcDbEntity
  8
LAY-4
  6
DASHED2
 62
     3
100
AcDbLine
 10
438.221313
 20
369.947876
 30
0.0
 11
438.221313
 21
364.547876
 31
0.0
  0
LINE
  5
1D2
100
AcDbEntity
  8
LAY-4
  6
DASHED2
 62
     3
100
AcDbLine
 10
428.221313
 20
369.947876
 30
0.0
 11
428.221313
 21
364.547876
 31
0.0
  0
LINE
  5
1D3
100
AcDbEntity
  8
LAY-4
  6
DASHED2
 62
     3
100
AcDbLine
 10
438.221313
 20
364.547876
 30
0.0
 11
428.221313
 21
364.547876
 31
0.0
  0
LINE
  5
1D4
100
AcDbEntity
  8
LAY-4
  6
DASHED2
 62
     3
100
AcDbLine
 10
438.221313
 20
364.547876
 30
0.0
 11
437.621313
 21
363.947876
 31
0.0
  0
LINE
  5
1D5
100
AcDbEntity
  8
LAY-4
  6
DASHED2
 62
     3
100
AcDbLine
 10
428.221313
 20
364.547876
 30
0.0
 11
428.821313
 21
363.947876
 31
0.0
  0
LINE
  5
1D6
100
AcDbEntity
  8
LAY-4
  6
DASHED2
 62
     3
100
AcDbLine
 10
437.621313
 20
363.947876
 30
0.0
 11
428.821313
 21
363.947876
 31
0.0
  0
LINE
  5
1D7
100
AcDbEntity
  8
LAY-4
  6
DASHED2
 62
     3
100
AcDbLine
 10
436.221313
 20
369.947876
 30
0.0
 11
436.221313
 21
385.747876
 31
0.0
  0
LINE
  5
1D8
100
AcDbEntity
  8
LAY-4
  6
DASHED2
 62
     3
100
AcDbLine
 10
430.221313
 20
369.947876
 30
0.0
 11
430.221313
 21
385.747876
 31
0.0
  0
LINE
  5
1D9
100
AcDbEntity
  8
LAY-4
  6
CONTINUOUS
 62
     1
100
AcDbLine
 10
436.221313
 20
389.347876
 30
0.0
 11
430.221313
 21
389.347876
 31
0.0
  0
LINE
  5
1DA
100
AcDbEntity
  8
LAY-4
  6
CONTINUOUS
 62
     3
100
AcDbLine
 10
436.221313
 20
389.347876
 30
0.0
 11
435.621313
 21
389.947876
 31
0.0
  0
LINE
  5
1DB
100
AcDbEntity
  8
LAY-4
  6
CONTINUOUS
 62
     3
100
AcDbLine
 10
430.221313
 20
389.347876
 30
0.0
 11
430.821313
 21
389.947876
 31
0.0
  0
LINE
  5
1DC
100
AcDbEntity
  8
LAY-4
  6
CONTINUOUS
 62
     3
100
AcDbLine
 10
435.621313
 20
389.947876
 30
0.0
 11
430.821313
 21
389.947876
 31
0.0
  0
LINE
  5
1DD
100
AcDbEntity
  8
LAY-4
  6
DASHED2
 62
     1
100
AcDbLine
 10
436.221313
 20
372.947876
 30
0.0
 11
430.221313
 21
372.947876
 31
0.0
  0
LINE
  5
1DE
100
AcDbEntity
  8
LAY-4
  6
CONTINUOUS
 62
     1
100
AcDbLine
 10
435.621313
 20
389.947876
 30
0.0
 11
435.621313
 21
385.747876
 31
0.0
  0
LINE
  5
1DF
100
AcDbEntity
  8
LAY-4
  6
CONTINUOUS
 62
     1
100
AcDbLine
 10
430.821313
 20
389.947876
 30
0.0
 11
430.821313
 21
385.747876
 31
0.0
  0
LINE
  5
1E0
100
AcDbEntity
  8
LAY-4
  6
DASHED2
 62
     1
100
AcDbLine
 10
435.621313
 20
372.947876
 30
0.0
 11
436.221313
 21
371.908676
 31
0.0
  0
LINE
  5
1E1
100
AcDbEntity
  8
LAY-4
  6
DASHED2
 62
     1
100
AcDbLine
 10
430.821313
 20
372.947876
 30
0.0
 11
430.221313
 21
371.908676
 31
0.0
  0
LINE
  5
1E2
100
AcDbEntity
  8
LAY-4
  6
CONTINUOUS
 62
     3
100
AcDbLine
 10
430.221313
 20
385.747876
 30
0.0
 11
430.221313
 21
389.347876
 31
0.0
  0
LINE
  5
1E3
100
AcDbEntity
  8
LAY-4
  6
DASHED2
 62
     1
100
AcDbLine
 10
430.821313
 20
385.747876
 30
0.0
 11
430.821313
 21
372.947876
 31
0.0
  0
LINE
  5
1E4
100
AcDbEntity
  8
LAY-4
  6
DASHED2
 62
     1
100
AcDbLine
 10
435.621313
 20
385.747876
 30
0.0
 11
435.621313
 21
372.947876
 31
0.0
  0
LINE
  5
1E5
100
AcDbEntity
  8
LAY-4
  6
CONTINUOUS
 62
     3
100
AcDbLine
 10
436.221313
 20
385.747876
 30
0.0
 11
436.221313
 21
389.347876
 31
0.0
  0
LINE
  5
1E6
100
AcDbEntity
  8
LAY-4
  6
DASHED2
 62
     3
100
AcDbLine
 10
335.221313
 20
369.947876
 30
0.0
 11
325.221313
 21
369.947876
 31
0.0
  0
LINE
  5
1E7
100
AcDbEntity
  8
LAY-4
  6
DASHED2
 62
     3
100
AcDbLine
 10
335.221313
 20
369.947876
 30
0.0
 11
335.221313
 21
364.547876
 31
0.0
  0
LINE
  5
1E8
100
AcDbEntity
  8
LAY-4
  6
DASHED2
 62
     3
100
AcDbLine
 10
325.221313
 20
369.947876
 30
0.0
 11
325.221313
 21
364.547876
 31
0.0
  0
LINE
  5
1E9
100
AcDbEntity
  8
LAY-4
  6
DASHED2
 62
     3
100
AcDbLine
 10
335.221313
 20
364.547876
 30
0.0
 11
325.221313
 21
364.547876
 31
0.0
  0
LINE
  5
1EA
100
AcDbEntity
  8
LAY-4
  6
DASHED2
 62
     3
100
AcDbLine
 10
335.221313
 20
364.547876
 30
0.0
 11
334.621313
 21
363.947876
 31
0.0
  0
LINE
  5
1EB
100
AcDbEntity
  8
LAY-4
  6
DASHED2
 62
     3
100
AcDbLine
 10
325.221313
 20
364.547876
 30
0.0
 11
325.821313
 21
363.947876
 31
0.0
  0
LINE
  5
1EC
100
AcDbEntity
  8
LAY-4
  6
DASHED2
 62
     3
100
AcDbLine
 10
334.621313
 20
363.947876
 30
0.0
 11
325.821313
 21
363.947876
 31
0.0
  0
LINE
  5
1ED
100
AcDbEntity
  8
LAY-4
  6
DASHED2
 62
     3
100
AcDbLine
 10
333.221313
 20
369.947876
 30
0.0
 11
333.221313
 21
385.747876
 31
0.0
  0
LINE
  5
1EE
100
AcDbEntity
  8
LAY-4
  6
DASHED2
 62
     3
100
AcDbLine
 10
327.221313
 20
369.947876
 30
0.0
 11
327.221313
 21
385.747876
 31
0.0
  0
LINE
  5
1EF
100
AcDbEntity
  8
LAY-4
  6
CONTINUOUS
 62
     1
100
AcDbLine
 10
333.221313
 20
389.347876
 30
0.0
 11
327.221313
 21
389.347876
 31
0.0
  0
LINE
  5
1F0
100
AcDbEntity
  8
LAY-4
  6
CONTINUOUS
 62
     3
100
AcDbLine
 10
333.221313
 20
389.347876
 30
0.0
 11
332.621313
 21
389.947876
 31
0.0
  0
LINE
  5
1F1
100
AcDbEntity
  8
LAY-4
  6
CONTINUOUS
 62
     3
100
AcDbLine
 10
327.221313
 20
389.347876
 30
0.0
 11
327.821313
 21
389.947876
 31
0.0
  0
LINE
  5
1F2
100
AcDbEntity
  8
LAY-4
  6
CONTINUOUS
 62
     3
100
AcDbLine
 10
332.621313
 20
389.947876
 30
0.0
 11
327.821313
 21
389.947876
 31
0.0
  0
LINE
  5
1F3
100
AcDbEntity
  8
LAY-4
  6
DASHED2
 62
     1
100
AcDbLine
 10
333.221313
 20
372.947876
 30
0.0
 11
327.221313
 21
372.947876
 31
0.0
  0
LINE
  5
1F4
100
AcDbEntity
  8
LAY-4
  6
CONTINUOUS
 62
     1
100
AcDbLine
 10
332.621313
 20
389.947876
 30
0.0
 11
332.621313
 21
385.747876
 31
0.0
  0
LINE
  5
1F5
100
AcDbEntity
  8
LAY-4
  6
CONTINUOUS
 62
     1
100
AcDbLine
 10
327.821313
 20
389.947876
 30
0.0
 11
327.821313
 21
385.747876
 31
0.0
  0
LINE
  5
1F6
100
AcDbEntity
  8
LAY-4
  6
DASHED2
 62
     1
100
AcDbLine
 10
332.621313
 20
372.947876
 30
0.0
 11
333.221313
 21
371.908676
 31
0.0
  0
LINE
  5
1F7
100
AcDbEntity
  8
LAY-4
  6
DASHED2
 62
     1
100
AcDbLine
 10
327.821313
 20
372.947876
 30
0.0
 11
327.221313
 21
371.908676
 31
0.0
  0
LINE
  5
1F8
100
AcDbEntity
  8
LAY-4
  6
CONTINUOUS
 62
     3
100
AcDbLine
 10
327.221313
 20
385.747876
 30
0.0
 11
327.221313
 21
389.347876
 31
0.0
  0
LINE
  5
1F9
100
AcDbEntity
  8
LAY-4
  6
DASHED2
 62
     1
100
AcDbLine
 10
327.821313
 20
385.747876
 30
0.0
 11
327.821313
 21
372.947876
 31
0.0
  0
LINE
  5
1FA
100
AcDbEntity
  8
LAY-4
  6
DASHED2
 62
     1
100
AcDbLine
 10
332.621313
 20
385.747876
 30
0.0
 11
332.621313
 21
372.947876
 31
0.0
  0
LINE
  5
1FB
100
AcDbEntity
  8
LAY-4
  6
CONTINUOUS
 62
     3
100
AcDbLine
 10
333.221313
 20
385.747876
 30
0.0
 11
333.221313
 21
389.347876
 31
0.0
  0
LINE
  5
1FC
100
AcDbEntity
  8
LAY-4
  6
DASHED2
 62
     3
100
AcDbLine
 10
305.221313
 20
369.947876
 30
0.0
 11
295.221313
 21
369.947876
 31
0.0
  0
LINE
  5
1FD
100
AcDbEntity
  8
LAY-4
  6
DASHED2
 62
     3
100
AcDbLine
 10
305.221313
 20
369.947876
 30
0.0
 11
305.221313
 21
364.547876
 31
0.0
  0
LINE
  5
1FE
100
AcDbEntity
  8
LAY-4
  6
DASHED2
 62
     3
100
AcDbLine
 10
295.221313
 20
369.947876
 30
0.0
 11
295.221313
 21
364.547876
 31
0.0
  0
LINE
  5
1FF
100
AcDbEntity
  8
LAY-4
  6
DASHED2
 62
     3
100
AcDbLine
 10
305.221313
 20
364.547876
 30
0.0
 11
295.221313
 21
364.547876
 31
0.0
  0
LINE
  5
200
100
AcDbEntity
  8
LAY-4
  6
DASHED2
 62
     3
100
AcDbLine
 10
305.221313
 20
364.547876
 30
0.0
 11
304.621313
 21
363.947876
 31
0.0
  0
LINE
  5
201
100
AcDbEntity
  8
LAY-4
  6
DASHED2
 62
     3
100
AcDbLine
 10
295.221313
 20
364.547876
 30
0.0
 11
295.821313
 21
363.947876
 31
0.0
  0
LINE
  5
202
100
AcDbEntity
  8
LAY-4
  6
DASHED2
 62
     3
100
AcDbLine
 10
304.621313
 20
363.947876
 30
0.0
 11
295.821313
 21
363.947876
 31
0.0
  0
LINE
  5
203
100
AcDbEntity
  8
LAY-4
  6
DASHED2
 62
     3
100
AcDbLine
 10
303.221313
 20
369.947876
 30
0.0
 11
303.221313
 21
385.747876
 31
0.0
  0
LINE
  5
204
100
AcDbEntity
  8
LAY-4
  6
DASHED2
 62
     3
100
AcDbLine
 10
297.221313
 20
369.947876
 30
0.0
 11
297.221313
 21
385.747876
 31
0.0
  0
LINE
  5
205
100
AcDbEntity
  8
LAY-4
  6
CONTINUOUS
 62
     1
100
AcDbLine
 10
303.221313
 20
389.347876
 30
0.0
 11
297.221313
 21
389.347876
 31
0.0
  0
LINE
  5
206
100
AcDbEntity
  8
LAY-4
  6
CONTINUOUS
 62
     3
100
AcDbLine
 10
303.221313
 20
389.347876
 30
0.0
 11
302.621313
 21
389.947876
 31
0.0
  0
LINE
  5
207
100
AcDbEntity
  8
LAY-4
  6
CONTINUOUS
 62
     3
100
AcDbLine
 10
297.221313
 20
389.347876
 30
0.0
 11
297.821313
 21
389.947876
 31
0.0
  0
LINE
  5
208
100
AcDbEntity
  8
LAY-4
  6
CONTINUOUS
 62
     3
100
AcDbLine
 10
302.621313
 20
389.947876
 30
0.0
 11
297.821313
 21
389.947876
 31
0.0
  0
LINE
  5
209
100
AcDbEntity
  8
LAY-4
  6
DASHED2
 62
     1
100
AcDbLine
 10
303.221313
 20
372.947876
 30
0.0
 11
297.221313
 21
372.947876
 31
0.0
  0
LINE
  5
20A
100
AcDbEntity
  8
LAY-4
  6
CONTINUOUS
 62
     1
100
AcDbLine
 10
302.621313
 20
389.947876
 30
0.0
 11
302.621313
 21
385.747876
 31
0.0
  0
LINE
  5
20B
100
AcDbEntity
  8
LAY-4
  6
CONTINUOUS
 62
     1
100
AcDbLine
 10
297.821313
 20
389.947876
 30
0.0
 11
297.821313
 21
385.747876
 31
0.0
  0
LINE
  5
20C
100
AcDbEntity
  8
LAY-4
  6
DASHED2
 62
     1
100
AcDbLine
 10
302.621313
 20
372.947876
 30
0.0
 11
303.221313
 21
371.908676
 31
0.0
  0
LINE
  5
20D
100
AcDbEntity
  8
LAY-4
  6
DASHED2
 62
     1
100
AcDbLine
 10
297.821313
 20
372.947876
 30
0.0
 11
297.221313
 21
371.908676
 31
0.0
  0
LINE
  5
20E
100
AcDbEntity
  8
LAY-4
  6
CONTINUOUS
 62
     3
100
AcDbLine
 10
297.221313
 20
385.747876
 30
0.0
 11
297.221313
 21
389.347876
 31
0.0
  0
LINE
  5
20F
100
AcDbEntity
  8
LAY-4
  6
DASHED2
 62
     1
100
AcDbLine
 10
297.821313
 20
385.747876
 30
0.0
 11
297.821313
 21
372.947876
 31
0.0
  0
LINE
  5
210
100
AcDbEntity
  8
LAY-4
  6
DASHED2
 62
     1
100
AcDbLine
 10
302.621313
 20
385.747876
 30
0.0
 11
302.621313
 21
372.947876
 31
0.0
  0
LINE
  5
211
100
AcDbEntity
  8
LAY-4
  6
CONTINUOUS
 62
     3
100
AcDbLine
 10
303.221313
 20
385.747876
 30
0.0
 11
303.221313
 21
389.347876
 31
0.0
  0
LINE
  5
212
100
AcDbEntity
  8
LAY-4
  6
DASHED2
 62
     3
100
AcDbLine
 10
172.221313
 20
369.947876
 30
0.0
 11
162.221313
 21
369.947876
 31
0.0
  0
LINE
  5
213
100
AcDbEntity
  8
LAY-4
  6
DASHED2
 62
     3
100
AcDbLine
 10
172.221313
 20
369.947876
 30
0.0
 11
172.221313
 21
364.547876
 31
0.0
  0
LINE
  5
214
100
AcDbEntity
  8
LAY-4
  6
DASHED2
 62
     3
100
AcDbLine
 10
162.221313
 20
369.947876
 30
0.0
 11
162.221313
 21
364.547876
 31
0.0
  0
LINE
  5
215
100
AcDbEntity
  8
LAY-4
  6
DASHED2
 62
     3
100
AcDbLine
 10
172.221313
 20
364.547876
 30
0.0
 11
162.221313
 21
364.547876
 31
0.0
  0
LINE
  5
216
100
AcDbEntity
  8
LAY-4
  6
DASHED2
 62
     3
100
AcDbLine
 10
172.221313
 20
364.547876
 30
0.0
 11
171.621313
 21
363.947876
 31
0.0
  0
LINE
  5
217
100
AcDbEntity
  8
LAY-4
  6
DASHED2
 62
     3
100
AcDbLine
 10
162.221313
 20
364.547876
 30
0.0
 11
162.821313
 21
363.947876
 31
0.0
  0
LINE
  5
218
100
AcDbEntity
  8
LAY-4
  6
DASHED2
 62
     3
100
AcDbLine
 10
171.621313
 20
363.947876
 30
0.0
 11
162.821313
 21
363.947876
 31
0.0
  0
LINE
  5
219
100
AcDbEntity
  8
LAY-4
  6
DASHED2
 62
     3
100
AcDbLine
 10
170.221313
 20
369.947876
 30
0.0
 11
170.221313
 21
385.747876
 31
0.0
  0
LINE
  5
21A
100
AcDbEntity
  8
LAY-4
  6
DASHED2
 62
     3
100
AcDbLine
 10
164.221313
 20
369.947876
 30
0.0
 11
164.221313
 21
385.747876
 31
0.0
  0
LINE
  5
21B
100
AcDbEntity
  8
LAY-4
  6
CONTINUOUS
 62
     1
100
AcDbLine
 10
170.221313
 20
389.347876
 30
0.0
 11
164.221313
 21
389.347876
 31
0.0
  0
LINE
  5
21C
100
AcDbEntity
  8
LAY-4
  6
CONTINUOUS
 62
     3
100
AcDbLine
 10
170.221313
 20
389.347876
 30
0.0
 11
169.621313
 21
389.947876
 31
0.0
  0
LINE
  5
21D
100
AcDbEntity
  8
LAY-4
  6
CONTINUOUS
 62
     3
100
AcDbLine
 10
164.221313
 20
389.347876
 30
0.0
 11
164.821313
 21
389.947876
 31
0.0
  0
LINE
  5
21E
100
AcDbEntity
  8
LAY-4
  6
CONTINUOUS
 62
     3
100
AcDbLine
 10
169.621313
 20
389.947876
 30
0.0
 11
164.821313
 21
389.947876
 31
0.0
  0
LINE
  5
21F
100
AcDbEntity
  8
LAY-4
  6
DASHED2
 62
     1
100
AcDbLine
 10
170.221313
 20
372.947876
 30
0.0
 11
164.221313
 21
372.947876
 31
0.0
  0
LINE
  5
220
100
AcDbEntity
  8
LAY-4
  6
CONTINUOUS
 62
     1
100
AcDbLine
 10
169.621313
 20
389.947876
 30
0.0
 11
169.621313
 21
385.747876
 31
0.0
  0
LINE
  5
221
100
AcDbEntity
  8
LAY-4
  6
CONTINUOUS
 62
     1
100
AcDbLine
 10
164.821313
 20
389.947876
 30
0.0
 11
164.821313
 21
385.747876
 31
0.0
  0
LINE
  5
222
100
AcDbEntity
  8
LAY-4
  6
DASHED2
 62
     1
100
AcDbLine
 10
169.621313
 20
372.947876
 30
0.0
 11
170.221313
 21
371.908676
 31
0.0
  0
LINE
  5
223
100
AcDbEntity
  8
LAY-4
  6
DASHED2
 62
     1
100
AcDbLine
 10
164.821313
 20
372.947876
 30
0.0
 11
164.221313
 21
371.908676
 31
0.0
  0
LINE
  5
224
100
AcDbEntity
  8
LAY-4
  6
CONTINUOUS
 62
     3
100
AcDbLine
 10
164.221313
 20
385.747876
 30
0.0
 11
164.221313
 21
389.347876
 31
0.0
  0
LINE
  5
225
100
AcDbEntity
  8
LAY-4
  6
DASHED2
 62
     1
100
AcDbLine
 10
164.821313
 20
385.747876
 30
0.0
 11
164.821313
 21
372.947876
 31
0.0
  0
LINE
  5
226
100
AcDbEntity
  8
LAY-4
  6
DASHED2
 62
     1
100
AcDbLine
 10
169.621313
 20
385.747876
 30
0.0
 11
169.621313
 21
372.947876
 31
0.0
  0
LINE
  5
227
100
AcDbEntity
  8
LAY-4
  6
CONTINUOUS
 62
     3
100
AcDbLine
 10
170.221313
 20
385.747876
 30
0.0
 11
170.221313
 21
389.347876
 31
0.0
  0
LINE
  5
228
100
AcDbEntity
  8
LAY-4
  6
DASHED2
 62
     3
100
AcDbLine
 10
202.221328
 20
369.947876
 30
0.0
 11
192.221328
 21
369.947876
 31
0.0
  0
LINE
  5
229
100
AcDbEntity
  8
LAY-4
  6
DASHED2
 62
     3
100
AcDbLine
 10
202.221328
 20
369.947876
 30
0.0
 11
202.221328
 21
364.547876
 31
0.0
  0
LINE
  5
22A
100
AcDbEntity
  8
LAY-4
  6
DASHED2
 62
     3
100
AcDbLine
 10
192.221328
 20
369.947876
 30
0.0
 11
192.221328
 21
364.547876
 31
0.0
  0
LINE
  5
22B
100
AcDbEntity
  8
LAY-4
  6
DASHED2
 62
     3
100
AcDbLine
 10
202.221328
 20
364.547876
 30
0.0
 11
192.221328
 21
364.547876
 31
0.0
  0
LINE
  5
22C
100
AcDbEntity
  8
LAY-4
  6
DASHED2
 62
     3
100
AcDbLine
 10
202.221328
 20
364.547876
 30
0.0
 11
201.621328
 21
363.947876
 31
0.0
  0
LINE
  5
22D
100
AcDbEntity
  8
LAY-4
  6
DASHED2
 62
     3
100
AcDbLine
 10
192.221328
 20
364.547876
 30
0.0
 11
192.821328
 21
363.947876
 31
0.0
  0
LINE
  5
22E
100
AcDbEntity
  8
LAY-4
  6
DASHED2
 62
     3
100
AcDbLine
 10
201.621328
 20
363.947876
 30
0.0
 11
192.821328
 21
363.947876
 31
0.0
  0
LINE
  5
22F
100
AcDbEntity
  8
LAY-4
  6
DASHED2
 62
     3
100
AcDbLine
 10
200.221328
 20
369.947876
 30
0.0
 11
200.221328
 21
385.747876
 31
0.0
  0
LINE
  5
230
100
AcDbEntity
  8
LAY-4
  6
DASHED2
 62
     3
100
AcDbLine
 10
194.221328
 20
369.947876
 30
0.0
 11
194.221328
 21
385.747876
 31
0.0
  0
LINE
  5
231
100
AcDbEntity
  8
LAY-4
  6
CONTINUOUS
 62
     1
100
AcDbLine
 10
200.221328
 20
389.347876
 30
0.0
 11
194.221328
 21
389.347876
 31
0.0
  0
LINE
  5
232
100
AcDbEntity
  8
LAY-4
  6
CONTINUOUS
 62
     3
100
AcDbLine
 10
200.221328
 20
389.347876
 30
0.0
 11
199.621328
 21
389.947876
 31
0.0
  0
LINE
  5
233
100
AcDbEntity
  8
LAY-4
  6
CONTINUOUS
 62
     3
100
AcDbLine
 10
194.221328
 20
389.347876
 30
0.0
 11
194.821328
 21
389.947876
 31
0.0
  0
LINE
  5
234
100
AcDbEntity
  8
LAY-4
  6
CONTINUOUS
 62
     3
100
AcDbLine
 10
199.621328
 20
389.947876
 30
0.0
 11
194.821328
 21
389.947876
 31
0.0
  0
LINE
  5
235
100
AcDbEntity
  8
LAY-4
  6
DASHED2
 62
     1
100
AcDbLine
 10
200.221328
 20
372.947876
 30
0.0
 11
194.221328
 21
372.947876
 31
0.0
  0
LINE
  5
236
100
AcDbEntity
  8
LAY-4
  6
CONTINUOUS
 62
     1
100
AcDbLine
 10
199.621328
 20
389.947876
 30
0.0
 11
199.621328
 21
385.747876
 31
0.0
  0
LINE
  5
237
100
AcDbEntity
  8
LAY-4
  6
CONTINUOUS
 62
     1
100
AcDbLine
 10
194.821328
 20
389.947876
 30
0.0
 11
194.821328
 21
385.747876
 31
0.0
  0
LINE
  5
238
100
AcDbEntity
  8
LAY-4
  6
DASHED2
 62
     1
100
AcDbLine
 10
199.621328
 20
372.947876
 30
0.0
 11
200.221328
 21
371.908676
 31
0.0
  0
LINE
  5
239
100
AcDbEntity
  8
LAY-4
  6
DASHED2
 62
     1
100
AcDbLine
 10
194.821328
 20
372.947876
 30
0.0
 11
194.221328
 21
371.908676
 31
0.0
  0
LINE
  5
23A
100
AcDbEntity
  8
LAY-4
  6
CONTINUOUS
 62
     3
100
AcDbLine
 10
194.221328
 20
385.747876
 30
0.0
 11
194.221328
 21
389.347876
 31
0.0
  0
LINE
  5
23B
100
AcDbEntity
  8
LAY-4
  6
DASHED2
 62
     1
100
AcDbLine
 10
194.821328
 20
385.747876
 30
0.0
 11
194.821328
 21
372.947876
 31
0.0
  0
LINE
  5
23C
100
AcDbEntity
  8
LAY-4
  6
DASHED2
 62
     1
100
AcDbLine
 10
199.621328
 20
385.747876
 30
0.0
 11
199.621328
 21
372.947876
 31
0.0
  0
LINE
  5
23D
100
AcDbEntity
  8
LAY-4
  6
CONTINUOUS
 62
     3
100
AcDbLine
 10
200.221328
 20
385.747876
 30
0.0
 11
200.221328
 21
389.347876
 31
0.0
  0
LINE
  5
23E
100
AcDbEntity
  8
LAY-4
  6
CONTINUOUS
 62
     3
100
AcDbLine
 10
793.578369
 20
273.047919
 30
0.0
 11
793.578369
 21
339.447876
 31
0.0
  0
LINE
  5
23F
100
AcDbEntity
  8
LAY-4
  6
CONTINUOUS
 62
     3
100
AcDbLine
 10
583.578369
 20
273.047858
 30
0.0
 11
583.578369
 21
339.447876
 31
0.0
  0
ARC
  5
240
100
AcDbEntity
  8
LAY-4
  6
CONTINUOUS
 62
     3
100
AcDbCircle
 10
791.578369
 20
273.047919
 30
0.0
 40
2.0
100
AcDbArc
 50
270.0
 51
359.999982
  0
ARC
  5
241
100
AcDbEntity
  8
LAY-4
  6
CONTINUOUS
 62
     3
100
AcDbCircle
 10
585.578369
 20
273.047858
 30
0.0
 40
2.0
100
AcDbArc
 50
180.00002
 51
270.0
  0
LINE
  5
242
100
AcDbEntity
  8
LAY-4
  6
CONTINUOUS
 62
     3
100
AcDbLine
 10
702.865906
 20
346.447907
 30
0.0
 11
702.865845
 21
348.947845
 31
0.0
  0
LINE
  5
243
100
AcDbEntity
  8
LAY-4
  6
CONTINUOUS
 62
     3
100
AcDbLine
 10
674.290894
 20
346.447907
 30
0.0
 11
674.290894
 21
348.947845
 31
0.0
  0
LINE
  5
244
100
AcDbEntity
  8
LAY-4
  6
CONTINUOUS
 62
     3
100
AcDbLine
 10
680.578369
 20
348.947845
 30
0.0
 11
674.290894
 21
348.947845
 31
0.0
  0
LINE
  5
245
100
AcDbEntity
  8
LAY-4
  6
CONTINUOUS
 62
     3
100
AcDbLine
 10
696.578369
 20
348.947845
 30
0.0
 11
702.865845
 21
348.947845
 31
0.0
  0
LINE
  5
246
100
AcDbEntity
  8
LAY-4
  6
CONTINUOUS
 62
     3
100
AcDbLine
 10
137.971329
 20
348.947876
 30
0.0
 11
116.471329
 21
348.947876
 31
0.0
  0
LINE
  5
247
100
AcDbEntity
  8
LAY-4
  6
CONTINUOUS
 62
     3
100
AcDbLine
 10
99.221329
 20
345.447876
 30
0.0
 11
99.221329
 21
340.947876
 31
0.0
  0
LINE
  5
248
100
AcDbEntity
  8
LAY-4
  6
CONTINUOUS
 62
     3
100
AcDbLine
 10
100.221329
 20
346.447876
 30
0.0
 11
154.221329
 21
346.447876
 31
0.0
  0
LINE
  5
249
100
AcDbEntity
  8
LAY-4
  6
CONTINUOUS
 62
     3
100
AcDbLine
 10
155.221329
 20
340.947876
 30
0.0
 11
155.221329
 21
345.447876
 31
0.0
  0
ARC
  5
24A
100
AcDbEntity
  8
LAY-4
  6
CONTINUOUS
 62
     3
100
AcDbCircle
 10
100.221329
 20
345.447876
 30
0.0
 40
1.0
100
AcDbArc
 50
89.999981
 51
180.00002
  0
ARC
  5
24B
100
AcDbEntity
  8
LAY-4
  6
CONTINUOUS
 62
     3
100
AcDbCircle
 10
154.221329
 20
345.447876
 30
0.0
 40
1.0
100
AcDbArc
 50
0.0
 51
89.999981
  0
LINE
  5
24C
100
AcDbEntity
  8
LAY-4
  6
CONTINUOUS
 62
     3
100
AcDbLine
 10
665.57843
 20
345.447876
 30
0.0
 11
665.57843
 21
340.947876
 31
0.0
  0
LINE
  5
24D
100
AcDbEntity
  8
LAY-4
  6
CONTINUOUS
 62
     3
100
AcDbLine
 10
666.57843
 20
346.447876
 30
0.0
 11
710.57843
 21
346.447876
 31
0.0
  0
LINE
  5
24E
100
AcDbEntity
  8
LAY-4
  6
CONTINUOUS
 62
     3
100
AcDbLine
 10
582.07843
 20
340.947876
 30
0.0
 11
795.07843
 21
340.947876
 31
0.0
  0
LINE
  5
24F
100
AcDbEntity
  8
LAY-4
  6
CONTINUOUS
 62
     3
100
AcDbLine
 10
711.57843
 20
340.947876
 30
0.0
 11
711.57843
 21
345.447876
 31
0.0
  0
ARC
  5
250
100
AcDbEntity
  8
LAY-4
  6
CONTINUOUS
 62
     3
100
AcDbCircle
 10
666.57843
 20
345.447876
 30
0.0
 40
1.0
100
AcDbArc
 50
89.999981
 51
180.00002
  0
ARC
  5
251
100
AcDbEntity
  8
LAY-4
  6
CONTINUOUS
 62
     3
100
AcDbCircle
 10
710.57843
 20
345.447876
 30
0.0
 40
1.0
100
AcDbArc
 50
0.0
 51
89.999981
  0
LINE
  5
252
100
AcDbEntity
  8
LAY-4
  6
DASHED2
 62
     3
100
AcDbLine
 10
113.640915
 20
373.947876
 30
0.0
 11
140.801743
 21
373.947876
 31
0.0
  0
LINE
  5
253
100
AcDbEntity
  8
LAY-4
  6
DASHED2
 62
     3
100
AcDbLine
 10
140.801743
 20
373.947876
 30
0.0
 11
141.508835
 21
373.240753
 31
0.0
  0
LINE
  5
254
100
AcDbEntity
  8
LAY-4
  6
DASHED2
 62
     3
100
AcDbLine
 10
113.640915
 20
373.947876
 30
0.0
 11
112.933823
 21
373.240753
 31
0.0
  0
LINE
  5
255
100
AcDbEntity
  8
LAY-4
  6
CONTINUOUS
 62
     3
100
AcDbLine
 10
54.221329
 20
261.052078
 30
0.0
 11
54.221329
 21
48.052078
 31
0.0
  0
LINE
  5
256
100
AcDbEntity
  8
LAY-4
  6
CONTINUOUS
 62
     3
100
AcDbLine
 10
112.933823
 20
346.447907
 30
0.0
 11
112.933823
 21
352.947876
 31
0.0
  0
LINE
  5
257
100
AcDbEntity
  8
LAY-4
  6
DASHED2
 62
     3
100
AcDbLine
 10
112.933823
 20
352.947876
 30
0.0
 11
112.933823
 21
378.947845
 31
0.0
  0
LINE
  5
258
100
AcDbEntity
  8
LAY-4
  6
DASHED2
 62
     3
100
AcDbLine
 10
113.640915
 20
373.947876
 30
0.0
 11
116.018463
 21
352.947876
 31
0.0
  0
LINE
  5
259
100
AcDbEntity
  8
LAY-4
  6
CONTINUOUS
 62
     3
100
AcDbLine
 10
116.018463
 20
352.947876
 30
0.0
 11
116.471329
 21
348.947876
 31
0.0
  0
LINE
  5
25A
100
AcDbEntity
  8
LAY-4
  6
DASHED2
 62
     3
100
AcDbLine
 10
140.801743
 20
373.947876
 30
0.0
 11
138.424195
 21
352.947876
 31
0.0
  0
LINE
  5
25B
100
AcDbEntity
  8
LAY-4
  6
CONTINUOUS
 62
     3
100
AcDbLine
 10
138.424195
 20
352.947876
 30
0.0
 11
137.971329
 21
348.947876
 31
0.0
  0
LINE
  5
25C
100
AcDbEntity
  8
LAY-4
  6
CONTINUOUS
 62
     3
100
AcDbLine
 10
141.508835
 20
346.447907
 30
0.0
 11
141.508835
 21
352.947876
 31
0.0
  0
LINE
  5
25D
100
AcDbEntity
  8
LAY-4
  6
DASHED2
 62
     3
100
AcDbLine
 10
141.508835
 20
352.947876
 30
0.0
 11
141.508835
 21
378.947845
 31
0.0
  0
LINE
  5
25E
100
AcDbEntity
  8
LAY-4
  6
CONTINUOUS
 62
     3
100
AcDbLine
 10
54.221329
 20
339.447876
 30
0.0
 11
54.221329
 21
340.947876
 31
0.0
  0
LINE
  5
25F
100
AcDbEntity
  8
LAY-4
  6
CONTINUOUS
 62
     3
100
AcDbLine
 10
54.221329
 20
339.447876
 30
0.0
 11
475.221329
 21
339.447876
 31
0.0
  0
LINE
  5
260
100
AcDbEntity
  8
LAY-4
  6
CONTINUOUS
 62
     3
100
AcDbLine
 10
55.021329
 20
274.247876
 30
0.0
 11
55.021329
 21
339.447876
 31
0.0
  0
LINE
  5
261
100
AcDbEntity
  8
LAY-4
  6
CONTINUOUS
 62
     3
100
AcDbLine
 10
473.421329
 20
274.247876
 30
0.0
 11
473.421329
 21
339.447876
 31
0.0
  0
ARC
  5
262
100
AcDbEntity
  8
LAY-4
  6
CONTINUOUS
 62
     3
100
AcDbCircle
 10
470.221329
 20
274.247876
 30
0.0
 40
3.2
100
AcDbArc
 50
270.0
 51
0.0
  0
ARC
  5
263
100
AcDbEntity
  8
LAY-4
  6
CONTINUOUS
 62
     3
100
AcDbCircle
 10
58.221329
 20
274.247876
 30
0.0
 40
3.2
100
AcDbArc
 50
180.0
 51
270.0
  0
LINE
  5
264
100
AcDbEntity
  8
LAY-4
  6
CONTINUOUS
 62
     3
100
AcDbLine
 10
132.221329
 20
177.552078
 30
0.0
 11
54.221313
 21
177.552078
 31
0.0
  0
LINE
  5
265
100
AcDbEntity
  8
LAY-4
  6
CONTINUOUS
 62
     3
100
AcDbLine
 10
132.221329
 20
131.552078
 30
0.0
 11
54.221313
 21
131.552078
 31
0.0
  0
LINE
  5
266
100
AcDbEntity
  8
LAY-4
  6
DASHED2
 62
     3
100
AcDbLine
 10
55.021329
 20
259.552078
 30
0.0
 11
55.021329
 21
49.552078
 31
0.0
  0
LINE
  5
267
100
AcDbEntity
  8
LAY-4
  6
DASHED2
 62
     3
100
AcDbLine
 10
473.421329
 20
259.552078
 30
0.0
 11
55.021329
 21
259.552078
 31
0.0
  0
LINE
  5
268
100
AcDbEntity
  8
LAY-4
  6
DASHED2
 62
     3
100
AcDbLine
 10
473.421329
 20
49.552078
 30
0.0
 11
55.021329
 21
49.552078
 31
0.0
  0
LINE
  5
269
100
AcDbEntity
  8
LAY-4
  6
CONTINUOUS
 62
     3
100
AcDbLine
 10
475.221329
 20
261.052078
 30
0.0
 11
54.221329
 21
261.052078
 31
0.0
  0
LINE
  5
26A
100
AcDbEntity
  8
LAY-4
  6
CONTINUOUS
 62
     3
100
AcDbLine
 10
475.221329
 20
48.052078
 30
0.0
 11
54.221329
 21
48.052078
 31
0.0
  0
LINE
  5
26B
100
AcDbEntity
  8
LAY-4
  6
CONTINUOUS
 62
     3
100
AcDbLine
 10
475.221329
 20
340.947876
 30
0.0
 11
475.221329
 21
339.447876
 31
0.0
  0
LINE
  5
26C
100
AcDbEntity
  8
LAY-4
  6
CONTINUOUS
 62
     3
100
AcDbLine
 10
54.221329
 20
340.947876
 30
0.0
 11
475.221329
 21
340.947876
 31
0.0
  0
LINE
  5
26D
100
AcDbEntity
  8
LAY-4
  6
DASHED2
 62
     3
100
AcDbLine
 10
473.421329
 20
259.552078
 30
0.0
 11
473.421329
 21
49.552078
 31
0.0
  0
LINE
  5
26E
100
AcDbEntity
  8
LAY-4
  6
CONTINUOUS
 62
     3
100
AcDbLine
 10
197.221329
 20
261.052078
 30
0.0
 11
197.221329
 21
171.552078
 31
0.0
  0
LINE
  5
26F
100
AcDbEntity
  8
LAY-4
  6
DASHED2
 62
     3
100
AcDbLine
 10
197.221329
 20
171.552078
 30
0.0
 11
197.221329
 21
137.552078
 31
0.0
  0
LINE
  5
270
100
AcDbEntity
  8
LAY-4
  6
CONTINUOUS
 62
     3
100
AcDbLine
 10
197.221329
 20
137.552078
 30
0.0
 11
197.221329
 21
48.052078
 31
0.0
  0
LINE
  5
271
100
AcDbEntity
  8
LAY-4
  6
CONTINUOUS
 62
     3
100
AcDbLine
 10
582.07843
 20
339.447876
 30
0.0
 11
795.07843
 21
339.447876
 31
0.0
  0
LINE
  5
272
100
AcDbEntity
  8
LAY-4
  6
CONTINUOUS
 62
     3
100
AcDbLine
 10
795.07843
 20
339.447876
 30
0.0
 11
795.07843
 21
340.947876
 31
0.0
  0
LINE
  5
273
100
AcDbEntity
  8
LAY-4
  6
CONTINUOUS
 62
     3
100
AcDbLine
 10
582.07843
 20
339.447876
 30
0.0
 11
582.07843
 21
340.947876
 31
0.0
  0
LINE
  5
274
100
AcDbEntity
  8
LAY-4
  6
DASHED2
 62
     3
100
AcDbLine
 10
470.221329
 20
256.352078
 30
0.0
 11
58.221329
 21
256.352078
 31
0.0
  0
LINE
  5
275
100
AcDbEntity
  8
LAY-4
  6
DASHED2
 62
     3
100
AcDbLine
 10
58.221329
 20
256.352078
 30
0.0
 11
58.221329
 21
52.752078
 31
0.0
  0
LINE
  5
276
100
AcDbEntity
  8
LAY-4
  6
DASHED2
 62
     3
100
AcDbLine
 10
470.221329
 20
52.752078
 30
0.0
 11
58.221329
 21
52.752078
 31
0.0
  0
LINE
  5
277
100
AcDbEntity
  8
LAY-4
  6
DASHED2
 62
     3
100
AcDbLine
 10
470.221329
 20
256.352078
 30
0.0
 11
470.221329
 21
52.752078
 31
0.0
  0
LINE
  5
278
100
AcDbEntity
  8
LAY-4
  6
DASHED2
 62
     3
100
AcDbLine
 10
347.221329
 20
256.352078
 30
0.0
 11
347.221329
 21
243.352078
 31
0.0
  0
LINE
  5
279
100
AcDbEntity
  8
LAY-4
  6
DASHED2
 62
     3
100
AcDbLine
 10
468.221329
 20
243.352078
 30
0.0
 11
347.221329
 21
243.352078
 31
0.0
  0
LINE
  5
27A
100
AcDbEntity
  8
LAY-4
  6
DASHED2
 62
     3
100
AcDbLine
 10
347.221329
 20
52.752078
 30
0.0
 11
347.221329
 21
65.752078
 31
0.0
  0
LINE
  5
27B
100
AcDbEntity
  8
LAY-4
  6
CONTINUOUS
 62
     3
100
AcDbLine
 10
475.221329
 20
261.052078
 30
0.0
 11
475.221329
 21
171.552078
 31
0.0
  0
LINE
  5
27C
100
AcDbEntity
  8
LAY-4
  6
DASHED2
 62
     3
100
AcDbLine
 10
475.221329
 20
171.552078
 30
0.0
 11
475.221329
 21
137.552078
 31
0.0
  0
LINE
  5
27D
100
AcDbEntity
  8
LAY-4
  6
CONTINUOUS
 62
     3
100
AcDbLine
 10
475.221329
 20
137.552078
 30
0.0
 11
475.221329
 21
48.052078
 31
0.0
  0
CIRCLE
  5
27E
100
AcDbEntity
  8
LAY-4
  6
CONTINUOUS
 62
     3
100
AcDbCircle
 10
462.221389
 20
248.052078
 30
0.0
 40
4.1
  0
LINE
  5
27F
100
AcDbEntity
  8
LAY-4
  6
CONTINUOUS
 62
     3
100
AcDbLine
 10
464.471389
 20
247.552078
 30
0.0
 11
464.471389
 21
248.552078
 31
0.0
  0
LINE
  5
280
100
AcDbEntity
  8
LAY-4
  6
CONTINUOUS
 62
     3
100
AcDbLine
 10
459.971389
 20
247.552078
 30
0.0
 11
459.971389
 21
248.552078
 31
0.0
  0
LINE
  5
281
100
AcDbEntity
  8
LAY-4
  6
CONTINUOUS
 62
     3
100
AcDbLine
 10
461.721389
 20
245.802078
 30
0.0
 11
462.721389
 21
245.802078
 31
0.0
  0
LINE
  5
282
100
AcDbEntity
  8
LAY-4
  6
CONTINUOUS
 62
     3
100
AcDbLine
 10
461.721389
 20
250.302078
 30
0.0
 11
462.721389
 21
250.302078
 31
0.0
  0
LINE
  5
283
100
AcDbEntity
  8
LAY-4
  6
CONTINUOUS
 62
     3
100
AcDbLine
 10
464.471389
 20
248.552078
 30
0.0
 11
463.521377
 21
248.552078
 31
0.0
  0
LINE
  5
284
100
AcDbEntity
  8
LAY-4
  6
CONTINUOUS
 62
     3
100
AcDbLine
 10
460.921371
 20
248.552078
 30
0.0
 11
459.971389
 21
248.552078
 31
0.0
  0
LINE
  5
285
100
AcDbEntity
  8
LAY-4
  6
CONTINUOUS
 62
     3
100
AcDbLine
 10
464.471389
 20
247.552078
 30
0.0
 11
463.521377
 21
247.552078
 31
0.0
  0
LINE
  5
286
100
AcDbEntity
  8
LAY-4
  6
CONTINUOUS
 62
     3
100
AcDbLine
 10
460.921371
 20
247.552078
 30
0.0
 11
459.971389
 21
247.552078
 31
0.0
  0
LINE
  5
287
100
AcDbEntity
  8
LAY-4
  6
CONTINUOUS
 62
     3
100
AcDbLine
 10
462.721389
 20
245.802078
 30
0.0
 11
462.721389
 21
246.752075
 31
0.0
  0
LINE
  5
288
100
AcDbEntity
  8
LAY-4
  6
CONTINUOUS
 62
     3
100
AcDbLine
 10
462.721389
 20
249.352081
 30
0.0
 11
462.721389
 21
250.302078
 31
0.0
  0
LINE
  5
289
100
AcDbEntity
  8
LAY-4
  6
CONTINUOUS
 62
     3
100
AcDbLine
 10
461.721389
 20
245.802078
 30
0.0
 11
461.721389
 21
246.752075
 31
0.0
  0
LINE
  5
28A
100
AcDbEntity
  8
LAY-4
  6
CONTINUOUS
 62
     3
100
AcDbLine
 10
461.721389
 20
249.352081
 30
0.0
 11
461.721389
 21
250.302078
 31
0.0
  0
ARC
  5
28B
100
AcDbEntity
  8
LAY-4
  6
CONTINUOUS
 62
     3
100
AcDbCircle
 10
463.521377
 20
246.752075
 30
0.0
 40
0.8
100
AcDbArc
 50
90.000039
 51
180.00002
  0
ARC
  5
28C
100
AcDbEntity
  8
LAY-4
  6
CONTINUOUS
 62
     3
100
AcDbCircle
 10
463.521377
 20
249.352081
 30
0.0
 40
0.8
100
AcDbArc
 50
180.00002
 51
270.0
  0
ARC
  5
28D
100
AcDbEntity
  8
LAY-4
  6
CONTINUOUS
 62
     3
100
AcDbCircle
 10
460.921371
 20
249.352081
 30
0.0
 40
0.8
100
AcDbArc
 50
270.0
 51
359.999982
  0
ARC
  5
28E
100
AcDbEntity
  8
LAY-4
  6
CONTINUOUS
 62
     3
100
AcDbCircle
 10
460.921371
 20
246.752075
 30
0.0
 40
0.8
100
AcDbArc
 50
0.0
 51
90.000039
  0
CIRCLE
  5
28F
100
AcDbEntity
  8
LAY-4
  6
CONTINUOUS
 62
     3
100
AcDbCircle
 10
352.221389
 20
248.052078
 30
0.0
 40
4.1
  0
LINE
  5
290
100
AcDbEntity
  8
LAY-4
  6
CONTINUOUS
 62
     3
100
AcDbLine
 10
354.471389
 20
247.552078
 30
0.0
 11
354.471389
 21
248.552078
 31
0.0
  0
LINE
  5
291
100
AcDbEntity
  8
LAY-4
  6
CONTINUOUS
 62
     3
100
AcDbLine
 10
349.971389
 20
247.552078
 30
0.0
 11
349.971389
 21
248.552078
 31
0.0
  0
LINE
  5
292
100
AcDbEntity
  8
LAY-4
  6
CONTINUOUS
 62
     3
100
AcDbLine
 10
351.721389
 20
245.802078
 30
0.0
 11
352.721389
 21
245.802078
 31
0.0
  0
LINE
  5
293
100
AcDbEntity
  8
LAY-4
  6
CONTINUOUS
 62
     3
100
AcDbLine
 10
351.721389
 20
250.302078
 30
0.0
 11
352.721389
 21
250.302078
 31
0.0
  0
LINE
  5
294
100
AcDbEntity
  8
LAY-4
  6
CONTINUOUS
 62
     3
100
AcDbLine
 10
354.471389
 20
248.552078
 30
0.0
 11
353.521377
 21
248.552078
 31
0.0
  0
LINE
  5
295
100
AcDbEntity
  8
LAY-4
  6
CONTINUOUS
 62
     3
100
AcDbLine
 10
350.921371
 20
248.552078
 30
0.0
 11
349.971389
 21
248.552078
 31
0.0
  0
LINE
  5
296
100
AcDbEntity
  8
LAY-4
  6
CONTINUOUS
 62
     3
100
AcDbLine
 10
354.471389
 20
247.552078
 30
0.0
 11
353.521377
 21
247.552078
 31
0.0
  0
LINE
  5
297
100
AcDbEntity
  8
LAY-4
  6
CONTINUOUS
 62
     3
100
AcDbLine
 10
350.921371
 20
247.552078
 30
0.0
 11
349.971389
 21
247.552078
 31
0.0
  0
LINE
  5
298
100
AcDbEntity
  8
LAY-4
  6
CONTINUOUS
 62
     3
100
AcDbLine
 10
352.721389
 20
245.802078
 30
0.0
 11
352.721389
 21
246.752075
 31
0.0
  0
LINE
  5
299
100
AcDbEntity
  8
LAY-4
  6
CONTINUOUS
 62
     3
100
AcDbLine
 10
352.721389
 20
249.352081
 30
0.0
 11
352.721389
 21
250.302078
 31
0.0
  0
LINE
  5
29A
100
AcDbEntity
  8
LAY-4
  6
CONTINUOUS
 62
     3
100
AcDbLine
 10
351.721389
 20
245.802078
 30
0.0
 11
351.721389
 21
246.752075
 31
0.0
  0
LINE
  5
29B
100
AcDbEntity
  8
LAY-4
  6
CONTINUOUS
 62
     3
100
AcDbLine
 10
351.721389
 20
249.352081
 30
0.0
 11
351.721389
 21
250.302078
 31
0.0
  0
ARC
  5
29C
100
AcDbEntity
  8
LAY-4
  6
CONTINUOUS
 62
     3
100
AcDbCircle
 10
353.521377
 20
246.752075
 30
0.0
 40
0.8
100
AcDbArc
 50
90.000039
 51
180.00002
  0
ARC
  5
29D
100
AcDbEntity
  8
LAY-4
  6
CONTINUOUS
 62
     3
100
AcDbCircle
 10
353.521377
 20
249.352081
 30
0.0
 40
0.8
100
AcDbArc
 50
180.00002
 51
270.0
  0
ARC
  5
29E
100
AcDbEntity
  8
LAY-4
  6
CONTINUOUS
 62
     3
100
AcDbCircle
 10
350.921371
 20
249.352081
 30
0.0
 40
0.8
100
AcDbArc
 50
270.0
 51
359.999982
  0
ARC
  5
29F
100
AcDbEntity
  8
LAY-4
  6
CONTINUOUS
 62
     3
100
AcDbCircle
 10
350.921371
 20
246.752075
 30
0.0
 40
0.8
100
AcDbArc
 50
0.0
 51
90.000039
  0
CIRCLE
  5
2A0
100
AcDbEntity
  8
LAY-4
  6
CONTINUOUS
 62
     3
100
AcDbCircle
 10
207.221389
 20
248.052078
 30
0.0
 40
4.1
  0
LINE
  5
2A1
100
AcDbEntity
  8
LAY-4
  6
CONTINUOUS
 62
     3
100
AcDbLine
 10
209.471389
 20
247.552078
 30
0.0
 11
209.471389
 21
248.552078
 31
0.0
  0
LINE
  5
2A2
100
AcDbEntity
  8
LAY-4
  6
CONTINUOUS
 62
     3
100
AcDbLine
 10
204.971389
 20
247.552078
 30
0.0
 11
204.971389
 21
248.552078
 31
0.0
  0
LINE
  5
2A3
100
AcDbEntity
  8
LAY-4
  6
CONTINUOUS
 62
     3
100
AcDbLine
 10
206.721389
 20
245.802078
 30
0.0
 11
207.721389
 21
245.802078
 31
0.0
  0
LINE
  5
2A4
100
AcDbEntity
  8
LAY-4
  6
CONTINUOUS
 62
     3
100
AcDbLine
 10
206.721389
 20
250.302078
 30
0.0
 11
207.721389
 21
250.302078
 31
0.0
  0
LINE
  5
2A5
100
AcDbEntity
  8
LAY-4
  6
CONTINUOUS
 62
     3
100
AcDbLine
 10
209.471389
 20
248.552078
 30
0.0
 11
208.521377
 21
248.552078
 31
0.0
  0
LINE
  5
2A6
100
AcDbEntity
  8
LAY-4
  6
CONTINUOUS
 62
     3
100
AcDbLine
 10
205.921371
 20
248.552078
 30
0.0
 11
204.971389
 21
248.552078
 31
0.0
  0
LINE
  5
2A7
100
AcDbEntity
  8
LAY-4
  6
CONTINUOUS
 62
     3
100
AcDbLine
 10
209.471389
 20
247.552078
 30
0.0
 11
208.521377
 21
247.552078
 31
0.0
  0
LINE
  5
2A8
100
AcDbEntity
  8
LAY-4
  6
CONTINUOUS
 62
     3
100
AcDbLine
 10
205.921371
 20
247.552078
 30
0.0
 11
204.971389
 21
247.552078
 31
0.0
  0
LINE
  5
2A9
100
AcDbEntity
  8
LAY-4
  6
CONTINUOUS
 62
     3
100
AcDbLine
 10
207.721389
 20
245.802078
 30
0.0
 11
207.721389
 21
246.752075
 31
0.0
  0
LINE
  5
2AA
100
AcDbEntity
  8
LAY-4
  6
CONTINUOUS
 62
     3
100
AcDbLine
 10
207.721389
 20
249.352081
 30
0.0
 11
207.721389
 21
250.302078
 31
0.0
  0
LINE
  5
2AB
100
AcDbEntity
  8
LAY-4
  6
CONTINUOUS
 62
     3
100
AcDbLine
 10
206.721389
 20
245.802078
 30
0.0
 11
206.721389
 21
246.752075
 31
0.0
  0
LINE
  5
2AC
100
AcDbEntity
  8
LAY-4
  6
CONTINUOUS
 62
     3
100
AcDbLine
 10
206.721389
 20
249.352081
 30
0.0
 11
206.721389
 21
250.302078
 31
0.0
  0
ARC
  5
2AD
100
AcDbEntity
  8
LAY-4
  6
CONTINUOUS
 62
     3
100
AcDbCircle
 10
208.521377
 20
246.752075
 30
0.0
 40
0.8
100
AcDbArc
 50
90.000039
 51
180.00002
  0
ARC
  5
2AE
100
AcDbEntity
  8
LAY-4
  6
CONTINUOUS
 62
     3
100
AcDbCircle
 10
208.521377
 20
249.352081
 30
0.0
 40
0.8
100
AcDbArc
 50
180.00002
 51
270.0
  0
ARC
  5
2AF
100
AcDbEntity
  8
LAY-4
  6
CONTINUOUS
 62
     3
100
AcDbCircle
 10
205.921371
 20
249.352081
 30
0.0
 40
0.8
100
AcDbArc
 50
270.0
 51
359.999982
  0
ARC
  5
2B0
100
AcDbEntity
  8
LAY-4
  6
CONTINUOUS
 62
     3
100
AcDbCircle
 10
205.921371
 20
246.752075
 30
0.0
 40
0.8
100
AcDbArc
 50
0.0
 51
90.000039
  0
CIRCLE
  5
2B1
100
AcDbEntity
  8
LAY-4
  6
CONTINUOUS
 62
     3
100
AcDbCircle
 10
187.221389
 20
248.052078
 30
0.0
 40
4.1
  0
LINE
  5
2B2
100
AcDbEntity
  8
LAY-4
  6
CONTINUOUS
 62
     3
100
AcDbLine
 10
189.471389
 20
247.552078
 30
0.0
 11
189.471389
 21
248.552078
 31
0.0
  0
LINE
  5
2B3
100
AcDbEntity
  8
LAY-4
  6
CONTINUOUS
 62
     3
100
AcDbLine
 10
184.971389
 20
247.552078
 30
0.0
 11
184.971389
 21
248.552078
 31
0.0
  0
LINE
  5
2B4
100
AcDbEntity
  8
LAY-4
  6
CONTINUOUS
 62
     3
100
AcDbLine
 10
186.721389
 20
245.802078
 30
0.0
 11
187.721389
 21
245.802078
 31
0.0
  0
LINE
  5
2B5
100
AcDbEntity
  8
LAY-4
  6
CONTINUOUS
 62
     3
100
AcDbLine
 10
186.721389
 20
250.302078
 30
0.0
 11
187.721389
 21
250.302078
 31
0.0
  0
LINE
  5
2B6
100
AcDbEntity
  8
LAY-4
  6
CONTINUOUS
 62
     3
100
AcDbLine
 10
189.471389
 20
248.552078
 30
0.0
 11
188.521377
 21
248.552078
 31
0.0
  0
LINE
  5
2B7
100
AcDbEntity
  8
LAY-4
  6
CONTINUOUS
 62
     3
100
AcDbLine
 10
185.921371
 20
248.552078
 30
0.0
 11
184.971389
 21
248.552078
 31
0.0
  0
LINE
  5
2B8
100
AcDbEntity
  8
LAY-4
  6
CONTINUOUS
 62
     3
100
AcDbLine
 10
189.471389
 20
247.552078
 30
0.0
 11
188.521377
 21
247.552078
 31
0.0
  0
LINE
  5
2B9
100
AcDbEntity
  8
LAY-4
  6
CONTINUOUS
 62
     3
100
AcDbLine
 10
185.921371
 20
247.552078
 30
0.0
 11
184.971389
 21
247.552078
 31
0.0
  0
LINE
  5
2BA
100
AcDbEntity
  8
LAY-4
  6
CONTINUOUS
 62
     3
100
AcDbLine
 10
187.721389
 20
245.802078
 30
0.0
 11
187.721389
 21
246.752075
 31
0.0
  0
LINE
  5
2BB
100
AcDbEntity
  8
LAY-4
  6
CONTINUOUS
 62
     3
100
AcDbLine
 10
187.721389
 20
249.352081
 30
0.0
 11
187.721389
 21
250.302078
 31
0.0
  0
LINE
  5
2BC
100
AcDbEntity
  8
LAY-4
  6
CONTINUOUS
 62
     3
100
AcDbLine
 10
186.721389
 20
245.802078
 30
0.0
 11
186.721389
 21
246.752075
 31
0.0
  0
LINE
  5
2BD
100
AcDbEntity
  8
LAY-4
  6
CONTINUOUS
 62
     3
100
AcDbLine
 10
186.721389
 20
249.352081
 30
0.0
 11
186.721389
 21
250.302078
 31
0.0
  0
ARC
  5
2BE
100
AcDbEntity
  8
LAY-4
  6
CONTINUOUS
 62
     3
100
AcDbCircle
 10
188.521377
 20
246.752075
 30
0.0
 40
0.8
100
AcDbArc
 50
90.000039
 51
180.00002
  0
ARC
  5
2BF
100
AcDbEntity
  8
LAY-4
  6
CONTINUOUS
 62
     3
100
AcDbCircle
 10
188.521377
 20
249.352081
 30
0.0
 40
0.8
100
AcDbArc
 50
180.00002
 51
270.0
  0
ARC
  5
2C0
100
AcDbEntity
  8
LAY-4
  6
CONTINUOUS
 62
     3
100
AcDbCircle
 10
185.921371
 20
249.352081
 30
0.0
 40
0.8
100
AcDbArc
 50
270.0
 51
359.999982
  0
ARC
  5
2C1
100
AcDbEntity
  8
LAY-4
  6
CONTINUOUS
 62
     3
100
AcDbCircle
 10
185.921371
 20
246.752075
 30
0.0
 40
0.8
100
AcDbArc
 50
0.0
 51
90.000039
  0
CIRCLE
  5
2C2
100
AcDbEntity
  8
LAY-4
  6
CONTINUOUS
 62
     3
100
AcDbCircle
 10
67.221389
 20
248.052078
 30
0.0
 40
4.1
  0
LINE
  5
2C3
100
AcDbEntity
  8
LAY-4
  6
CONTINUOUS
 62
     3
100
AcDbLine
 10
69.471389
 20
247.552078
 30
0.0
 11
69.471389
 21
248.552078
 31
0.0
  0
LINE
  5
2C4
100
AcDbEntity
  8
LAY-4
  6
CONTINUOUS
 62
     3
100
AcDbLine
 10
64.971389
 20
247.552078
 30
0.0
 11
64.971389
 21
248.552078
 31
0.0
  0
LINE
  5
2C5
100
AcDbEntity
  8
LAY-4
  6
CONTINUOUS
 62
     3
100
AcDbLine
 10
66.721389
 20
245.802078
 30
0.0
 11
67.721389
 21
245.802078
 31
0.0
  0
LINE
  5
2C6
100
AcDbEntity
  8
LAY-4
  6
CONTINUOUS
 62
     3
100
AcDbLine
 10
66.721389
 20
250.302078
 30
0.0
 11
67.721389
 21
250.302078
 31
0.0
  0
LINE
  5
2C7
100
AcDbEntity
  8
LAY-4
  6
CONTINUOUS
 62
     3
100
AcDbLine
 10
69.471389
 20
248.552078
 30
0.0
 11
68.521377
 21
248.552078
 31
0.0
  0
LINE
  5
2C8
100
AcDbEntity
  8
LAY-4
  6
CONTINUOUS
 62
     3
100
AcDbLine
 10
65.921371
 20
248.552078
 30
0.0
 11
64.971389
 21
248.552078
 31
0.0
  0
LINE
  5
2C9
100
AcDbEntity
  8
LAY-4
  6
CONTINUOUS
 62
     3
100
AcDbLine
 10
69.471389
 20
247.552078
 30
0.0
 11
68.521377
 21
247.552078
 31
0.0
  0
LINE
  5
2CA
100
AcDbEntity
  8
LAY-4
  6
CONTINUOUS
 62
     3
100
AcDbLine
 10
65.921371
 20
247.552078
 30
0.0
 11
64.971389
 21
247.552078
 31
0.0
  0
LINE
  5
2CB
100
AcDbEntity
  8
LAY-4
  6
CONTINUOUS
 62
     3
100
AcDbLine
 10
67.721389
 20
245.802078
 30
0.0
 11
67.721389
 21
246.752075
 31
0.0
  0
LINE
  5
2CC
100
AcDbEntity
  8
LAY-4
  6
CONTINUOUS
 62
     3
100
AcDbLine
 10
67.721389
 20
249.352081
 30
0.0
 11
67.721389
 21
250.302078
 31
0.0
  0
LINE
  5
2CD
100
AcDbEntity
  8
LAY-4
  6
CONTINUOUS
 62
     3
100
AcDbLine
 10
66.721389
 20
245.802078
 30
0.0
 11
66.721389
 21
246.752075
 31
0.0
  0
LINE
  5
2CE
100
AcDbEntity
  8
LAY-4
  6
CONTINUOUS
 62
     3
100
AcDbLine
 10
66.721389
 20
249.352081
 30
0.0
 11
66.721389
 21
250.302078
 31
0.0
  0
ARC
  5
2CF
100
AcDbEntity
  8
LAY-4
  6
CONTINUOUS
 62
     3
100
AcDbCircle
 10
68.521377
 20
246.752075
 30
0.0
 40
0.8
100
AcDbArc
 50
90.000039
 51
180.00002
  0
ARC
  5
2D0
100
AcDbEntity
  8
LAY-4
  6
CONTINUOUS
 62
     3
100
AcDbCircle
 10
68.521377
 20
249.352081
 30
0.0
 40
0.8
100
AcDbArc
 50
180.00002
 51
270.0
  0
ARC
  5
2D1
100
AcDbEntity
  8
LAY-4
  6
CONTINUOUS
 62
     3
100
AcDbCircle
 10
65.921371
 20
249.352081
 30
0.0
 40
0.8
100
AcDbArc
 50
270.0
 51
359.999982
  0
ARC
  5
2D2
100
AcDbEntity
  8
LAY-4
  6
CONTINUOUS
 62
     3
100
AcDbCircle
 10
65.921371
 20
246.752075
 30
0.0
 40
0.8
100
AcDbArc
 50
0.0
 51
90.000039
  0
CIRCLE
  5
2D3
100
AcDbEntity
  8
LAY-4
  6
CONTINUOUS
 62
     3
100
AcDbCircle
 10
67.221389
 20
61.052078
 30
0.0
 40
4.1
  0
LINE
  5
2D4
100
AcDbEntity
  8
LAY-4
  6
CONTINUOUS
 62
     3
100
AcDbLine
 10
69.471389
 20
60.552078
 30
0.0
 11
69.471389
 21
61.552078
 31
0.0
  0
LINE
  5
2D5
100
AcDbEntity
  8
LAY-4
  6
CONTINUOUS
 62
     3
100
AcDbLine
 10
64.971389
 20
60.552078
 30
0.0
 11
64.971389
 21
61.552078
 31
0.0
  0
LINE
  5
2D6
100
AcDbEntity
  8
LAY-4
  6
CONTINUOUS
 62
     3
100
AcDbLine
 10
66.721389
 20
58.802078
 30
0.0
 11
67.721389
 21
58.802078
 31
0.0
  0
LINE
  5
2D7
100
AcDbEntity
  8
LAY-4
  6
CONTINUOUS
 62
     3
100
AcDbLine
 10
66.721389
 20
63.302078
 30
0.0
 11
67.721389
 21
63.302078
 31
0.0
  0
LINE
  5
2D8
100
AcDbEntity
  8
LAY-4
  6
CONTINUOUS
 62
     3
100
AcDbLine
 10
69.471389
 20
61.552078
 30
0.0
 11
68.521377
 21
61.552078
 31
0.0
  0
LINE
  5
2D9
100
AcDbEntity
  8
LAY-4
  6
CONTINUOUS
 62
     3
100
AcDbLine
 10
65.921371
 20
61.552078
 30
0.0
 11
64.971389
 21
61.552078
 31
0.0
  0
LINE
  5
2DA
100
AcDbEntity
  8
LAY-4
  6
CONTINUOUS
 62
     3
100
AcDbLine
 10
69.471389
 20
60.552078
 30
0.0
 11
68.521377
 21
60.552078
 31
0.0
  0
LINE
  5
2DB
100
AcDbEntity
  8
LAY-4
  6
CONTINUOUS
 62
     3
100
AcDbLine
 10
65.921371
 20
60.552078
 30
0.0
 11
64.971389
 21
60.552078
 31
0.0
  0
LINE
  5
2DC
100
AcDbEntity
  8
LAY-4
  6
CONTINUOUS
 62
     3
100
AcDbLine
 10
67.721389
 20
58.802078
 30
0.0
 11
67.721389
 21
59.752075
 31
0.0
  0
LINE
  5
2DD
100
AcDbEntity
  8
LAY-4
  6
CONTINUOUS
 62
     3
100
AcDbLine
 10
67.721389
 20
62.352081
 30
0.0
 11
67.721389
 21
63.302078
 31
0.0
  0
LINE
  5
2DE
100
AcDbEntity
  8
LAY-4
  6
CONTINUOUS
 62
     3
100
AcDbLine
 10
66.721389
 20
58.802078
 30
0.0
 11
66.721389
 21
59.752075
 31
0.0
  0
LINE
  5
2DF
100
AcDbEntity
  8
LAY-4
  6
CONTINUOUS
 62
     3
100
AcDbLine
 10
66.721389
 20
62.352081
 30
0.0
 11
66.721389
 21
63.302078
 31
0.0
  0
ARC
  5
2E0
100
AcDbEntity
  8
LAY-4
  6
CONTINUOUS
 62
     3
100
AcDbCircle
 10
68.521377
 20
59.752075
 30
0.0
 40
0.8
100
AcDbArc
 50
90.000039
 51
180.00002
  0
ARC
  5
2E1
100
AcDbEntity
  8
LAY-4
  6
CONTINUOUS
 62
     3
100
AcDbCircle
 10
68.521377
 20
62.352081
 30
0.0
 40
0.8
100
AcDbArc
 50
180.00002
 51
270.0
  0
ARC
  5
2E2
100
AcDbEntity
  8
LAY-4
  6
CONTINUOUS
 62
     3
100
AcDbCircle
 10
65.921371
 20
62.352081
 30
0.0
 40
0.8
100
AcDbArc
 50
270.0
 51
359.999982
  0
ARC
  5
2E3
100
AcDbEntity
  8
LAY-4
  6
CONTINUOUS
 62
     3
100
AcDbCircle
 10
65.921371
 20
59.752075
 30
0.0
 40
0.8
100
AcDbArc
 50
0.0
 51
90.000039
  0
CIRCLE
  5
2E4
100
AcDbEntity
  8
LAY-4
  6
CONTINUOUS
 62
     3
100
AcDbCircle
 10
187.221389
 20
61.052078
 30
0.0
 40
4.1
  0
LINE
  5
2E5
100
AcDbEntity
  8
LAY-4
  6
CONTINUOUS
 62
     3
100
AcDbLine
 10
189.471389
 20
60.552078
 30
0.0
 11
189.471389
 21
61.552078
 31
0.0
  0
LINE
  5
2E6
100
AcDbEntity
  8
LAY-4
  6
CONTINUOUS
 62
     3
100
AcDbLine
 10
184.971389
 20
60.552078
 30
0.0
 11
184.971389
 21
61.552078
 31
0.0
  0
LINE
  5
2E7
100
AcDbEntity
  8
LAY-4
  6
CONTINUOUS
 62
     3
100
AcDbLine
 10
186.721389
 20
58.802078
 30
0.0
 11
187.721389
 21
58.802078
 31
0.0
  0
LINE
  5
2E8
100
AcDbEntity
  8
LAY-4
  6
CONTINUOUS
 62
     3
100
AcDbLine
 10
186.721389
 20
63.302078
 30
0.0
 11
187.721389
 21
63.302078
 31
0.0
  0
LINE
  5
2E9
100
AcDbEntity
  8
LAY-4
  6
CONTINUOUS
 62
     3
100
AcDbLine
 10
189.471389
 20
61.552078
 30
0.0
 11
188.521377
 21
61.552078
 31
0.0
  0
LINE
  5
2EA
100
AcDbEntity
  8
LAY-4
  6
CONTINUOUS
 62
     3
100
AcDbLine
 10
185.921371
 20
61.552078
 30
0.0
 11
184.971389
 21
61.552078
 31
0.0
  0
LINE
  5
2EB
100
AcDbEntity
  8
LAY-4
  6
CONTINUOUS
 62
     3
100
AcDbLine
 10
189.471389
 20
60.552078
 30
0.0
 11
188.521377
 21
60.552078
 31
0.0
  0
LINE
  5
2EC
100
AcDbEntity
  8
LAY-4
  6
CONTINUOUS
 62
     3
100
AcDbLine
 10
185.921371
 20
60.552078
 30
0.0
 11
184.971389
 21
60.552078
 31
0.0
  0
LINE
  5
2ED
100
AcDbEntity
  8
LAY-4
  6
CONTINUOUS
 62
     3
100
AcDbLine
 10
187.721389
 20
58.802078
 30
0.0
 11
187.721389
 21
59.752075
 31
0.0
  0
LINE
  5
2EE
100
AcDbEntity
  8
LAY-4
  6
CONTINUOUS
 62
     3
100
AcDbLine
 10
187.721389
 20
62.352081
 30
0.0
 11
187.721389
 21
63.302078
 31
0.0
  0
LINE
  5
2EF
100
AcDbEntity
  8
LAY-4
  6
CONTINUOUS
 62
     3
100
AcDbLine
 10
186.721389
 20
58.802078
 30
0.0
 11
186.721389
 21
59.752075
 31
0.0
  0
LINE
  5
2F0
100
AcDbEntity
  8
LAY-4
  6
CONTINUOUS
 62
     3
100
AcDbLine
 10
186.721389
 20
62.352081
 30
0.0
 11
186.721389
 21
63.302078
 31
0.0
  0
ARC
  5
2F1
100
AcDbEntity
  8
LAY-4
  6
CONTINUOUS
 62
     3
100
AcDbCircle
 10
188.521377
 20
59.752075
 30
0.0
 40
0.8
100
AcDbArc
 50
90.000039
 51
180.00002
  0
ARC
  5
2F2
100
AcDbEntity
  8
LAY-4
  6
CONTINUOUS
 62
     3
100
AcDbCircle
 10
188.521377
 20
62.352081
 30
0.0
 40
0.8
100
AcDbArc
 50
180.00002
 51
270.0
  0
ARC
  5
2F3
100
AcDbEntity
  8
LAY-4
  6
CONTINUOUS
 62
     3
100
AcDbCircle
 10
185.921371
 20
62.352081
 30
0.0
 40
0.8
100
AcDbArc
 50
270.0
 51
359.999982
  0
ARC
  5
2F4
100
AcDbEntity
  8
LAY-4
  6
CONTINUOUS
 62
     3
100
AcDbCircle
 10
185.921371
 20
59.752075
 30
0.0
 40
0.8
100
AcDbArc
 50
0.0
 51
90.000039
  0
CIRCLE
  5
2F5
100
AcDbEntity
  8
LAY-4
  6
CONTINUOUS
 62
     3
100
AcDbCircle
 10
207.221389
 20
61.052078
 30
0.0
 40
4.1
  0
LINE
  5
2F6
100
AcDbEntity
  8
LAY-4
  6
CONTINUOUS
 62
     3
100
AcDbLine
 10
209.471389
 20
60.552078
 30
0.0
 11
209.471389
 21
61.552078
 31
0.0
  0
LINE
  5
2F7
100
AcDbEntity
  8
LAY-4
  6
CONTINUOUS
 62
     3
100
AcDbLine
 10
204.971389
 20
60.552078
 30
0.0
 11
204.971389
 21
61.552078
 31
0.0
  0
LINE
  5
2F8
100
AcDbEntity
  8
LAY-4
  6
CONTINUOUS
 62
     3
100
AcDbLine
 10
206.721389
 20
58.802078
 30
0.0
 11
207.721389
 21
58.802078
 31
0.0
  0
LINE
  5
2F9
100
AcDbEntity
  8
LAY-4
  6
CONTINUOUS
 62
     3
100
AcDbLine
 10
206.721389
 20
63.302078
 30
0.0
 11
207.721389
 21
63.302078
 31
0.0
  0
LINE
  5
2FA
100
AcDbEntity
  8
LAY-4
  6
CONTINUOUS
 62
     3
100
AcDbLine
 10
209.471389
 20
61.552078
 30
0.0
 11
208.521377
 21
61.552078
 31
0.0
  0
LINE
  5
2FB
100
AcDbEntity
  8
LAY-4
  6
CONTINUOUS
 62
     3
100
AcDbLine
 10
205.921371
 20
61.552078
 30
0.0
 11
204.971389
 21
61.552078
 31
0.0
  0
LINE
  5
2FC
100
AcDbEntity
  8
LAY-4
  6
CONTINUOUS
 62
     3
100
AcDbLine
 10
209.471389
 20
60.552078
 30
0.0
 11
208.521377
 21
60.552078
 31
0.0
  0
LINE
  5
2FD
100
AcDbEntity
  8
LAY-4
  6
CONTINUOUS
 62
     3
100
AcDbLine
 10
205.921371
 20
60.552078
 30
0.0
 11
204.971389
 21
60.552078
 31
0.0
  0
LINE
  5
2FE
100
AcDbEntity
  8
LAY-4
  6
CONTINUOUS
 62
     3
100
AcDbLine
 10
207.721389
 20
58.802078
 30
0.0
 11
207.721389
 21
59.752075
 31
0.0
  0
LINE
  5
2FF
100
AcDbEntity
  8
LAY-4
  6
CONTINUOUS
 62
     3
100
AcDbLine
 10
207.721389
 20
62.352081
 30
0.0
 11
207.721389
 21
63.302078
 31
0.0
  0
LINE
  5
300
100
AcDbEntity
  8
LAY-4
  6
CONTINUOUS
 62
     3
100
AcDbLine
 10
206.721389
 20
58.802078
 30
0.0
 11
206.721389
 21
59.752075
 31
0.0
  0
LINE
  5
301
100
AcDbEntity
  8
LAY-4
  6
CONTINUOUS
 62
     3
100
AcDbLine
 10
206.721389
 20
62.352081
 30
0.0
 11
206.721389
 21
63.302078
 31
0.0
  0
ARC
  5
302
100
AcDbEntity
  8
LAY-4
  6
CONTINUOUS
 62
     3
100
AcDbCircle
 10
208.521377
 20
59.752075
 30
0.0
 40
0.8
100
AcDbArc
 50
90.000039
 51
180.00002
  0
ARC
  5
303
100
AcDbEntity
  8
LAY-4
  6
CONTINUOUS
 62
     3
100
AcDbCircle
 10
208.521377
 20
62.352081
 30
0.0
 40
0.8
100
AcDbArc
 50
180.00002
 51
270.0
  0
ARC
  5
304
100
AcDbEntity
  8
LAY-4
  6
CONTINUOUS
 62
     3
100
AcDbCircle
 10
205.921371
 20
62.352081
 30
0.0
 40
0.8
100
AcDbArc
 50
270.0
 51
359.999982
  0
ARC
  5
305
100
AcDbEntity
  8
LAY-4
  6
CONTINUOUS
 62
     3
100
AcDbCircle
 10
205.921371
 20
59.752075
 30
0.0
 40
0.8
100
AcDbArc
 50
0.0
 51
90.000039
  0
CIRCLE
  5
306
100
AcDbEntity
  8
LAY-4
  6
CONTINUOUS
 62
     3
100
AcDbCircle
 10
352.221389
 20
61.052078
 30
0.0
 40
4.1
  0
LINE
  5
307
100
AcDbEntity
  8
LAY-4
  6
CONTINUOUS
 62
     3
100
AcDbLine
 10
354.471389
 20
60.552078
 30
0.0
 11
354.471389
 21
61.552078
 31
0.0
  0
LINE
  5
308
100
AcDbEntity
  8
LAY-4
  6
CONTINUOUS
 62
     3
100
AcDbLine
 10
349.971389
 20
60.552078
 30
0.0
 11
349.971389
 21
61.552078
 31
0.0
  0
LINE
  5
309
100
AcDbEntity
  8
LAY-4
  6
CONTINUOUS
 62
     3
100
AcDbLine
 10
351.721389
 20
58.802078
 30
0.0
 11
352.721389
 21
58.802078
 31
0.0
  0
LINE
  5
30A
100
AcDbEntity
  8
LAY-4
  6
CONTINUOUS
 62
     3
100
AcDbLine
 10
351.721389
 20
63.302078
 30
0.0
 11
352.721389
 21
63.302078
 31
0.0
  0
LINE
  5
30B
100
AcDbEntity
  8
LAY-4
  6
CONTINUOUS
 62
     3
100
AcDbLine
 10
354.471389
 20
61.552078
 30
0.0
 11
353.521377
 21
61.552078
 31
0.0
  0
LINE
  5
30C
100
AcDbEntity
  8
LAY-4
  6
CONTINUOUS
 62
     3
100
AcDbLine
 10
350.921371
 20
61.552078
 30
0.0
 11
349.971389
 21
61.552078
 31
0.0
  0
LINE
  5
30D
100
AcDbEntity
  8
LAY-4
  6
CONTINUOUS
 62
     3
100
AcDbLine
 10
354.471389
 20
60.552078
 30
0.0
 11
353.521377
 21
60.552078
 31
0.0
  0
LINE
  5
30E
100
AcDbEntity
  8
LAY-4
  6
CONTINUOUS
 62
     3
100
AcDbLine
 10
350.921371
 20
60.552078
 30
0.0
 11
349.971389
 21
60.552078
 31
0.0
  0
LINE
  5
30F
100
AcDbEntity
  8
LAY-4
  6
CONTINUOUS
 62
     3
100
AcDbLine
 10
352.721389
 20
58.802078
 30
0.0
 11
352.721389
 21
59.752075
 31
0.0
  0
LINE
  5
310
100
AcDbEntity
  8
LAY-4
  6
CONTINUOUS
 62
     3
100
AcDbLine
 10
352.721389
 20
62.352081
 30
0.0
 11
352.721389
 21
63.302078
 31
0.0
  0
LINE
  5
311
100
AcDbEntity
  8
LAY-4
  6
CONTINUOUS
 62
     3
100
AcDbLine
 10
351.721389
 20
58.802078
 30
0.0
 11
351.721389
 21
59.752075
 31
0.0
  0
LINE
  5
312
100
AcDbEntity
  8
LAY-4
  6
CONTINUOUS
 62
     3
100
AcDbLine
 10
351.721389
 20
62.352081
 30
0.0
 11
351.721389
 21
63.302078
 31
0.0
  0
ARC
  5
313
100
AcDbEntity
  8
LAY-4
  6
CONTINUOUS
 62
     3
100
AcDbCircle
 10
353.521377
 20
59.752075
 30
0.0
 40
0.8
100
AcDbArc
 50
90.000039
 51
180.00002
  0
ARC
  5
314
100
AcDbEntity
  8
LAY-4
  6
CONTINUOUS
 62
     3
100
AcDbCircle
 10
353.521377
 20
62.352081
 30
0.0
 40
0.8
100
AcDbArc
 50
180.00002
 51
270.0
  0
ARC
  5
315
100
AcDbEntity
  8
LAY-4
  6
CONTINUOUS
 62
     3
100
AcDbCircle
 10
350.921371
 20
62.352081
 30
0.0
 40
0.8
100
AcDbArc
 50
270.0
 51
359.999982
  0
ARC
  5
316
100
AcDbEntity
  8
LAY-4
  6
CONTINUOUS
 62
     3
100
AcDbCircle
 10
350.921371
 20
59.752075
 30
0.0
 40
0.8
100
AcDbArc
 50
0.0
 51
90.000039
  0
CIRCLE
  5
317
100
AcDbEntity
  8
LAY-4
  6
CONTINUOUS
 62
     3
100
AcDbCircle
 10
462.221389
 20
61.052078
 30
0.0
 40
4.1
  0
LINE
  5
318
100
AcDbEntity
  8
LAY-4
  6
CONTINUOUS
 62
     3
100
AcDbLine
 10
464.471389
 20
60.552078
 30
0.0
 11
464.471389
 21
61.552078
 31
0.0
  0
LINE
  5
319
100
AcDbEntity
  8
LAY-4
  6
CONTINUOUS
 62
     3
100
AcDbLine
 10
459.971389
 20
60.552078
 30
0.0
 11
459.971389
 21
61.552078
 31
0.0
  0
LINE
  5
31A
100
AcDbEntity
  8
LAY-4
  6
CONTINUOUS
 62
     3
100
AcDbLine
 10
461.721389
 20
58.802078
 30
0.0
 11
462.721389
 21
58.802078
 31
0.0
  0
LINE
  5
31B
100
AcDbEntity
  8
LAY-4
  6
CONTINUOUS
 62
     3
100
AcDbLine
 10
461.721389
 20
63.302078
 30
0.0
 11
462.721389
 21
63.302078
 31
0.0
  0
LINE
  5
31C
100
AcDbEntity
  8
LAY-4
  6
CONTINUOUS
 62
     3
100
AcDbLine
 10
464.471389
 20
61.552078
 30
0.0
 11
463.521377
 21
61.552078
 31
0.0
  0
LINE
  5
31D
100
AcDbEntity
  8
LAY-4
  6
CONTINUOUS
 62
     3
100
AcDbLine
 10
460.921371
 20
61.552078
 30
0.0
 11
459.971389
 21
61.552078
 31
0.0
  0
LINE
  5
31E
100
AcDbEntity
  8
LAY-4
  6
CONTINUOUS
 62
     3
100
AcDbLine
 10
464.471389
 20
60.552078
 30
0.0
 11
463.521377
 21
60.552078
 31
0.0
  0
LINE
  5
31F
100
AcDbEntity
  8
LAY-4
  6
CONTINUOUS
 62
     3
100
AcDbLine
 10
460.921371
 20
60.552078
 30
0.0
 11
459.971389
 21
60.552078
 31
0.0
  0
LINE
  5
320
100
AcDbEntity
  8
LAY-4
  6
CONTINUOUS
 62
     3
100
AcDbLine
 10
462.721389
 20
58.802078
 30
0.0
 11
462.721389
 21
59.752075
 31
0.0
  0
LINE
  5
321
100
AcDbEntity
  8
LAY-4
  6
CONTINUOUS
 62
     3
100
AcDbLine
 10
462.721389
 20
62.352081
 30
0.0
 11
462.721389
 21
63.302078
 31
0.0
  0
LINE
  5
322
100
AcDbEntity
  8
LAY-4
  6
CONTINUOUS
 62
     3
100
AcDbLine
 10
461.721389
 20
58.802078
 30
0.0
 11
461.721389
 21
59.752075
 31
0.0
  0
LINE
  5
323
100
AcDbEntity
  8
LAY-4
  6
CONTINUOUS
 62
     3
100
AcDbLine
 10
461.721389
 20
62.352081
 30
0.0
 11
461.721389
 21
63.302078
 31
0.0
  0
ARC
  5
324
100
AcDbEntity
  8
LAY-4
  6
CONTINUOUS
 62
     3
100
AcDbCircle
 10
463.521377
 20
59.752075
 30
0.0
 40
0.8
100
AcDbArc
 50
90.000039
 51
180.00002
  0
ARC
  5
325
100
AcDbEntity
  8
LAY-4
  6
CONTINUOUS
 62
     3
100
AcDbCircle
 10
463.521377
 20
62.352081
 30
0.0
 40
0.8
100
AcDbArc
 50
180.00002
 51
270.0
  0
ARC
  5
326
100
AcDbEntity
  8
LAY-4
  6
CONTINUOUS
 62
     3
100
AcDbCircle
 10
460.921371
 20
62.352081
 30
0.0
 40
0.8
100
AcDbArc
 50
270.0
 51
359.999982
  0
ARC
  5
327
100
AcDbEntity
  8
LAY-4
  6
CONTINUOUS
 62
     3
100
AcDbCircle
 10
460.921371
 20
59.752075
 30
0.0
 40
0.8
100
AcDbArc
 50
0.0
 51
90.000039
  0
ARC
  5
328
100
AcDbEntity
  8
LAY-4
  6
CONTINUOUS
 62
     3
100
AcDbCircle
 10
132.221329
 20
154.552078
 30
0.0
 40
23.0
100
AcDbArc
 50
47.657395
 51
90.0
  0
ARC
  5
329
100
AcDbEntity
  8
LAY-4
  6
CONTINUOUS
 62
     3
100
AcDbCircle
 10
132.221329
 20
154.552078
 30
0.0
 40
23.0
100
AcDbArc
 50
270.0
 51
312.342605
  0
ARC
  5
32A
100
AcDbEntity
  8
LAY-4
  6
DASHED2
 62
     3
100
AcDbCircle
 10
132.221329
 20
154.552078
 30
0.0
 40
23.0
100
AcDbArc
 50
312.342605
 51
47.657395
  0
ARC
  5
32B
100
AcDbEntity
  8
LAY-4
  6
DASHED2
 62
     3
100
AcDbCircle
 10
122.221329
 20
154.552078
 30
0.0
 40
23.0
100
AcDbArc
 50
132.342605
 51
227.657395
  0
ARC
  5
32C
100
AcDbEntity
  8
LAY-4
  6
CONTINUOUS
 62
     3
100
AcDbCircle
 10
122.221329
 20
154.552078
 30
0.0
 40
23.0
100
AcDbArc
 50
90.0
 51
132.342605
  0
ARC
  5
32D
100
AcDbEntity
  8
LAY-4
  6
CONTINUOUS
 62
     3
100
AcDbCircle
 10
122.221329
 20
154.552078
 30
0.0
 40
23.0
100
AcDbArc
 50
227.657395
 51
270.0
  0
LINE
  5
32E
100
AcDbEntity
  8
LAY-4
  6
DASHED2
 62
     3
100
AcDbLine
 10
287.221329
 20
256.352078
 30
0.0
 11
287.221329
 21
243.352078
 31
0.0
  0
LINE
  5
32F
100
AcDbEntity
  8
LAY-4
  6
DASHED2
 62
     3
100
AcDbLine
 10
287.221329
 20
65.752078
 30
0.0
 11
287.221329
 21
52.752078
 31
0.0
  0
LINE
  5
330
100
AcDbEntity
  8
LAY-4
  6
DASHED2
 62
     3
100
AcDbLine
 10
468.221329
 20
256.352078
 30
0.0
 11
468.221329
 21
243.352078
 31
0.0
  0
LINE
  5
331
100
AcDbEntity
  8
LAY-4
  6
DASHED2
 62
     3
100
AcDbLine
 10
468.221329
 20
65.752078
 30
0.0
 11
468.221329
 21
52.752078
 31
0.0
  0
LINE
  5
332
100
AcDbEntity
  8
LAY-4
  6
DASHED2
 62
     3
100
AcDbLine
 10
468.221329
 20
65.752078
 30
0.0
 11
347.221329
 21
65.752078
 31
0.0
  0
LINE
  5
333
100
AcDbEntity
  8
LAY-4
  6
DASHED2
 62
     3
100
AcDbLine
 10
287.221329
 20
243.352078
 30
0.0
 11
60.221329
 21
243.352078
 31
0.0
  0
LINE
  5
334
100
AcDbEntity
  8
LAY-4
  6
DASHED2
 62
     3
100
AcDbLine
 10
60.221329
 20
256.352078
 30
0.0
 11
60.221329
 21
243.352078
 31
0.0
  0
LINE
  5
335
100
AcDbEntity
  8
LAY-4
  6
DASHED2
 62
     3
100
AcDbLine
 10
60.221329
 20
65.752078
 30
0.0
 11
60.221329
 21
52.752078
 31
0.0
  0
LINE
  5
336
100
AcDbEntity
  8
LAY-4
  6
DASHED2
 62
     3
100
AcDbLine
 10
287.221329
 20
65.752078
 30
0.0
 11
60.221329
 21
65.752078
 31
0.0
  0
ARC
  5
337
100
AcDbEntity
  8
LAY-4
  6
CONTINUOUS
 62
     3
100
AcDbCircle
 10
791.578491
 20
273.047858
 30
0.0
 40
2.0
100
AcDbArc
 50
270.0
 51
359.99998
  0
LINE
  5
338
100
AcDbEntity
  8
LAY-4
  6
CONTINUOUS
 62
     3
100
AcDbLine
 10
58.221329
 20
271.047876
 30
0.0
 11
470.221329
 21
271.047876
 31
0.0
  0
LINE
  5
339
100
AcDbEntity
  8
LAY-4
  6
CONTINUOUS
 62
     3
100
AcDbLine
 10
791.594111
 20
271.047919
 30
0.0
 11
585.578369
 21
271.047919
 31
0.0
  0
LINE
  5
33A
100
AcDbEntity
  8
LAY-4
  6
CONTINUOUS
 62
     3
100
AcDbLine
 10
696.578369
 20
348.947845
 30
0.0
 11
696.228434
 21
352.94778
 31
0.0
  0
LINE
  5
33B
100
AcDbEntity
  8
LAY-4
  6
CONTINUOUS
 62
     3
100
AcDbLine
 10
680.578369
 20
348.947845
 30
0.0
 11
680.92833
 21
352.947845
 31
0.0
  0
LINE
  5
33C
100
AcDbEntity
  8
LAY-4
  6
DASHED2
 62
     3
100
AcDbLine
 10
682.765625
 20
373.947876
 30
0.0
 11
682.765625
 21
378.947907
 31
0.0
  0
LINE
  5
33D
100
AcDbEntity
  8
LAY-4
  6
DASHED2
 62
     3
100
AcDbLine
 10
694.391235
 20
373.947876
 30
0.0
 11
694.391235
 21
378.947907
 31
0.0
  0
LINE
  5
33E
100
AcDbEntity
  8
LAY-4
  6
DASHED2
 62
     3
100
AcDbLine
 10
694.391235
 20
373.947876
 30
0.0
 11
682.765625
 21
373.947876
 31
0.0
  0
LINE
  5
33F
100
AcDbEntity
  8
LAY-4
  6
DASHED2
 62
     3
100
AcDbLine
 10
682.765625
 20
373.247864
 30
0.0
 11
694.391235
 21
373.247864
 31
0.0
  0
LINE
  5
340
100
AcDbEntity
  8
LAY-4
  6
DASHED2
 62
     3
100
AcDbLine
 10
696.228434
 20
352.94778
 30
0.0
 11
694.391235
 21
373.947876
 31
0.0
  0
LINE
  5
341
100
AcDbEntity
  8
LAY-4
  6
DASHED2
 62
     3
100
AcDbLine
 10
680.92833
 20
352.947845
 30
0.0
 11
682.765625
 21
373.947876
 31
0.0
  0
LINE
  5
342
100
AcDbEntity
  8
LAY-5
  6
DASHDOT
 62
     1
100
AcDbLine
 10
176.9
 20
162.552078
 30
0.0
 11
156.3
 21
162.552078
 31
0.0
  0
LINE
  5
343
100
AcDbEntity
  8
LAY-5
  6
DASHDOT
 62
     1
100
AcDbLine
 10
167.221329
 20
173.5
 30
0.0
 11
167.221329
 21
150.3
 31
0.0
  0
LINE
  5
344
100
AcDbEntity
  8
LAY-5
  6
DASHDOT
 62
     1
100
AcDbLine
 10
208.2
 20
146.552078
 30
0.0
 11
186.0
 21
146.552078
 31
0.0
  0
LINE
  5
345
100
AcDbEntity
  8
LAY-5
  6
DASHDOT
 62
     1
100
AcDbLine
 10
197.221329
 20
154.552078
 30
0.0
 11
197.221329
 21
138.552078
 31
0.0
  0
LINE
  5
346
100
AcDbEntity
  8
LAY-5
  6
DASHDOT
 62
     1
100
AcDbLine
 10
312.2
 20
162.552078
 30
0.0
 11
289.9
 21
162.552078
 31
0.0
  0
LINE
  5
347
100
AcDbEntity
  8
LAY-5
  6
DASHDOT
 62
     1
100
AcDbLine
 10
300.221313
 20
173.3
 30
0.0
 11
300.221313
 21
151.4
 31
0.0
  0
LINE
  5
348
100
AcDbEntity
  8
LAY-5
  6
DASHDOT
 62
     1
100
AcDbLine
 10
340.1
 20
146.552078
 30
0.0
 11
320.3
 21
146.552078
 31
0.0
  0
LINE
  5
349
100
AcDbEntity
  8
LAY-5
  6
DASHDOT
 62
     1
100
AcDbLine
 10
330.221313
 20
157.7
 30
0.0
 11
330.221313
 21
133.652078
 31
0.0
  0
LINE
  5
34A
100
AcDbEntity
  8
LAY-5
  6
DASHDOT
 62
     1
100
AcDbLine
 10
443.7
 20
162.552078
 30
0.0
 11
422.9
 21
162.552078
 31
0.0
  0
LINE
  5
34B
100
AcDbEntity
  8
LAY-5
  6
DASHDOT
 62
     1
100
AcDbLine
 10
433.221313
 20
173.5
 30
0.0
 11
433.221313
 21
150.7
 31
0.0
  0
LINE
  5
34C
100
AcDbEntity
  8
LAY-5
  6
DASHDOT
 62
     1
100
AcDbLine
 10
473.421329
 20
146.552078
 30
0.0
 11
451.9
 21
146.552078
 31
0.0
  0
LINE
  5
34D
100
AcDbEntity
  8
LAY-5
  6
DASHDOT
 62
     1
100
AcDbLine
 10
463.221313
 20
157.1
 30
0.0
 11
463.221313
 21
133.652078
 31
0.0
  0
LINE
  5
34E
100
AcDbEntity
  8
LAY-5
  6
DASHDOT
 62
     1
100
AcDbLine
 10
167.221313
 20
394.820709
 30
0.0
 11
167.221313
 21
358.899951
 31
0.0
  0
LINE
  5
34F
100
AcDbEntity
  8
LAY-5
  6
DASHDOT
 62
     1
100
AcDbLine
 10
197.22133
 20
358.899951
 30
0.0
 11
197.221313
 21
394.820723
 31
0.0
  0
LINE
  5
350
100
AcDbEntity
  8
LAY-5
  6
DASHDOT
 62
     1
100
AcDbLine
 10
300.221313
 20
394.820709
 30
0.0
 11
300.221313
 21
358.9
 31
0.0
  0
LINE
  5
351
100
AcDbEntity
  8
LAY-5
  6
DASHDOT
 62
     1
100
AcDbLine
 10
330.221313
 20
394.820709
 30
0.0
 11
330.221313
 21
358.9
 31
0.0
  0
LINE
  5
352
100
AcDbEntity
  8
LAY-5
  6
DASHDOT
 62
     1
100
AcDbLine
 10
433.221313
 20
394.820709
 30
0.0
 11
433.221313
 21
358.9
 31
0.0
  0
LINE
  5
353
100
AcDbEntity
  8
LAY-5
  6
DASHDOT
 62
     1
100
AcDbLine
 10
463.221313
 20
394.820709
 30
0.0
 11
463.221313
 21
358.9
 31
0.0
  0
LINE
  5
354
100
AcDbEntity
  8
LAY-5
  6
DASHDOT
 62
     1
100
AcDbLine
 10
207.221375
 20
505.276532
 30
0.0
 11
207.221375
 21
526.9
 31
0.0
  0
LINE
  5
355
100
AcDbEntity
  8
LAY-5
  6
DASHDOT
 62
     1
100
AcDbLine
 10
228.221329
 20
504.88371
 30
0.0
 11
228.221329
 21
539.4
 31
0.0
  0
LINE
  5
356
100
AcDbEntity
  8
LAY-5
  6
DASHDOT
 62
     1
100
AcDbLine
 10
236.221329
 20
522.612347
 30
0.0
 11
220.221329
 21
522.612347
 31
0.0
  0
LINE
  5
357
100
AcDbEntity
  8
LAY-5
  6
DASHDOT
 62
     1
100
AcDbLine
 10
215.221375
 20
518.612347
 30
0.0
 11
199.221375
 21
518.612347
 31
0.0
  0
LINE
  5
358
100
AcDbEntity
  8
LAY-5
  6
DASHDOT
 62
     1
100
AcDbLine
 10
548.221344
 20
461.161377
 30
0.0
 11
532.221344
 21
461.161377
 31
0.0
  0
LINE
  5
359
100
AcDbEntity
  8
LAY-5
  6
DASHDOT
 62
     1
100
AcDbLine
 10
540.221344
 20
469.161377
 30
0.0
 11
540.221344
 21
453.161377
 31
0.0
  0
LINE
  5
35A
100
AcDbEntity
  8
LAY-5
  6
DASHDOT
 62
     1
100
AcDbLine
 10
548.221344
 20
441.161377
 30
0.0
 11
532.221344
 21
441.161377
 31
0.0
  0
LINE
  5
35B
100
AcDbEntity
  8
LAY-5
  6
DASHDOT
 62
     1
100
AcDbLine
 10
540.221344
 20
426.161377
 30
0.0
 11
540.221344
 21
449.161377
 31
0.0
  0
LINE
  5
35C
100
AcDbEntity
  8
LAY-5
  6
DASHDOT
 62
     1
100
AcDbLine
 10
418.221313
 20
469.857605
 30
0.0
 11
418.221313
 21
420.690796
 31
0.0
  0
LINE
  5
35D
100
AcDbEntity
  8
LAY-5
  6
DASHDOT
 62
     1
100
AcDbLine
 10
371.226624
 20
451.161377
 30
0.0
 11
558.8
 21
451.161377
 31
0.0
  0
LINE
  5
35E
100
AcDbEntity
  8
LAY-5
  6
DASHDOT
 62
     1
100
AcDbLine
 10
380.221283
 20
441.161316
 30
0.0
 11
396.221283
 21
441.161316
 31
0.0
  0
LINE
  5
35F
100
AcDbEntity
  8
LAY-5
  6
DASHDOT
 62
     1
100
AcDbLine
 10
388.221283
 20
433.161316
 30
0.0
 11
388.221283
 21
449.161316
 31
0.0
  0
LINE
  5
360
100
AcDbEntity
  8
LAY-5
  6
DASHDOT
 62
     1
100
AcDbLine
 10
380.221283
 20
461.161316
 30
0.0
 11
396.221283
 21
461.161316
 31
0.0
  0
LINE
  5
361
100
AcDbEntity
  8
LAY-5
  6
DASHDOT
 62
     1
100
AcDbLine
 10
388.221283
 20
470.161316
 30
0.0
 11
388.221283
 21
453.161316
 31
0.0
  0
LINE
  5
362
100
AcDbEntity
  8
LAY-5
  6
DASHDOT
 62
     1
100
AcDbLine
 10
418.221313
 20
552.786316
 30
0.0
 11
418.221313
 21
492.984436
 31
0.0
  0
LINE
  5
363
100
AcDbEntity
  8
LAY-5
  6
DASHDOT
 62
     1
100
AcDbLine
 10
548.221313
 20
537.428711
 30
0.0
 11
532.221313
 21
537.428711
 31
0.0
  0
LINE
  5
364
100
AcDbEntity
  8
LAY-5
  6
DASHDOT
 62
     1
100
AcDbLine
 10
540.221313
 20
545.428711
 30
0.0
 11
540.221313
 21
529.428711
 31
0.0
  0
LINE
  5
365
100
AcDbEntity
  8
LAY-5
  6
DASHDOT
 62
     1
100
AcDbLine
 10
548.221313
 20
517.428711
 30
0.0
 11
532.221313
 21
517.428711
 31
0.0
  0
LINE
  5
366
100
AcDbEntity
  8
LAY-5
  6
DASHDOT
 62
     1
100
AcDbLine
 10
540.221313
 20
525.428711
 30
0.0
 11
540.221313
 21
509.428711
 31
0.0
  0
LINE
  5
367
100
AcDbEntity
  8
LAY-5
  6
DASHDOT
 62
     1
100
AcDbLine
 10
519.221313
 20
537.272888
 30
0.0
 11
519.221313
 21
518.006165
 31
0.0
  0
LINE
  5
368
100
AcDbEntity
  8
LAY-5
  6
DASHDOT
 62
     1
100
AcDbLine
 10
498.22049
 20
517.630798
 30
0.0
 11
498.22049
 21
538.649048
 31
0.0
  0
LINE
  5
369
100
AcDbEntity
  8
LAY-5
  6
DASHDOT
 62
     1
100
AcDbLine
 10
478.221313
 20
537.272888
 30
0.0
 11
478.221313
 21
518.006165
 31
0.0
  0
LINE
  5
36A
100
AcDbEntity
  8
LAY-5
  6
DASHDOT
 62
     1
100
AcDbLine
 10
396.221313
 20
537.42865
 30
0.0
 11
380.221313
 21
537.42865
 31
0.0
  0
LINE
  5
36B
100
AcDbEntity
  8
LAY-5
  6
DASHDOT
 62
     1
100
AcDbLine
 10
388.221313
 20
545.42865
 30
0.0
 11
388.221313
 21
529.42865
 31
0.0
  0
LINE
  5
36C
100
AcDbEntity
  8
LAY-5
  6
DASHDOT
 62
     1
100
AcDbLine
 10
396.221313
 20
517.42865
 30
0.0
 11
380.221313
 21
517.42865
 31
0.0
  0
LINE
  5
36D
100
AcDbEntity
  8
LAY-5
  6
DASHDOT
 62
     1
100
AcDbLine
 10
388.221313
 20
525.42865
 30
0.0
 11
388.221313
 21
509.42865
 31
0.0
  0
LINE
  5
36E
100
AcDbEntity
  8
LAY-5
  6
DASHDOT
 62
     1
100
AcDbLine
 10
688.57843
 20
264.169928
 30
0.0
 11
688.57843
 21
559.514648
 31
0.0
  0
LINE
  5
36F
100
AcDbEntity
  8
LAY-5
  6
DASHDOT
 62
     1
100
AcDbLine
 10
448.221313
 20
459.5
 30
0.0
 11
448.221313
 21
442.4
 31
0.0
  0
LINE
  5
370
100
AcDbEntity
  8
LAY-5
  6
DASHDOT
 62
     1
100
AcDbLine
 10
510.3
 20
154.552078
 30
0.0
 11
386.1
 21
154.552078
 31
0.0
  0
LINE
  5
371
100
AcDbEntity
  8
LAY-5
  6
DASHDOT
 62
     1
100
AcDbLine
 10
370.4
 20
154.552078
 30
0.0
 11
44.82988
 21
154.552078
 31
0.0
  0
LINE
  5
372
100
AcDbEntity
  8
LAY-5
  6
DASHDOT
 62
     1
100
AcDbLine
 10
469.3
 20
248.052078
 30
0.0
 11
454.6
 21
248.052078
 31
0.0
  0
LINE
  5
373
100
AcDbEntity
  8
LAY-5
  6
DASHDOT
 62
     1
100
AcDbLine
 10
462.221359
 20
241.7
 30
0.0
 11
462.221359
 21
254.4
 31
0.0
  0
LINE
  5
374
100
AcDbEntity
  8
LAY-5
  6
DASHDOT
 62
     1
100
AcDbLine
 10
359.3
 20
248.052078
 30
0.0
 11
345.5
 21
248.052078
 31
0.0
  0
LINE
  5
375
100
AcDbEntity
  8
LAY-5
  6
DASHDOT
 62
     1
100
AcDbLine
 10
352.221359
 20
241.7
 30
0.0
 11
352.221359
 21
254.4
 31
0.0
  0
LINE
  5
376
100
AcDbEntity
  8
LAY-5
  6
DASHDOT
 62
     1
100
AcDbLine
 10
214.3
 20
248.052078
 30
0.0
 11
200.5
 21
248.052078
 31
0.0
  0
LINE
  5
377
100
AcDbEntity
  8
LAY-5
  6
DASHDOT
 62
     1
100
AcDbLine
 10
207.221359
 20
241.7
 30
0.0
 11
207.221359
 21
254.4
 31
0.0
  0
LINE
  5
378
100
AcDbEntity
  8
LAY-5
  6
DASHDOT
 62
     1
100
AcDbLine
 10
194.3
 20
248.052078
 30
0.0
 11
180.5
 21
248.052078
 31
0.0
  0
LINE
  5
379
100
AcDbEntity
  8
LAY-5
  6
DASHDOT
 62
     1
100
AcDbLine
 10
187.221359
 20
241.7
 30
0.0
 11
187.221359
 21
254.4
 31
0.0
  0
LINE
  5
37A
100
AcDbEntity
  8
LAY-5
  6
DASHDOT
 62
     1
100
AcDbLine
 10
74.3
 20
248.052078
 30
0.0
 11
60.5
 21
248.052078
 31
0.0
  0
LINE
  5
37B
100
AcDbEntity
  8
LAY-5
  6
DASHDOT
 62
     1
100
AcDbLine
 10
67.221359
 20
241.7
 30
0.0
 11
67.221359
 21
254.4
 31
0.0
  0
LINE
  5
37C
100
AcDbEntity
  8
LAY-5
  6
DASHDOT
 62
     1
100
AcDbLine
 10
359.3
 20
61.052078
 30
0.0
 11
345.5
 21
61.052078
 31
0.0
  0
LINE
  5
37D
100
AcDbEntity
  8
LAY-5
  6
DASHDOT
 62
     1
100
AcDbLine
 10
352.221359
 20
67.404156
 30
0.0
 11
352.221359
 21
54.704156
 31
0.0
  0
LINE
  5
37E
100
AcDbEntity
  8
LAY-5
  6
DASHDOT
 62
     1
100
AcDbLine
 10
469.3
 20
61.052078
 30
0.0
 11
455.5
 21
61.052078
 31
0.0
  0
LINE
  5
37F
100
AcDbEntity
  8
LAY-5
  6
DASHDOT
 62
     1
100
AcDbLine
 10
462.221359
 20
67.404156
 30
0.0
 11
462.221359
 21
54.704156
 31
0.0
  0
LINE
  5
380
100
AcDbEntity
  8
LAY-5
  6
DASHDOT
 62
     1
100
AcDbLine
 10
214.3
 20
61.052078
 30
0.0
 11
200.5
 21
61.052078
 31
0.0
  0
LINE
  5
381
100
AcDbEntity
  8
LAY-5
  6
DASHDOT
 62
     1
100
AcDbLine
 10
207.221359
 20
67.404156
 30
0.0
 11
207.221359
 21
54.704156
 31
0.0
  0
LINE
  5
382
100
AcDbEntity
  8
LAY-5
  6
DASHDOT
 62
     1
100
AcDbLine
 10
194.3
 20
61.052078
 30
0.0
 11
180.5
 21
61.052078
 31
0.0
  0
LINE
  5
383
100
AcDbEntity
  8
LAY-5
  6
DASHDOT
 62
     1
100
AcDbLine
 10
187.221359
 20
67.404156
 30
0.0
 11
187.221359
 21
54.704156
 31
0.0
  0
LINE
  5
384
100
AcDbEntity
  8
LAY-5
  6
DASHDOT
 62
     1
100
AcDbLine
 10
74.3
 20
61.052078
 30
0.0
 11
60.5
 21
61.052078
 31
0.0
  0
LINE
  5
385
100
AcDbEntity
  8
LAY-5
  6
DASHDOT
 62
     1
100
AcDbLine
 10
67.221359
 20
67.404156
 30
0.0
 11
67.221359
 21
54.704156
 31
0.0
  0
LINE
  5
386
100
AcDbEntity
  8
LAY-5
  6
DASHDOT
 62
     1
100
AcDbLine
 10
127.221329
 20
41.0
 30
0.0
 11
127.221329
 21
394.069122
 31
0.0
  0
LINE
  5
387
100
AcDbEntity
  8
LAY-5
  6
DASHDOT
 62
     1
100
AcDbLine
 10
369.1
 20
527.428711
 30
0.0
 11
565.059998
 21
527.428711
 31
0.0
  0
LINE
  5
388
100
AcDbEntity
  8
LAY-5
  6
DASHDOT
 62
     1
100
AcDbLine
 10
388.221313
 20
552.786316
 30
0.0
 11
388.221313
 21
492.984436
 31
0.0
  0
LINE
  5
389
100
AcDbEntity
  8
LAY-5
  6
DASHDOT
 62
     1
100
AcDbLine
 10
249.221313
 20
498.55
 30
0.0
 11
249.221313
 21
480.0
 31
0.0
  0
LINE
  5
38A
100
AcDbEntity
  8
LAY-5
  6
DASHDOT
 62
     1
100
AcDbLine
 10
157.221313
 20
498.7
 30
0.0
 11
157.221313
 21
480.599084
 31
0.0
  0
LINE
  5
38B
100
AcDbEntity
  8
LAY-5
  6
DASHDOT
 62
     1
100
AcDbLine
 10
97.221313
 20
498.53
 30
0.0
 11
97.221313
 21
479.634448
 31
0.0
  0
LINE
  5
38C
100
AcDbEntity
  8
LAY-5
  6
DASHDOT
 62
     1
100
AcDbLine
 10
97.221313
 20
499.42
 30
0.0
 11
97.221313
 21
519.190234
 31
0.0
  0
LINE
  5
38D
100
AcDbEntity
  8
LAY-5
  6
DASHDOT
 62
     1
100
AcDbLine
 10
249.221313
 20
499.75
 30
0.0
 11
249.221313
 21
519.190234
 31
0.0
  0
LINE
  5
38E
100
AcDbEntity
  8
LAY-5
  6
DASHDOT
 62
     1
100
AcDbLine
 10
127.221313
 20
471.608362
 30
0.0
 11
127.221313
 21
546.618909
 31
0.0
  0
TEXT
  5
38F
100
AcDbEntity
  8
LAY-6
  6
CONTINUOUS
 62
     2
100
AcDbText
 10
93.221313
 20
552.1
 30
0.0
 40
5.0
  1
２０
 41
0.672
  7
EXCADSTD
 72
     5
 11
100.554113
 21
552.1
 31
0.0
100
AcDbText
  0
LINE
  5
390
100
AcDbEntity
  8
LAY-6
  6
CONTINUOUS
 62
     1
100
AcDbLine
 10
87.221313
 20
511.812329
 30
0.0
 11
87.221313
 21
553.1
 31
0.0
  0
LINE
  5
391
100
AcDbEntity
  8
LAY-6
  6
CONTINUOUS
 62
     1
100
AcDbLine
 10
107.221313
 20
511.812329
 30
0.0
 11
107.221313
 21
553.1
 31
0.0
  0
LINE
  5
392
100
AcDbEntity
  8
LAY-6
  6
CONTINUOUS
 62
     1
100
AcDbLine
 10
87.221313
 20
551.6
 30
0.0
 11
107.221313
 21
551.6
 31
0.0
  0
LINE
  5
393
100
AcDbEntity
  8
LAY-6
  6
CONTINUOUS
 62
     1
100
AcDbLine
 10
90.221313
 20
552.1
 30
0.0
 11
87.221313
 21
551.6
 31
0.0
  0
LINE
  5
394
100
AcDbEntity
  8
LAY-6
  6
CONTINUOUS
 62
     1
100
AcDbLine
 10
87.221313
 20
551.6
 30
0.0
 11
90.221313
 21
551.1
 31
0.0
  0
LINE
  5
395
100
AcDbEntity
  8
LAY-6
  6
CONTINUOUS
 62
     1
100
AcDbLine
 10
104.221313
 20
551.1
 30
0.0
 11
107.221313
 21
551.6
 31
0.0
  0
LINE
  5
396
100
AcDbEntity
  8
LAY-6
  6
CONTINUOUS
 62
     1
100
AcDbLine
 10
107.221313
 20
551.6
 30
0.0
 11
104.221313
 21
552.1
 31
0.0
  0
TEXT
  5
397
100
AcDbEntity
  8
LAY-6
  6
CONTINUOUS
 62
     2
100
AcDbText
 10
113.221313
 20
552.1
 30
0.0
 40
5.0
  1
２０
 41
0.672
  7
EXCADSTD
 72
     5
 11
120.554113
 21
552.1
 31
0.0
100
AcDbText
  0
LINE
  5
398
100
AcDbEntity
  8
LAY-6
  6
CONTINUOUS
 62
     1
100
AcDbLine
 10
127.221313
 20
546.618909
 30
0.0
 11
127.221313
 21
553.1
 31
0.0
  0
LINE
  5
399
100
AcDbEntity
  8
LAY-6
  6
CONTINUOUS
 62
     1
100
AcDbLine
 10
107.221313
 20
551.6
 30
0.0
 11
127.221313
 21
551.6
 31
0.0
  0
LINE
  5
39A
100
AcDbEntity
  8
LAY-6
  6
CONTINUOUS
 62
     1
100
AcDbLine
 10
110.221313
 20
552.1
 30
0.0
 11
107.221313
 21
551.6
 31
0.0
  0
LINE
  5
39B
100
AcDbEntity
  8
LAY-6
  6
CONTINUOUS
 62
     1
100
AcDbLine
 10
107.221313
 20
551.6
 30
0.0
 11
110.221313
 21
551.1
 31
0.0
  0
LINE
  5
39C
100
AcDbEntity
  8
LAY-6
  6
CONTINUOUS
 62
     1
100
AcDbLine
 10
124.221313
 20
551.1
 30
0.0
 11
127.221313
 21
551.6
 31
0.0
  0
LINE
  5
39D
100
AcDbEntity
  8
LAY-6
  6
CONTINUOUS
 62
     1
100
AcDbLine
 10
127.221313
 20
551.6
 30
0.0
 11
124.221313
 21
552.1
 31
0.0
  0
TEXT
  5
39E
100
AcDbEntity
  8
LAY-6
  6
CONTINUOUS
 62
     2
100
AcDbText
 10
93.221313
 20
465.2
 30
0.0
 40
5.0
  1
２０
 41
0.672
  7
EXCADSTD
 72
     5
 11
100.554113
 21
465.2
 31
0.0
100
AcDbText
  0
LINE
  5
39F
100
AcDbEntity
  8
LAY-6
  6
CONTINUOUS
 62
     1
100
AcDbLine
 10
87.221313
 20
491.512323
 30
0.0
 11
87.221313
 21
463.2
 31
0.0
  0
LINE
  5
3A0
100
AcDbEntity
  8
LAY-6
  6
CONTINUOUS
 62
     1
100
AcDbLine
 10
107.221313
 20
487.012323
 30
0.0
 11
107.221313
 21
463.2
 31
0.0
  0
LINE
  5
3A1
100
AcDbEntity
  8
LAY-6
  6
CONTINUOUS
 62
     1
100
AcDbLine
 10
87.221313
 20
464.7
 30
0.0
 11
107.221313
 21
464.7
 31
0.0
  0
LINE
  5
3A2
100
AcDbEntity
  8
LAY-6
  6
CONTINUOUS
 62
     1
100
AcDbLine
 10
90.221313
 20
465.2
 30
0.0
 11
87.221313
 21
464.7
 31
0.0
  0
LINE
  5
3A3
100
AcDbEntity
  8
LAY-6
  6
CONTINUOUS
 62
     1
100
AcDbLine
 10
87.221313
 20
464.7
 30
0.0
 11
90.221313
 21
464.2
 31
0.0
  0
LINE
  5
3A4
100
AcDbEntity
  8
LAY-6
  6
CONTINUOUS
 62
     1
100
AcDbLine
 10
104.221313
 20
464.2
 30
0.0
 11
107.221313
 21
464.7
 31
0.0
  0
LINE
  5
3A5
100
AcDbEntity
  8
LAY-6
  6
CONTINUOUS
 62
     1
100
AcDbLine
 10
107.221313
 20
464.7
 30
0.0
 11
104.221313
 21
465.2
 31
0.0
  0
TEXT
  5
3A6
100
AcDbEntity
  8
LAY-6
  6
CONTINUOUS
 62
     2
100
AcDbText
 10
113.221313
 20
465.2
 30
0.0
 40
5.0
  1
２０
 41
0.672
  7
EXCADSTD
 72
     5
 11
120.554113
 21
465.2
 31
0.0
100
AcDbText
  0
LINE
  5
3A7
100
AcDbEntity
  8
LAY-6
  6
CONTINUOUS
 62
     1
100
AcDbLine
 10
127.221313
 20
471.608362
 30
0.0
 11
127.221313
 21
463.2
 31
0.0
  0
LINE
  5
3A8
100
AcDbEntity
  8
LAY-6
  6
CONTINUOUS
 62
     1
100
AcDbLine
 10
107.221313
 20
464.7
 30
0.0
 11
127.221313
 21
464.7
 31
0.0
  0
LINE
  5
3A9
100
AcDbEntity
  8
LAY-6
  6
CONTINUOUS
 62
     1
100
AcDbLine
 10
110.221313
 20
465.2
 30
0.0
 11
107.221313
 21
464.7
 31
0.0
  0
LINE
  5
3AA
100
AcDbEntity
  8
LAY-6
  6
CONTINUOUS
 62
     1
100
AcDbLine
 10
107.221313
 20
464.7
 30
0.0
 11
110.221313
 21
464.2
 31
0.0
  0
LINE
  5
3AB
100
AcDbEntity
  8
LAY-6
  6
CONTINUOUS
 62
     1
100
AcDbLine
 10
124.221313
 20
464.2
 30
0.0
 11
127.221313
 21
464.7
 31
0.0
  0
LINE
  5
3AC
100
AcDbEntity
  8
LAY-6
  6
CONTINUOUS
 62
     1
100
AcDbLine
 10
127.221313
 20
464.7
 30
0.0
 11
124.221313
 21
465.2
 31
0.0
  0
TEXT
  5
3AD
100
AcDbEntity
  8
LAY-6
  6
CONTINUOUS
 62
     2
100
AcDbText
 10
133.221329
 20
465.2
 30
0.0
 40
5.0
  1
２０
 41
0.672
  7
EXCADSTD
 72
     5
 11
140.554129
 21
465.2
 31
0.0
100
AcDbText
  0
LINE
  5
3AE
100
AcDbEntity
  8
LAY-6
  6
CONTINUOUS
 62
     1
100
AcDbLine
 10
147.221344
 20
487.012323
 30
0.0
 11
147.221344
 21
463.2
 31
0.0
  0
LINE
  5
3AF
100
AcDbEntity
  8
LAY-6
  6
CONTINUOUS
 62
     1
100
AcDbLine
 10
127.221313
 20
464.7
 30
0.0
 11
147.221344
 21
464.7
 31
0.0
  0
LINE
  5
3B0
100
AcDbEntity
  8
LAY-6
  6
CONTINUOUS
 62
     1
100
AcDbLine
 10
130.221313
 20
465.2
 30
0.0
 11
127.221313
 21
464.7
 31
0.0
  0
LINE
  5
3B1
100
AcDbEntity
  8
LAY-6
  6
CONTINUOUS
 62
     1
100
AcDbLine
 10
127.221313
 20
464.7
 30
0.0
 11
130.221313
 21
464.2
 31
0.0
  0
LINE
  5
3B2
100
AcDbEntity
  8
LAY-6
  6
CONTINUOUS
 62
     1
100
AcDbLine
 10
144.221344
 20
464.2
 30
0.0
 11
147.221344
 21
464.7
 31
0.0
  0
LINE
  5
3B3
100
AcDbEntity
  8
LAY-6
  6
CONTINUOUS
 62
     1
100
AcDbLine
 10
147.221344
 20
464.7
 30
0.0
 11
144.221344
 21
465.2
 31
0.0
  0
TEXT
  5
3B4
100
AcDbEntity
  8
LAY-6
  6
CONTINUOUS
 62
     2
100
AcDbText
 10
198.721344
 20
465.2
 30
0.0
 40
5.0
  1
１１５
 41
0.672
  7
EXCADSTD
 72
     5
 11
210.721344
 21
465.2
 31
0.0
100
AcDbText
  0
LINE
  5
3B5
100
AcDbEntity
  8
LAY-6
  6
CONTINUOUS
 62
     1
100
AcDbLine
 10
262.221344
 20
487.012323
 30
0.0
 11
262.221344
 21
463.2
 31
0.0
  0
LINE
  5
3B6
100
AcDbEntity
  8
LAY-6
  6
CONTINUOUS
 62
     1
100
AcDbLine
 10
147.221344
 20
464.7
 30
0.0
 11
262.221344
 21
464.7
 31
0.0
  0
LINE
  5
3B7
100
AcDbEntity
  8
LAY-6
  6
CONTINUOUS
 62
     1
100
AcDbLine
 10
150.221344
 20
465.2
 30
0.0
 11
147.221344
 21
464.7
 31
0.0
  0
LINE
  5
3B8
100
AcDbEntity
  8
LAY-6
  6
CONTINUOUS
 62
     1
100
AcDbLine
 10
147.221344
 20
464.7
 30
0.0
 11
150.221344
 21
464.2
 31
0.0
  0
LINE
  5
3B9
100
AcDbEntity
  8
LAY-6
  6
CONTINUOUS
 62
     1
100
AcDbLine
 10
259.221344
 20
464.2
 30
0.0
 11
262.221344
 21
464.7
 31
0.0
  0
LINE
  5
3BA
100
AcDbEntity
  8
LAY-6
  6
CONTINUOUS
 62
     1
100
AcDbLine
 10
262.221344
 20
464.7
 30
0.0
 11
259.221344
 21
465.2
 31
0.0
  0
LINE
  5
3BB
100
AcDbEntity
  8
LAY-6
  6
CONTINUOUS
 62
     1
100
AcDbLine
 10
110.221313
 20
500.912335
 30
0.0
 11
182.1
 21
500.912335
 31
0.0
  0
TEXT
  5
3BC
100
AcDbEntity
  8
LAY-6
  6
CONTINUOUS
 62
     2
100
AcDbText
 10
277.8
 20
480.712311
 30
0.0
 40
5.0
  1
６.４
 50
90.0
 41
0.595556
  7
EXCADSTD
 72
     5
 11
277.8
 21
490.712311
 31
0.0
100
AcDbText
  0
LINE
  5
3BD
100
AcDbEntity
  8
LAY-6
  6
CONTINUOUS
 62
     1
100
AcDbLine
 10
262.221344
 20
491.512323
 30
0.0
 11
279.5
 21
491.512323
 31
0.0
  0
LINE
  5
3BE
100
AcDbEntity
  8
LAY-6
  6
CONTINUOUS
 62
     1
100
AcDbLine
 10
305.0
 20
497.912298
 30
0.0
 11
276.5
 21
497.912298
 31
0.0
  0
LINE
  5
3BF
100
AcDbEntity
  8
LAY-6
  6
CONTINUOUS
 62
     1
100
AcDbLine
 10
278.0
 20
491.512323
 30
0.0
 11
278.0
 21
497.912298
 31
0.0
  0
LINE
  5
3C0
100
AcDbEntity
  8
LAY-6
  6
CONTINUOUS
 62
     1
100
AcDbLine
 10
277.5
 20
494.512323
 30
0.0
 11
278.0
 21
491.512323
 31
0.0
  0
LINE
  5
3C1
100
AcDbEntity
  8
LAY-6
  6
CONTINUOUS
 62
     1
100
AcDbLine
 10
278.0
 20
491.512323
 30
0.0
 11
278.5
 21
494.512323
 31
0.0
  0
LINE
  5
3C2
100
AcDbEntity
  8
LAY-6
  6
CONTINUOUS
 62
     1
100
AcDbLine
 10
278.5
 20
494.912298
 30
0.0
 11
278.0
 21
497.912298
 31
0.0
  0
LINE
  5
3C3
100
AcDbEntity
  8
LAY-6
  6
CONTINUOUS
 62
     1
100
AcDbLine
 10
278.0
 20
497.912298
 30
0.0
 11
277.5
 21
494.912298
 31
0.0
  0
LINE
  5
3C4
100
AcDbEntity
  8
LAY-6
  6
CONTINUOUS
 62
     1
100
AcDbLine
 10
306.0
 20
500.912329
 30
0.0
 11
276.5
 21
500.912329
 31
0.0
  0
TEXT
  5
3C5
100
AcDbEntity
  8
LAY-6
  6
CONTINUOUS
 62
     2
100
AcDbText
 10
277.8
 20
508.012329
 30
0.0
 40
5.0
  1
６.４
 50
90.0
 41
0.595556
  7
EXCADSTD
 72
     5
 11
277.8
 21
518.012329
 31
0.0
100
AcDbText
  0
LINE
  5
3C6
100
AcDbEntity
  8
LAY-6
  6
CONTINUOUS
 62
     1
100
AcDbLine
 10
262.221283
 20
507.312329
 30
0.0
 11
279.5
 21
507.312329
 31
0.0
  0
LINE
  5
3C7
100
AcDbEntity
  8
LAY-6
  6
CONTINUOUS
 62
     1
100
AcDbLine
 10
278.0
 20
500.912329
 30
0.0
 11
278.0
 21
507.312329
 31
0.0
  0
LINE
  5
3C8
100
AcDbEntity
  8
LAY-6
  6
CONTINUOUS
 62
     1
100
AcDbLine
 10
277.5
 20
503.912329
 30
0.0
 11
278.0
 21
500.912329
 31
0.0
  0
LINE
  5
3C9
100
AcDbEntity
  8
LAY-6
  6
CONTINUOUS
 62
     1
100
AcDbLine
 10
278.0
 20
500.912329
 30
0.0
 11
278.5
 21
503.912329
 31
0.0
  0
LINE
  5
3CA
100
AcDbEntity
  8
LAY-6
  6
CONTINUOUS
 62
     1
100
AcDbLine
 10
278.5
 20
504.312329
 30
0.0
 11
278.0
 21
507.312329
 31
0.0
  0
LINE
  5
3CB
100
AcDbEntity
  8
LAY-6
  6
CONTINUOUS
 62
     1
100
AcDbLine
 10
278.0
 20
507.312329
 30
0.0
 11
277.5
 21
504.312329
 31
0.0
  0
TEXT
  5
3CC
100
AcDbEntity
  8
LAY-6
  6
CONTINUOUS
 62
     2
100
AcDbText
 10
108.221329
 20
399.5
 30
0.0
 40
5.0
  1
３０
 41
0.672
  7
EXCADSTD
 72
     5
 11
115.554129
 21
399.5
 31
0.0
100
AcDbText
  0
LINE
  5
3CD
100
AcDbEntity
  8
LAY-6
  6
CONTINUOUS
 62
     1
100
AcDbLine
 10
97.221329
 20
378.947876
 30
0.0
 11
97.221329
 21
400.5
 31
0.0
  0
LINE
  5
3CE
100
AcDbEntity
  8
LAY-6
  6
CONTINUOUS
 62
     1
100
AcDbLine
 10
127.221329
 20
394.069122
 30
0.0
 11
127.221329
 21
400.5
 31
0.0
  0
LINE
  5
3CF
100
AcDbEntity
  8
LAY-6
  6
CONTINUOUS
 62
     1
100
AcDbLine
 10
97.221329
 20
399.0
 30
0.0
 11
127.221329
 21
399.0
 31
0.0
  0
LINE
  5
3D0
100
AcDbEntity
  8
LAY-6
  6
CONTINUOUS
 62
     1
100
AcDbLine
 10
100.221329
 20
399.5
 30
0.0
 11
97.221329
 21
399.0
 31
0.0
  0
LINE
  5
3D1
100
AcDbEntity
  8
LAY-6
  6
CONTINUOUS
 62
     1
100
AcDbLine
 10
97.221329
 20
399.0
 30
0.0
 11
100.221329
 21
398.5
 31
0.0
  0
LINE
  5
3D2
100
AcDbEntity
  8
LAY-6
  6
CONTINUOUS
 62
     1
100
AcDbLine
 10
124.221329
 20
398.5
 30
0.0
 11
127.221329
 21
399.0
 31
0.0
  0
LINE
  5
3D3
100
AcDbEntity
  8
LAY-6
  6
CONTINUOUS
 62
     1
100
AcDbLine
 10
127.221329
 20
399.0
 30
0.0
 11
124.221329
 21
399.5
 31
0.0
  0
TEXT
  5
3D4
100
AcDbEntity
  8
LAY-6
  6
CONTINUOUS
 62
     2
100
AcDbText
 10
296.221321
 20
399.5
 30
0.0
 40
5.0
  1
３５０
 41
0.672
  7
EXCADSTD
 72
     5
 11
308.221321
 21
399.5
 31
0.0
100
AcDbText
  0
LINE
  5
3D5
100
AcDbEntity
  8
LAY-6
  6
CONTINUOUS
 62
     1
100
AcDbLine
 10
477.221313
 20
378.947876
 30
0.0
 11
477.221313
 21
400.5
 31
0.0
  0
LINE
  5
3D6
100
AcDbEntity
  8
LAY-6
  6
CONTINUOUS
 62
     1
100
AcDbLine
 10
127.221329
 20
399.0
 30
0.0
 11
477.221313
 21
399.0
 31
0.0
  0
LINE
  5
3D7
100
AcDbEntity
  8
LAY-6
  6
CONTINUOUS
 62
     1
100
AcDbLine
 10
130.221329
 20
399.5
 30
0.0
 11
127.221329
 21
399.0
 31
0.0
  0
LINE
  5
3D8
100
AcDbEntity
  8
LAY-6
  6
CONTINUOUS
 62
     1
100
AcDbLine
 10
127.221329
 20
399.0
 30
0.0
 11
130.221329
 21
398.5
 31
0.0
  0
LINE
  5
3D9
100
AcDbEntity
  8
LAY-6
  6
CONTINUOUS
 62
     1
100
AcDbLine
 10
474.221313
 20
398.5
 30
0.0
 11
477.221313
 21
399.0
 31
0.0
  0
LINE
  5
3DA
100
AcDbEntity
  8
LAY-6
  6
CONTINUOUS
 62
     1
100
AcDbLine
 10
477.221313
 20
399.0
 30
0.0
 11
474.221313
 21
399.5
 31
0.0
  0
TEXT
  5
3DB
100
AcDbEntity
  8
LAY-6
  6
CONTINUOUS
 62
     2
100
AcDbText
 10
281.221321
 20
408.5
 30
0.0
 40
5.0
  1
３８０
 41
0.672
  7
EXCADSTD
 72
     5
 11
293.221321
 21
408.5
 31
0.0
100
AcDbText
  0
LINE
  5
3DC
100
AcDbEntity
  8
LAY-6
  6
CONTINUOUS
 62
     1
100
AcDbLine
 10
97.221329
 20
400.5
 30
0.0
 11
97.221329
 21
409.5
 31
0.0
  0
LINE
  5
3DD
100
AcDbEntity
  8
LAY-6
  6
CONTINUOUS
 62
     1
100
AcDbLine
 10
477.221313
 20
400.5
 30
0.0
 11
477.221313
 21
409.5
 31
0.0
  0
LINE
  5
3DE
100
AcDbEntity
  8
LAY-6
  6
CONTINUOUS
 62
     1
100
AcDbLine
 10
97.221329
 20
408.0
 30
0.0
 11
477.221313
 21
408.0
 31
0.0
  0
LINE
  5
3DF
100
AcDbEntity
  8
LAY-6
  6
CONTINUOUS
 62
     1
100
AcDbLine
 10
100.221329
 20
408.5
 30
0.0
 11
97.221329
 21
408.0
 31
0.0
  0
LINE
  5
3E0
100
AcDbEntity
  8
LAY-6
  6
CONTINUOUS
 62
     1
100
AcDbLine
 10
97.221329
 20
408.0
 30
0.0
 11
100.221329
 21
407.5
 31
0.0
  0
LINE
  5
3E1
100
AcDbEntity
  8
LAY-6
  6
CONTINUOUS
 62
     1
100
AcDbLine
 10
474.221313
 20
407.5
 30
0.0
 11
477.221313
 21
408.0
 31
0.0
  0
LINE
  5
3E2
100
AcDbEntity
  8
LAY-6
  6
CONTINUOUS
 62
     1
100
AcDbLine
 10
477.221313
 20
408.0
 30
0.0
 11
474.221313
 21
408.5
 31
0.0
  0
LINE
  5
3E3
100
AcDbEntity
  8
LAY-6
  6
CONTINUOUS
 62
     1
100
AcDbLine
 10
476.221313
 20
363.947876
 30
0.0
 11
492.6
 21
363.947876
 31
0.0
  0
TEXT
  5
3E4
100
AcDbEntity
  8
LAY-6
  6
CONTINUOUS
 62
     2
100
AcDbText
 10
490.6
 20
367.447876
 30
0.0
 40
5.0
  1
１５
 50
90.0
 41
0.672
  7
EXCADSTD
 72
     5
 11
490.6
 21
374.780676
 31
0.0
100
AcDbText
  0
LINE
  5
3E5
100
AcDbEntity
  8
LAY-6
  6
CONTINUOUS
 62
     1
100
AcDbLine
 10
491.1
 20
363.947876
 30
0.0
 11
491.1
 21
378.947876
 31
0.0
  0
LINE
  5
3E6
100
AcDbEntity
  8
LAY-6
  6
CONTINUOUS
 62
     1
100
AcDbLine
 10
490.6
 20
366.947876
 30
0.0
 11
491.1
 21
363.947876
 31
0.0
  0
LINE
  5
3E7
100
AcDbEntity
  8
LAY-6
  6
CONTINUOUS
 62
     1
100
AcDbLine
 10
491.1
 20
363.947876
 30
0.0
 11
491.6
 21
366.947876
 31
0.0
  0
LINE
  5
3E8
100
AcDbEntity
  8
LAY-6
  6
CONTINUOUS
 62
     1
100
AcDbLine
 10
491.6
 20
375.947876
 30
0.0
 11
491.1
 21
378.947876
 31
0.0
  0
LINE
  5
3E9
100
AcDbEntity
  8
LAY-6
  6
CONTINUOUS
 62
     1
100
AcDbLine
 10
491.1
 20
378.947876
 30
0.0
 11
490.6
 21
375.947876
 31
0.0
  0
LINE
  5
3EA
100
AcDbEntity
  8
LAY-6
  6
CONTINUOUS
 62
     1
100
AcDbLine
 10
552.0
 20
340.947876
 30
0.0
 11
505.6
 21
340.947876
 31
0.0
  0
LINE
  5
3EB
100
AcDbEntity
  8
LAY-6
  6
CONTINUOUS
 62
     1
100
AcDbLine
 10
552.0
 20
340.947876
 30
0.0
 11
505.6
 21
340.947876
 31
0.0
  0
TEXT
  5
3EC
100
AcDbEntity
  8
LAY-6
  6
CONTINUOUS
 62
     2
100
AcDbText
 10
143.221329
 20
115.0
 30
0.0
 40
5.0
  1
４０
 41
0.672
  7
EXCADSTD
 72
     5
 11
150.554129
 21
115.0
 31
0.0
100
AcDbText
  0
LINE
  5
3ED
100
AcDbEntity
  8
LAY-6
  6
CONTINUOUS
 62
     1
100
AcDbLine
 10
167.221329
 20
150.3
 30
0.0
 11
167.221329
 21
113.0
 31
0.0
  0
LINE
  5
3EE
100
AcDbEntity
  8
LAY-6
  6
CONTINUOUS
 62
     1
100
AcDbLine
 10
127.221329
 20
114.5
 30
0.0
 11
167.221329
 21
114.5
 31
0.0
  0
LINE
  5
3EF
100
AcDbEntity
  8
LAY-6
  6
CONTINUOUS
 62
     1
100
AcDbLine
 10
130.221329
 20
115.0
 30
0.0
 11
127.221329
 21
114.5
 31
0.0
  0
LINE
  5
3F0
100
AcDbEntity
  8
LAY-6
  6
CONTINUOUS
 62
     1
100
AcDbLine
 10
127.221329
 20
114.5
 30
0.0
 11
130.221329
 21
114.0
 31
0.0
  0
LINE
  5
3F1
100
AcDbEntity
  8
LAY-6
  6
CONTINUOUS
 62
     1
100
AcDbLine
 10
164.221329
 20
114.0
 30
0.0
 11
167.221329
 21
114.5
 31
0.0
  0
LINE
  5
3F2
100
AcDbEntity
  8
LAY-6
  6
CONTINUOUS
 62
     1
100
AcDbLine
 10
167.221329
 20
114.5
 30
0.0
 11
164.221329
 21
115.0
 31
0.0
  0
TEXT
  5
3F3
100
AcDbEntity
  8
LAY-6
  6
CONTINUOUS
 62
     2
100
AcDbText
 10
178.221329
 20
115.0
 30
0.0
 40
5.0
  1
３０
 41
0.672
  7
EXCADSTD
 72
     5
 11
185.554129
 21
115.0
 31
0.0
100
AcDbText
  0
LINE
  5
3F4
100
AcDbEntity
  8
LAY-6
  6
CONTINUOUS
 62
     1
100
AcDbLine
 10
167.221329
 20
114.5
 30
0.0
 11
197.221329
 21
114.5
 31
0.0
  0
LINE
  5
3F5
100
AcDbEntity
  8
LAY-6
  6
CONTINUOUS
 62
     1
100
AcDbLine
 10
170.221329
 20
115.0
 30
0.0
 11
167.221329
 21
114.5
 31
0.0
  0
LINE
  5
3F6
100
AcDbEntity
  8
LAY-6
  6
CONTINUOUS
 62
     1
100
AcDbLine
 10
167.221329
 20
114.5
 30
0.0
 11
170.221329
 21
114.0
 31
0.0
  0
LINE
  5
3F7
100
AcDbEntity
  8
LAY-6
  6
CONTINUOUS
 62
     1
100
AcDbLine
 10
194.221329
 20
114.0
 30
0.0
 11
197.221329
 21
114.5
 31
0.0
  0
LINE
  5
3F8
100
AcDbEntity
  8
LAY-6
  6
CONTINUOUS
 62
     1
100
AcDbLine
 10
197.221329
 20
114.5
 30
0.0
 11
194.221329
 21
115.0
 31
0.0
  0
TEXT
  5
3F9
100
AcDbEntity
  8
LAY-6
  6
CONTINUOUS
 62
     2
100
AcDbText
 10
242.721321
 20
115.0
 30
0.0
 40
5.0
  1
１０３
 41
0.672
  7
EXCADSTD
 72
     5
 11
254.721321
 21
115.0
 31
0.0
100
AcDbText
  0
LINE
  5
3FA
100
AcDbEntity
  8
LAY-6
  6
CONTINUOUS
 62
     1
100
AcDbLine
 10
300.221313
 20
151.4
 30
0.0
 11
300.221313
 21
113.0
 31
0.0
  0
LINE
  5
3FB
100
AcDbEntity
  8
LAY-6
  6
CONTINUOUS
 62
     1
100
AcDbLine
 10
197.221329
 20
114.5
 30
0.0
 11
300.221313
 21
114.5
 31
0.0
  0
LINE
  5
3FC
100
AcDbEntity
  8
LAY-6
  6
CONTINUOUS
 62
     1
100
AcDbLine
 10
200.221329
 20
115.0
 30
0.0
 11
197.221329
 21
114.5
 31
0.0
  0
LINE
  5
3FD
100
AcDbEntity
  8
LAY-6
  6
CONTINUOUS
 62
     1
100
AcDbLine
 10
197.221329
 20
114.5
 30
0.0
 11
200.221329
 21
114.0
 31
0.0
  0
LINE
  5
3FE
100
AcDbEntity
  8
LAY-6
  6
CONTINUOUS
 62
     1
100
AcDbLine
 10
297.221313
 20
114.0
 30
0.0
 11
300.221313
 21
114.5
 31
0.0
  0
LINE
  5
3FF
100
AcDbEntity
  8
LAY-6
  6
CONTINUOUS
 62
     1
100
AcDbLine
 10
300.221313
 20
114.5
 30
0.0
 11
297.221313
 21
115.0
 31
0.0
  0
TEXT
  5
400
100
AcDbEntity
  8
LAY-6
  6
CONTINUOUS
 62
     2
100
AcDbText
 10
311.221313
 20
115.0
 30
0.0
 40
5.0
  1
３０
 41
0.672
  7
EXCADSTD
 72
     5
 11
318.554113
 21
115.0
 31
0.0
100
AcDbText
  0
LINE
  5
401
100
AcDbEntity
  8
LAY-6
  6
CONTINUOUS
 62
     1
100
AcDbLine
 10
330.221313
 20
133.652078
 30
0.0
 11
330.221313
 21
113.0
 31
0.0
  0
LINE
  5
402
100
AcDbEntity
  8
LAY-6
  6
CONTINUOUS
 62
     1
100
AcDbLine
 10
300.221313
 20
114.5
 30
0.0
 11
330.221313
 21
114.5
 31
0.0
  0
LINE
  5
403
100
AcDbEntity
  8
LAY-6
  6
CONTINUOUS
 62
     1
100
AcDbLine
 10
303.221313
 20
115.0
 30
0.0
 11
300.221313
 21
114.5
 31
0.0
  0
LINE
  5
404
100
AcDbEntity
  8
LAY-6
  6
CONTINUOUS
 62
     1
100
AcDbLine
 10
300.221313
 20
114.5
 30
0.0
 11
303.221313
 21
114.0
 31
0.0
  0
LINE
  5
405
100
AcDbEntity
  8
LAY-6
  6
CONTINUOUS
 62
     1
100
AcDbLine
 10
327.221313
 20
114.0
 30
0.0
 11
330.221313
 21
114.5
 31
0.0
  0
LINE
  5
406
100
AcDbEntity
  8
LAY-6
  6
CONTINUOUS
 62
     1
100
AcDbLine
 10
330.221313
 20
114.5
 30
0.0
 11
327.221313
 21
115.0
 31
0.0
  0
TEXT
  5
407
100
AcDbEntity
  8
LAY-6
  6
CONTINUOUS
 62
     2
100
AcDbText
 10
375.721313
 20
115.0
 30
0.0
 40
5.0
  1
１０３
 41
0.672
  7
EXCADSTD
 72
     5
 11
387.721313
 21
115.0
 31
0.0
100
AcDbText
  0
LINE
  5
408
100
AcDbEntity
  8
LAY-6
  6
CONTINUOUS
 62
     1
100
AcDbLine
 10
433.221313
 20
150.7
 30
0.0
 11
433.221313
 21
113.0
 31
0.0
  0
LINE
  5
409
100
AcDbEntity
  8
LAY-6
  6
CONTINUOUS
 62
     1
100
AcDbLine
 10
330.221313
 20
114.5
 30
0.0
 11
433.221313
 21
114.5
 31
0.0
  0
LINE
  5
40A
100
AcDbEntity
  8
LAY-6
  6
CONTINUOUS
 62
     1
100
AcDbLine
 10
333.221313
 20
115.0
 30
0.0
 11
330.221313
 21
114.5
 31
0.0
  0
LINE
  5
40B
100
AcDbEntity
  8
LAY-6
  6
CONTINUOUS
 62
     1
100
AcDbLine
 10
330.221313
 20
114.5
 30
0.0
 11
333.221313
 21
114.0
 31
0.0
  0
LINE
  5
40C
100
AcDbEntity
  8
LAY-6
  6
CONTINUOUS
 62
     1
100
AcDbLine
 10
430.221313
 20
114.0
 30
0.0
 11
433.221313
 21
114.5
 31
0.0
  0
LINE
  5
40D
100
AcDbEntity
  8
LAY-6
  6
CONTINUOUS
 62
     1
100
AcDbLine
 10
433.221313
 20
114.5
 30
0.0
 11
430.221313
 21
115.0
 31
0.0
  0
LINE
  5
40E
100
AcDbEntity
  8
LAY-6
  6
CONTINUOUS
 62
     1
100
AcDbLine
 10
463.221313
 20
133.652078
 30
0.0
 11
463.221313
 21
113.0
 31
0.0
  0
TEXT
  5
40F
100
AcDbEntity
  8
LAY-6
  6
CONTINUOUS
 62
     2
100
AcDbText
 10
444.221313
 20
115.0
 30
0.0
 40
5.0
  1
３０
 41
0.672
  7
EXCADSTD
 72
     5
 11
451.554113
 21
115.0
 31
0.0
100
AcDbText
  0
LINE
  5
410
100
AcDbEntity
  8
LAY-6
  6
CONTINUOUS
 62
     1
100
AcDbLine
 10
433.221313
 20
114.5
 30
0.0
 11
463.221313
 21
114.5
 31
0.0
  0
LINE
  5
411
100
AcDbEntity
  8
LAY-6
  6
CONTINUOUS
 62
     1
100
AcDbLine
 10
436.221313
 20
115.0
 30
0.0
 11
433.221313
 21
114.5
 31
0.0
  0
LINE
  5
412
100
AcDbEntity
  8
LAY-6
  6
CONTINUOUS
 62
     1
100
AcDbLine
 10
433.221313
 20
114.5
 30
0.0
 11
436.221313
 21
114.0
 31
0.0
  0
LINE
  5
413
100
AcDbEntity
  8
LAY-6
  6
CONTINUOUS
 62
     1
100
AcDbLine
 10
460.221313
 20
114.0
 30
0.0
 11
463.221313
 21
114.5
 31
0.0
  0
LINE
  5
414
100
AcDbEntity
  8
LAY-6
  6
CONTINUOUS
 62
     1
100
AcDbLine
 10
463.221313
 20
114.5
 30
0.0
 11
460.221313
 21
115.0
 31
0.0
  0
TEXT
  5
415
100
AcDbEntity
  8
LAY-6
  6
CONTINUOUS
 62
     2
100
AcDbText
 10
316.3
 20
140.052078
 30
0.0
 40
5.0
  1
９
 50
90.0
 41
0.672
  7
EXCADSTD
 72
     5
 11
316.3
 21
143.252078
 31
0.0
100
AcDbText
  0
LINE
  5
416
100
AcDbEntity
  8
LAY-6
  6
CONTINUOUS
 62
     1
100
AcDbLine
 10
475.221313
 20
137.552078
 30
0.0
 11
315.3
 21
137.552078
 31
0.0
  0
LINE
  5
417
100
AcDbEntity
  8
LAY-6
  6
CONTINUOUS
 62
     1
100
AcDbLine
 10
320.3
 20
146.552078
 30
0.0
 11
315.3
 21
146.552078
 31
0.0
  0
LINE
  5
418
100
AcDbEntity
  8
LAY-6
  6
CONTINUOUS
 62
     1
100
AcDbLine
 10
316.8
 20
137.552078
 30
0.0
 11
316.8
 21
146.552078
 31
0.0
  0
LINE
  5
419
100
AcDbEntity
  8
LAY-6
  6
CONTINUOUS
 62
     1
100
AcDbLine
 10
316.3
 20
140.552078
 30
0.0
 11
316.8
 21
137.552078
 31
0.0
  0
LINE
  5
41A
100
AcDbEntity
  8
LAY-6
  6
CONTINUOUS
 62
     1
100
AcDbLine
 10
316.8
 20
137.552078
 30
0.0
 11
317.3
 21
140.552078
 31
0.0
  0
LINE
  5
41B
100
AcDbEntity
  8
LAY-6
  6
CONTINUOUS
 62
     1
100
AcDbLine
 10
317.3
 20
143.552078
 30
0.0
 11
316.8
 21
146.552078
 31
0.0
  0
LINE
  5
41C
100
AcDbEntity
  8
LAY-6
  6
CONTINUOUS
 62
     1
100
AcDbLine
 10
316.8
 20
146.552078
 30
0.0
 11
316.3
 21
143.552078
 31
0.0
  0
TEXT
  5
41D
100
AcDbEntity
  8
LAY-6
  6
CONTINUOUS
 62
     2
100
AcDbText
 10
316.3
 20
150.552078
 30
0.0
 40
5.0
  1
１６
 50
90.0
 41
0.672
  7
EXCADSTD
 72
     5
 11
316.3
 21
157.884878
 31
0.0
100
AcDbText
  0
LINE
  5
41E
100
AcDbEntity
  8
LAY-6
  6
CONTINUOUS
 62
     1
100
AcDbLine
 10
312.2
 20
162.552078
 30
0.0
 11
318.3
 21
162.552078
 31
0.0
  0
LINE
  5
41F
100
AcDbEntity
  8
LAY-6
  6
CONTINUOUS
 62
     1
100
AcDbLine
 10
316.8
 20
146.552078
 30
0.0
 11
316.8
 21
162.552078
 31
0.0
  0
LINE
  5
420
100
AcDbEntity
  8
LAY-6
  6
CONTINUOUS
 62
     1
100
AcDbLine
 10
316.3
 20
149.552078
 30
0.0
 11
316.8
 21
146.552078
 31
0.0
  0
LINE
  5
421
100
AcDbEntity
  8
LAY-6
  6
CONTINUOUS
 62
     1
100
AcDbLine
 10
316.8
 20
146.552078
 30
0.0
 11
317.3
 21
149.552078
 31
0.0
  0
LINE
  5
422
100
AcDbEntity
  8
LAY-6
  6
CONTINUOUS
 62
     1
100
AcDbLine
 10
317.3
 20
159.552078
 30
0.0
 11
316.8
 21
162.552078
 31
0.0
  0
LINE
  5
423
100
AcDbEntity
  8
LAY-6
  6
CONTINUOUS
 62
     1
100
AcDbLine
 10
316.8
 20
162.552078
 30
0.0
 11
316.3
 21
159.552078
 31
0.0
  0
TEXT
  5
424
100
AcDbEntity
  8
LAY-6
  6
CONTINUOUS
 62
     2
100
AcDbText
 10
316.3
 20
165.052078
 30
0.0
 40
5.0
  1
９
 50
90.0
 41
0.672
  7
EXCADSTD
 72
     5
 11
316.3
 21
168.252078
 31
0.0
100
AcDbText
  0
LINE
  5
425
100
AcDbEntity
  8
LAY-6
  6
CONTINUOUS
 62
     1
100
AcDbLine
 10
475.221313
 20
171.552078
 30
0.0
 11
315.3
 21
171.552078
 31
0.0
  0
LINE
  5
426
100
AcDbEntity
  8
LAY-6
  6
CONTINUOUS
 62
     1
100
AcDbLine
 10
316.8
 20
162.552078
 30
0.0
 11
316.8
 21
171.552078
 31
0.0
  0
LINE
  5
427
100
AcDbEntity
  8
LAY-6
  6
CONTINUOUS
 62
     1
100
AcDbLine
 10
316.3
 20
165.552078
 30
0.0
 11
316.8
 21
162.552078
 31
0.0
  0
LINE
  5
428
100
AcDbEntity
  8
LAY-6
  6
CONTINUOUS
 62
     1
100
AcDbLine
 10
316.8
 20
162.552078
 30
0.0
 11
317.3
 21
165.552078
 31
0.0
  0
LINE
  5
429
100
AcDbEntity
  8
LAY-6
  6
CONTINUOUS
 62
     1
100
AcDbLine
 10
317.3
 20
168.552078
 30
0.0
 11
316.8
 21
171.552078
 31
0.0
  0
LINE
  5
42A
100
AcDbEntity
  8
LAY-6
  6
CONTINUOUS
 62
     1
100
AcDbLine
 10
316.8
 20
171.552078
 30
0.0
 11
316.3
 21
168.552078
 31
0.0
  0
TEXT
  5
42B
100
AcDbEntity
  8
LAY-6
  6
CONTINUOUS
 62
     2
100
AcDbText
 10
241.3
 20
150.552078
 30
0.0
 40
5.0
  1
３４
 50
90.0
 41
0.672
  7
EXCADSTD
 72
     5
 11
241.3
 21
157.884878
 31
0.0
100
AcDbText
  0
LINE
  5
42C
100
AcDbEntity
  8
LAY-6
  6
CONTINUOUS
 62
     1
100
AcDbLine
 10
241.8
 20
137.552078
 30
0.0
 11
241.8
 21
171.552078
 31
0.0
  0
LINE
  5
42D
100
AcDbEntity
  8
LAY-6
  6
CONTINUOUS
 62
     1
100
AcDbLine
 10
241.3
 20
140.552078
 30
0.0
 11
241.8
 21
137.552078
 31
0.0
  0
LINE
  5
42E
100
AcDbEntity
  8
LAY-6
  6
CONTINUOUS
 62
     1
100
AcDbLine
 10
241.8
 20
137.552078
 30
0.0
 11
242.3
 21
140.552078
 31
0.0
  0
LINE
  5
42F
100
AcDbEntity
  8
LAY-6
  6
CONTINUOUS
 62
     1
100
AcDbLine
 10
242.3
 20
168.552078
 30
0.0
 11
241.8
 21
171.552078
 31
0.0
  0
LINE
  5
430
100
AcDbEntity
  8
LAY-6
  6
CONTINUOUS
 62
     1
100
AcDbLine
 10
241.8
 20
171.552078
 30
0.0
 11
241.3
 21
168.552078
 31
0.0
  0
TEXT
  5
431
100
AcDbEntity
  8
LAY-6
  6
CONTINUOUS
 62
     2
100
AcDbText
 10
394.221313
 20
559.4
 30
0.0
 40
5.0
  1
４６
 41
0.672
  7
EXCADSTD
 72
     5
 11
401.554113
 21
559.4
 31
0.0
100
AcDbText
  0
LINE
  5
432
100
AcDbEntity
  8
LAY-6
  6
CONTINUOUS
 62
     1
100
AcDbLine
 10
372.221313
 20
547.428711
 30
0.0
 11
372.221313
 21
560.4
 31
0.0
  0
LINE
  5
433
100
AcDbEntity
  8
LAY-6
  6
CONTINUOUS
 62
     1
100
AcDbLine
 10
418.221313
 20
552.786316
 30
0.0
 11
418.221313
 21
560.4
 31
0.0
  0
LINE
  5
434
100
AcDbEntity
  8
LAY-6
  6
CONTINUOUS
 62
     1
100
AcDbLine
 10
372.221313
 20
558.9
 30
0.0
 11
418.221313
 21
558.9
 31
0.0
  0
LINE
  5
435
100
AcDbEntity
  8
LAY-6
  6
CONTINUOUS
 62
     1
100
AcDbLine
 10
375.221313
 20
559.4
 30
0.0
 11
372.221313
 21
558.9
 31
0.0
  0
LINE
  5
436
100
AcDbEntity
  8
LAY-6
  6
CONTINUOUS
 62
     1
100
AcDbLine
 10
372.221313
 20
558.9
 30
0.0
 11
375.221313
 21
558.4
 31
0.0
  0
LINE
  5
437
100
AcDbEntity
  8
LAY-6
  6
CONTINUOUS
 62
     1
100
AcDbLine
 10
415.221313
 20
558.4
 30
0.0
 11
418.221313
 21
558.9
 31
0.0
  0
LINE
  5
438
100
AcDbEntity
  8
LAY-6
  6
CONTINUOUS
 62
     1
100
AcDbLine
 10
418.221313
 20
558.9
 30
0.0
 11
415.221313
 21
559.4
 31
0.0
  0
LINE
  5
439
100
AcDbEntity
  8
LAY-6
  6
CONTINUOUS
 62
     1
100
AcDbLine
 10
559.221313
 20
547.428711
 30
0.0
 11
559.221313
 21
560.4
 31
0.0
  0
TEXT
  5
43A
100
AcDbEntity
  8
LAY-6
  6
CONTINUOUS
 62
     2
100
AcDbText
 10
485.921313
 20
559.2
 30
0.0
 40
5.0
  1
１４１
 41
0.672
  7
EXCADSTD
 72
     5
 11
497.921313
 21
559.2
 31
0.0
100
AcDbText
  0
LINE
  5
43B
100
AcDbEntity
  8
LAY-6
  6
CONTINUOUS
 62
     1
100
AcDbLine
 10
418.221313
 20
558.9
 30
0.0
 11
559.221313
 21
558.9
 31
0.0
  0
LINE
  5
43C
100
AcDbEntity
  8
LAY-6
  6
CONTINUOUS
 62
     1
100
AcDbLine
 10
421.221313
 20
559.4
 30
0.0
 11
418.221313
 21
558.9
 31
0.0
  0
LINE
  5
43D
100
AcDbEntity
  8
LAY-6
  6
CONTINUOUS
 62
     1
100
AcDbLine
 10
418.221313
 20
558.9
 30
0.0
 11
421.221313
 21
558.4
 31
0.0
  0
LINE
  5
43E
100
AcDbEntity
  8
LAY-6
  6
CONTINUOUS
 62
     1
100
AcDbLine
 10
556.221313
 20
558.4
 30
0.0
 11
559.221313
 21
558.9
 31
0.0
  0
LINE
  5
43F
100
AcDbEntity
  8
LAY-6
  6
CONTINUOUS
 62
     1
100
AcDbLine
 10
559.221313
 20
558.9
 30
0.0
 11
556.221313
 21
559.4
 31
0.0
  0
TEXT
  5
440
100
AcDbEntity
  8
LAY-6
  6
CONTINUOUS
 62
     2
100
AcDbText
 10
399.221313
 20
496.6
 30
0.0
 40
5.0
  1
３０
 41
0.672
  7
EXCADSTD
 72
     5
 11
406.554113
 21
496.6
 31
0.0
100
AcDbText
  0
LINE
  5
441
100
AcDbEntity
  8
LAY-6
  6
CONTINUOUS
 62
     1
100
AcDbLine
 10
418.221313
 20
492.984436
 30
0.0
 11
418.221313
 21
497.6
 31
0.0
  0
LINE
  5
442
100
AcDbEntity
  8
LAY-6
  6
CONTINUOUS
 62
     1
100
AcDbLine
 10
388.221313
 20
496.1
 30
0.0
 11
418.221313
 21
496.1
 31
0.0
  0
LINE
  5
443
100
AcDbEntity
  8
LAY-6
  6
CONTINUOUS
 62
     1
100
AcDbLine
 10
391.221313
 20
496.6
 30
0.0
 11
388.221313
 21
496.1
 31
0.0
  0
LINE
  5
444
100
AcDbEntity
  8
LAY-6
  6
CONTINUOUS
 62
     1
100
AcDbLine
 10
388.221313
 20
496.1
 30
0.0
 11
391.221313
 21
495.6
 31
0.0
  0
LINE
  5
445
100
AcDbEntity
  8
LAY-6
  6
CONTINUOUS
 62
     1
100
AcDbLine
 10
415.221313
 20
495.6
 30
0.0
 11
418.221313
 21
496.1
 31
0.0
  0
LINE
  5
446
100
AcDbEntity
  8
LAY-6
  6
CONTINUOUS
 62
     1
100
AcDbLine
 10
418.221313
 20
496.1
 30
0.0
 11
415.221313
 21
496.6
 31
0.0
  0
LINE
  5
447
100
AcDbEntity
  8
LAY-6
  6
CONTINUOUS
 62
     1
100
AcDbLine
 10
540.221344
 20
517.428711
 30
0.0
 11
540.221344
 21
494.6
 31
0.0
  0
TEXT
  5
448
100
AcDbEntity
  8
LAY-6
  6
CONTINUOUS
 62
     2
100
AcDbText
 10
473.221329
 20
496.6
 30
0.0
 40
5.0
  1
１２２
 41
0.672
  7
EXCADSTD
 72
     5
 11
485.221329
 21
496.6
 31
0.0
100
AcDbText
  0
LINE
  5
449
100
AcDbEntity
  8
LAY-6
  6
CONTINUOUS
 62
     1
100
AcDbLine
 10
418.221313
 20
496.1
 30
0.0
 11
540.221344
 21
496.1
 31
0.0
  0
LINE
  5
44A
100
AcDbEntity
  8
LAY-6
  6
CONTINUOUS
 62
     1
100
AcDbLine
 10
421.221313
 20
496.6
 30
0.0
 11
418.221313
 21
496.1
 31
0.0
  0
LINE
  5
44B
100
AcDbEntity
  8
LAY-6
  6
CONTINUOUS
 62
     1
100
AcDbLine
 10
418.221313
 20
496.1
 30
0.0
 11
421.221313
 21
495.6
 31
0.0
  0
LINE
  5
44C
100
AcDbEntity
  8
LAY-6
  6
CONTINUOUS
 62
     1
100
AcDbLine
 10
537.221344
 20
495.6
 30
0.0
 11
540.221344
 21
496.1
 31
0.0
  0
LINE
  5
44D
100
AcDbEntity
  8
LAY-6
  6
CONTINUOUS
 62
     1
100
AcDbLine
 10
540.221344
 20
496.1
 30
0.0
 11
537.221344
 21
496.6
 31
0.0
  0
TEXT
  5
44E
100
AcDbEntity
  8
LAY-6
  6
CONTINUOUS
 62
     2
100
AcDbText
 10
394.221313
 20
485.6
 30
0.0
 40
5.0
  1
４０
 41
0.672
  7
EXCADSTD
 72
     5
 11
401.554113
 21
485.6
 31
0.0
100
AcDbText
  0
LINE
  5
44F
100
AcDbEntity
  8
LAY-6
  6
CONTINUOUS
 62
     1
100
AcDbLine
 10
378.221313
 20
510.428711
 30
0.0
 11
378.221313
 21
483.6
 31
0.0
  0
LINE
  5
450
100
AcDbEntity
  8
LAY-6
  6
CONTINUOUS
 62
     1
100
AcDbLine
 10
418.221313
 20
492.984436
 30
0.0
 11
418.221313
 21
483.6
 31
0.0
  0
LINE
  5
451
100
AcDbEntity
  8
LAY-6
  6
CONTINUOUS
 62
     1
100
AcDbLine
 10
378.221313
 20
485.1
 30
0.0
 11
418.221313
 21
485.1
 31
0.0
  0
LINE
  5
452
100
AcDbEntity
  8
LAY-6
  6
CONTINUOUS
 62
     1
100
AcDbLine
 10
381.221313
 20
485.6
 30
0.0
 11
378.221313
 21
485.1
 31
0.0
  0
LINE
  5
453
100
AcDbEntity
  8
LAY-6
  6
CONTINUOUS
 62
     1
100
AcDbLine
 10
378.221313
 20
485.1
 30
0.0
 11
381.221313
 21
484.6
 31
0.0
  0
LINE
  5
454
100
AcDbEntity
  8
LAY-6
  6
CONTINUOUS
 62
     1
100
AcDbLine
 10
415.221313
 20
484.6
 30
0.0
 11
418.221313
 21
485.1
 31
0.0
  0
LINE
  5
455
100
AcDbEntity
  8
LAY-6
  6
CONTINUOUS
 62
     1
100
AcDbLine
 10
418.221313
 20
485.1
 30
0.0
 11
415.221313
 21
485.6
 31
0.0
  0
TEXT
  5
456
100
AcDbEntity
  8
LAY-6
  6
CONTINUOUS
 62
     2
100
AcDbText
 10
479.721313
 20
485.6
 30
0.0
 40
5.0
  1
１３５
 41
0.672
  7
EXCADSTD
 72
     5
 11
491.721313
 21
485.6
 31
0.0
100
AcDbText
  0
LINE
  5
457
100
AcDbEntity
  8
LAY-6
  6
CONTINUOUS
 62
     1
100
AcDbLine
 10
418.221313
 20
485.1
 30
0.0
 11
553.221313
 21
485.1
 31
0.0
  0
LINE
  5
458
100
AcDbEntity
  8
LAY-6
  6
CONTINUOUS
 62
     1
100
AcDbLine
 10
421.221313
 20
485.6
 30
0.0
 11
418.221313
 21
485.1
 31
0.0
  0
LINE
  5
459
100
AcDbEntity
  8
LAY-6
  6
CONTINUOUS
 62
     1
100
AcDbLine
 10
418.221313
 20
485.1
 30
0.0
 11
421.221313
 21
484.6
 31
0.0
  0
LINE
  5
45A
100
AcDbEntity
  8
LAY-6
  6
CONTINUOUS
 62
     1
100
AcDbLine
 10
550.221313
 20
484.6
 30
0.0
 11
553.221313
 21
485.1
 31
0.0
  0
LINE
  5
45B
100
AcDbEntity
  8
LAY-6
  6
CONTINUOUS
 62
     1
100
AcDbLine
 10
553.221313
 20
485.1
 30
0.0
 11
550.221313
 21
485.6
 31
0.0
  0
LINE
  5
45C
100
AcDbEntity
  8
LAY-6
  6
CONTINUOUS
 62
     1
100
AcDbLine
 10
553.221313
 20
510.428711
 30
0.0
 11
553.221313
 21
483.6
 31
0.0
  0
TEXT
  5
45D
100
AcDbEntity
  8
LAY-6
  6
CONTINUOUS
 62
     2
100
AcDbText
 10
358.7
 20
526.228711
 30
0.0
 40
5.0
  1
４０
 50
90.0
 41
0.672
  7
EXCADSTD
 72
     5
 11
358.7
 21
533.561511
 31
0.0
100
AcDbText
  0
LINE
  5
45E
100
AcDbEntity
  8
LAY-6
  6
CONTINUOUS
 62
     1
100
AcDbLine
 10
372.221313
 20
547.428711
 30
0.0
 11
357.9
 21
547.428711
 31
0.0
  0
LINE
  5
45F
100
AcDbEntity
  8
LAY-6
  6
CONTINUOUS
 62
     1
100
AcDbLine
 10
372.221313
 20
507.428711
 30
0.0
 11
357.9
 21
507.428711
 31
0.0
  0
LINE
  5
460
100
AcDbEntity
  8
LAY-6
  6
CONTINUOUS
 62
     1
100
AcDbLine
 10
359.4
 20
547.428711
 30
0.0
 11
359.4
 21
507.428711
 31
0.0
  0
LINE
  5
461
100
AcDbEntity
  8
LAY-6
  6
CONTINUOUS
 62
     1
100
AcDbLine
 10
359.9
 20
544.428711
 30
0.0
 11
359.4
 21
547.428711
 31
0.0
  0
LINE
  5
462
100
AcDbEntity
  8
LAY-6
  6
CONTINUOUS
 62
     1
100
AcDbLine
 10
359.4
 20
547.428711
 30
0.0
 11
358.9
 21
544.428711
 31
0.0
  0
LINE
  5
463
100
AcDbEntity
  8
LAY-6
  6
CONTINUOUS
 62
     1
100
AcDbLine
 10
358.9
 20
510.428711
 30
0.0
 11
359.4
 21
507.428711
 31
0.0
  0
LINE
  5
464
100
AcDbEntity
  8
LAY-6
  6
CONTINUOUS
 62
     1
100
AcDbLine
 10
359.4
 20
507.428711
 30
0.0
 11
359.9
 21
510.428711
 31
0.0
  0
LINE
  5
465
100
AcDbEntity
  8
LAY-6
  6
CONTINUOUS
 62
     1
100
AcDbLine
 10
548.221313
 20
537.428711
 30
0.0
 11
573.9
 21
537.428711
 31
0.0
  0
LINE
  5
466
100
AcDbEntity
  8
LAY-6
  6
CONTINUOUS
 62
     1
100
AcDbLine
 10
548.221313
 20
517.428711
 30
0.0
 11
573.9
 21
517.428711
 31
0.0
  0
TEXT
  5
467
100
AcDbEntity
  8
LAY-6
  6
CONTINUOUS
 62
     2
100
AcDbText
 10
571.9
 20
523.428711
 30
0.0
 40
5.0
  1
２０
 50
90.0
 41
0.672
  7
EXCADSTD
 72
     5
 11
571.9
 21
530.761511
 31
0.0
100
AcDbText
  0
LINE
  5
468
100
AcDbEntity
  8
LAY-6
  6
CONTINUOUS
 62
     1
100
AcDbLine
 10
572.4
 20
537.428711
 30
0.0
 11
572.4
 21
517.428711
 31
0.0
  0
LINE
  5
469
100
AcDbEntity
  8
LAY-6
  6
CONTINUOUS
 62
     1
100
AcDbLine
 10
572.9
 20
534.428711
 30
0.0
 11
572.4
 21
537.428711
 31
0.0
  0
LINE
  5
46A
100
AcDbEntity
  8
LAY-6
  6
CONTINUOUS
 62
     1
100
AcDbLine
 10
572.4
 20
537.428711
 30
0.0
 11
571.9
 21
534.428711
 31
0.0
  0
LINE
  5
46B
100
AcDbEntity
  8
LAY-6
  6
CONTINUOUS
 62
     1
100
AcDbLine
 10
571.9
 20
520.428711
 30
0.0
 11
572.4
 21
517.428711
 31
0.0
  0
LINE
  5
46C
100
AcDbEntity
  8
LAY-6
  6
CONTINUOUS
 62
     1
100
AcDbLine
 10
572.4
 20
517.428711
 30
0.0
 11
572.9
 21
520.428711
 31
0.0
  0
LINE
  5
46D
100
AcDbEntity
  8
LAY-6
  6
CONTINUOUS
 62
     1
100
AcDbLine
 10
553.221313
 20
544.428711
 30
0.0
 11
586.7
 21
544.428711
 31
0.0
  0
LINE
  5
46E
100
AcDbEntity
  8
LAY-6
  6
CONTINUOUS
 62
     1
100
AcDbLine
 10
553.221313
 20
510.428711
 30
0.0
 11
586.7
 21
510.428711
 31
0.0
  0
TEXT
  5
46F
100
AcDbEntity
  8
LAY-6
  6
CONTINUOUS
 62
     2
100
AcDbText
 10
584.7
 20
523.428711
 30
0.0
 40
5.0
  1
３４
 50
90.0
 41
0.672
  7
EXCADSTD
 72
     5
 11
584.7
 21
530.761511
 31
0.0
100
AcDbText
  0
LINE
  5
470
100
AcDbEntity
  8
LAY-6
  6
CONTINUOUS
 62
     1
100
AcDbLine
 10
585.2
 20
544.428711
 30
0.0
 11
585.2
 21
510.428711
 31
0.0
  0
LINE
  5
471
100
AcDbEntity
  8
LAY-6
  6
CONTINUOUS
 62
     1
100
AcDbLine
 10
585.7
 20
541.428711
 30
0.0
 11
585.2
 21
544.428711
 31
0.0
  0
LINE
  5
472
100
AcDbEntity
  8
LAY-6
  6
CONTINUOUS
 62
     1
100
AcDbLine
 10
585.2
 20
544.428711
 30
0.0
 11
584.7
 21
541.428711
 31
0.0
  0
LINE
  5
473
100
AcDbEntity
  8
LAY-6
  6
CONTINUOUS
 62
     1
100
AcDbLine
 10
584.7
 20
513.428711
 30
0.0
 11
585.2
 21
510.428711
 31
0.0
  0
LINE
  5
474
100
AcDbEntity
  8
LAY-6
  6
CONTINUOUS
 62
     1
100
AcDbLine
 10
585.2
 20
510.428711
 30
0.0
 11
585.7
 21
513.428711
 31
0.0
  0
TEXT
  5
475
100
AcDbEntity
  8
LAY-6
  6
CONTINUOUS
 62
     2
100
AcDbText
 10
399.221298
 20
423.7
 30
0.0
 40
5.0
  1
３０
 41
0.672
  7
EXCADSTD
 72
     5
 11
406.554098
 21
423.7
 31
0.0
100
AcDbText
  0
LINE
  5
476
100
AcDbEntity
  8
LAY-6
  6
CONTINUOUS
 62
     1
100
AcDbLine
 10
418.221313
 20
420.690796
 30
0.0
 11
418.221313
 21
424.7
 31
0.0
  0
LINE
  5
477
100
AcDbEntity
  8
LAY-6
  6
CONTINUOUS
 62
     1
100
AcDbLine
 10
388.221283
 20
423.2
 30
0.0
 11
418.221313
 21
423.2
 31
0.0
  0
LINE
  5
478
100
AcDbEntity
  8
LAY-6
  6
CONTINUOUS
 62
     1
100
AcDbLine
 10
391.221283
 20
423.7
 30
0.0
 11
388.221283
 21
423.2
 31
0.0
  0
LINE
  5
479
100
AcDbEntity
  8
LAY-6
  6
CONTINUOUS
 62
     1
100
AcDbLine
 10
388.221283
 20
423.2
 30
0.0
 11
391.221283
 21
422.7
 31
0.0
  0
LINE
  5
47A
100
AcDbEntity
  8
LAY-6
  6
CONTINUOUS
 62
     1
100
AcDbLine
 10
415.221313
 20
422.7
 30
0.0
 11
418.221313
 21
423.2
 31
0.0
  0
LINE
  5
47B
100
AcDbEntity
  8
LAY-6
  6
CONTINUOUS
 62
     1
100
AcDbLine
 10
418.221313
 20
423.2
 30
0.0
 11
415.221313
 21
423.7
 31
0.0
  0
LINE
  5
47C
100
AcDbEntity
  8
LAY-6
  6
CONTINUOUS
 62
     1
100
AcDbLine
 10
448.221313
 20
442.4
 30
0.0
 11
448.221313
 21
421.7
 31
0.0
  0
TEXT
  5
47D
100
AcDbEntity
  8
LAY-6
  6
CONTINUOUS
 62
     2
100
AcDbText
 10
429.221313
 20
423.7
 30
0.0
 40
5.0
  1
３０
 41
0.672
  7
EXCADSTD
 72
     5
 11
436.554113
 21
423.7
 31
0.0
100
AcDbText
  0
LINE
  5
47E
100
AcDbEntity
  8
LAY-6
  6
CONTINUOUS
 62
     1
100
AcDbLine
 10
418.221313
 20
423.2
 30
0.0
 11
448.221313
 21
423.2
 31
0.0
  0
LINE
  5
47F
100
AcDbEntity
  8
LAY-6
  6
CONTINUOUS
 62
     1
100
AcDbLine
 10
421.221313
 20
423.7
 30
0.0
 11
418.221313
 21
423.2
 31
0.0
  0
LINE
  5
480
100
AcDbEntity
  8
LAY-6
  6
CONTINUOUS
 62
     1
100
AcDbLine
 10
418.221313
 20
423.2
 30
0.0
 11
421.221313
 21
422.7
 31
0.0
  0
LINE
  5
481
100
AcDbEntity
  8
LAY-6
  6
CONTINUOUS
 62
     1
100
AcDbLine
 10
445.221313
 20
422.7
 30
0.0
 11
448.221313
 21
423.2
 31
0.0
  0
LINE
  5
482
100
AcDbEntity
  8
LAY-6
  6
CONTINUOUS
 62
     1
100
AcDbLine
 10
448.221313
 20
423.2
 30
0.0
 11
445.221313
 21
423.7
 31
0.0
  0
LINE
  5
483
100
AcDbEntity
  8
LAY-6
  6
CONTINUOUS
 62
     1
100
AcDbLine
 10
540.221344
 20
426.161377
 30
0.0
 11
540.221344
 21
421.7
 31
0.0
  0
TEXT
  5
484
100
AcDbEntity
  8
LAY-6
  6
CONTINUOUS
 62
     2
100
AcDbText
 10
490.221329
 20
423.7
 30
0.0
 40
5.0
  1
９２
 41
0.672
  7
EXCADSTD
 72
     5
 11
497.554129
 21
423.7
 31
0.0
100
AcDbText
  0
LINE
  5
485
100
AcDbEntity
  8
LAY-6
  6
CONTINUOUS
 62
     1
100
AcDbLine
 10
448.221313
 20
423.2
 30
0.0
 11
540.221344
 21
423.2
 31
0.0
  0
LINE
  5
486
100
AcDbEntity
  8
LAY-6
  6
CONTINUOUS
 62
     1
100
AcDbLine
 10
451.221313
 20
423.7
 30
0.0
 11
448.221313
 21
423.2
 31
0.0
  0
LINE
  5
487
100
AcDbEntity
  8
LAY-6
  6
CONTINUOUS
 62
     1
100
AcDbLine
 10
448.221313
 20
423.2
 30
0.0
 11
451.221313
 21
422.7
 31
0.0
  0
LINE
  5
488
100
AcDbEntity
  8
LAY-6
  6
CONTINUOUS
 62
     1
100
AcDbLine
 10
537.221344
 20
422.7
 30
0.0
 11
540.221344
 21
423.2
 31
0.0
  0
LINE
  5
489
100
AcDbEntity
  8
LAY-6
  6
CONTINUOUS
 62
     1
100
AcDbLine
 10
540.221344
 20
423.2
 30
0.0
 11
537.221344
 21
423.7
 31
0.0
  0
TEXT
  5
48A
100
AcDbEntity
  8
LAY-6
  6
CONTINUOUS
 62
     2
100
AcDbText
 10
394.221313
 20
414.7
 30
0.0
 40
5.0
  1
４０
 41
0.672
  7
EXCADSTD
 72
     5
 11
401.554113
 21
414.7
 31
0.0
100
AcDbText
  0
LINE
  5
48B
100
AcDbEntity
  8
LAY-6
  6
CONTINUOUS
 62
     1
100
AcDbLine
 10
378.221313
 20
434.161376
 30
0.0
 11
378.221313
 21
412.7
 31
0.0
  0
LINE
  5
48C
100
AcDbEntity
  8
LAY-6
  6
CONTINUOUS
 62
     1
100
AcDbLine
 10
418.221313
 20
420.690796
 30
0.0
 11
418.221313
 21
412.7
 31
0.0
  0
LINE
  5
48D
100
AcDbEntity
  8
LAY-6
  6
CONTINUOUS
 62
     1
100
AcDbLine
 10
378.221313
 20
414.2
 30
0.0
 11
418.221313
 21
414.2
 31
0.0
  0
LINE
  5
48E
100
AcDbEntity
  8
LAY-6
  6
CONTINUOUS
 62
     1
100
AcDbLine
 10
381.221313
 20
414.7
 30
0.0
 11
378.221313
 21
414.2
 31
0.0
  0
LINE
  5
48F
100
AcDbEntity
  8
LAY-6
  6
CONTINUOUS
 62
     1
100
AcDbLine
 10
378.221313
 20
414.2
 30
0.0
 11
381.221313
 21
413.7
 31
0.0
  0
LINE
  5
490
100
AcDbEntity
  8
LAY-6
  6
CONTINUOUS
 62
     1
100
AcDbLine
 10
415.221313
 20
413.7
 30
0.0
 11
418.221313
 21
414.2
 31
0.0
  0
LINE
  5
491
100
AcDbEntity
  8
LAY-6
  6
CONTINUOUS
 62
     1
100
AcDbLine
 10
418.221313
 20
414.2
 30
0.0
 11
415.221313
 21
414.7
 31
0.0
  0
TEXT
  5
492
100
AcDbEntity
  8
LAY-6
  6
CONTINUOUS
 62
     2
100
AcDbText
 10
479.721313
 20
414.7
 30
0.0
 40
5.0
  1
１３５
 41
0.672
  7
EXCADSTD
 72
     5
 11
491.721313
 21
414.7
 31
0.0
100
AcDbText
  0
LINE
  5
493
100
AcDbEntity
  8
LAY-6
  6
CONTINUOUS
 62
     1
100
AcDbLine
 10
418.221313
 20
414.2
 30
0.0
 11
553.221313
 21
414.2
 31
0.0
  0
LINE
  5
494
100
AcDbEntity
  8
LAY-6
  6
CONTINUOUS
 62
     1
100
AcDbLine
 10
421.221313
 20
414.7
 30
0.0
 11
418.221313
 21
414.2
 31
0.0
  0
LINE
  5
495
100
AcDbEntity
  8
LAY-6
  6
CONTINUOUS
 62
     1
100
AcDbLine
 10
418.221313
 20
414.2
 30
0.0
 11
421.221313
 21
413.7
 31
0.0
  0
LINE
  5
496
100
AcDbEntity
  8
LAY-6
  6
CONTINUOUS
 62
     1
100
AcDbLine
 10
550.221313
 20
413.7
 30
0.0
 11
553.221313
 21
414.2
 31
0.0
  0
LINE
  5
497
100
AcDbEntity
  8
LAY-6
  6
CONTINUOUS
 62
     1
100
AcDbLine
 10
553.221313
 20
414.2
 30
0.0
 11
550.221313
 21
414.7
 31
0.0
  0
LINE
  5
498
100
AcDbEntity
  8
LAY-6
  6
CONTINUOUS
 62
     1
100
AcDbLine
 10
553.221313
 20
434.161377
 30
0.0
 11
553.221313
 21
412.7
 31
0.0
  0
LINE
  5
499
100
AcDbEntity
  8
LAY-6
  6
CONTINUOUS
 62
     1
100
AcDbLine
 10
548.221344
 20
461.161377
 30
0.0
 11
567.9
 21
461.161377
 31
0.0
  0
LINE
  5
49A
100
AcDbEntity
  8
LAY-6
  6
CONTINUOUS
 62
     1
100
AcDbLine
 10
548.221344
 20
441.161377
 30
0.0
 11
567.9
 21
441.161377
 31
0.0
  0
TEXT
  5
49B
100
AcDbEntity
  8
LAY-6
  6
CONTINUOUS
 62
     2
100
AcDbText
 10
565.9
 20
447.161377
 30
0.0
 40
5.0
  1
２０
 50
90.0
 41
0.672
  7
EXCADSTD
 72
     5
 11
565.9
 21
454.494177
 31
0.0
100
AcDbText
  0
LINE
  5
49C
100
AcDbEntity
  8
LAY-6
  6
CONTINUOUS
 62
     1
100
AcDbLine
 10
566.4
 20
461.161377
 30
0.0
 11
566.4
 21
441.161377
 31
0.0
  0
LINE
  5
49D
100
AcDbEntity
  8
LAY-6
  6
CONTINUOUS
 62
     1
100
AcDbLine
 10
566.9
 20
458.161377
 30
0.0
 11
566.4
 21
461.161377
 31
0.0
  0
LINE
  5
49E
100
AcDbEntity
  8
LAY-6
  6
CONTINUOUS
 62
     1
100
AcDbLine
 10
566.4
 20
461.161377
 30
0.0
 11
565.9
 21
458.161377
 31
0.0
  0
LINE
  5
49F
100
AcDbEntity
  8
LAY-6
  6
CONTINUOUS
 62
     1
100
AcDbLine
 10
565.9
 20
444.161377
 30
0.0
 11
566.4
 21
441.161377
 31
0.0
  0
LINE
  5
4A0
100
AcDbEntity
  8
LAY-6
  6
CONTINUOUS
 62
     1
100
AcDbLine
 10
566.4
 20
441.161377
 30
0.0
 11
566.9
 21
444.161377
 31
0.0
  0
LINE
  5
4A1
100
AcDbEntity
  8
LAY-6
  6
CONTINUOUS
 62
     1
100
AcDbLine
 10
553.221313
 20
468.161377
 30
0.0
 11
580.3
 21
468.161377
 31
0.0
  0
LINE
  5
4A2
100
AcDbEntity
  8
LAY-6
  6
CONTINUOUS
 62
     1
100
AcDbLine
 10
553.221313
 20
434.161377
 30
0.0
 11
580.3
 21
434.161377
 31
0.0
  0
TEXT
  5
4A3
100
AcDbEntity
  8
LAY-6
  6
CONTINUOUS
 62
     2
100
AcDbText
 10
578.3
 20
447.161377
 30
0.0
 40
5.0
  1
３４
 50
90.0
 41
0.672
  7
EXCADSTD
 72
     5
 11
578.3
 21
454.494177
 31
0.0
100
AcDbText
  0
LINE
  5
4A4
100
AcDbEntity
  8
LAY-6
  6
CONTINUOUS
 62
     1
100
AcDbLine
 10
578.8
 20
468.161377
 30
0.0
 11
578.8
 21
434.161377
 31
0.0
  0
LINE
  5
4A5
100
AcDbEntity
  8
LAY-6
  6
CONTINUOUS
 62
     1
100
AcDbLine
 10
579.3
 20
465.161377
 30
0.0
 11
578.8
 21
468.161377
 31
0.0
  0
LINE
  5
4A6
100
AcDbEntity
  8
LAY-6
  6
CONTINUOUS
 62
     1
100
AcDbLine
 10
578.8
 20
468.161377
 30
0.0
 11
578.3
 21
465.161377
 31
0.0
  0
LINE
  5
4A7
100
AcDbEntity
  8
LAY-6
  6
CONTINUOUS
 62
     1
100
AcDbLine
 10
578.3
 20
437.161377
 30
0.0
 11
578.8
 21
434.161377
 31
0.0
  0
LINE
  5
4A8
100
AcDbEntity
  8
LAY-6
  6
CONTINUOUS
 62
     1
100
AcDbLine
 10
578.8
 20
434.161377
 30
0.0
 11
579.3
 21
437.161377
 31
0.0
  0
LINE
  5
4A9
100
AcDbEntity
  8
LAY-6
  6
CONTINUOUS
 62
     1
100
AcDbLine
 10
671.57843
 20
518.512329
 30
0.0
 11
671.57843
 21
531.6
 31
0.0
  0
LINE
  5
4AA
100
AcDbEntity
  8
LAY-6
  6
CONTINUOUS
 62
     1
100
AcDbLine
 10
705.57843
 20
518.512329
 30
0.0
 11
705.57843
 21
531.6
 31
0.0
  0
TEXT
  5
4AB
100
AcDbEntity
  8
LAY-6
  6
CONTINUOUS
 62
     2
100
AcDbText
 10
684.57843
 20
530.6
 30
0.0
 40
5.0
  1
３４
 41
0.672
  7
EXCADSTD
 72
     5
 11
691.91123
 21
530.6
 31
0.0
100
AcDbText
  0
LINE
  5
4AC
100
AcDbEntity
  8
LAY-6
  6
CONTINUOUS
 62
     1
100
AcDbLine
 10
671.57843
 20
530.1
 30
0.0
 11
705.57843
 21
530.1
 31
0.0
  0
LINE
  5
4AD
100
AcDbEntity
  8
LAY-6
  6
CONTINUOUS
 62
     1
100
AcDbLine
 10
674.57843
 20
530.6
 30
0.0
 11
671.57843
 21
530.1
 31
0.0
  0
LINE
  5
4AE
100
AcDbEntity
  8
LAY-6
  6
CONTINUOUS
 62
     1
100
AcDbLine
 10
671.57843
 20
530.1
 30
0.0
 11
674.57843
 21
529.6
 31
0.0
  0
LINE
  5
4AF
100
AcDbEntity
  8
LAY-6
  6
CONTINUOUS
 62
     1
100
AcDbLine
 10
702.57843
 20
529.6
 30
0.0
 11
705.57843
 21
530.1
 31
0.0
  0
LINE
  5
4B0
100
AcDbEntity
  8
LAY-6
  6
CONTINUOUS
 62
     1
100
AcDbLine
 10
705.57843
 20
530.1
 30
0.0
 11
702.57843
 21
530.6
 31
0.0
  0
LINE
  5
4B1
100
AcDbEntity
  8
LAY-6
  6
CONTINUOUS
 62
     1
100
AcDbLine
 10
671.57843
 20
502.612347
 30
0.0
 11
671.57843
 21
474.3
 31
0.0
  0
LINE
  5
4B2
100
AcDbEntity
  8
LAY-6
  6
CONTINUOUS
 62
     1
100
AcDbLine
 10
705.57843
 20
502.612347
 30
0.0
 11
705.57843
 21
474.3
 31
0.0
  0
TEXT
  5
4B3
100
AcDbEntity
  8
LAY-6
  6
CONTINUOUS
 62
     2
100
AcDbText
 10
684.57843
 20
476.3
 30
0.0
 40
5.0
  1
３４
 41
0.672
  7
EXCADSTD
 72
     5
 11
691.91123
 21
476.3
 31
0.0
100
AcDbText
  0
LINE
  5
4B4
100
AcDbEntity
  8
LAY-6
  6
CONTINUOUS
 62
     1
100
AcDbLine
 10
671.57843
 20
475.8
 30
0.0
 11
705.57843
 21
475.8
 31
0.0
  0
LINE
  5
4B5
100
AcDbEntity
  8
LAY-6
  6
CONTINUOUS
 62
     1
100
AcDbLine
 10
674.57843
 20
476.3
 30
0.0
 11
671.57843
 21
475.8
 31
0.0
  0
LINE
  5
4B6
100
AcDbEntity
  8
LAY-6
  6
CONTINUOUS
 62
     1
100
AcDbLine
 10
671.57843
 20
475.8
 30
0.0
 11
674.57843
 21
475.3
 31
0.0
  0
LINE
  5
4B7
100
AcDbEntity
  8
LAY-6
  6
CONTINUOUS
 62
     1
100
AcDbLine
 10
702.57843
 20
475.3
 30
0.0
 11
705.57843
 21
475.8
 31
0.0
  0
LINE
  5
4B8
100
AcDbEntity
  8
LAY-6
  6
CONTINUOUS
 62
     1
100
AcDbLine
 10
705.57843
 20
475.8
 30
0.0
 11
702.57843
 21
476.3
 31
0.0
  0
LINE
  5
4B9
100
AcDbEntity
  8
LAY-6
  6
CONTINUOUS
 62
     1
100
AcDbLine
 10
700.57843
 20
487.112347
 30
0.0
 11
724.2
 21
487.112347
 31
0.0
  0
LINE
  5
4BA
100
AcDbEntity
  8
LAY-6
  6
CONTINUOUS
 62
     1
100
AcDbLine
 10
705.57843
 20
509.112347
 30
0.0
 11
724.2
 21
509.112347
 31
0.0
  0
TEXT
  5
4BB
100
AcDbEntity
  8
LAY-6
  6
CONTINUOUS
 62
     2
100
AcDbText
 10
722.2
 20
494.112347
 30
0.0
 40
5.0
  1
２２
 50
90.0
 41
0.672
  7
EXCADSTD
 72
     5
 11
722.2
 21
501.445147
 31
0.0
100
AcDbText
  0
LINE
  5
4BC
100
AcDbEntity
  8
LAY-6
  6
CONTINUOUS
 62
     1
100
AcDbLine
 10
722.7
 20
487.112347
 30
0.0
 11
722.7
 21
509.112347
 31
0.0
  0
LINE
  5
4BD
100
AcDbEntity
  8
LAY-6
  6
CONTINUOUS
 62
     1
100
AcDbLine
 10
722.2
 20
490.112347
 30
0.0
 11
722.7
 21
487.112347
 31
0.0
  0
LINE
  5
4BE
100
AcDbEntity
  8
LAY-6
  6
CONTINUOUS
 62
     1
100
AcDbLine
 10
722.7
 20
487.112347
 30
0.0
 11
723.2
 21
490.112347
 31
0.0
  0
LINE
  5
4BF
100
AcDbEntity
  8
LAY-6
  6
CONTINUOUS
 62
     1
100
AcDbLine
 10
723.2
 20
506.112347
 30
0.0
 11
722.7
 21
509.112347
 31
0.0
  0
LINE
  5
4C0
100
AcDbEntity
  8
LAY-6
  6
CONTINUOUS
 62
     1
100
AcDbLine
 10
722.7
 20
509.112347
 30
0.0
 11
722.2
 21
506.112347
 31
0.0
  0
LINE
  5
4C1
100
AcDbEntity
  8
LAY-6
  6
CONTINUOUS
 62
     1
100
AcDbLine
 10
736.97843
 20
512.112335
 30
0.0
 11
721.2
 21
512.112335
 31
0.0
  0
LINE
  5
4C2
100
AcDbEntity
  8
LAY-6
  6
CONTINUOUS
 62
     1
100
AcDbLine
 10
702.578491
 20
552.062378
 30
0.0
 11
724.2
 21
552.062378
 31
0.0
  0
TEXT
  5
4C3
100
AcDbEntity
  8
LAY-6
  6
CONTINUOUS
 62
     2
100
AcDbText
 10
722.2
 20
528.087356
 30
0.0
 40
5.0
  1
４０
 50
90.0
 41
0.672
  7
EXCADSTD
 72
     5
 11
722.2
 21
535.420156
 31
0.0
100
AcDbText
  0
LINE
  5
4C4
100
AcDbEntity
  8
LAY-6
  6
CONTINUOUS
 62
     1
100
AcDbLine
 10
722.7
 20
512.112335
 30
0.0
 11
722.7
 21
552.062378
 31
0.0
  0
LINE
  5
4C5
100
AcDbEntity
  8
LAY-6
  6
CONTINUOUS
 62
     1
100
AcDbLine
 10
722.2
 20
515.112335
 30
0.0
 11
722.7
 21
512.112335
 31
0.0
  0
LINE
  5
4C6
100
AcDbEntity
  8
LAY-6
  6
CONTINUOUS
 62
     1
100
AcDbLine
 10
722.7
 20
512.112335
 30
0.0
 11
723.2
 21
515.112335
 31
0.0
  0
LINE
  5
4C7
100
AcDbEntity
  8
LAY-6
  6
CONTINUOUS
 62
     1
100
AcDbLine
 10
723.2
 20
549.062378
 30
0.0
 11
722.7
 21
552.062378
 31
0.0
  0
LINE
  5
4C8
100
AcDbEntity
  8
LAY-6
  6
CONTINUOUS
 62
     1
100
AcDbLine
 10
722.7
 20
552.062378
 30
0.0
 11
722.2
 21
549.062378
 31
0.0
  0
LINE
  5
4C9
100
AcDbEntity
  8
LAY-6
  6
CONTINUOUS
 62
     1
100
AcDbLine
 10
671.57843
 20
354.947876
 30
0.0
 11
671.57843
 21
363.7
 31
0.0
  0
LINE
  5
4CA
100
AcDbEntity
  8
LAY-6
  6
CONTINUOUS
 62
     1
100
AcDbLine
 10
705.57843
 20
354.947876
 30
0.0
 11
705.57843
 21
363.7
 31
0.0
  0
TEXT
  5
4CB
100
AcDbEntity
  8
LAY-6
  6
CONTINUOUS
 62
     2
100
AcDbText
 10
684.57843
 20
362.7
 30
0.0
 40
5.0
  1
３４
 41
0.672
  7
EXCADSTD
 72
     5
 11
691.91123
 21
362.7
 31
0.0
100
AcDbText
  0
LINE
  5
4CC
100
AcDbEntity
  8
LAY-6
  6
CONTINUOUS
 62
     1
100
AcDbLine
 10
671.57843
 20
362.2
 30
0.0
 11
705.57843
 21
362.2
 31
0.0
  0
LINE
  5
4CD
100
AcDbEntity
  8
LAY-6
  6
CONTINUOUS
 62
     1
100
AcDbLine
 10
674.57843
 20
362.7
 30
0.0
 11
671.57843
 21
362.2
 31
0.0
  0
LINE
  5
4CE
100
AcDbEntity
  8
LAY-6
  6
CONTINUOUS
 62
     1
100
AcDbLine
 10
671.57843
 20
362.2
 30
0.0
 11
674.57843
 21
361.7
 31
0.0
  0
LINE
  5
4CF
100
AcDbEntity
  8
LAY-6
  6
CONTINUOUS
 62
     1
100
AcDbLine
 10
702.57843
 20
361.7
 30
0.0
 11
705.57843
 21
362.2
 31
0.0
  0
LINE
  5
4D0
100
AcDbEntity
  8
LAY-6
  6
CONTINUOUS
 62
     1
100
AcDbLine
 10
705.57843
 20
362.2
 30
0.0
 11
702.57843
 21
362.7
 31
0.0
  0
LINE
  5
4D1
100
AcDbEntity
  8
LAY-6
  6
CONTINUOUS
 62
     1
100
AcDbLine
 10
665.57843
 20
340.947876
 30
0.0
 11
665.57843
 21
325.8
 31
0.0
  0
LINE
  5
4D2
100
AcDbEntity
  8
LAY-6
  6
CONTINUOUS
 62
     1
100
AcDbLine
 10
711.57843
 20
340.947876
 30
0.0
 11
711.57843
 21
325.8
 31
0.0
  0
TEXT
  5
4D3
100
AcDbEntity
  8
LAY-6
  6
CONTINUOUS
 62
     2
100
AcDbText
 10
684.97843
 20
327.6
 30
0.0
 40
5.0
  1
４６
 41
0.672
  7
EXCADSTD
 72
     5
 11
692.31123
 21
327.6
 31
0.0
100
AcDbText
  0
LINE
  5
4D4
100
AcDbEntity
  8
LAY-6
  6
CONTINUOUS
 62
     1
100
AcDbLine
 10
665.57843
 20
327.3
 30
0.0
 11
711.57843
 21
327.3
 31
0.0
  0
LINE
  5
4D5
100
AcDbEntity
  8
LAY-6
  6
CONTINUOUS
 62
     1
100
AcDbLine
 10
668.57843
 20
327.8
 30
0.0
 11
665.57843
 21
327.3
 31
0.0
  0
LINE
  5
4D6
100
AcDbEntity
  8
LAY-6
  6
CONTINUOUS
 62
     1
100
AcDbLine
 10
665.57843
 20
327.3
 30
0.0
 11
668.57843
 21
326.8
 31
0.0
  0
LINE
  5
4D7
100
AcDbEntity
  8
LAY-6
  6
CONTINUOUS
 62
     1
100
AcDbLine
 10
708.57843
 20
326.8
 30
0.0
 11
711.57843
 21
327.3
 31
0.0
  0
LINE
  5
4D8
100
AcDbEntity
  8
LAY-6
  6
CONTINUOUS
 62
     1
100
AcDbLine
 10
711.57843
 20
327.3
 30
0.0
 11
708.57843
 21
327.8
 31
0.0
  0
LINE
  5
4D9
100
AcDbEntity
  8
LAY-6
  6
CONTINUOUS
 62
     1
100
AcDbLine
 10
673.57843
 20
352.947876
 30
0.0
 11
644.0
 21
352.947876
 31
0.0
  0
TEXT
  5
4DA
100
AcDbEntity
  8
LAY-6
  6
CONTINUOUS
 62
     2
100
AcDbText
 10
645.0
 20
342.947876
 30
0.0
 40
5.0
  1
１２
 50
90.0
 41
0.672
  7
EXCADSTD
 72
     5
 11
645.0
 21
350.280676
 31
0.0
100
AcDbText
  0
LINE
  5
4DB
100
AcDbEntity
  8
LAY-6
  6
CONTINUOUS
 62
     1
100
AcDbLine
 10
645.5
 20
340.947876
 30
0.0
 11
645.5
 21
352.947876
 31
0.0
  0
LINE
  5
4DC
100
AcDbEntity
  8
LAY-6
  6
CONTINUOUS
 62
     1
100
AcDbLine
 10
645.0
 20
343.947876
 30
0.0
 11
645.5
 21
340.947876
 31
0.0
  0
LINE
  5
4DD
100
AcDbEntity
  8
LAY-6
  6
CONTINUOUS
 62
     1
100
AcDbLine
 10
645.5
 20
340.947876
 30
0.0
 11
646.0
 21
343.947876
 31
0.0
  0
LINE
  5
4DE
100
AcDbEntity
  8
LAY-6
  6
CONTINUOUS
 62
     1
100
AcDbLine
 10
646.0
 20
349.947876
 30
0.0
 11
645.5
 21
352.947876
 31
0.0
  0
LINE
  5
4DF
100
AcDbEntity
  8
LAY-6
  6
CONTINUOUS
 62
     1
100
AcDbLine
 10
645.5
 20
352.947876
 30
0.0
 11
645.0
 21
349.947876
 31
0.0
  0
LINE
  5
4E0
100
AcDbEntity
  8
LAY-6
  6
CONTINUOUS
 62
     1
100
AcDbLine
 10
673.57843
 20
378.947876
 30
0.0
 11
644.0
 21
378.947876
 31
0.0
  0
TEXT
  5
4E1
100
AcDbEntity
  8
LAY-6
  6
CONTINUOUS
 62
     2
100
AcDbText
 10
645.0
 20
361.947876
 30
0.0
 40
5.0
  1
２６
 50
90.0
 41
0.672
  7
EXCADSTD
 72
     5
 11
645.0
 21
369.280676
 31
0.0
100
AcDbText
  0
LINE
  5
4E2
100
AcDbEntity
  8
LAY-6
  6
CONTINUOUS
 62
     1
100
AcDbLine
 10
645.5
 20
352.947876
 30
0.0
 11
645.5
 21
378.947876
 31
0.0
  0
LINE
  5
4E3
100
AcDbEntity
  8
LAY-6
  6
CONTINUOUS
 62
     1
100
AcDbLine
 10
645.0
 20
355.947876
 30
0.0
 11
645.5
 21
352.947876
 31
0.0
  0
LINE
  5
4E4
100
AcDbEntity
  8
LAY-6
  6
CONTINUOUS
 62
     1
100
AcDbLine
 10
645.5
 20
352.947876
 30
0.0
 11
646.0
 21
355.947876
 31
0.0
  0
LINE
  5
4E5
100
AcDbEntity
  8
LAY-6
  6
CONTINUOUS
 62
     1
100
AcDbLine
 10
646.0
 20
375.947876
 30
0.0
 11
645.5
 21
378.947876
 31
0.0
  0
LINE
  5
4E6
100
AcDbEntity
  8
LAY-6
  6
CONTINUOUS
 62
     1
100
AcDbLine
 10
645.5
 20
378.947876
 30
0.0
 11
645.0
 21
375.947876
 31
0.0
  0
LINE
  5
4E7
100
AcDbEntity
  8
LAY-6
  6
CONTINUOUS
 62
     1
100
AcDbLine
 10
711.07843
 20
350.963104
 30
0.0
 11
749.7
 21
350.963104
 31
0.0
  0
TEXT
  5
4E8
100
AcDbEntity
  8
LAY-6
  6
CONTINUOUS
 62
     2
100
AcDbText
 10
747.7
 20
341.95549
 30
0.0
 40
5.0
  1
１０
 50
90.0
 41
0.672
  7
EXCADSTD
 72
     5
 11
747.7
 21
349.28829
 31
0.0
100
AcDbText
  0
LINE
  5
4E9
100
AcDbEntity
  8
LAY-6
  6
CONTINUOUS
 62
     1
100
AcDbLine
 10
748.2
 20
340.947876
 30
0.0
 11
748.2
 21
350.963104
 31
0.0
  0
LINE
  5
4EA
100
AcDbEntity
  8
LAY-6
  6
CONTINUOUS
 62
     1
100
AcDbLine
 10
747.7
 20
343.947876
 30
0.0
 11
748.2
 21
340.947876
 31
0.0
  0
LINE
  5
4EB
100
AcDbEntity
  8
LAY-6
  6
CONTINUOUS
 62
     1
100
AcDbLine
 10
748.2
 20
340.947876
 30
0.0
 11
748.7
 21
343.947876
 31
0.0
  0
LINE
  5
4EC
100
AcDbEntity
  8
LAY-6
  6
CONTINUOUS
 62
     1
100
AcDbLine
 10
748.7
 20
347.963104
 30
0.0
 11
748.2
 21
350.963104
 31
0.0
  0
LINE
  5
4ED
100
AcDbEntity
  8
LAY-6
  6
CONTINUOUS
 62
     1
100
AcDbLine
 10
748.2
 20
350.963104
 30
0.0
 11
747.7
 21
347.963104
 31
0.0
  0
LINE
  5
4EE
100
AcDbEntity
  8
LAY-6
  6
CONTINUOUS
 62
     1
100
AcDbLine
 10
703.57843
 20
378.947876
 30
0.0
 11
749.7
 21
378.947876
 31
0.0
  0
TEXT
  5
4EF
100
AcDbEntity
  8
LAY-6
  6
CONTINUOUS
 62
     2
100
AcDbText
 10
747.7
 20
360.95549
 30
0.0
 40
5.0
  1
２８
 50
90.0
 41
0.672
  7
EXCADSTD
 72
     5
 11
747.7
 21
368.28829
 31
0.0
100
AcDbText
  0
LINE
  5
4F0
100
AcDbEntity
  8
LAY-6
  6
CONTINUOUS
 62
     1
100
AcDbLine
 10
748.2
 20
350.963104
 30
0.0
 11
748.2
 21
378.947876
 31
0.0
  0
LINE
  5
4F1
100
AcDbEntity
  8
LAY-6
  6
CONTINUOUS
 62
     1
100
AcDbLine
 10
747.7
 20
353.963104
 30
0.0
 11
748.2
 21
350.963104
 31
0.0
  0
LINE
  5
4F2
100
AcDbEntity
  8
LAY-6
  6
CONTINUOUS
 62
     1
100
AcDbLine
 10
748.2
 20
350.963104
 30
0.0
 11
748.7
 21
353.963104
 31
0.0
  0
LINE
  5
4F3
100
AcDbEntity
  8
LAY-6
  6
CONTINUOUS
 62
     1
100
AcDbLine
 10
748.7
 20
375.947876
 30
0.0
 11
748.2
 21
378.947876
 31
0.0
  0
LINE
  5
4F4
100
AcDbEntity
  8
LAY-6
  6
CONTINUOUS
 62
     1
100
AcDbLine
 10
748.2
 20
378.947876
 30
0.0
 11
747.7
 21
375.947876
 31
0.0
  0
LINE
  5
4F5
100
AcDbEntity
  8
LAY-6
  6
CONTINUOUS
 62
     1
100
AcDbLine
 10
820.028625
 20
340.947876
 30
0.0
 11
794.1
 21
340.947876
 31
0.0
  0
TEXT
  5
4F6
100
AcDbEntity
  8
LAY-6
  6
CONTINUOUS
 62
     2
100
AcDbText
 10
274.000094
 20
551.690909
 30
0.0
 40
5.0
  1
４－Ｍ６×１６皿小ネジ
 50
359.88162
 41
0.672
  7
EXCADSTD
 72
     5
 11
318.0
 21
551.6
 31
0.0
100
AcDbText
  0
POLYLINE
  5
4F7
100
AcDbEntity
  8
LAY-6
  6
CONTINUOUS
 62
     1
100
AcDb2dPolyline
 66
     1
 10
0.0
 20
0.0
 30
0.0
 70
   128
  0
VERTEX
  5
4F8
100
AcDbEntity
  8
LAY-6
  6
CONTINUOUS
 62
     1
100
AcDbVertex
100
AcDb2dVertex
 10
249.221313
 20
517.312335
 30
0.0
  0
VERTEX
  5
4F9
100
AcDbEntity
  8
LAY-6
  6
CONTINUOUS
 62
     1
100
AcDbVertex
100
AcDb2dVertex
 10
269.6
 20
551.7
 30
0.0
  0
VERTEX
  5
4FA
100
AcDbEntity
  8
LAY-6
  6
CONTINUOUS
 62
     1
100
AcDbVertex
100
AcDb2dVertex
 10
318.0
 20
551.6
 30
0.0
  0
SEQEND
  5
4FB
100
AcDbEntity
  8
LAY-6
  6
CONTINUOUS
 62
     1
  0
LINE
  5
4FC
100
AcDbEntity
  8
LAY-6
  6
CONTINUOUS
 62
     1
100
AcDbLine
 10
250.320624
 20
520.148092
 30
0.0
 11
249.221313
 21
517.312335
 31
0.0
  0
LINE
  5
4FD
100
AcDbEntity
  8
LAY-6
  6
CONTINUOUS
 62
     1
100
AcDbLine
 10
249.221313
 20
517.312335
 30
0.0
 11
251.180907
 21
519.638274
 31
0.0
  0
TEXT
  5
4FE
100
AcDbEntity
  8
LAY-6
  6
CONTINUOUS
 62
     2
100
AcDbText
 10
273.4
 20
464.7
 30
0.0
 40
5.0
  1
５－Ｍ６×１６皿小ネジ
 41
0.672
  7
EXCADSTD
 72
     5
 11
317.4
 21
464.7
 31
0.0
100
AcDbText
  0
POLYLINE
  5
4FF
100
AcDbEntity
  8
LAY-6
  6
CONTINUOUS
 62
     1
100
AcDb2dPolyline
 66
     1
 10
0.0
 20
0.0
 30
0.0
 70
   128
  0
VERTEX
  5
500
100
AcDbEntity
  8
LAY-6
  6
CONTINUOUS
 62
     1
100
AcDbVertex
100
AcDb2dVertex
 10
249.221313
 20
481.512347
 30
0.0
  0
VERTEX
  5
501
100
AcDbEntity
  8
LAY-6
  6
CONTINUOUS
 62
     1
100
AcDbVertex
100
AcDb2dVertex
 10
269.6
 20
464.7
 30
0.0
  0
VERTEX
  5
502
100
AcDbEntity
  8
LAY-6
  6
CONTINUOUS
 62
     1
100
AcDbVertex
100
AcDb2dVertex
 10
317.4
 20
464.7
 30
0.0
  0
SEQEND
  5
503
100
AcDbEntity
  8
LAY-6
  6
CONTINUOUS
 62
     1
  0
LINE
  5
504
100
AcDbEntity
  8
LAY-6
  6
CONTINUOUS
 62
     1
100
AcDbLine
 10
251.853627
 20
479.98889
 30
0.0
 11
249.221313
 21
481.512347
 31
0.0
  0
LINE
  5
505
100
AcDbEntity
  8
LAY-6
  6
CONTINUOUS
 62
     1
100
AcDbLine
 10
249.221313
 20
481.512347
 30
0.0
 11
251.217246
 21
479.217516
 31
0.0
  0
TEXT
  5
506
100
AcDbEntity
  8
LAY-6
  6
CONTINUOUS
 62
     2
100
AcDbText
 10
485.9
 20
405.0
 30
0.0
 40
5.0
  1
６－Ｍ６×２０バネ座金組込六角穴付ボルト
 41
0.672
  7
EXCADSTD
 72
     5
 11
565.9
 21
405.0
 31
0.0
100
AcDbText
  0
POLYLINE
  5
507
100
AcDbEntity
  8
LAY-6
  6
CONTINUOUS
 62
     1
100
AcDb2dPolyline
 66
     1
 10
0.0
 20
0.0
 30
0.0
 70
   128
  0
VERTEX
  5
508
100
AcDbEntity
  8
LAY-6
  6
CONTINUOUS
 62
     1
100
AcDbVertex
100
AcDb2dVertex
 10
463.421313
 20
390.047845
 30
0.0
  0
VERTEX
  5
509
100
AcDbEntity
  8
LAY-6
  6
CONTINUOUS
 62
     1
100
AcDbVertex
100
AcDb2dVertex
 10
484.6
 20
405.0
 30
0.0
  0
VERTEX
  5
50A
100
AcDbEntity
  8
LAY-6
  6
CONTINUOUS
 62
     1
100
AcDbVertex
100
AcDb2dVertex
 10
566.8
 20
405.0
 30
0.0
  0
SEQEND
  5
50B
100
AcDbEntity
  8
LAY-6
  6
CONTINUOUS
 62
     1
  0
LINE
  5
50C
100
AcDbEntity
  8
LAY-6
  6
CONTINUOUS
 62
     1
100
AcDbLine
 10
465.583707
 20
392.186548
 30
0.0
 11
463.421313
 21
390.047845
 31
0.0
  0
LINE
  5
50D
100
AcDbEntity
  8
LAY-6
  6
CONTINUOUS
 62
     1
100
AcDbLine
 10
463.421313
 20
390.047845
 30
0.0
 11
466.160454
 21
391.369626
 31
0.0
  0
LINE
  5
50E
100
AcDbEntity
  8
LAY-6
  6
CONTINUOUS
 62
     1
100
AcDbLine
 10
98.221329
 20
352.947876
 30
0.0
 11
74.3
 21
352.947876
 31
0.0
  0
TEXT
  5
50F
100
AcDbEntity
  8
LAY-6
  6
CONTINUOUS
 62
     2
100
AcDbText
 10
75.3
 20
361.947876
 30
0.0
 40
5.0
  1
２６
 50
90.0
 41
0.672
  7
EXCADSTD
 72
     5
 11
75.3
 21
369.280676
 31
0.0
100
AcDbText
  0
LINE
  5
510
100
AcDbEntity
  8
LAY-6
  6
CONTINUOUS
 62
     1
100
AcDbLine
 10
75.8
 20
352.947876
 30
0.0
 11
75.8
 21
378.947876
 31
0.0
  0
LINE
  5
511
100
AcDbEntity
  8
LAY-6
  6
CONTINUOUS
 62
     1
100
AcDbLine
 10
75.3
 20
355.947876
 30
0.0
 11
75.8
 21
352.947876
 31
0.0
  0
LINE
  5
512
100
AcDbEntity
  8
LAY-6
  6
CONTINUOUS
 62
     1
100
AcDbLine
 10
75.8
 20
352.947876
 30
0.0
 11
76.3
 21
355.947876
 31
0.0
  0
LINE
  5
513
100
AcDbEntity
  8
LAY-6
  6
CONTINUOUS
 62
     1
100
AcDbLine
 10
76.3
 20
375.947876
 30
0.0
 11
75.8
 21
378.947876
 31
0.0
  0
LINE
  5
514
100
AcDbEntity
  8
LAY-6
  6
CONTINUOUS
 62
     1
100
AcDbLine
 10
75.8
 20
378.947876
 30
0.0
 11
75.3
 21
375.947876
 31
0.0
  0
TEXT
  5
515
100
AcDbEntity
  8
LAY-6
  6
CONTINUOUS
 62
     2
100
AcDbText
 10
119.221329
 20
358.2
 30
0.0
 40
5.0
  1
２８．５
 41
0.672
  7
EXCADSTD
 72
     5
 11
135.221329
 21
358.2
 31
0.0
100
AcDbText
  0
LINE
  5
516
100
AcDbEntity
  8
LAY-6
  6
CONTINUOUS
 62
     1
100
AcDbLine
 10
112.933823
 20
357.7
 30
0.0
 11
141.508835
 21
357.7
 31
0.0
  0
LINE
  5
517
100
AcDbEntity
  8
LAY-6
  6
CONTINUOUS
 62
     1
100
AcDbLine
 10
115.933823
 20
358.2
 30
0.0
 11
112.933823
 21
357.7
 31
0.0
  0
LINE
  5
518
100
AcDbEntity
  8
LAY-6
  6
CONTINUOUS
 62
     1
100
AcDbLine
 10
112.933823
 20
357.7
 30
0.0
 11
115.933823
 21
357.2
 31
0.0
  0
LINE
  5
519
100
AcDbEntity
  8
LAY-6
  6
CONTINUOUS
 62
     1
100
AcDbLine
 10
138.508835
 20
357.2
 30
0.0
 11
141.508835
 21
357.7
 31
0.0
  0
LINE
  5
51A
100
AcDbEntity
  8
LAY-6
  6
CONTINUOUS
 62
     1
100
AcDbLine
 10
141.508835
 20
357.7
 30
0.0
 11
138.508835
 21
358.2
 31
0.0
  0
TEXT
  5
51B
100
AcDbEntity
  8
LAY-6
  6
CONTINUOUS
 62
     2
100
AcDbText
 10
536.2
 20
566.487793
 30
0.0
 40
5.0
  1
トッププレート　０．８ｔ
 41
0.672
  7
EXCADSTD
 72
     5
 11
584.2
 21
566.487793
 31
0.0
100
AcDbText
  0
POLYLINE
  5
51C
100
AcDbEntity
  8
LAY-6
  6
CONTINUOUS
 62
     1
100
AcDb2dPolyline
 66
     1
 10
0.0
 20
0.0
 30
0.0
 70
   128
  0
VERTEX
  5
51D
100
AcDbEntity
  8
LAY-6
  6
CONTINUOUS
 62
     1
100
AcDbVertex
100
AcDb2dVertex
 10
517.9
 20
547.428711
 30
0.0
  0
VERTEX
  5
51E
100
AcDbEntity
  8
LAY-6
  6
CONTINUOUS
 62
     1
100
AcDbVertex
100
AcDb2dVertex
 10
535.0
 20
566.487793
 30
0.0
  0
VERTEX
  5
51F
100
AcDbEntity
  8
LAY-6
  6
CONTINUOUS
 62
     1
100
AcDbVertex
100
AcDb2dVertex
 10
583.5
 20
566.487793
 30
0.0
  0
SEQEND
  5
520
100
AcDbEntity
  8
LAY-6
  6
CONTINUOUS
 62
     1
  0
LINE
  5
521
100
AcDbEntity
  8
LAY-6
  6
CONTINUOUS
 62
     1
100
AcDbLine
 10
519.531287
 20
549.995597
 30
0.0
 11
517.9
 21
547.428711
 31
0.0
  0
LINE
  5
522
100
AcDbEntity
  8
LAY-6
  6
CONTINUOUS
 62
     1
100
AcDbLine
 10
517.9
 20
547.428711
 30
0.0
 11
520.275613
 21
549.32778
 31
0.0
  0
TEXT
  5
523
100
AcDbEntity
  8
LAY-6
  6
CONTINUOUS
 62
     2
100
AcDbText
 10
75.3
 20
341.947876
 30
0.0
 40
5.0
  1
１２
 50
90.0
 41
0.672
  7
EXCADSTD
 72
     5
 11
75.3
 21
349.280676
 31
0.0
100
AcDbText
  0
LINE
  5
524
100
AcDbEntity
  8
LAY-6
  6
CONTINUOUS
 62
     1
100
AcDbLine
 10
75.8
 20
352.947876
 30
0.0
 11
75.8
 21
340.947876
 31
0.0
  0
LINE
  5
525
100
AcDbEntity
  8
LAY-6
  6
CONTINUOUS
 62
     1
100
AcDbLine
 10
76.3
 20
349.947876
 30
0.0
 11
75.8
 21
352.947876
 31
0.0
  0
LINE
  5
526
100
AcDbEntity
  8
LAY-6
  6
CONTINUOUS
 62
     1
100
AcDbLine
 10
75.8
 20
352.947876
 30
0.0
 11
75.3
 21
349.947876
 31
0.0
  0
LINE
  5
527
100
AcDbEntity
  8
LAY-6
  6
CONTINUOUS
 62
     1
100
AcDbLine
 10
75.3
 20
343.947876
 30
0.0
 11
75.8
 21
340.947876
 31
0.0
  0
LINE
  5
528
100
AcDbEntity
  8
LAY-6
  6
CONTINUOUS
 62
     1
100
AcDbLine
 10
75.8
 20
340.947876
 30
0.0
 11
76.3
 21
343.947876
 31
0.0
  0
LINE
  5
529
100
AcDbEntity
  8
LAY-6
  6
CONTINUOUS
 62
     1
100
AcDbLine
 10
507.6
 20
340.947876
 30
0.0
 11
506.1
 21
340.947876
 31
0.0
  0
LINE
  5
52A
100
AcDbEntity
  8
LAY-6
  6
CONTINUOUS
 62
     1
100
AcDbLine
 10
491.8
 20
350.947876
 30
0.0
 11
490.1
 21
350.947876
 31
0.0
  0
TEXT
  5
52B
100
AcDbEntity
  8
LAY-6
  6
CONTINUOUS
 62
     2
100
AcDbText
 10
490.6
 20
353.447876
 30
0.0
 40
5.0
  1
１３
 50
90.0
 41
0.672
  7
EXCADSTD
 72
     5
 11
490.6
 21
360.780676
 31
0.0
100
AcDbText
  0
LINE
  5
52C
100
AcDbEntity
  8
LAY-6
  6
CONTINUOUS
 62
     1
100
AcDbLine
 10
491.1
 20
363.947876
 30
0.0
 11
491.1
 21
350.947876
 31
0.0
  0
LINE
  5
52D
100
AcDbEntity
  8
LAY-6
  6
CONTINUOUS
 62
     1
100
AcDbLine
 10
491.6
 20
360.947876
 30
0.0
 11
491.1
 21
363.947876
 31
0.0
  0
LINE
  5
52E
100
AcDbEntity
  8
LAY-6
  6
CONTINUOUS
 62
     1
100
AcDbLine
 10
491.1
 20
363.947876
 30
0.0
 11
490.6
 21
360.947876
 31
0.0
  0
LINE
  5
52F
100
AcDbEntity
  8
LAY-6
  6
CONTINUOUS
 62
     1
100
AcDbLine
 10
490.6
 20
353.947876
 30
0.0
 11
491.1
 21
350.947876
 31
0.0
  0
LINE
  5
530
100
AcDbEntity
  8
LAY-6
  6
CONTINUOUS
 62
     1
100
AcDbLine
 10
491.1
 20
350.947876
 30
0.0
 11
491.6
 21
353.947876
 31
0.0
  0
LINE
  5
531
100
AcDbEntity
  8
LAY-6
  6
CONTINUOUS
 62
     1
100
AcDbLine
 10
507.1
 20
378.947876
 30
0.0
 11
508.3
 21
378.947876
 31
0.0
  0
LINE
  5
532
100
AcDbEntity
  8
LAY-6
  6
CONTINUOUS
 62
     1
100
AcDbLine
 10
508.6
 20
350.947876
 30
0.0
 11
506.3
 21
350.947876
 31
0.0
  0
TEXT
  5
533
100
AcDbEntity
  8
LAY-6
  6
CONTINUOUS
 62
     2
100
AcDbText
 10
506.8
 20
360.947876
 30
0.0
 40
5.0
  1
２８
 50
90.0
 41
0.672
  7
EXCADSTD
 72
     5
 11
506.8
 21
368.280676
 31
0.0
100
AcDbText
  0
LINE
  5
534
100
AcDbEntity
  8
LAY-6
  6
CONTINUOUS
 62
     1
100
AcDbLine
 10
507.3
 20
378.947876
 30
0.0
 11
507.3
 21
350.947876
 31
0.0
  0
LINE
  5
535
100
AcDbEntity
  8
LAY-6
  6
CONTINUOUS
 62
     1
100
AcDbLine
 10
507.8
 20
375.947876
 30
0.0
 11
507.3
 21
378.947876
 31
0.0
  0
LINE
  5
536
100
AcDbEntity
  8
LAY-6
  6
CONTINUOUS
 62
     1
100
AcDbLine
 10
507.3
 20
378.947876
 30
0.0
 11
506.8
 21
375.947876
 31
0.0
  0
LINE
  5
537
100
AcDbEntity
  8
LAY-6
  6
CONTINUOUS
 62
     1
100
AcDbLine
 10
506.8
 20
353.947876
 30
0.0
 11
507.3
 21
350.947876
 31
0.0
  0
LINE
  5
538
100
AcDbEntity
  8
LAY-6
  6
CONTINUOUS
 62
     1
100
AcDbLine
 10
507.3
 20
350.947876
 30
0.0
 11
507.8
 21
353.947876
 31
0.0
  0
LINE
  5
539
100
AcDbEntity
  8
LAY-6
  6
CONTINUOUS
 62
     1
100
AcDbLine
 10
507.1
 20
340.947876
 30
0.0
 11
508.3
 21
340.947876
 31
0.0
  0
TEXT
  5
53A
100
AcDbEntity
  8
LAY-6
  6
CONTINUOUS
 62
     2
100
AcDbText
 10
506.8
 20
341.947876
 30
0.0
 40
5.0
  1
１０
 50
90.0
 41
0.672
  7
EXCADSTD
 72
     5
 11
506.8
 21
349.280676
 31
0.0
100
AcDbText
  0
LINE
  5
53B
100
AcDbEntity
  8
LAY-6
  6
CONTINUOUS
 62
     1
100
AcDbLine
 10
507.3
 20
350.947876
 30
0.0
 11
507.3
 21
340.947876
 31
0.0
  0
LINE
  5
53C
100
AcDbEntity
  8
LAY-6
  6
CONTINUOUS
 62
     1
100
AcDbLine
 10
507.8
 20
347.947876
 30
0.0
 11
507.3
 21
350.947876
 31
0.0
  0
LINE
  5
53D
100
AcDbEntity
  8
LAY-6
  6
CONTINUOUS
 62
     1
100
AcDbLine
 10
507.3
 20
350.947876
 30
0.0
 11
506.8
 21
347.947876
 31
0.0
  0
LINE
  5
53E
100
AcDbEntity
  8
LAY-6
  6
CONTINUOUS
 62
     1
100
AcDbLine
 10
506.8
 20
343.947876
 30
0.0
 11
507.3
 21
340.947876
 31
0.0
  0
LINE
  5
53F
100
AcDbEntity
  8
LAY-6
  6
CONTINUOUS
 62
     1
100
AcDbLine
 10
507.3
 20
340.947876
 30
0.0
 11
507.8
 21
343.947876
 31
0.0
  0
TEXT
  5
540
100
AcDbEntity
  8
LAY-6
  6
CONTINUOUS
 62
     2
100
AcDbText
 10
84.121329
 20
307.2
 30
0.0
 40
5.0
  1
７２.２
 41
0.616
  7
EXCADSTD
 72
     5
 11
98.121329
 21
307.2
 31
0.0
100
AcDbText
  0
LINE
  5
541
100
AcDbEntity
  8
LAY-6
  6
CONTINUOUS
 62
     1
100
AcDbLine
 10
55.021329
 20
310.5
 30
0.0
 11
55.021329
 21
305.7
 31
0.0
  0
LINE
  5
542
100
AcDbEntity
  8
LAY-6
  6
CONTINUOUS
 62
     1
100
AcDbLine
 10
127.221329
 20
311.1
 30
0.0
 11
127.221329
 21
305.7
 31
0.0
  0
LINE
  5
543
100
AcDbEntity
  8
LAY-6
  6
CONTINUOUS
 62
     1
100
AcDbLine
 10
55.021329
 20
306.7
 30
0.0
 11
127.221329
 21
306.7
 31
0.0
  0
LINE
  5
544
100
AcDbEntity
  8
LAY-6
  6
CONTINUOUS
 62
     1
100
AcDbLine
 10
58.021329
 20
307.2
 30
0.0
 11
55.021329
 21
306.7
 31
0.0
  0
LINE
  5
545
100
AcDbEntity
  8
LAY-6
  6
CONTINUOUS
 62
     1
100
AcDbLine
 10
55.021329
 20
306.7
 30
0.0
 11
58.021329
 21
306.2
 31
0.0
  0
LINE
  5
546
100
AcDbEntity
  8
LAY-6
  6
CONTINUOUS
 62
     1
100
AcDbLine
 10
124.221329
 20
306.2
 30
0.0
 11
127.221329
 21
306.7
 31
0.0
  0
LINE
  5
547
100
AcDbEntity
  8
LAY-6
  6
CONTINUOUS
 62
     1
100
AcDbLine
 10
127.221329
 20
306.7
 30
0.0
 11
124.221329
 21
307.2
 31
0.0
  0
TEXT
  5
548
100
AcDbEntity
  8
LAY-6
  6
CONTINUOUS
 62
     2
100
AcDbText
 10
291.321329
 20
307.2
 30
0.0
 40
5.0
  1
３４６.２
 41
0.62784
  7
EXCADSTD
 72
     5
 11
309.321329
 21
307.2
 31
0.0
100
AcDbText
  0
LINE
  5
549
100
AcDbEntity
  8
LAY-6
  6
CONTINUOUS
 62
     1
100
AcDbLine
 10
127.221329
 20
306.7
 30
0.0
 11
473.421329
 21
306.7
 31
0.0
  0
LINE
  5
54A
100
AcDbEntity
  8
LAY-6
  6
CONTINUOUS
 62
     1
100
AcDbLine
 10
130.221329
 20
307.2
 30
0.0
 11
127.221329
 21
306.7
 31
0.0
  0
LINE
  5
54B
100
AcDbEntity
  8
LAY-6
  6
CONTINUOUS
 62
     1
100
AcDbLine
 10
127.221329
 20
306.7
 30
0.0
 11
130.221329
 21
306.2
 31
0.0
  0
LINE
  5
54C
100
AcDbEntity
  8
LAY-6
  6
CONTINUOUS
 62
     1
100
AcDbLine
 10
470.421329
 20
306.2
 30
0.0
 11
473.421329
 21
306.7
 31
0.0
  0
LINE
  5
54D
100
AcDbEntity
  8
LAY-6
  6
CONTINUOUS
 62
     1
100
AcDbLine
 10
473.421329
 20
306.7
 30
0.0
 11
470.421329
 21
307.2
 31
0.0
  0
TEXT
  5
54E
100
AcDbEntity
  8
LAY-6
  6
CONTINUOUS
 62
     2
100
AcDbText
 10
255.221329
 20
288.8
 30
0.0
 40
5.0
  1
４１８.４
 41
0.62784
  7
EXCADSTD
 72
     5
 11
273.221329
 21
288.8
 31
0.0
100
AcDbText
  0
LINE
  5
54F
100
AcDbEntity
  8
LAY-6
  6
CONTINUOUS
 62
     1
100
AcDbLine
 10
55.021329
 20
288.0
 30
0.0
 11
55.021329
 21
289.3
 31
0.0
  0
LINE
  5
550
100
AcDbEntity
  8
LAY-6
  6
CONTINUOUS
 62
     1
100
AcDbLine
 10
473.421329
 20
293.8
 30
0.0
 11
473.421329
 21
287.3
 31
0.0
  0
LINE
  5
551
100
AcDbEntity
  8
LAY-6
  6
CONTINUOUS
 62
     1
100
AcDbLine
 10
55.021329
 20
288.3
 30
0.0
 11
473.421329
 21
288.3
 31
0.0
  0
LINE
  5
552
100
AcDbEntity
  8
LAY-6
  6
CONTINUOUS
 62
     1
100
AcDbLine
 10
58.021329
 20
288.8
 30
0.0
 11
55.021329
 21
288.3
 31
0.0
  0
LINE
  5
553
100
AcDbEntity
  8
LAY-6
  6
CONTINUOUS
 62
     1
100
AcDbLine
 10
55.021329
 20
288.3
 30
0.0
 11
58.021329
 21
287.8
 31
0.0
  0
LINE
  5
554
100
AcDbEntity
  8
LAY-6
  6
CONTINUOUS
 62
     1
100
AcDbLine
 10
470.421329
 20
287.8
 30
0.0
 11
473.421329
 21
288.3
 31
0.0
  0
LINE
  5
555
100
AcDbEntity
  8
LAY-6
  6
CONTINUOUS
 62
     1
100
AcDbLine
 10
473.421329
 20
288.3
 30
0.0
 11
470.421329
 21
288.8
 31
0.0
  0
TEXT
  5
556
100
AcDbEntity
  8
LAY-6
  6
CONTINUOUS
 62
     2
100
AcDbText
 10
86.721329
 20
87.0
 30
0.0
 40
5.0
  1
７３
 41
0.672
  7
EXCADSTD
 72
     5
 11
94.054129
 21
87.0
 31
0.0
100
AcDbText
  0
LINE
  5
557
100
AcDbEntity
  8
LAY-6
  6
CONTINUOUS
 62
     1
100
AcDbLine
 10
54.221329
 20
89.8
 30
0.0
 11
54.221329
 21
85.5
 31
0.0
  0
LINE
  5
558
100
AcDbEntity
  8
LAY-6
  6
CONTINUOUS
 62
     1
100
AcDbLine
 10
127.221329
 20
88.6
 30
0.0
 11
127.221329
 21
85.5
 31
0.0
  0
LINE
  5
559
100
AcDbEntity
  8
LAY-6
  6
CONTINUOUS
 62
     1
100
AcDbLine
 10
54.221329
 20
86.5
 30
0.0
 11
127.221329
 21
86.5
 31
0.0
  0
LINE
  5
55A
100
AcDbEntity
  8
LAY-6
  6
CONTINUOUS
 62
     1
100
AcDbLine
 10
57.221329
 20
87.0
 30
0.0
 11
54.221329
 21
86.5
 31
0.0
  0
LINE
  5
55B
100
AcDbEntity
  8
LAY-6
  6
CONTINUOUS
 62
     1
100
AcDbLine
 10
54.221329
 20
86.5
 30
0.0
 11
57.221329
 21
86.0
 31
0.0
  0
LINE
  5
55C
100
AcDbEntity
  8
LAY-6
  6
CONTINUOUS
 62
     1
100
AcDbLine
 10
124.221329
 20
86.0
 30
0.0
 11
127.221329
 21
86.5
 31
0.0
  0
LINE
  5
55D
100
AcDbEntity
  8
LAY-6
  6
CONTINUOUS
 62
     1
100
AcDbLine
 10
127.221329
 20
86.5
 30
0.0
 11
124.221329
 21
87.0
 31
0.0
  0
TEXT
  5
55E
100
AcDbEntity
  8
LAY-6
  6
CONTINUOUS
 62
     2
100
AcDbText
 10
158.221329
 20
87.0
 30
0.0
 40
5.0
  1
７０
 41
0.672
  7
EXCADSTD
 72
     5
 11
165.554129
 21
87.0
 31
0.0
100
AcDbText
  0
LINE
  5
55F
100
AcDbEntity
  8
LAY-6
  6
CONTINUOUS
 62
     1
100
AcDbLine
 10
197.221329
 20
88.0
 30
0.0
 11
197.221329
 21
85.5
 31
0.0
  0
LINE
  5
560
100
AcDbEntity
  8
LAY-6
  6
CONTINUOUS
 62
     1
100
AcDbLine
 10
127.221329
 20
86.5
 30
0.0
 11
197.221329
 21
86.5
 31
0.0
  0
LINE
  5
561
100
AcDbEntity
  8
LAY-6
  6
CONTINUOUS
 62
     1
100
AcDbLine
 10
130.221329
 20
87.0
 30
0.0
 11
127.221329
 21
86.5
 31
0.0
  0
LINE
  5
562
100
AcDbEntity
  8
LAY-6
  6
CONTINUOUS
 62
     1
100
AcDbLine
 10
127.221329
 20
86.5
 30
0.0
 11
130.221329
 21
86.0
 31
0.0
  0
LINE
  5
563
100
AcDbEntity
  8
LAY-6
  6
CONTINUOUS
 62
     1
100
AcDbLine
 10
194.221329
 20
86.0
 30
0.0
 11
197.221329
 21
86.5
 31
0.0
  0
LINE
  5
564
100
AcDbEntity
  8
LAY-6
  6
CONTINUOUS
 62
     1
100
AcDbLine
 10
197.221329
 20
86.5
 30
0.0
 11
194.221329
 21
87.0
 31
0.0
  0
TEXT
  5
565
100
AcDbEntity
  8
LAY-6
  6
CONTINUOUS
 62
     2
100
AcDbText
 10
330.221329
 20
87.0
 30
0.0
 40
5.0
  1
２７８
 41
0.672
  7
EXCADSTD
 72
     5
 11
342.221329
 21
87.0
 31
0.0
100
AcDbText
  0
LINE
  5
566
100
AcDbEntity
  8
LAY-6
  6
CONTINUOUS
 62
     1
100
AcDbLine
 10
197.221329
 20
86.5
 30
0.0
 11
475.221329
 21
86.5
 31
0.0
  0
LINE
  5
567
100
AcDbEntity
  8
LAY-6
  6
CONTINUOUS
 62
     1
100
AcDbLine
 10
200.221329
 20
87.0
 30
0.0
 11
197.221329
 21
86.5
 31
0.0
  0
LINE
  5
568
100
AcDbEntity
  8
LAY-6
  6
CONTINUOUS
 62
     1
100
AcDbLine
 10
197.221329
 20
86.5
 30
0.0
 11
200.221329
 21
86.0
 31
0.0
  0
LINE
  5
569
100
AcDbEntity
  8
LAY-6
  6
CONTINUOUS
 62
     1
100
AcDbLine
 10
472.221329
 20
86.0
 30
0.0
 11
475.221329
 21
86.5
 31
0.0
  0
LINE
  5
56A
100
AcDbEntity
  8
LAY-6
  6
CONTINUOUS
 62
     1
100
AcDbLine
 10
475.221329
 20
86.5
 30
0.0
 11
472.221329
 21
87.0
 31
0.0
  0
TEXT
  5
56B
100
AcDbEntity
  8
LAY-6
  6
CONTINUOUS
 62
     2
100
AcDbText
 10
258.721329
 20
76.5
 30
0.0
 40
5.0
  1
４２１
 41
0.672
  7
EXCADSTD
 72
     5
 11
270.721329
 21
76.5
 31
0.0
100
AcDbText
  0
LINE
  5
56C
100
AcDbEntity
  8
LAY-6
  6
CONTINUOUS
 62
     1
100
AcDbLine
 10
54.221329
 20
76.3
 30
0.0
 11
54.221329
 21
75.0
 31
0.0
  0
LINE
  5
56D
100
AcDbEntity
  8
LAY-6
  6
CONTINUOUS
 62
     1
100
AcDbLine
 10
475.221329
 20
76.3
 30
0.0
 11
475.221329
 21
75.0
 31
0.0
  0
LINE
  5
56E
100
AcDbEntity
  8
LAY-6
  6
CONTINUOUS
 62
     1
100
AcDbLine
 10
54.221329
 20
76.0
 30
0.0
 11
475.221329
 21
76.0
 31
0.0
  0
LINE
  5
56F
100
AcDbEntity
  8
LAY-6
  6
CONTINUOUS
 62
     1
100
AcDbLine
 10
57.221329
 20
76.5
 30
0.0
 11
54.221329
 21
76.0
 31
0.0
  0
LINE
  5
570
100
AcDbEntity
  8
LAY-6
  6
CONTINUOUS
 62
     1
100
AcDbLine
 10
54.221329
 20
76.0
 30
0.0
 11
57.221329
 21
75.5
 31
0.0
  0
LINE
  5
571
100
AcDbEntity
  8
LAY-6
  6
CONTINUOUS
 62
     1
100
AcDbLine
 10
472.221329
 20
75.5
 30
0.0
 11
475.221329
 21
76.0
 31
0.0
  0
LINE
  5
572
100
AcDbEntity
  8
LAY-6
  6
CONTINUOUS
 62
     1
100
AcDbLine
 10
475.221329
 20
76.0
 30
0.0
 11
472.221329
 21
76.5
 31
0.0
  0
LINE
  5
573
100
AcDbEntity
  8
LAY-6
  6
CONTINUOUS
 62
     1
100
AcDbLine
 10
710.57843
 20
346.447876
 30
0.0
 11
731.5
 21
346.447876
 31
0.0
  0
LINE
  5
574
100
AcDbEntity
  8
LAY-6
  6
CONTINUOUS
 62
     1
100
AcDbLine
 10
728.8
 20
340.947876
 30
0.0
 11
731.5
 21
340.947876
 31
0.0
  0
TEXT
  5
575
100
AcDbEntity
  8
LAY-6
  6
CONTINUOUS
 62
     2
100
AcDbText
 10
730.0
 20
327.947876
 30
0.0
 40
5.0
  1
５.５
 50
90.0
 41
0.595556
  7
EXCADSTD
 72
     5
 11
730.0
 21
337.947876
 31
0.0
100
AcDbText
  0
LINE
  5
576
100
AcDbEntity
  8
LAY-6
  6
CONTINUOUS
 62
     1
100
AcDbLine
 10
730.5
 20
350.447876
 30
0.0
 11
730.5
 21
327.447876
 31
0.0
  0
LINE
  5
577
100
AcDbEntity
  8
LAY-6
  6
CONTINUOUS
 62
     1
100
AcDbLine
 10
730.0
 20
349.447876
 30
0.0
 11
730.5
 21
346.447876
 31
0.0
  0
LINE
  5
578
100
AcDbEntity
  8
LAY-6
  6
CONTINUOUS
 62
     1
100
AcDbLine
 10
730.5
 20
346.447876
 30
0.0
 11
731.0
 21
349.447876
 31
0.0
  0
LINE
  5
579
100
AcDbEntity
  8
LAY-6
  6
CONTINUOUS
 62
     1
100
AcDbLine
 10
731.0
 20
337.947876
 30
0.0
 11
730.5
 21
340.947876
 31
0.0
  0
LINE
  5
57A
100
AcDbEntity
  8
LAY-6
  6
CONTINUOUS
 62
     1
100
AcDbLine
 10
730.5
 20
340.947876
 30
0.0
 11
730.0
 21
337.947876
 31
0.0
  0
LINE
  5
57B
100
AcDbEntity
  8
LAY-6
  6
CONTINUOUS
 62
     1
100
AcDbLine
 10
583.578369
 20
316.8
 30
0.0
 11
583.578369
 21
313.5
 31
0.0
  0
LINE
  5
57C
100
AcDbEntity
  8
LAY-6
  6
CONTINUOUS
 62
     1
100
AcDbLine
 10
793.578369
 20
314.3
 30
0.0
 11
793.578369
 21
315.5
 31
0.0
  0
TEXT
  5
57D
100
AcDbEntity
  8
LAY-6
  6
CONTINUOUS
 62
     2
100
AcDbText
 10
684.578369
 20
315.0
 30
0.0
 40
5.0
  1
２１０
 41
0.672
  7
EXCADSTD
 72
     5
 11
696.578369
 21
315.0
 31
0.0
100
AcDbText
  0
LINE
  5
57E
100
AcDbEntity
  8
LAY-6
  6
CONTINUOUS
 62
     1
100
AcDbLine
 10
583.578369
 20
314.5
 30
0.0
 11
793.578369
 21
314.5
 31
0.0
  0
LINE
  5
57F
100
AcDbEntity
  8
LAY-6
  6
CONTINUOUS
 62
     1
100
AcDbLine
 10
586.578369
 20
315.0
 30
0.0
 11
583.578369
 21
314.5
 31
0.0
  0
LINE
  5
580
100
AcDbEntity
  8
LAY-6
  6
CONTINUOUS
 62
     1
100
AcDbLine
 10
583.578369
 20
314.5
 30
0.0
 11
586.578369
 21
314.0
 31
0.0
  0
LINE
  5
581
100
AcDbEntity
  8
LAY-6
  6
CONTINUOUS
 62
     1
100
AcDbLine
 10
790.578369
 20
314.0
 30
0.0
 11
793.578369
 21
314.5
 31
0.0
  0
LINE
  5
582
100
AcDbEntity
  8
LAY-6
  6
CONTINUOUS
 62
     1
100
AcDbLine
 10
793.578369
 20
314.5
 30
0.0
 11
790.578369
 21
315.0
 31
0.0
  0
LINE
  5
583
100
AcDbEntity
  8
LAY-6
  6
CONTINUOUS
 62
     1
100
AcDbLine
 10
582.07843
 20
339.447876
 30
0.0
 11
582.07843
 21
300.7
 31
0.0
  0
LINE
  5
584
100
AcDbEntity
  8
LAY-6
  6
CONTINUOUS
 62
     1
100
AcDbLine
 10
795.07843
 20
339.447876
 30
0.0
 11
795.07843
 21
300.7
 31
0.0
  0
TEXT
  5
585
100
AcDbEntity
  8
LAY-6
  6
CONTINUOUS
 62
     2
100
AcDbText
 10
684.57843
 20
302.2
 30
0.0
 40
5.0
  1
２１３
 41
0.672
  7
EXCADSTD
 72
     5
 11
696.57843
 21
302.2
 31
0.0
100
AcDbText
  0
LINE
  5
586
100
AcDbEntity
  8
LAY-6
  6
CONTINUOUS
 62
     1
100
AcDbLine
 10
582.07843
 20
301.7
 30
0.0
 11
795.07843
 21
301.7
 31
0.0
  0
LINE
  5
587
100
AcDbEntity
  8
LAY-6
  6
CONTINUOUS
 62
     1
100
AcDbLine
 10
585.07843
 20
302.2
 30
0.0
 11
582.07843
 21
301.7
 31
0.0
  0
LINE
  5
588
100
AcDbEntity
  8
LAY-6
  6
CONTINUOUS
 62
     1
100
AcDbLine
 10
582.07843
 20
301.7
 30
0.0
 11
585.07843
 21
301.2
 31
0.0
  0
LINE
  5
589
100
AcDbEntity
  8
LAY-6
  6
CONTINUOUS
 62
     1
100
AcDbLine
 10
792.07843
 20
301.2
 30
0.0
 11
795.07843
 21
301.7
 31
0.0
  0
LINE
  5
58A
100
AcDbEntity
  8
LAY-6
  6
CONTINUOUS
 62
     1
100
AcDbLine
 10
795.07843
 20
301.7
 30
0.0
 11
792.07843
 21
302.2
 31
0.0
  0
LINE
  5
58B
100
AcDbEntity
  8
LAY-6
  6
CONTINUOUS
 62
     1
100
AcDbLine
 10
807.5
 20
340.947876
 30
0.0
 11
805.2
 21
340.947876
 31
0.0
  0
LINE
  5
58C
100
AcDbEntity
  8
LAY-6
  6
CONTINUOUS
 62
     1
100
AcDbLine
 10
795.07843
 20
339.447876
 30
0.0
 11
807.2
 21
339.447876
 31
0.0
  0
TEXT
  5
58D
100
AcDbEntity
  8
LAY-6
  6
CONTINUOUS
 62
     2
100
AcDbText
 10
805.7
 20
344.047876
 30
0.0
 40
5.0
  1
１.５
 50
90.0
 41
0.595556
  7
EXCADSTD
 72
     5
 11
805.7
 21
354.047876
 31
0.0
100
AcDbText
  0
TEXT
  5
58E
100
AcDbEntity
  8
LAY-6
  6
CONTINUOUS
 62
     2
100
AcDbText
 10
805.7
 20
354.047876
 30
0.0
 40
5.0
  1
ｔ
 50
90.0
 41
0.672
  7
EXCADSTD
 72
     5
 11
805.7
 21
357.247876
 31
0.0
100
AcDbText
  0
LINE
  5
58F
100
AcDbEntity
  8
LAY-6
  6
CONTINUOUS
 62
     1
100
AcDbLine
 10
806.2
 20
357.200001
 30
0.0
 11
806.2
 21
335.447876
 31
0.0
  0
LINE
  5
590
100
AcDbEntity
  8
LAY-6
  6
CONTINUOUS
 62
     1
100
AcDbLine
 10
805.7
 20
343.947876
 30
0.0
 11
806.2
 21
340.947876
 31
0.0
  0
LINE
  5
591
100
AcDbEntity
  8
LAY-6
  6
CONTINUOUS
 62
     1
100
AcDbLine
 10
806.2
 20
340.947876
 30
0.0
 11
806.7
 21
343.947876
 31
0.0
  0
LINE
  5
592
100
AcDbEntity
  8
LAY-6
  6
CONTINUOUS
 62
     1
100
AcDbLine
 10
806.7
 20
336.447876
 30
0.0
 11
806.2
 21
339.447876
 31
0.0
  0
LINE
  5
593
100
AcDbEntity
  8
LAY-6
  6
CONTINUOUS
 62
     1
100
AcDbLine
 10
806.2
 20
339.447876
 30
0.0
 11
805.7
 21
336.447876
 31
0.0
  0
LINE
  5
594
100
AcDbEntity
  8
LAY-6
  6
CONTINUOUS
 62
     1
100
AcDbLine
 10
791.57837
 20
271.047919
 30
0.0
 11
807.2
 21
271.047919
 31
0.0
  0
TEXT
  5
595
100
AcDbEntity
  8
LAY-6
  6
CONTINUOUS
 62
     2
100
AcDbText
 10
805.7
 20
298.247897
 30
0.0
 40
5.0
  1
６８.４
 50
90.0
 41
0.616
  7
EXCADSTD
 72
     5
 11
805.7
 21
312.247897
 31
0.0
100
AcDbText
  0
LINE
  5
596
100
AcDbEntity
  8
LAY-6
  6
CONTINUOUS
 62
     1
100
AcDbLine
 10
806.2
 20
339.447876
 30
0.0
 11
806.2
 21
271.047919
 31
0.0
  0
LINE
  5
597
100
AcDbEntity
  8
LAY-6
  6
CONTINUOUS
 62
     1
100
AcDbLine
 10
806.7
 20
336.447876
 30
0.0
 11
806.2
 21
339.447876
 31
0.0
  0
LINE
  5
598
100
AcDbEntity
  8
LAY-6
  6
CONTINUOUS
 62
     1
100
AcDbLine
 10
806.2
 20
339.447876
 30
0.0
 11
805.7
 21
336.447876
 31
0.0
  0
LINE
  5
599
100
AcDbEntity
  8
LAY-6
  6
CONTINUOUS
 62
     1
100
AcDbLine
 10
805.7
 20
274.047919
 30
0.0
 11
806.2
 21
271.047919
 31
0.0
  0
LINE
  5
59A
100
AcDbEntity
  8
LAY-6
  6
CONTINUOUS
 62
     1
100
AcDbLine
 10
806.2
 20
271.047919
 30
0.0
 11
806.7
 21
274.047919
 31
0.0
  0
LINE
  5
59B
100
AcDbEntity
  8
LAY-6
  6
CONTINUOUS
 62
     1
100
AcDbLine
 10
475.221329
 20
261.052078
 30
0.0
 11
519.8
 21
261.052078
 31
0.0
  0
LINE
  5
59C
100
AcDbEntity
  8
LAY-6
  6
CONTINUOUS
 62
     1
100
AcDbLine
 10
475.221329
 20
48.052078
 30
0.0
 11
519.8
 21
48.052078
 31
0.0
  0
TEXT
  5
59D
100
AcDbEntity
  8
LAY-6
  6
CONTINUOUS
 62
     2
100
AcDbText
 10
518.3
 20
148.552078
 30
0.0
 40
5.0
  1
２１３
 50
90.0
 41
0.672
  7
EXCADSTD
 72
     5
 11
518.3
 21
160.552078
 31
0.0
100
AcDbText
  0
LINE
  5
59E
100
AcDbEntity
  8
LAY-6
  6
CONTINUOUS
 62
     1
100
AcDbLine
 10
518.8
 20
261.052078
 30
0.0
 11
518.8
 21
48.052078
 31
0.0
  0
LINE
  5
59F
100
AcDbEntity
  8
LAY-6
  6
CONTINUOUS
 62
     1
100
AcDbLine
 10
519.3
 20
258.052078
 30
0.0
 11
518.8
 21
261.052078
 31
0.0
  0
LINE
  5
5A0
100
AcDbEntity
  8
LAY-6
  6
CONTINUOUS
 62
     1
100
AcDbLine
 10
518.8
 20
261.052078
 30
0.0
 11
518.3
 21
258.052078
 31
0.0
  0
LINE
  5
5A1
100
AcDbEntity
  8
LAY-6
  6
CONTINUOUS
 62
     1
100
AcDbLine
 10
518.3
 20
51.052078
 30
0.0
 11
518.8
 21
48.052078
 31
0.0
  0
LINE
  5
5A2
100
AcDbEntity
  8
LAY-6
  6
CONTINUOUS
 62
     1
100
AcDbLine
 10
518.8
 20
48.052078
 30
0.0
 11
519.3
 21
51.052078
 31
0.0
  0
POLYLINE
  5
5A3
100
AcDbEntity
  8
LAY-6
  6
CONTINUOUS
 62
     1
100
AcDb2dPolyline
 66
     1
 10
0.0
 20
0.0
 30
0.0
 70
   128
  0
VERTEX
  5
5A4
100
AcDbEntity
  8
LAY-6
  6
CONTINUOUS
 62
     1
100
AcDbVertex
100
AcDb2dVertex
 10
472.688355
 20
383.047876
 30
0.0
  0
VERTEX
  5
5A5
100
AcDbEntity
  8
LAY-6
  6
CONTINUOUS
 62
     1
100
AcDbVertex
100
AcDb2dVertex
 10
488.7
 20
394.3
 30
0.0
  0
VERTEX
  5
5A6
100
AcDbEntity
  8
LAY-6
  6
CONTINUOUS
 62
     1
100
AcDbVertex
100
AcDb2dVertex
 10
523.5
 20
394.3
 30
0.0
  0
SEQEND
  5
5A7
100
AcDbEntity
  8
LAY-6
  6
CONTINUOUS
 62
     1
  0
LINE
  5
5A8
100
AcDbEntity
  8
LAY-6
  6
CONTINUOUS
 62
     1
100
AcDbLine
 10
474.855395
 20
385.181872
 30
0.0
 11
472.688355
 21
383.047876
 31
0.0
  0
LINE
  5
5A9
100
AcDbEntity
  8
LAY-6
  6
CONTINUOUS
 62
     1
100
AcDbLine
 10
472.688355
 20
383.047876
 30
0.0
 11
475.430364
 21
384.363697
 31
0.0
  0
TEXT
  5
5AA
100
AcDbEntity
  8
LAY-6
  6
CONTINUOUS
 62
     2
100
AcDbText
 10
491.7
 20
394.3
 30
0.0
 40
5.0
  1
裏板４.５ｔ以上
 41
0.645
  7
EXCADSTD
 72
     5
 11
521.7
 21
394.3
 31
0.0
100
AcDbText
  0
TEXT
  5
5AB
100
AcDbEntity
  8
LAY-6
  6
CONTINUOUS
 62
     2
100
AcDbText
 10
488.5
 20
388.4
 30
0.0
 40
5.0
  1
（別途）
 41
0.672
  7
EXCADSTD
 72
     5
 11
504.5
 21
388.4
 31
0.0
100
AcDbText
  0
POLYLINE
  5
5AC
100
AcDbEntity
  8
LAY-6
  6
CONTINUOUS
 62
     1
100
AcDb2dPolyline
 66
     1
 10
0.0
 20
0.0
 30
0.0
 70
   128
  0
VERTEX
  5
5AD
100
AcDbEntity
  8
LAY-6
  6
CONTINUOUS
 62
     1
100
AcDbVertex
100
AcDb2dVertex
 10
238.2
 20
488.2
 30
0.0
  0
VERTEX
  5
5AE
100
AcDbEntity
  8
LAY-6
  6
CONTINUOUS
 62
     1
100
AcDbVertex
100
AcDb2dVertex
 10
256.3
 20
451.5
 30
0.0
  0
VERTEX
  5
5AF
100
AcDbEntity
  8
LAY-6
  6
CONTINUOUS
 62
     1
100
AcDbVertex
100
AcDb2dVertex
 10
291.1
 20
451.5
 30
0.0
  0
SEQEND
  5
5B0
100
AcDbEntity
  8
LAY-6
  6
CONTINUOUS
 62
     1
  0
LINE
  5
5B1
100
AcDbEntity
  8
LAY-6
  6
CONTINUOUS
 62
     1
100
AcDbLine
 10
239.975387
 20
485.730587
 30
0.0
 11
238.2
 21
488.2
 31
0.0
  0
LINE
  5
5B2
100
AcDbEntity
  8
LAY-6
  6
CONTINUOUS
 62
     1
100
AcDbLine
 10
238.2
 20
488.2
 30
0.0
 11
239.078529
 21
485.288268
 31
0.0
  0
TEXT
  5
5B3
100
AcDbEntity
  8
LAY-6
  6
CONTINUOUS
 62
     2
100
AcDbText
 10
258.8
 20
451.5
 30
0.0
 40
5.0
  1
裏板４.５ｔ以上
 41
0.645
  7
EXCADSTD
 72
     5
 11
288.8
 21
451.5
 31
0.0
100
AcDbText
  0
TEXT
  5
5B4
100
AcDbEntity
  8
LAY-6
  6
CONTINUOUS
 62
     2
100
AcDbText
 10
255.8
 20
446.2
 30
0.0
 40
5.0
  1
（別途）
 41
0.672
  7
EXCADSTD
 72
     5
 11
271.8
 21
446.2
 31
0.0
100
AcDbText
  0
POLYLINE
  5
5B5
100
AcDbEntity
  8
LAY-6
  6
CONTINUOUS
 62
     1
100
AcDb2dPolyline
 66
     1
 10
0.0
 20
0.0
 30
0.0
 70
   128
  0
VERTEX
  5
5B6
100
AcDbEntity
  8
LAY-6
  6
CONTINUOUS
 62
     1
100
AcDbVertex
100
AcDb2dVertex
 10
258.7
 20
510.4
 30
0.0
  0
VERTEX
  5
5B7
100
AcDbEntity
  8
LAY-6
  6
CONTINUOUS
 62
     1
100
AcDbVertex
100
AcDb2dVertex
 10
275.2
 20
539.9
 30
0.0
  0
VERTEX
  5
5B8
100
AcDbEntity
  8
LAY-6
  6
CONTINUOUS
 62
     1
100
AcDbVertex
100
AcDb2dVertex
 10
309.1
 20
539.9
 30
0.0
  0
SEQEND
  5
5B9
100
AcDbEntity
  8
LAY-6
  6
CONTINUOUS
 62
     1
  0
LINE
  5
5BA
100
AcDbEntity
  8
LAY-6
  6
CONTINUOUS
 62
     1
100
AcDbLine
 10
259.72808
 20
513.262351
 30
0.0
 11
258.7
 21
510.4
 31
0.0
  0
LINE
  5
5BB
100
AcDbEntity
  8
LAY-6
  6
CONTINUOUS
 62
     1
100
AcDbLine
 10
258.7
 20
510.4
 30
0.0
 11
260.600838
 21
512.774198
 31
0.0
  0
TEXT
  5
5BC
100
AcDbEntity
  8
LAY-6
  6
CONTINUOUS
 62
     2
100
AcDbText
 10
277.2
 20
539.9
 30
0.0
 40
5.0
  1
裏板４.５ｔ以上
 41
0.645
  7
EXCADSTD
 72
     5
 11
307.2
 21
539.9
 31
0.0
100
AcDbText
  0
TEXT
  5
5BD
100
AcDbEntity
  8
LAY-6
  6
CONTINUOUS
 62
     2
100
AcDbText
 10
274.0
 20
534.3
 30
0.0
 40
5.0
  1
（別途）
 41
0.672
  7
EXCADSTD
 72
     5
 11
290.0
 21
534.3
 31
0.0
100
AcDbText
  0
TEXT
  5
5BE
100
AcDbEntity
  8
LAY-6
  6
CONTINUOUS
 62
     2
100
AcDbText
 10
179.221313
 20
552.1
 30
0.0
 40
5.0
  1
１１６
 41
0.672
  7
EXCADSTD
 72
     5
 11
191.221313
 21
552.1
 31
0.0
100
AcDbText
  0
LINE
  5
5BF
100
AcDbEntity
  8
LAY-6
  6
CONTINUOUS
 62
     1
100
AcDbLine
 10
127.221313
 20
552.6
 30
0.0
 11
127.221313
 21
550.6
 31
0.0
  0
LINE
  5
5C0
100
AcDbEntity
  8
LAY-6
  6
CONTINUOUS
 62
     1
100
AcDbLine
 10
243.221313
 20
512.312329
 30
0.0
 11
243.221313
 21
552.6
 31
0.0
  0
LINE
  5
5C1
100
AcDbEntity
  8
LAY-6
  6
CONTINUOUS
 62
     1
100
AcDbLine
 10
127.221313
 20
551.6
 30
0.0
 11
243.221313
 21
551.6
 31
0.0
  0
LINE
  5
5C2
100
AcDbEntity
  8
LAY-6
  6
CONTINUOUS
 62
     1
100
AcDbLine
 10
130.221313
 20
552.1
 30
0.0
 11
127.221313
 21
551.6
 31
0.0
  0
LINE
  5
5C3
100
AcDbEntity
  8
LAY-6
  6
CONTINUOUS
 62
     1
100
AcDbLine
 10
127.221313
 20
551.6
 30
0.0
 11
130.221313
 21
551.1
 31
0.0
  0
LINE
  5
5C4
100
AcDbEntity
  8
LAY-6
  6
CONTINUOUS
 62
     1
100
AcDbLine
 10
240.221313
 20
551.1
 30
0.0
 11
243.221313
 21
551.6
 31
0.0
  0
LINE
  5
5C5
100
AcDbEntity
  8
LAY-6
  6
CONTINUOUS
 62
     1
100
AcDbLine
 10
243.221313
 20
551.6
 30
0.0
 11
240.221313
 21
552.1
 31
0.0
  0
TEXT
  5
5C6
100
AcDbEntity
  8
LAY-6
  6
CONTINUOUS
 62
     2
100
AcDbText
 10
248.721298
 20
552.1
 30
0.0
 40
5.0
  1
１９
 41
0.672
  7
EXCADSTD
 72
     5
 11
256.054098
 21
552.1
 31
0.0
100
AcDbText
  0
LINE
  5
5C7
100
AcDbEntity
  8
LAY-6
  6
CONTINUOUS
 62
     1
100
AcDbLine
 10
262.221283
 20
512.312329
 30
0.0
 11
262.221283
 21
552.6
 31
0.0
  0
LINE
  5
5C8
100
AcDbEntity
  8
LAY-6
  6
CONTINUOUS
 62
     1
100
AcDbLine
 10
243.221313
 20
551.6
 30
0.0
 11
262.221283
 21
551.6
 31
0.0
  0
LINE
  5
5C9
100
AcDbEntity
  8
LAY-6
  6
CONTINUOUS
 62
     1
100
AcDbLine
 10
246.221313
 20
552.1
 30
0.0
 11
243.221313
 21
551.6
 31
0.0
  0
LINE
  5
5CA
100
AcDbEntity
  8
LAY-6
  6
CONTINUOUS
 62
     1
100
AcDbLine
 10
243.221313
 20
551.6
 30
0.0
 11
246.221313
 21
551.1
 31
0.0
  0
LINE
  5
5CB
100
AcDbEntity
  8
LAY-6
  6
CONTINUOUS
 62
     1
100
AcDbLine
 10
259.221283
 20
551.1
 30
0.0
 11
262.221283
 21
551.6
 31
0.0
  0
LINE
  5
5CC
100
AcDbEntity
  8
LAY-6
  6
CONTINUOUS
 62
     1
100
AcDbLine
 10
262.221283
 20
551.6
 30
0.0
 11
259.221283
 21
552.1
 31
0.0
  0
LINE
  5
5CD
100
AcDbEntity
  8
LAY-6
  6
CONTINUOUS
 62
     1
100
AcDbLine
 10
278.0
 20
507.312329
 30
0.0
 11
278.0
 21
517.8
 31
0.0
  0
LINE
  5
5CE
100
AcDbEntity
  8
LAY-6
  6
CONTINUOUS
 62
     1
100
AcDbLine
 10
278.0
 20
491.512323
 30
0.0
 11
278.0
 21
480.5
 31
0.0
  0
TEXT
  5
5CF
100
AcDbEntity
  8
LAY-6
  6
CONTINUOUS
 62
     2
100
AcDbText
 10
38.0
 20
543.0
 30
0.0
 40
6.0
  1
トップピボット
 41
0.672
  7
EXCADSTD
 72
     5
 11
71.600001
 21
543.0
 31
0.0
100
AcDbText
  0
TEXT
  5
5D0
100
AcDbEntity
  8
LAY-6
  6
CONTINUOUS
 62
     2
100
AcDbText
 10
329.0
 20
567.0
 30
0.0
 40
6.0
  1
トップピボット（上枠側）
 41
0.672
  7
EXCADSTD
 72
     5
 11
386.600002
 21
567.0
 31
0.0
100
AcDbText
  0
TEXT
  5
5D1
100
AcDbEntity
  8
LAY-6
  6
CONTINUOUS
 62
     2
100
AcDbText
 10
328.0
 20
473.0
 30
0.0
 40
6.0
  1
トップピボット（ドア側）
 41
0.672
  7
EXCADSTD
 72
     5
 11
385.600002
 21
473.0
 31
0.0
100
AcDbText
  0
TEXT
  5
5D2
100
AcDbEntity
  8
LAY-6
  6
CONTINUOUS
 62
     2
100
AcDbText
 10
371.4
 20
152.1
 30
0.0
 40
6.0
  1
アーム
 41
0.672
  7
EXCADSTD
 72
     5
 11
385.800001
 21
152.1
 31
0.0
100
AcDbText
  0
LINE
  5
5D3
100
AcDbEntity
  8
LAY-6
  6
CONTINUOUS
 62
     1
100
AcDbLine
 10
327.7
 20
565.6
 30
0.0
 11
385.2
 21
565.6
 31
0.0
  0
LINE
  5
5D4
100
AcDbEntity
  8
LAY-6
  6
CONTINUOUS
 62
     1
100
AcDbLine
 10
326.3
 20
472.3
 30
0.0
 11
384.2
 21
472.3
 31
0.0
  0
TEXT
  5
5D5
100
AcDbEntity
  8
LAY-6
  6
CONTINUOUS
 62
     2
100
AcDbText
 10
410.0
 20
294.4
 30
0.0
 40
6.0
  1
セメントケース
 41
0.672
  7
EXCADSTD
 72
     5
 11
443.600001
 21
294.4
 31
0.0
100
AcDbText
  0
TEXT
  5
5D6
100
AcDbEntity
  8
LAY-6
  6
CONTINUOUS
 62
     2
100
AcDbText
 10
287.7
 20
506.041357
 30
0.0
 40
6.0
  1
上 枠
 41
0.595556
  7
EXCADSTD
 72
     5
 11
299.7
 21
506.041357
 31
0.0
100
AcDbText
  0
TEXT
  5
5D7
100
AcDbEntity
  8
LAY-6
  6
CONTINUOUS
 62
     2
100
AcDbText
 10
288.1
 20
485.941357
 30
0.0
 40
6.0
  1
ド ア
 41
0.595556
  7
EXCADSTD
 72
     5
 11
300.1
 21
485.941357
 31
0.0
100
AcDbText
  0
TEXT
  5
5D8
100
AcDbEntity
  8
LAY-6
  6
CONTINUOUS
 62
     2
100
AcDbText
 10
39.4
 20
467.895813
 30
0.0
 40
6.0
  1
竪　枠
 41
0.8
  7
EXCADVERT
 72
     3
 11
39.4
 21
449.895813
 31
0.0
100
AcDbText
  0
TEXT
  5
5D9
100
AcDbEntity
  8
LAY-6
  6
CONTINUOUS
 62
     2
100
AcDbText
 10
531.3
 20
332.645813
 30
0.0
 40
6.0
  1
床　面
 41
0.672
  7
EXCADSTD
 72
     5
 11
545.700001
 21
332.645813
 31
0.0
100
AcDbText
  0
TEXT
  5
5DA
100
AcDbEntity
  8
LAY-6
  6
CONTINUOUS
 62
     2
100
AcDbText
 10
36.929911
 20
163.000015
 30
0.0
 40
6.0
  1
竪　枠
 41
0.8
  7
EXCADVERT
 72
     3
 11
36.929911
 21
145.000015
 31
0.0
100
AcDbText
  0
INSERT
  5
5DB
100
AcDbEntity
  8
LAY-6
  6
CONTINUOUS
 62
     0
100
AcDbBlockReference
  2
SYM-1
 10
357.8
 20
523.9
 30
0.0
 50
90.0
  0
INSERT
  5
5DC
100
AcDbEntity
  8
LAY-6
  6
CONTINUOUS
 62
     0
100
AcDbBlockReference
  2
SYM-1
 10
391.5
 20
560.4
 30
0.0
  0
INSERT
  5
5DD
100
AcDbEntity
  8
LAY-6
  6
CONTINUOUS
 62
     0
100
AcDbBlockReference
  2
SYM-1
 10
483.5
 20
560.2
 30
0.0
  0
INSERT
  5
5DE
100
AcDbEntity
  8
LAY-6
  6
CONTINUOUS
 62
     0
100
AcDbBlockReference
  2
SYM-1
 10
566.8
 20
567.487793
 30
0.0
  0
INSERT
  5
5DF
100
AcDbEntity
  8
LAY-6
  6
CONTINUOUS
 62
     0
100
AcDbBlockReference
  2
SYM-1
 10
84.8
 20
88.3
 30
0.0
  0
INSERT
  5
5E0
100
AcDbEntity
  8
LAY-6
  6
CONTINUOUS
 62
     0
100
AcDbBlockReference
  2
SYM-1
 10
156.6
 20
88.0
 30
0.0
  0
INSERT
  5
5E1
100
AcDbEntity
  8
LAY-6
  6
CONTINUOUS
 62
     0
100
AcDbBlockReference
  2
SYM-1
 10
256.4
 20
76.9
 30
0.0
  0
INSERT
  5
5E2
100
AcDbEntity
  8
LAY-6
  6
CONTINUOUS
 62
     0
100
AcDbBlockReference
  2
SYM-1
 10
327.6
 20
87.4
 30
0.0
  0
INSERT
  5
5E3
100
AcDbEntity
  8
LAY-6
  6
CONTINUOUS
 62
     0
100
AcDbBlockReference
  2
SYM-1
 10
804.9
 20
343.5
 30
0.0
 50
90.0
  0
INSERT
  5
5E4
100
AcDbEntity
  8
LAY-6
  6
CONTINUOUS
 62
     0
100
AcDbBlockReference
  2
SYM-1
 10
517.5
 20
145.7
 30
0.0
 50
90.0
  0
INSERT
  5
5E5
100
AcDbEntity
  8
LAY-6
  6
CONTINUOUS
 62
     0
100
AcDbBlockReference
  2
SYM-1
 10
682.2
 20
303.1
 30
0.0
  0
TEXT
  5
5E6
100
AcDbEntity
  8
LAY-6
  6
CONTINUOUS
 62
     2
100
AcDbText
 10
682.0
 20
414.645813
 30
0.0
 40
6.0
  1
ド　ア
 41
0.672
  7
EXCADSTD
 72
     5
 11
696.400001
 21
414.645813
 31
0.0
100
AcDbText
  0
TEXT
  5
5E7
100
AcDbEntity
  8
LAY-6
  6
CONTINUOUS
 62
     2
100
AcDbText
 10
399.221313
 20
423.7
 30
0.0
 40
5.0
  1
３０
 41
0.672
  7
EXCADSTD
 72
     5
 11
406.554113
 21
423.7
 31
0.0
100
AcDbText
  0
LINE
  5
5E8
100
AcDbEntity
  8
LAY-6
  6
CONTINUOUS
 62
     1
100
AcDbLine
 10
388.221313
 20
442.4
 30
0.0
 11
388.221313
 21
421.7
 31
0.0
  0
LINE
  5
5E9
100
AcDbEntity
  8
LAY-6
  6
CONTINUOUS
 62
     1
100
AcDbLine
 10
418.221313
 20
423.2
 30
0.0
 11
388.221313
 21
423.2
 31
0.0
  0
LINE
  5
5EA
100
AcDbEntity
  8
LAY-6
  6
CONTINUOUS
 62
     1
100
AcDbLine
 10
415.221313
 20
422.7
 30
0.0
 11
418.221313
 21
423.2
 31
0.0
  0
LINE
  5
5EB
100
AcDbEntity
  8
LAY-6
  6
CONTINUOUS
 62
     1
100
AcDbLine
 10
418.221313
 20
423.2
 30
0.0
 11
415.221313
 21
423.7
 31
0.0
  0
LINE
  5
5EC
100
AcDbEntity
  8
LAY-6
  6
CONTINUOUS
 62
     1
100
AcDbLine
 10
391.221313
 20
423.7
 30
0.0
 11
388.221313
 21
423.2
 31
0.0
  0
LINE
  5
5ED
100
AcDbEntity
  8
LAY-6
  6
CONTINUOUS
 62
     1
100
AcDbLine
 10
388.221313
 20
423.2
 30
0.0
 11
391.221313
 21
422.7
 31
0.0
  0
TEXT
  5
5EE
100
AcDbEntity
  8
LAY-6
  6
CONTINUOUS
 62
     2
100
AcDbText
 10
121.221313
 20
454.4
 30
0.0
 40
5.0
  1
φ
 41
0.672
  7
EXCADSTD
 72
     5
 11
124.421313
 21
454.4
 31
0.0
100
AcDbText
  0
TEXT
  5
5EF
100
AcDbEntity
  8
LAY-6
  6
CONTINUOUS
 62
     2
100
AcDbText
 10
125.221313
 20
454.4
 30
0.0
 40
5.0
  1
３０
 41
0.672
  7
EXCADSTD
 72
     5
 11
132.554113
 21
454.4
 31
0.0
100
AcDbText
  0
LINE
  5
5F0
100
AcDbEntity
  8
LAY-6
  6
CONTINUOUS
 62
     1
100
AcDbLine
 10
112.221313
 20
477.412286
 30
0.0
 11
112.221313
 21
452.4
 31
0.0
  0
LINE
  5
5F1
100
AcDbEntity
  8
LAY-6
  6
CONTINUOUS
 62
     1
100
AcDbLine
 10
142.221313
 20
477.412286
 30
0.0
 11
142.221313
 21
452.4
 31
0.0
  0
LINE
  5
5F2
100
AcDbEntity
  8
LAY-6
  6
CONTINUOUS
 62
     1
100
AcDbLine
 10
112.221313
 20
453.9
 30
0.0
 11
142.221313
 21
453.9
 31
0.0
  0
LINE
  5
5F3
100
AcDbEntity
  8
LAY-6
  6
CONTINUOUS
 62
     1
100
AcDbLine
 10
115.221313
 20
454.4
 30
0.0
 11
112.221313
 21
453.9
 31
0.0
  0
LINE
  5
5F4
100
AcDbEntity
  8
LAY-6
  6
CONTINUOUS
 62
     1
100
AcDbLine
 10
112.221313
 20
453.9
 30
0.0
 11
115.221313
 21
453.4
 31
0.0
  0
LINE
  5
5F5
100
AcDbEntity
  8
LAY-6
  6
CONTINUOUS
 62
     1
100
AcDbLine
 10
139.221313
 20
453.4
 30
0.0
 11
142.221313
 21
453.9
 31
0.0
  0
LINE
  5
5F6
100
AcDbEntity
  8
LAY-6
  6
CONTINUOUS
 62
     1
100
AcDbLine
 10
142.221313
 20
453.9
 30
0.0
 11
139.221313
 21
454.4
 31
0.0
  0
TEXT
  5
5F7
100
AcDbEntity
  8
LAY-6
  6
CONTINUOUS
 62
     2
100
AcDbText
 10
121.221344
 20
561.2
 30
0.0
 40
5.0
  1
φ
 41
0.672
  7
EXCADSTD
 72
     5
 11
124.421344
 21
561.2
 31
0.0
100
AcDbText
  0
TEXT
  5
5F8
100
AcDbEntity
  8
LAY-6
  6
CONTINUOUS
 62
     2
100
AcDbText
 10
125.221344
 20
561.2
 30
0.0
 40
5.0
  1
２８
 41
0.672
  7
EXCADSTD
 72
     5
 11
132.554144
 21
561.2
 31
0.0
100
AcDbText
  0
LINE
  5
5F9
100
AcDbEntity
  8
LAY-6
  6
CONTINUOUS
 62
     1
100
AcDbLine
 10
141.221344
 20
542.412323
 30
0.0
 11
141.221344
 21
562.2
 31
0.0
  0
LINE
  5
5FA
100
AcDbEntity
  8
LAY-6
  6
CONTINUOUS
 62
     1
100
AcDbLine
 10
113.221344
 20
542.412323
 30
0.0
 11
113.221344
 21
562.2
 31
0.0
  0
LINE
  5
5FB
100
AcDbEntity
  8
LAY-6
  6
CONTINUOUS
 62
     1
100
AcDbLine
 10
141.221344
 20
560.7
 30
0.0
 11
113.221344
 21
560.7
 31
0.0
  0
LINE
  5
5FC
100
AcDbEntity
  8
LAY-6
  6
CONTINUOUS
 62
     1
100
AcDbLine
 10
138.221344
 20
560.2
 30
0.0
 11
141.221344
 21
560.7
 31
0.0
  0
LINE
  5
5FD
100
AcDbEntity
  8
LAY-6
  6
CONTINUOUS
 62
     1
100
AcDbLine
 10
141.221344
 20
560.7
 30
0.0
 11
138.221344
 21
561.2
 31
0.0
  0
LINE
  5
5FE
100
AcDbEntity
  8
LAY-6
  6
CONTINUOUS
 62
     1
100
AcDbLine
 10
116.221344
 20
561.2
 30
0.0
 11
113.221344
 21
560.7
 31
0.0
  0
LINE
  5
5FF
100
AcDbEntity
  8
LAY-6
  6
CONTINUOUS
 62
     1
100
AcDbLine
 10
113.221344
 20
560.7
 30
0.0
 11
116.221344
 21
560.2
 31
0.0
  0
TEXT
  5
600
100
AcDbEntity
  8
LAY-6
  6
CONTINUOUS
 62
     2
100
AcDbText
 10
74.6
 20
516.912314
 30
0.0
 40
5.0
  1
４０
 50
90.0
 41
0.672
  7
EXCADSTD
 72
     5
 11
74.6
 21
524.245114
 31
0.0
100
AcDbText
  0
LINE
  5
601
100
AcDbEntity
  8
LAY-6
  6
CONTINUOUS
 62
     1
100
AcDbLine
 10
79.721313
 20
500.912305
 30
0.0
 11
73.6
 21
500.912305
 31
0.0
  0
LINE
  5
602
100
AcDbEntity
  8
LAY-6
  6
CONTINUOUS
 62
     1
100
AcDbLine
 10
111.721344
 20
540.912323
 30
0.0
 11
73.6
 21
540.912323
 31
0.0
  0
LINE
  5
603
100
AcDbEntity
  8
LAY-6
  6
CONTINUOUS
 62
     1
100
AcDbLine
 10
75.1
 20
500.912305
 30
0.0
 11
75.1
 21
540.912323
 31
0.0
  0
LINE
  5
604
100
AcDbEntity
  8
LAY-6
  6
CONTINUOUS
 62
     1
100
AcDbLine
 10
74.6
 20
503.912305
 30
0.0
 11
75.1
 21
500.912305
 31
0.0
  0
LINE
  5
605
100
AcDbEntity
  8
LAY-6
  6
CONTINUOUS
 62
     1
100
AcDbLine
 10
75.1
 20
500.912305
 30
0.0
 11
75.6
 21
503.912305
 31
0.0
  0
LINE
  5
606
100
AcDbEntity
  8
LAY-6
  6
CONTINUOUS
 62
     1
100
AcDbLine
 10
75.6
 20
537.912323
 30
0.0
 11
75.1
 21
540.912323
 31
0.0
  0
LINE
  5
607
100
AcDbEntity
  8
LAY-6
  6
CONTINUOUS
 62
     1
100
AcDbLine
 10
75.1
 20
540.912323
 30
0.0
 11
74.6
 21
537.912323
 31
0.0
  0
TEXT
  5
608
100
AcDbEntity
  8
LAY-6
  6
CONTINUOUS
 62
     2
100
AcDbText
 10
74.6
 20
482.912316
 30
0.0
 40
5.0
  1
２２
 50
90.0
 41
0.672
  7
EXCADSTD
 72
     5
 11
74.6
 21
490.245116
 31
0.0
100
AcDbText
  0
LINE
  5
609
100
AcDbEntity
  8
LAY-6
  6
CONTINUOUS
 62
     1
100
AcDbLine
 10
85.721313
 20
497.912347
 30
0.0
 11
73.6
 21
497.912347
 31
0.0
  0
LINE
  5
60A
100
AcDbEntity
  8
LAY-6
  6
CONTINUOUS
 62
     1
100
AcDbLine
 10
125.721313
 20
475.912286
 30
0.0
 11
73.6
 21
475.912286
 31
0.0
  0
LINE
  5
60B
100
AcDbEntity
  8
LAY-6
  6
CONTINUOUS
 62
     1
100
AcDbLine
 10
75.1
 20
497.912347
 30
0.0
 11
75.1
 21
475.912286
 31
0.0
  0
LINE
  5
60C
100
AcDbEntity
  8
LAY-6
  6
CONTINUOUS
 62
     1
100
AcDbLine
 10
75.6
 20
494.912347
 30
0.0
 11
75.1
 21
497.912347
 31
0.0
  0
LINE
  5
60D
100
AcDbEntity
  8
LAY-6
  6
CONTINUOUS
 62
     1
100
AcDbLine
 10
75.1
 20
497.912347
 30
0.0
 11
74.6
 21
494.912347
 31
0.0
  0
LINE
  5
60E
100
AcDbEntity
  8
LAY-6
  6
CONTINUOUS
 62
     1
100
AcDbLine
 10
74.6
 20
478.912286
 30
0.0
 11
75.1
 21
475.912286
 31
0.0
  0
LINE
  5
60F
100
AcDbEntity
  8
LAY-6
  6
CONTINUOUS
 62
     1
100
AcDbLine
 10
75.1
 20
475.912286
 30
0.0
 11
75.6
 21
478.912286
 31
0.0
  0
TEXT
  5
610
100
AcDbEntity
  8
LAY-6
  6
CONTINUOUS
 62
     2
100
AcDbText
 10
123.221329
 20
327.9
 30
0.0
 40
5.0
  1
５６
 41
0.672
  7
EXCADSTD
 72
     5
 11
130.554129
 21
327.9
 31
0.0
100
AcDbText
  0
LINE
  5
611
100
AcDbEntity
  8
LAY-6
  6
CONTINUOUS
 62
     1
100
AcDbLine
 10
99.221329
 20
339.447876
 30
0.0
 11
99.221329
 21
325.9
 31
0.0
  0
LINE
  5
612
100
AcDbEntity
  8
LAY-6
  6
CONTINUOUS
 62
     1
100
AcDbLine
 10
155.221329
 20
339.447876
 30
0.0
 11
155.221329
 21
325.9
 31
0.0
  0
LINE
  5
613
100
AcDbEntity
  8
LAY-6
  6
CONTINUOUS
 62
     1
100
AcDbLine
 10
99.221329
 20
327.4
 30
0.0
 11
155.221329
 21
327.4
 31
0.0
  0
LINE
  5
614
100
AcDbEntity
  8
LAY-6
  6
CONTINUOUS
 62
     1
100
AcDbLine
 10
102.221329
 20
327.9
 30
0.0
 11
99.221329
 21
327.4
 31
0.0
  0
LINE
  5
615
100
AcDbEntity
  8
LAY-6
  6
CONTINUOUS
 62
     1
100
AcDbLine
 10
99.221329
 20
327.4
 30
0.0
 11
102.221329
 21
326.9
 31
0.0
  0
LINE
  5
616
100
AcDbEntity
  8
LAY-6
  6
CONTINUOUS
 62
     1
100
AcDbLine
 10
152.221329
 20
326.9
 30
0.0
 11
155.221329
 21
327.4
 31
0.0
  0
LINE
  5
617
100
AcDbEntity
  8
LAY-6
  6
CONTINUOUS
 62
     1
100
AcDbLine
 10
155.221329
 20
327.4
 30
0.0
 11
152.221329
 21
327.9
 31
0.0
  0
TEXT
  5
618
100
AcDbEntity
  8
LAY-6
  6
CONTINUOUS
 62
     2
100
AcDbText
 10
108.221329
 20
115.0
 30
0.0
 40
5.0
  1
３０
 41
0.672
  7
EXCADSTD
 72
     5
 11
115.554129
 21
115.0
 31
0.0
100
AcDbText
  0
LINE
  5
619
100
AcDbEntity
  8
LAY-6
  6
CONTINUOUS
 62
     1
100
AcDbLine
 10
97.221329
 20
153.052078
 30
0.0
 11
97.221329
 21
113.0
 31
0.0
  0
LINE
  5
61A
100
AcDbEntity
  8
LAY-6
  6
CONTINUOUS
 62
     1
100
AcDbLine
 10
127.221329
 20
140.0
 30
0.0
 11
127.221329
 21
113.0
 31
0.0
  0
LINE
  5
61B
100
AcDbEntity
  8
LAY-6
  6
CONTINUOUS
 62
     1
100
AcDbLine
 10
97.221329
 20
114.5
 30
0.0
 11
127.221329
 21
114.5
 31
0.0
  0
LINE
  5
61C
100
AcDbEntity
  8
LAY-6
  6
CONTINUOUS
 62
     1
100
AcDbLine
 10
100.221329
 20
115.0
 30
0.0
 11
97.221329
 21
114.5
 31
0.0
  0
LINE
  5
61D
100
AcDbEntity
  8
LAY-6
  6
CONTINUOUS
 62
     1
100
AcDbLine
 10
97.221329
 20
114.5
 30
0.0
 11
100.221329
 21
114.0
 31
0.0
  0
LINE
  5
61E
100
AcDbEntity
  8
LAY-6
  6
CONTINUOUS
 62
     1
100
AcDbLine
 10
124.221329
 20
114.0
 30
0.0
 11
127.221329
 21
114.5
 31
0.0
  0
LINE
  5
61F
100
AcDbEntity
  8
LAY-6
  6
CONTINUOUS
 62
     1
100
AcDbLine
 10
127.221329
 20
114.5
 30
0.0
 11
124.221329
 21
115.0
 31
0.0
  0
TEXT
  5
620
100
AcDbEntity
  8
LAY-6
  6
CONTINUOUS
 62
     2
100
AcDbText
 10
281.221321
 20
106.3
 30
0.0
 40
5.0
  1
３８０
 41
0.672
  7
EXCADSTD
 72
     5
 11
293.221321
 21
106.3
 31
0.0
100
AcDbText
  0
LINE
  5
621
100
AcDbEntity
  8
LAY-6
  6
CONTINUOUS
 62
     1
100
AcDbLine
 10
97.221329
 20
153.052078
 30
0.0
 11
97.221329
 21
104.3
 31
0.0
  0
LINE
  5
622
100
AcDbEntity
  8
LAY-6
  6
CONTINUOUS
 62
     1
100
AcDbLine
 10
477.221313
 20
153.052078
 30
0.0
 11
477.221313
 21
104.3
 31
0.0
  0
LINE
  5
623
100
AcDbEntity
  8
LAY-6
  6
CONTINUOUS
 62
     1
100
AcDbLine
 10
97.221329
 20
105.8
 30
0.0
 11
477.221313
 21
105.8
 31
0.0
  0
LINE
  5
624
100
AcDbEntity
  8
LAY-6
  6
CONTINUOUS
 62
     1
100
AcDbLine
 10
100.221329
 20
106.3
 30
0.0
 11
97.221329
 21
105.8
 31
0.0
  0
LINE
  5
625
100
AcDbEntity
  8
LAY-6
  6
CONTINUOUS
 62
     1
100
AcDbLine
 10
97.221329
 20
105.8
 30
0.0
 11
100.221329
 21
105.3
 31
0.0
  0
LINE
  5
626
100
AcDbEntity
  8
LAY-6
  6
CONTINUOUS
 62
     1
100
AcDbLine
 10
474.221313
 20
105.3
 30
0.0
 11
477.221313
 21
105.8
 31
0.0
  0
LINE
  5
627
100
AcDbEntity
  8
LAY-6
  6
CONTINUOUS
 62
     1
100
AcDbLine
 10
477.221313
 20
105.8
 30
0.0
 11
474.221313
 21
106.3
 31
0.0
  0
TEXT
  5
628
100
AcDbEntity
  8
LAY-6
  6
CONTINUOUS
 62
     2
100
AcDbText
 10
482.7
 20
160.6
 30
0.0
 40
6.0
  1
ド　ア
 41
0.672
  7
EXCADSTD
 72
     5
 11
497.100001
 21
160.6
 31
0.0
100
AcDbText
  0
LINE
  5
629
100
AcDbEntity
  8
LAY-9
  6
CONTINUOUS
 62
     1
100
AcDbLine
 10
677.631698
 20
378.947876
 30
0.0
 11
682.131698
 21
383.447876
 31
0.0
  0
LINE
  5
62A
100
AcDbEntity
  8
LAY-9
  6
CONTINUOUS
 62
     1
100
AcDbLine
 10
680.460125
 20
378.947876
 30
0.0
 11
684.960125
 21
383.447876
 31
0.0
  0
LINE
  5
62B
100
AcDbEntity
  8
LAY-9
  6
CONTINUOUS
 62
     1
100
AcDbLine
 10
697.430688
 20
378.947876
 30
0.0
 11
701.930688
 21
383.447876
 31
0.0
  0
LINE
  5
62C
100
AcDbEntity
  8
LAY-9
  6
CONTINUOUS
 62
     1
100
AcDbLine
 10
700.259115
 20
378.947876
 30
0.0
 11
704.07843
 21
382.767191
 31
0.0
  0
LINE
  5
62D
100
AcDbEntity
  8
LAY-9
  6
CONTINUOUS
 62
     1
100
AcDbLine
 10
670.57843
 20
383.379889
 30
0.0
 11
670.646417
 21
383.447876
 31
0.0
  0
LINE
  5
62E
100
AcDbEntity
  8
LAY-9
  6
CONTINUOUS
 62
     1
100
AcDbLine
 10
158.661371
 20
378.947876
 30
0.0
 11
163.161371
 21
383.447876
 31
0.0
  0
LINE
  5
62F
100
AcDbEntity
  8
LAY-9
  6
CONTINUOUS
 62
     1
100
AcDbLine
 10
161.489798
 20
378.947876
 30
0.0
 11
165.989798
 21
383.447876
 31
0.0
  0
LINE
  5
630
100
AcDbEntity
  8
LAY-9
  6
CONTINUOUS
 62
     1
100
AcDbLine
 10
220.886768
 20
378.947876
 30
0.0
 11
225.386768
 21
383.447876
 31
0.0
  0
LINE
  5
631
100
AcDbEntity
  8
LAY-9
  6
CONTINUOUS
 62
     1
100
AcDbLine
 10
223.715195
 20
378.947876
 30
0.0
 11
228.215195
 21
383.447876
 31
0.0
  0
LINE
  5
632
100
AcDbEntity
  8
LAY-9
  6
CONTINUOUS
 62
     1
100
AcDbLine
 10
283.112164
 20
378.947876
 30
0.0
 11
287.612164
 21
383.447876
 31
0.0
  0
LINE
  5
633
100
AcDbEntity
  8
LAY-9
  6
CONTINUOUS
 62
     1
100
AcDbLine
 10
285.940591
 20
378.947876
 30
0.0
 11
290.440591
 21
383.447876
 31
0.0
  0
LINE
  5
634
100
AcDbEntity
  8
LAY-9
  6
CONTINUOUS
 62
     1
100
AcDbLine
 10
345.337561
 20
378.947876
 30
0.0
 11
349.837561
 21
383.447876
 31
0.0
  0
LINE
  5
635
100
AcDbEntity
  8
LAY-9
  6
CONTINUOUS
 62
     1
100
AcDbLine
 10
348.165988
 20
378.947876
 30
0.0
 11
352.665988
 21
383.447876
 31
0.0
  0
LINE
  5
636
100
AcDbEntity
  8
LAY-9
  6
CONTINUOUS
 62
     1
100
AcDbLine
 10
98.435974
 20
378.947876
 30
0.0
 11
102.935974
 21
383.447876
 31
0.0
  0
LINE
  5
637
100
AcDbEntity
  8
LAY-9
  6
CONTINUOUS
 62
     1
100
AcDbLine
 10
101.264401
 20
378.947876
 30
0.0
 11
105.764401
 21
383.447876
 31
0.0
  0
LINE
  5
638
100
AcDbEntity
  8
LAY-9
  6
CONTINUOUS
 62
     1
100
AcDbLine
 10
89.258274
 20
507.312329
 30
0.0
 11
93.758274
 21
511.812329
 31
0.0
  0
LINE
  5
639
100
AcDbEntity
  8
LAY-9
  6
CONTINUOUS
 62
     1
100
AcDbLine
 10
92.086701
 20
507.312329
 30
0.0
 11
96.586701
 21
511.812329
 31
0.0
  0
LINE
  5
63A
100
AcDbEntity
  8
LAY-9
  6
CONTINUOUS
 62
     1
100
AcDbLine
 10
162.489731
 20
487.012323
 30
0.0
 11
166.989731
 21
491.512323
 31
0.0
  0
LINE
  5
63B
100
AcDbEntity
  8
LAY-9
  6
CONTINUOUS
 62
     1
100
AcDbLine
 10
165.318158
 20
487.012323
 30
0.0
 11
169.818158
 21
491.512323
 31
0.0
  0
LINE
  5
63C
100
AcDbEntity
  8
LAY-9
  6
CONTINUOUS
 62
     1
100
AcDbLine
 10
190.774002
 20
487.012323
 30
0.0
 11
195.274002
 21
491.512323
 31
0.0
  0
LINE
  5
63D
100
AcDbEntity
  8
LAY-9
  6
CONTINUOUS
 62
     1
100
AcDbLine
 10
193.60243
 20
487.012323
 30
0.0
 11
198.10243
 21
491.512323
 31
0.0
  0
LINE
  5
63E
100
AcDbEntity
  8
LAY-9
  6
CONTINUOUS
 62
     1
100
AcDbLine
 10
224.715128
 20
487.012323
 30
0.0
 11
229.215128
 21
491.512323
 31
0.0
  0
LINE
  5
63F
100
AcDbEntity
  8
LAY-9
  6
CONTINUOUS
 62
     1
100
AcDbLine
 10
227.543555
 20
487.012323
 30
0.0
 11
232.043555
 21
491.512323
 31
0.0
  0
LINE
  5
640
100
AcDbEntity
  8
LAY-9
  6
CONTINUOUS
 62
     1
100
AcDbLine
 10
258.656253
 20
487.012323
 30
0.0
 11
262.221344
 21
490.577414
 31
0.0
  0
LINE
  5
641
100
AcDbEntity
  8
LAY-9
  6
CONTINUOUS
 62
     1
100
AcDbLine
 10
261.48468
 20
487.012323
 30
0.0
 11
262.221344
 21
487.748987
 31
0.0
  0
LINE
  5
642
100
AcDbEntity
  8
LAY-9
  6
CONTINUOUS
 62
     1
100
AcDbLine
 10
249.042515
 20
507.312329
 30
0.0
 11
253.542515
 21
511.812329
 31
0.0
  0
LINE
  5
643
100
AcDbEntity
  8
LAY-9
  6
CONTINUOUS
 62
     1
100
AcDbLine
 10
251.870942
 20
507.312329
 30
0.0
 11
256.370942
 21
511.812329
 31
0.0
  0
LINE
  5
644
100
AcDbEntity
  8
LAY-9
  6
CONTINUOUS
 62
     1
100
AcDbLine
 10
407.562958
 20
378.947876
 30
0.0
 11
412.062958
 21
383.447876
 31
0.0
  0
LINE
  5
645
100
AcDbEntity
  8
LAY-9
  6
CONTINUOUS
 62
     1
100
AcDbLine
 10
410.391385
 20
378.947876
 30
0.0
 11
414.891385
 21
383.447876
 31
0.0
  0
LINE
  5
646
100
AcDbEntity
  8
LAY-9
  6
CONTINUOUS
 62
     1
100
AcDbLine
 10
89.258274
 20
487.012323
 30
0.0
 11
93.758274
 21
491.512323
 31
0.0
  0
LINE
  5
647
100
AcDbEntity
  8
LAY-9
  6
CONTINUOUS
 62
     1
100
AcDbLine
 10
92.086701
 20
487.012323
 30
0.0
 11
96.586701
 21
491.512323
 31
0.0
  0
LINE
  5
648
100
AcDbEntity
  8
LAY-9
  6
CONTINUOUS
 62
     1
100
AcDbLine
 10
469.788355
 20
378.947876
 30
0.0
 11
474.288355
 21
383.447876
 31
0.0
  0
LINE
  5
649
100
AcDbEntity
  8
LAY-9
  6
CONTINUOUS
 62
     1
100
AcDbLine
 10
472.616782
 20
378.947876
 30
0.0
 11
477.116782
 21
383.447876
 31
0.0
  0
LINE
  5
64A
100
AcDbEntity
  8
LAY-9
  6
CONTINUOUS
 62
     1
100
AcDbLine
 10
532.013751
 20
378.947876
 30
0.0
 11
536.513751
 21
383.447876
 31
0.0
  0
LINE
  5
64B
100
AcDbEntity
  8
LAY-9
  6
CONTINUOUS
 62
     1
100
AcDbLine
 10
534.842178
 20
378.947876
 30
0.0
 11
539.342178
 21
383.447876
 31
0.0
  0
LINE
  5
64C
100
AcDbEntity
  8
LAY-9
  6
CONTINUOUS
 62
     1
100
AcDbLine
 10
52.621313
 20
204.552078
 30
0.0
 11
33.0
 21
204.552078
 31
0.0
  0
LINE
  5
64D
100
AcDbEntity
  8
LAY-9
  6
CONTINUOUS
 62
     1
100
AcDbLine
 10
52.621313
 20
104.552078
 30
0.0
 11
33.0
 21
104.552078
 31
0.0
  0
LINE
  5
64E
100
AcDbEntity
  8
LAY-9
  6
CONTINUOUS
 62
     1
100
AcDbLine
 10
54.221313
 20
202.952078
 30
0.0
 11
54.221313
 21
106.152078
 31
0.0
  0
ARC
  5
64F
100
AcDbEntity
  8
LAY-9
  6
CONTINUOUS
 62
     1
100
AcDbCircle
 10
52.621313
 20
202.952078
 30
0.0
 40
1.6
100
AcDbArc
 50
0.0
 51
90.0
  0
ARC
  5
650
100
AcDbEntity
  8
LAY-9
  6
CONTINUOUS
 62
     1
100
AcDbCircle
 10
52.621313
 20
106.152078
 30
0.0
 40
1.6
100
AcDbArc
 50
270.0
 51
0.0
  0
LINE
  5
651
100
AcDbEntity
  8
LAY-9
  6
CONTINUOUS
 62
     1
100
AcDbLine
 10
52.621313
 20
106.152078
 30
0.0
 11
33.0
 21
106.152078
 31
0.0
  0
LINE
  5
652
100
AcDbEntity
  8
LAY-9
  6
CONTINUOUS
 62
     1
100
AcDbLine
 10
52.621313
 20
202.952078
 30
0.0
 11
33.0
 21
202.952078
 31
0.0
  0
LINE
  5
653
100
AcDbEntity
  8
LAY-9
  6
CONTINUOUS
 62
     1
100
AcDbLine
 10
52.621313
 20
202.952078
 30
0.0
 11
52.621313
 21
106.152078
 31
0.0
  0
LINE
  5
654
100
AcDbEntity
  8
LAY-9
  6
CONTINUOUS
 62
     1
100
AcDbLine
 10
582.07843
 20
340.947876
 30
0.0
 11
561.828625
 21
340.947876
 31
0.0
  0
LINE
  5
655
100
AcDbEntity
  8
LAY-9
  6
CONTINUOUS
 62
     1
100
AcDbLine
 10
807.3
 20
340.947876
 30
0.0
 11
820.028625
 21
340.947876
 31
0.0
  0
POLYLINE
  5
656
100
AcDbEntity
  8
LAY-9
  6
CONTINUOUS
 62
     1
100
AcDb2dPolyline
 66
     1
 10
0.0
 20
0.0
 30
0.0
 70
   128
  0
VERTEX
  5
657
100
AcDbEntity
  8
LAY-9
  6
CONTINUOUS
 62
     1
100
AcDbVertex
100
AcDb2dVertex
 10
561.828625
 20
340.947876
 30
0.0
  0
VERTEX
  5
658
100
AcDbEntity
  8
LAY-9
  6
CONTINUOUS
 62
     1
100
AcDbVertex
100
AcDb2dVertex
 10
561.860413
 20
340.834872
 30
0.0
  0
VERTEX
  5
659
100
AcDbEntity
  8
LAY-9
  6
CONTINUOUS
 62
     1
100
AcDbVertex
100
AcDb2dVertex
 10
561.948021
 20
340.514114
 30
0.0
  0
VERTEX
  5
65A
100
AcDbEntity
  8
LAY-9
  6
CONTINUOUS
 62
     1
100
AcDbVertex
100
AcDb2dVertex
 10
562.079814
 20
340.012979
 30
0.0
  0
VERTEX
  5
65B
100
AcDbEntity
  8
LAY-9
  6
CONTINUOUS
 62
     1
100
AcDbVertex
100
AcDb2dVertex
 10
562.244157
 20
339.358847
 30
0.0
  0
VERTEX
  5
65C
100
AcDbEntity
  8
LAY-9
  6
CONTINUOUS
 62
     1
100
AcDbVertex
100
AcDb2dVertex
 10
562.429416
 20
338.579097
 30
0.0
  0
VERTEX
  5
65D
100
AcDbEntity
  8
LAY-9
  6
CONTINUOUS
 62
     1
100
AcDbVertex
100
AcDb2dVertex
 10
562.623954
 20
337.701106
 30
0.0
  0
VERTEX
  5
65E
100
AcDbEntity
  8
LAY-9
  6
CONTINUOUS
 62
     1
100
AcDbVertex
100
AcDb2dVertex
 10
562.816137
 20
336.752255
 30
0.0
  0
VERTEX
  5
65F
100
AcDbEntity
  8
LAY-9
  6
CONTINUOUS
 62
     1
100
AcDbVertex
100
AcDb2dVertex
 10
562.994331
 20
335.759921
 30
0.0
  0
VERTEX
  5
660
100
AcDbEntity
  8
LAY-9
  6
CONTINUOUS
 62
     1
100
AcDbVertex
100
AcDb2dVertex
 10
563.1469
 20
334.751483
 30
0.0
  0
VERTEX
  5
661
100
AcDbEntity
  8
LAY-9
  6
CONTINUOUS
 62
     1
100
AcDbVertex
100
AcDb2dVertex
 10
563.26221
 20
333.754321
 30
0.0
  0
VERTEX
  5
662
100
AcDbEntity
  8
LAY-9
  6
CONTINUOUS
 62
     1
100
AcDbVertex
100
AcDb2dVertex
 10
563.328625
 20
332.795813
 30
0.0
  0
VERTEX
  5
663
100
AcDbEntity
  8
LAY-9
  6
CONTINUOUS
 62
     1
100
AcDbVertex
100
AcDb2dVertex
 10
563.340079
 20
332.068057
 30
0.0
  0
VERTEX
  5
664
100
AcDbEntity
  8
LAY-9
  6
CONTINUOUS
 62
     1
100
AcDbVertex
100
AcDb2dVertex
 10
563.314738
 20
331.37922
 30
0.0
  0
VERTEX
  5
665
100
AcDbEntity
  8
LAY-9
  6
CONTINUOUS
 62
     1
100
AcDbVertex
100
AcDb2dVertex
 10
563.255015
 20
330.725452
 30
0.0
  0
VERTEX
  5
666
100
AcDbEntity
  8
LAY-9
  6
CONTINUOUS
 62
     1
100
AcDbVertex
100
AcDb2dVertex
 10
563.163317
 20
330.102903
 30
0.0
  0
VERTEX
  5
667
100
AcDbEntity
  8
LAY-9
  6
CONTINUOUS
 62
     1
100
AcDbVertex
100
AcDb2dVertex
 10
563.042056
 20
329.507723
 30
0.0
  0
VERTEX
  5
668
100
AcDbEntity
  8
LAY-9
  6
CONTINUOUS
 62
     1
100
AcDbVertex
100
AcDb2dVertex
 10
562.893641
 20
328.936063
 30
0.0
  0
VERTEX
  5
669
100
AcDbEntity
  8
LAY-9
  6
CONTINUOUS
 62
     1
100
AcDbVertex
100
AcDb2dVertex
 10
562.720484
 20
328.384072
 30
0.0
  0
VERTEX
  5
66A
100
AcDbEntity
  8
LAY-9
  6
CONTINUOUS
 62
     1
100
AcDbVertex
100
AcDb2dVertex
 10
562.524993
 20
327.847902
 30
0.0
  0
VERTEX
  5
66B
100
AcDbEntity
  8
LAY-9
  6
CONTINUOUS
 62
     1
100
AcDbVertex
100
AcDb2dVertex
 10
562.30958
 20
327.323702
 30
0.0
  0
VERTEX
  5
66C
100
AcDbEntity
  8
LAY-9
  6
CONTINUOUS
 62
     1
100
AcDbVertex
100
AcDb2dVertex
 10
562.076654
 20
326.807622
 30
0.0
  0
VERTEX
  5
66D
100
AcDbEntity
  8
LAY-9
  6
CONTINUOUS
 62
     1
100
AcDbVertex
100
AcDb2dVertex
 10
561.828625
 20
326.295813
 30
0.0
  0
VERTEX
  5
66E
100
AcDbEntity
  8
LAY-9
  6
CONTINUOUS
 62
     1
100
AcDbVertex
100
AcDb2dVertex
 10
561.554423
 20
325.75658
 30
0.0
  0
VERTEX
  5
66F
100
AcDbEntity
  8
LAY-9
  6
CONTINUOUS
 62
     1
100
AcDbVertex
100
AcDb2dVertex
 10
561.275165
 20
325.213751
 30
0.0
  0
VERTEX
  5
670
100
AcDbEntity
  8
LAY-9
  6
CONTINUOUS
 62
     1
100
AcDbVertex
100
AcDb2dVertex
 10
560.999907
 20
324.66326
 30
0.0
  0
VERTEX
  5
671
100
AcDbEntity
  8
LAY-9
  6
CONTINUOUS
 62
     1
100
AcDbVertex
100
AcDb2dVertex
 10
560.737706
 20
324.101045
 30
0.0
  0
VERTEX
  5
672
100
AcDbEntity
  8
LAY-9
  6
CONTINUOUS
 62
     1
100
AcDbVertex
100
AcDb2dVertex
 10
560.497618
 20
323.523039
 30
0.0
  0
VERTEX
  5
673
100
AcDbEntity
  8
LAY-9
  6
CONTINUOUS
 62
     1
100
AcDbVertex
100
AcDb2dVertex
 10
560.288699
 20
322.925179
 30
0.0
  0
VERTEX
  5
674
100
AcDbEntity
  8
LAY-9
  6
CONTINUOUS
 62
     1
100
AcDbVertex
100
AcDb2dVertex
 10
560.120006
 20
322.303401
 30
0.0
  0
VERTEX
  5
675
100
AcDbEntity
  8
LAY-9
  6
CONTINUOUS
 62
     1
100
AcDbVertex
100
AcDb2dVertex
 10
560.000596
 20
321.65364
 30
0.0
  0
VERTEX
  5
676
100
AcDbEntity
  8
LAY-9
  6
CONTINUOUS
 62
     1
100
AcDbVertex
100
AcDb2dVertex
 10
559.939525
 20
320.971831
 30
0.0
  0
VERTEX
  5
677
100
AcDbEntity
  8
LAY-9
  6
CONTINUOUS
 62
     1
100
AcDbVertex
100
AcDb2dVertex
 10
559.945849
 20
320.25391
 30
0.0
  0
VERTEX
  5
678
100
AcDbEntity
  8
LAY-9
  6
CONTINUOUS
 62
     1
100
AcDbVertex
100
AcDb2dVertex
 10
560.028625
 20
319.495813
 30
0.0
  0
VERTEX
  5
679
100
AcDbEntity
  8
LAY-9
  6
CONTINUOUS
 62
     1
100
AcDbVertex
100
AcDb2dVertex
 10
560.181397
 20
318.742505
 30
0.0
  0
VERTEX
  5
67A
100
AcDbEntity
  8
LAY-9
  6
CONTINUOUS
 62
     1
100
AcDbVertex
100
AcDb2dVertex
 10
560.394726
 20
317.969042
 30
0.0
  0
VERTEX
  5
67B
100
AcDbEntity
  8
LAY-9
  6
CONTINUOUS
 62
     1
100
AcDbVertex
100
AcDb2dVertex
 10
560.652789
 20
317.194785
 30
0.0
  0
VERTEX
  5
67C
100
AcDbEntity
  8
LAY-9
  6
CONTINUOUS
 62
     1
100
AcDbVertex
100
AcDb2dVertex
 10
560.93976
 20
316.439099
 30
0.0
  0
VERTEX
  5
67D
100
AcDbEntity
  8
LAY-9
  6
CONTINUOUS
 62
     1
100
AcDbVertex
100
AcDb2dVertex
 10
561.239812
 20
315.721347
 30
0.0
  0
VERTEX
  5
67E
100
AcDbEntity
  8
LAY-9
  6
CONTINUOUS
 62
     1
100
AcDbVertex
100
AcDb2dVertex
 10
561.537121
 20
315.060893
 30
0.0
  0
VERTEX
  5
67F
100
AcDbEntity
  8
LAY-9
  6
CONTINUOUS
 62
     1
100
AcDbVertex
100
AcDb2dVertex
 10
561.815861
 20
314.4771
 30
0.0
  0
VERTEX
  5
680
100
AcDbEntity
  8
LAY-9
  6
CONTINUOUS
 62
     1
100
AcDbVertex
100
AcDb2dVertex
 10
562.060207
 20
313.989332
 30
0.0
  0
VERTEX
  5
681
100
AcDbEntity
  8
LAY-9
  6
CONTINUOUS
 62
     1
100
AcDbVertex
100
AcDb2dVertex
 10
562.254333
 20
313.616953
 30
0.0
  0
VERTEX
  5
682
100
AcDbEntity
  8
LAY-9
  6
CONTINUOUS
 62
     1
100
AcDbVertex
100
AcDb2dVertex
 10
562.382415
 20
313.379325
 30
0.0
  0
VERTEX
  5
683
100
AcDbEntity
  8
LAY-9
  6
CONTINUOUS
 62
     1
100
AcDbVertex
100
AcDb2dVertex
 10
562.428625
 20
313.295813
 30
0.0
  0
SEQEND
  5
684
100
AcDbEntity
  8
LAY-9
  6
CONTINUOUS
 62
     1
  0
POLYLINE
  5
685
100
AcDbEntity
  8
LAY-9
  6
CONTINUOUS
 62
     1
100
AcDb2dPolyline
 66
     1
 10
0.0
 20
0.0
 30
0.0
 70
   128
  0
VERTEX
  5
686
100
AcDbEntity
  8
LAY-9
  6
CONTINUOUS
 62
     1
100
AcDbVertex
100
AcDb2dVertex
 10
820.028625
 20
340.947876
 30
0.0
  0
VERTEX
  5
687
100
AcDbEntity
  8
LAY-9
  6
CONTINUOUS
 62
     1
100
AcDbVertex
100
AcDb2dVertex
 10
820.060413
 20
340.834872
 30
0.0
  0
VERTEX
  5
688
100
AcDbEntity
  8
LAY-9
  6
CONTINUOUS
 62
     1
100
AcDbVertex
100
AcDb2dVertex
 10
820.148021
 20
340.514114
 30
0.0
  0
VERTEX
  5
689
100
AcDbEntity
  8
LAY-9
  6
CONTINUOUS
 62
     1
100
AcDbVertex
100
AcDb2dVertex
 10
820.279814
 20
340.012979
 30
0.0
  0
VERTEX
  5
68A
100
AcDbEntity
  8
LAY-9
  6
CONTINUOUS
 62
     1
100
AcDbVertex
100
AcDb2dVertex
 10
820.444157
 20
339.358847
 30
0.0
  0
VERTEX
  5
68B
100
AcDbEntity
  8
LAY-9
  6
CONTINUOUS
 62
     1
100
AcDbVertex
100
AcDb2dVertex
 10
820.629416
 20
338.579097
 30
0.0
  0
VERTEX
  5
68C
100
AcDbEntity
  8
LAY-9
  6
CONTINUOUS
 62
     1
100
AcDbVertex
100
AcDb2dVertex
 10
820.823954
 20
337.701106
 30
0.0
  0
VERTEX
  5
68D
100
AcDbEntity
  8
LAY-9
  6
CONTINUOUS
 62
     1
100
AcDbVertex
100
AcDb2dVertex
 10
821.016137
 20
336.752255
 30
0.0
  0
VERTEX
  5
68E
100
AcDbEntity
  8
LAY-9
  6
CONTINUOUS
 62
     1
100
AcDbVertex
100
AcDb2dVertex
 10
821.194331
 20
335.759921
 30
0.0
  0
VERTEX
  5
68F
100
AcDbEntity
  8
LAY-9
  6
CONTINUOUS
 62
     1
100
AcDbVertex
100
AcDb2dVertex
 10
821.3469
 20
334.751483
 30
0.0
  0
VERTEX
  5
690
100
AcDbEntity
  8
LAY-9
  6
CONTINUOUS
 62
     1
100
AcDbVertex
100
AcDb2dVertex
 10
821.46221
 20
333.754321
 30
0.0
  0
VERTEX
  5
691
100
AcDbEntity
  8
LAY-9
  6
CONTINUOUS
 62
     1
100
AcDbVertex
100
AcDb2dVertex
 10
821.528625
 20
332.795813
 30
0.0
  0
VERTEX
  5
692
100
AcDbEntity
  8
LAY-9
  6
CONTINUOUS
 62
     1
100
AcDbVertex
100
AcDb2dVertex
 10
821.540079
 20
332.068057
 30
0.0
  0
VERTEX
  5
693
100
AcDbEntity
  8
LAY-9
  6
CONTINUOUS
 62
     1
100
AcDbVertex
100
AcDb2dVertex
 10
821.514738
 20
331.37922
 30
0.0
  0
VERTEX
  5
694
100
AcDbEntity
  8
LAY-9
  6
CONTINUOUS
 62
     1
100
AcDbVertex
100
AcDb2dVertex
 10
821.455015
 20
330.725452
 30
0.0
  0
VERTEX
  5
695
100
AcDbEntity
  8
LAY-9
  6
CONTINUOUS
 62
     1
100
AcDbVertex
100
AcDb2dVertex
 10
821.363317
 20
330.102903
 30
0.0
  0
VERTEX
  5
696
100
AcDbEntity
  8
LAY-9
  6
CONTINUOUS
 62
     1
100
AcDbVertex
100
AcDb2dVertex
 10
821.242056
 20
329.507723
 30
0.0
  0
VERTEX
  5
697
100
AcDbEntity
  8
LAY-9
  6
CONTINUOUS
 62
     1
100
AcDbVertex
100
AcDb2dVertex
 10
821.093641
 20
328.936063
 30
0.0
  0
VERTEX
  5
698
100
AcDbEntity
  8
LAY-9
  6
CONTINUOUS
 62
     1
100
AcDbVertex
100
AcDb2dVertex
 10
820.920484
 20
328.384072
 30
0.0
  0
VERTEX
  5
699
100
AcDbEntity
  8
LAY-9
  6
CONTINUOUS
 62
     1
100
AcDbVertex
100
AcDb2dVertex
 10
820.724993
 20
327.847902
 30
0.0
  0
VERTEX
  5
69A
100
AcDbEntity
  8
LAY-9
  6
CONTINUOUS
 62
     1
100
AcDbVertex
100
AcDb2dVertex
 10
820.50958
 20
327.323702
 30
0.0
  0
VERTEX
  5
69B
100
AcDbEntity
  8
LAY-9
  6
CONTINUOUS
 62
     1
100
AcDbVertex
100
AcDb2dVertex
 10
820.276654
 20
326.807622
 30
0.0
  0
VERTEX
  5
69C
100
AcDbEntity
  8
LAY-9
  6
CONTINUOUS
 62
     1
100
AcDbVertex
100
AcDb2dVertex
 10
820.028625
 20
326.295813
 30
0.0
  0
VERTEX
  5
69D
100
AcDbEntity
  8
LAY-9
  6
CONTINUOUS
 62
     1
100
AcDbVertex
100
AcDb2dVertex
 10
819.754423
 20
325.75658
 30
0.0
  0
VERTEX
  5
69E
100
AcDbEntity
  8
LAY-9
  6
CONTINUOUS
 62
     1
100
AcDbVertex
100
AcDb2dVertex
 10
819.475165
 20
325.213751
 30
0.0
  0
VERTEX
  5
69F
100
AcDbEntity
  8
LAY-9
  6
CONTINUOUS
 62
     1
100
AcDbVertex
100
AcDb2dVertex
 10
819.199907
 20
324.66326
 30
0.0
  0
VERTEX
  5
6A0
100
AcDbEntity
  8
LAY-9
  6
CONTINUOUS
 62
     1
100
AcDbVertex
100
AcDb2dVertex
 10
818.937706
 20
324.101045
 30
0.0
  0
VERTEX
  5
6A1
100
AcDbEntity
  8
LAY-9
  6
CONTINUOUS
 62
     1
100
AcDbVertex
100
AcDb2dVertex
 10
818.697618
 20
323.523039
 30
0.0
  0
VERTEX
  5
6A2
100
AcDbEntity
  8
LAY-9
  6
CONTINUOUS
 62
     1
100
AcDbVertex
100
AcDb2dVertex
 10
818.488699
 20
322.925179
 30
0.0
  0
VERTEX
  5
6A3
100
AcDbEntity
  8
LAY-9
  6
CONTINUOUS
 62
     1
100
AcDbVertex
100
AcDb2dVertex
 10
818.320006
 20
322.303401
 30
0.0
  0
VERTEX
  5
6A4
100
AcDbEntity
  8
LAY-9
  6
CONTINUOUS
 62
     1
100
AcDbVertex
100
AcDb2dVertex
 10
818.200596
 20
321.65364
 30
0.0
  0
VERTEX
  5
6A5
100
AcDbEntity
  8
LAY-9
  6
CONTINUOUS
 62
     1
100
AcDbVertex
100
AcDb2dVertex
 10
818.139525
 20
320.971831
 30
0.0
  0
VERTEX
  5
6A6
100
AcDbEntity
  8
LAY-9
  6
CONTINUOUS
 62
     1
100
AcDbVertex
100
AcDb2dVertex
 10
818.145849
 20
320.25391
 30
0.0
  0
VERTEX
  5
6A7
100
AcDbEntity
  8
LAY-9
  6
CONTINUOUS
 62
     1
100
AcDbVertex
100
AcDb2dVertex
 10
818.228625
 20
319.495813
 30
0.0
  0
VERTEX
  5
6A8
100
AcDbEntity
  8
LAY-9
  6
CONTINUOUS
 62
     1
100
AcDbVertex
100
AcDb2dVertex
 10
818.381397
 20
318.742505
 30
0.0
  0
VERTEX
  5
6A9
100
AcDbEntity
  8
LAY-9
  6
CONTINUOUS
 62
     1
100
AcDbVertex
100
AcDb2dVertex
 10
818.594726
 20
317.969042
 30
0.0
  0
VERTEX
  5
6AA
100
AcDbEntity
  8
LAY-9
  6
CONTINUOUS
 62
     1
100
AcDbVertex
100
AcDb2dVertex
 10
818.852789
 20
317.194785
 30
0.0
  0
VERTEX
  5
6AB
100
AcDbEntity
  8
LAY-9
  6
CONTINUOUS
 62
     1
100
AcDbVertex
100
AcDb2dVertex
 10
819.13976
 20
316.439099
 30
0.0
  0
VERTEX
  5
6AC
100
AcDbEntity
  8
LAY-9
  6
CONTINUOUS
 62
     1
100
AcDbVertex
100
AcDb2dVertex
 10
819.439812
 20
315.721347
 30
0.0
  0
VERTEX
  5
6AD
100
AcDbEntity
  8
LAY-9
  6
CONTINUOUS
 62
     1
100
AcDbVertex
100
AcDb2dVertex
 10
819.737121
 20
315.060893
 30
0.0
  0
VERTEX
  5
6AE
100
AcDbEntity
  8
LAY-9
  6
CONTINUOUS
 62
     1
100
AcDbVertex
100
AcDb2dVertex
 10
820.015861
 20
314.4771
 30
0.0
  0
VERTEX
  5
6AF
100
AcDbEntity
  8
LAY-9
  6
CONTINUOUS
 62
     1
100
AcDbVertex
100
AcDb2dVertex
 10
820.260207
 20
313.989332
 30
0.0
  0
VERTEX
  5
6B0
100
AcDbEntity
  8
LAY-9
  6
CONTINUOUS
 62
     1
100
AcDbVertex
100
AcDb2dVertex
 10
820.454333
 20
313.616953
 30
0.0
  0
VERTEX
  5
6B1
100
AcDbEntity
  8
LAY-9
  6
CONTINUOUS
 62
     1
100
AcDbVertex
100
AcDb2dVertex
 10
820.582415
 20
313.379325
 30
0.0
  0
VERTEX
  5
6B2
100
AcDbEntity
  8
LAY-9
  6
CONTINUOUS
 62
     1
100
AcDbVertex
100
AcDb2dVertex
 10
820.628625
 20
313.295813
 30
0.0
  0
SEQEND
  5
6B3
100
AcDbEntity
  8
LAY-9
  6
CONTINUOUS
 62
     1
  0
LINE
  5
6B4
100
AcDbEntity
  8
LAY-9
  6
CONTINUOUS
 62
     1
100
AcDbLine
 10
706.57843
 20
383.447876
 30
0.0
 11
706.57843
 21
378.947876
 31
0.0
  0
LINE
  5
6B5
100
AcDbEntity
  8
LAY-9
  6
CONTINUOUS
 62
     1
100
AcDbLine
 10
669.97843
 20
383.447845
 30
0.0
 11
707.17843
 21
383.447845
 31
0.0
  0
LINE
  5
6B6
100
AcDbEntity
  8
LAY-9
  6
CONTINUOUS
 62
     1
100
AcDbLine
 10
670.57843
 20
383.447876
 30
0.0
 11
670.57843
 21
378.947876
 31
0.0
  0
LINE
  5
6B7
100
AcDbEntity
  8
LAY-9
  6
CONTINUOUS
 62
     1
100
AcDbLine
 10
670.57843
 20
378.947876
 30
0.0
 11
706.57843
 21
378.947876
 31
0.0
  0
LINE
  5
6B8
100
AcDbEntity
  8
LAY-9
  6
CONTINUOUS
 62
     1
100
AcDbLine
 10
666.07843
 20
430.3
 30
0.0
 11
666.07843
 21
350.963104
 31
0.0
  0
LINE
  5
6B9
100
AcDbEntity
  8
LAY-9
  6
CONTINUOUS
 62
     1
100
AcDbLine
 10
667.67843
 20
430.3
 30
0.0
 11
667.67843
 21
350.963104
 31
0.0
  0
LINE
  5
6BA
100
AcDbEntity
  8
LAY-9
  6
CONTINUOUS
 62
     1
100
AcDbLine
 10
669.97843
 20
383.447845
 30
0.0
 11
669.97843
 21
352.747845
 31
0.0
  0
LINE
  5
6BB
100
AcDbEntity
  8
LAY-9
  6
CONTINUOUS
 62
     1
100
AcDbLine
 10
711.07843
 20
430.3
 30
0.0
 11
711.07843
 21
350.963104
 31
0.0
  0
LINE
  5
6BC
100
AcDbEntity
  8
LAY-9
  6
CONTINUOUS
 62
     1
100
AcDbLine
 10
709.47843
 20
430.3
 30
0.0
 11
709.47843
 21
350.963104
 31
0.0
  0
LINE
  5
6BD
100
AcDbEntity
  8
LAY-9
  6
CONTINUOUS
 62
     1
100
AcDbLine
 10
707.17843
 20
383.447845
 30
0.0
 11
707.17843
 21
352.747845
 31
0.0
  0
LINE
  5
6BE
100
AcDbEntity
  8
LAY-9
  6
CONTINUOUS
 62
     1
100
AcDbLine
 10
711.07843
 20
350.963104
 30
0.0
 11
709.47843
 21
350.963104
 31
0.0
  0
LINE
  5
6BF
100
AcDbEntity
  8
LAY-9
  6
CONTINUOUS
 62
     1
100
AcDbLine
 10
666.07843
 20
350.963104
 30
0.0
 11
667.67843
 21
350.963104
 31
0.0
  0
LINE
  5
6C0
100
AcDbEntity
  8
LAY-9
  6
CONTINUOUS
 62
     1
100
AcDbLine
 10
669.97843
 20
385.747845
 30
0.0
 11
707.17843
 21
385.747845
 31
0.0
  0
LINE
  5
6C1
100
AcDbEntity
  8
LAY-9
  6
CONTINUOUS
 62
     1
100
AcDbLine
 10
669.97843
 20
352.747845
 30
0.0
 11
667.67843
 21
352.747845
 31
0.0
  0
LINE
  5
6C2
100
AcDbEntity
  8
LAY-9
  6
CONTINUOUS
 62
     1
100
AcDbLine
 10
709.47843
 20
352.747845
 30
0.0
 11
707.17843
 21
352.747845
 31
0.0
  0
ARC
  5
6C3
100
AcDbEntity
  8
LAY-9
  6
CONTINUOUS
 62
     1
100
AcDbCircle
 10
669.97843
 20
383.447845
 30
0.0
 40
2.3
100
AcDbArc
 50
90.0
 51
180.0
  0
ARC
  5
6C4
100
AcDbEntity
  8
LAY-9
  6
CONTINUOUS
 62
     1
100
AcDbCircle
 10
707.17843
 20
383.447845
 30
0.0
 40
2.3
100
AcDbArc
 50
0.0
 51
90.0
  0
LINE
  5
6C5
100
AcDbEntity
  8
LAY-9
  6
CONTINUOUS
 62
     1
100
AcDbLine
 10
54.221313
 20
500.912329
 30
0.0
 11
306.0
 21
500.912329
 31
0.0
  0
LINE
  5
6C6
100
AcDbEntity
  8
LAY-9
  6
CONTINUOUS
 62
     1
100
AcDbLine
 10
57.221313
 20
497.912298
 30
0.0
 11
305.0
 21
497.912298
 31
0.0
  0
LINE
  5
6C7
100
AcDbEntity
  8
LAY-9
  6
CONTINUOUS
 62
     1
100
AcDbLine
 10
54.221313
 20
502.512329
 30
0.0
 11
87.221306
 21
502.512329
 31
0.0
  0
LINE
  5
6C8
100
AcDbEntity
  8
LAY-9
  6
CONTINUOUS
 62
     1
100
AcDbLine
 10
262.221313
 20
502.512329
 30
0.0
 11
307.077162
 21
502.512329
 31
0.0
  0
LINE
  5
6C9
100
AcDbEntity
  8
LAY-9
  6
CONTINUOUS
 62
     1
100
AcDbLine
 10
262.221313
 20
496.312298
 30
0.0
 11
303.970055
 21
496.312298
 31
0.0
  0
LINE
  5
6CA
100
AcDbEntity
  8
LAY-9
  6
CONTINUOUS
 62
     1
100
AcDbLine
 10
54.221313
 20
340.947876
 30
0.0
 11
552.0
 21
340.947876
 31
0.0
  0
LINE
  5
6CB
100
AcDbEntity
  8
LAY-9
  6
CONTINUOUS
 62
     1
100
AcDbLine
 10
54.221313
 20
321.947876
 30
0.0
 11
52.621313
 21
321.947876
 31
0.0
  0
POLYLINE
  5
6CC
100
AcDbEntity
  8
LAY-9
  6
CONTINUOUS
 62
     1
100
AcDb2dPolyline
 66
     1
 10
0.0
 20
0.0
 30
0.0
 70
   128
  0
VERTEX
  5
6CD
100
AcDbEntity
  8
LAY-9
  6
CONTINUOUS
 62
     1
100
AcDbVertex
100
AcDb2dVertex
 10
306.0
 20
500.912329
 30
0.0
  0
VERTEX
  5
6CE
100
AcDbEntity
  8
LAY-9
  6
CONTINUOUS
 62
     1
100
AcDbVertex
100
AcDb2dVertex
 10
306.079338
 20
501.056982
 30
0.0
  0
VERTEX
  5
6CF
100
AcDbEntity
  8
LAY-9
  6
CONTINUOUS
 62
     1
100
AcDbVertex
100
AcDb2dVertex
 10
306.296856
 20
501.466895
 30
0.0
  0
VERTEX
  5
6D0
100
AcDbEntity
  8
LAY-9
  6
CONTINUOUS
 62
     1
100
AcDbVertex
100
AcDb2dVertex
 10
306.621812
 20
502.105999
 30
0.0
  0
VERTEX
  5
6D1
100
AcDbEntity
  8
LAY-9
  6
CONTINUOUS
 62
     1
100
AcDbVertex
100
AcDb2dVertex
 10
307.023461
 20
502.938224
 30
0.0
  0
VERTEX
  5
6D2
100
AcDbEntity
  8
LAY-9
  6
CONTINUOUS
 62
     1
100
AcDbVertex
100
AcDb2dVertex
 10
307.471061
 20
503.927501
 30
0.0
  0
VERTEX
  5
6D3
100
AcDbEntity
  8
LAY-9
  6
CONTINUOUS
 62
     1
100
AcDbVertex
100
AcDb2dVertex
 10
307.933869
 20
505.03776
 30
0.0
  0
VERTEX
  5
6D4
100
AcDbEntity
  8
LAY-9
  6
CONTINUOUS
 62
     1
100
AcDbVertex
100
AcDb2dVertex
 10
308.38114
 20
506.232931
 30
0.0
  0
VERTEX
  5
6D5
100
AcDbEntity
  8
LAY-9
  6
CONTINUOUS
 62
     1
100
AcDbVertex
100
AcDb2dVertex
 10
308.782132
 20
507.476946
 30
0.0
  0
VERTEX
  5
6D6
100
AcDbEntity
  8
LAY-9
  6
CONTINUOUS
 62
     1
100
AcDbVertex
100
AcDb2dVertex
 10
309.106102
 20
508.733735
 30
0.0
  0
VERTEX
  5
6D7
100
AcDbEntity
  8
LAY-9
  6
CONTINUOUS
 62
     1
100
AcDbVertex
100
AcDb2dVertex
 10
309.322305
 20
509.967229
 30
0.0
  0
VERTEX
  5
6D8
100
AcDbEntity
  8
LAY-9
  6
CONTINUOUS
 62
     1
100
AcDbVertex
100
AcDb2dVertex
 10
309.4
 20
511.141357
 30
0.0
  0
VERTEX
  5
6D9
100
AcDbEntity
  8
LAY-9
  6
CONTINUOUS
 62
     1
100
AcDbVertex
100
AcDb2dVertex
 10
309.352077
 20
511.97013
 30
0.0
  0
VERTEX
  5
6DA
100
AcDbEntity
  8
LAY-9
  6
CONTINUOUS
 62
     1
100
AcDbVertex
100
AcDb2dVertex
 10
309.217808
 20
512.749837
 30
0.0
  0
VERTEX
  5
6DB
100
AcDbEntity
  8
LAY-9
  6
CONTINUOUS
 62
     1
100
AcDbVertex
100
AcDb2dVertex
 10
309.007354
 20
513.485822
 30
0.0
  0
VERTEX
  5
6DC
100
AcDbEntity
  8
LAY-9
  6
CONTINUOUS
 62
     1
100
AcDbVertex
100
AcDb2dVertex
 10
308.730871
 20
514.183433
 30
0.0
  0
VERTEX
  5
6DD
100
AcDbEntity
  8
LAY-9
  6
CONTINUOUS
 62
     1
100
AcDbVertex
100
AcDb2dVertex
 10
308.398519
 20
514.848017
 30
0.0
  0
VERTEX
  5
6DE
100
AcDbEntity
  8
LAY-9
  6
CONTINUOUS
 62
     1
100
AcDbVertex
100
AcDb2dVertex
 10
308.020454
 20
515.48492
 30
0.0
  0
VERTEX
  5
6DF
100
AcDbEntity
  8
LAY-9
  6
CONTINUOUS
 62
     1
100
AcDbVertex
100
AcDb2dVertex
 10
307.606837
 20
516.099489
 30
0.0
  0
VERTEX
  5
6E0
100
AcDbEntity
  8
LAY-9
  6
CONTINUOUS
 62
     1
100
AcDbVertex
100
AcDb2dVertex
 10
307.167825
 20
516.697071
 30
0.0
  0
VERTEX
  5
6E1
100
AcDbEntity
  8
LAY-9
  6
CONTINUOUS
 62
     1
100
AcDbVertex
100
AcDb2dVertex
 10
306.713575
 20
517.283011
 30
0.0
  0
VERTEX
  5
6E2
100
AcDbEntity
  8
LAY-9
  6
CONTINUOUS
 62
     1
100
AcDbVertex
100
AcDb2dVertex
 10
306.254248
 20
517.862658
 30
0.0
  0
VERTEX
  5
6E3
100
AcDbEntity
  8
LAY-9
  6
CONTINUOUS
 62
     1
100
AcDbVertex
100
AcDb2dVertex
 10
305.8
 20
518.441357
 30
0.0
  0
VERTEX
  5
6E4
100
AcDbEntity
  8
LAY-9
  6
CONTINUOUS
 62
     1
100
AcDbVertex
100
AcDb2dVertex
 10
305.343605
 20
519.046643
 30
0.0
  0
VERTEX
  5
6E5
100
AcDbEntity
  8
LAY-9
  6
CONTINUOUS
 62
     1
100
AcDbVertex
100
AcDb2dVertex
 10
304.908712
 20
519.66113
 30
0.0
  0
VERTEX
  5
6E6
100
AcDbEntity
  8
LAY-9
  6
CONTINUOUS
 62
     1
100
AcDbVertex
100
AcDb2dVertex
 10
304.500398
 20
520.289277
 30
0.0
  0
VERTEX
  5
6E7
100
AcDbEntity
  8
LAY-9
  6
CONTINUOUS
 62
     1
100
AcDbVertex
100
AcDb2dVertex
 10
304.123741
 20
520.935544
 30
0.0
  0
VERTEX
  5
6E8
100
AcDbEntity
  8
LAY-9
  6
CONTINUOUS
 62
     1
100
AcDbVertex
100
AcDb2dVertex
 10
303.783817
 20
521.604391
 30
0.0
  0
VERTEX
  5
6E9
100
AcDbEntity
  8
LAY-9
  6
CONTINUOUS
 62
     1
100
AcDbVertex
100
AcDb2dVertex
 10
303.485704
 20
522.300276
 30
0.0
  0
VERTEX
  5
6EA
100
AcDbEntity
  8
LAY-9
  6
CONTINUOUS
 62
     1
100
AcDbVertex
100
AcDb2dVertex
 10
303.234479
 20
523.027659
 30
0.0
  0
VERTEX
  5
6EB
100
AcDbEntity
  8
LAY-9
  6
CONTINUOUS
 62
     1
100
AcDbVertex
100
AcDb2dVertex
 10
303.035219
 20
523.790999
 30
0.0
  0
VERTEX
  5
6EC
100
AcDbEntity
  8
LAY-9
  6
CONTINUOUS
 62
     1
100
AcDbVertex
100
AcDb2dVertex
 10
302.893001
 20
524.594756
 30
0.0
  0
VERTEX
  5
6ED
100
AcDbEntity
  8
LAY-9
  6
CONTINUOUS
 62
     1
100
AcDbVertex
100
AcDb2dVertex
 10
302.812902
 20
525.443389
 30
0.0
  0
VERTEX
  5
6EE
100
AcDbEntity
  8
LAY-9
  6
CONTINUOUS
 62
     1
100
AcDbVertex
100
AcDb2dVertex
 10
302.8
 20
526.341357
 30
0.0
  0
VERTEX
  5
6EF
100
AcDbEntity
  8
LAY-9
  6
CONTINUOUS
 62
     1
100
AcDbVertex
100
AcDb2dVertex
 10
302.887048
 20
527.58793
 30
0.0
  0
VERTEX
  5
6F0
100
AcDbEntity
  8
LAY-9
  6
CONTINUOUS
 62
     1
100
AcDbVertex
100
AcDb2dVertex
 10
303.074455
 20
528.889614
 30
0.0
  0
VERTEX
  5
6F1
100
AcDbEntity
  8
LAY-9
  6
CONTINUOUS
 62
     1
100
AcDbVertex
100
AcDb2dVertex
 10
303.33933
 20
530.209785
 30
0.0
  0
VERTEX
  5
6F2
100
AcDbEntity
  8
LAY-9
  6
CONTINUOUS
 62
     1
100
AcDbVertex
100
AcDb2dVertex
 10
303.658779
 20
531.511813
 30
0.0
  0
VERTEX
  5
6F3
100
AcDbEntity
  8
LAY-9
  6
CONTINUOUS
 62
     1
100
AcDbVertex
100
AcDb2dVertex
 10
304.009909
 20
532.759072
 30
0.0
  0
VERTEX
  5
6F4
100
AcDbEntity
  8
LAY-9
  6
CONTINUOUS
 62
     1
100
AcDbVertex
100
AcDb2dVertex
 10
304.369828
 20
533.914935
 30
0.0
  0
VERTEX
  5
6F5
100
AcDbEntity
  8
LAY-9
  6
CONTINUOUS
 62
     1
100
AcDbVertex
100
AcDb2dVertex
 10
304.715642
 20
534.942774
 30
0.0
  0
VERTEX
  5
6F6
100
AcDbEntity
  8
LAY-9
  6
CONTINUOUS
 62
     1
100
AcDbVertex
100
AcDb2dVertex
 10
305.024459
 20
535.805964
 30
0.0
  0
VERTEX
  5
6F7
100
AcDbEntity
  8
LAY-9
  6
CONTINUOUS
 62
     1
100
AcDbVertex
100
AcDb2dVertex
 10
305.273387
 20
536.467875
 30
0.0
  0
VERTEX
  5
6F8
100
AcDbEntity
  8
LAY-9
  6
CONTINUOUS
 62
     1
100
AcDbVertex
100
AcDb2dVertex
 10
305.439531
 20
536.891882
 30
0.0
  0
VERTEX
  5
6F9
100
AcDbEntity
  8
LAY-9
  6
CONTINUOUS
 62
     1
100
AcDbVertex
100
AcDb2dVertex
 10
305.5
 20
537.041357
 30
0.0
  0
SEQEND
  5
6FA
100
AcDbEntity
  8
LAY-9
  6
CONTINUOUS
 62
     1
  0
LINE
  5
6FB
100
AcDbEntity
  8
LAY-9
  6
CONTINUOUS
 62
     1
100
AcDbLine
 10
58.821313
 20
378.947876
 30
0.0
 11
548.908031
 21
378.947876
 31
0.0
  0
LINE
  5
6FC
100
AcDbEntity
  8
LAY-9
  6
CONTINUOUS
 62
     1
100
AcDbLine
 10
58.821313
 20
383.447876
 30
0.0
 11
548.928779
 21
383.447876
 31
0.0
  0
LINE
  5
6FD
100
AcDbEntity
  8
LAY-9
  6
CONTINUOUS
 62
     1
100
AcDbLine
 10
58.821313
 20
385.747876
 30
0.0
 11
549.594214
 21
385.747876
 31
0.0
  0
LINE
  5
6FE
100
AcDbEntity
  8
LAY-9
  6
DIVIDE
 62
     1
100
AcDbLine
 10
37.4
 20
433.895813
 30
0.0
 11
102.2
 21
433.895813
 31
0.0
  0
LINE
  5
6FF
100
AcDbEntity
  8
LAY-9
  6
CONTINUOUS
 62
     1
100
AcDbLine
 10
54.221313
 20
521.641357
 30
0.0
 11
54.221313
 21
433.895813
 31
0.0
  0
LINE
  5
700
100
AcDbEntity
  8
LAY-9
  6
CONTINUOUS
 62
     1
100
AcDbLine
 10
52.621313
 20
521.641357
 30
0.0
 11
52.621313
 21
433.895813
 31
0.0
  0
LINE
  5
701
100
AcDbEntity
  8
LAY-9
  6
CONTINUOUS
 62
     1
100
AcDbLine
 10
58.821313
 20
496.312298
 30
0.0
 11
58.821313
 21
433.895813
 31
0.0
  0
LINE
  5
702
100
AcDbEntity
  8
LAY-9
  6
CONTINUOUS
 62
     1
100
AcDbLine
 10
57.221313
 20
497.912298
 30
0.0
 11
57.221313
 21
433.895813
 31
0.0
  0
LINE
  5
703
100
AcDbEntity
  8
LAY-9
  6
CONTINUOUS
 62
     1
100
AcDbLine
 10
87.221313
 20
507.312329
 30
0.0
 11
87.221313
 21
511.812329
 31
0.0
  0
LINE
  5
704
100
AcDbEntity
  8
LAY-9
  6
CONTINUOUS
 62
     1
100
AcDbLine
 10
87.221313
 20
511.812329
 30
0.0
 11
107.221313
 21
511.812329
 31
0.0
  0
LINE
  5
705
100
AcDbEntity
  8
LAY-9
  6
CONTINUOUS
 62
     1
100
AcDbLine
 10
107.221313
 20
511.812329
 30
0.0
 11
107.221313
 21
507.312329
 31
0.0
  0
LINE
  5
706
100
AcDbEntity
  8
LAY-9
  6
CONTINUOUS
 62
     1
100
AcDbLine
 10
262.221283
 20
507.312329
 30
0.0
 11
262.221283
 21
511.812329
 31
0.0
  0
LINE
  5
707
100
AcDbEntity
  8
LAY-9
  6
CONTINUOUS
 62
     1
100
AcDbLine
 10
262.221283
 20
511.812329
 30
0.0
 11
243.221313
 21
511.812329
 31
0.0
  0
LINE
  5
708
100
AcDbEntity
  8
LAY-9
  6
CONTINUOUS
 62
     1
100
AcDbLine
 10
262.221344
 20
491.512323
 30
0.0
 11
262.221344
 21
487.012323
 31
0.0
  0
LINE
  5
709
100
AcDbEntity
  8
LAY-9
  6
CONTINUOUS
 62
     1
100
AcDbLine
 10
262.221344
 20
487.012323
 30
0.0
 11
147.221344
 21
487.012323
 31
0.0
  0
LINE
  5
70A
100
AcDbEntity
  8
LAY-9
  6
CONTINUOUS
 62
     1
100
AcDbLine
 10
147.221344
 20
487.012323
 30
0.0
 11
147.221344
 21
491.512323
 31
0.0
  0
POLYLINE
  5
70B
100
AcDbEntity
  8
LAY-9
  6
CONTINUOUS
 62
     1
100
AcDb2dPolyline
 66
     1
 10
0.0
 20
0.0
 30
0.0
 70
   128
  0
VERTEX
  5
70C
100
AcDbEntity
  8
LAY-9
  6
CONTINUOUS
 62
     1
100
AcDbVertex
100
AcDb2dVertex
 10
305.0
 20
497.912298
 30
0.0
  0
VERTEX
  5
70D
100
AcDbEntity
  8
LAY-9
  6
CONTINUOUS
 62
     1
100
AcDbVertex
100
AcDb2dVertex
 10
304.949568
 20
497.824396
 30
0.0
  0
VERTEX
  5
70E
100
AcDbEntity
  8
LAY-9
  6
CONTINUOUS
 62
     1
100
AcDbVertex
100
AcDb2dVertex
 10
304.809849
 20
497.57512
 30
0.0
  0
VERTEX
  5
70F
100
AcDbEntity
  8
LAY-9
  6
CONTINUOUS
 62
     1
100
AcDbVertex
100
AcDb2dVertex
 10
304.59821
 20
497.186117
 30
0.0
  0
VERTEX
  5
710
100
AcDbEntity
  8
LAY-9
  6
CONTINUOUS
 62
     1
100
AcDbVertex
100
AcDb2dVertex
 10
304.332019
 20
496.679031
 30
0.0
  0
VERTEX
  5
711
100
AcDbEntity
  8
LAY-9
  6
CONTINUOUS
 62
     1
100
AcDbVertex
100
AcDb2dVertex
 10
304.028641
 20
496.075508
 30
0.0
  0
VERTEX
  5
712
100
AcDbEntity
  8
LAY-9
  6
CONTINUOUS
 62
     1
100
AcDbVertex
100
AcDb2dVertex
 10
303.705443
 20
495.397195
 30
0.0
  0
VERTEX
  5
713
100
AcDbEntity
  8
LAY-9
  6
CONTINUOUS
 62
     1
100
AcDbVertex
100
AcDb2dVertex
 10
303.379793
 20
494.665735
 30
0.0
  0
VERTEX
  5
714
100
AcDbEntity
  8
LAY-9
  6
CONTINUOUS
 62
     1
100
AcDbVertex
100
AcDb2dVertex
 10
303.069057
 20
493.902777
 30
0.0
  0
VERTEX
  5
715
100
AcDbEntity
  8
LAY-9
  6
CONTINUOUS
 62
     1
100
AcDbVertex
100
AcDb2dVertex
 10
302.790601
 20
493.129963
 30
0.0
  0
VERTEX
  5
716
100
AcDbEntity
  8
LAY-9
  6
CONTINUOUS
 62
     1
100
AcDbVertex
100
AcDb2dVertex
 10
302.561793
 20
492.368942
 30
0.0
  0
VERTEX
  5
717
100
AcDbEntity
  8
LAY-9
  6
CONTINUOUS
 62
     1
100
AcDbVertex
100
AcDb2dVertex
 10
302.4
 20
491.641357
 30
0.0
  0
VERTEX
  5
718
100
AcDbEntity
  8
LAY-9
  6
CONTINUOUS
 62
     1
100
AcDbVertex
100
AcDb2dVertex
 10
302.355163
 20
491.344954
 30
0.0
  0
VERTEX
  5
719
100
AcDbEntity
  8
LAY-9
  6
CONTINUOUS
 62
     1
100
AcDbVertex
100
AcDb2dVertex
 10
302.32508
 20
491.057763
 30
0.0
  0
VERTEX
  5
71A
100
AcDbEntity
  8
LAY-9
  6
CONTINUOUS
 62
     1
100
AcDbVertex
100
AcDb2dVertex
 10
302.309036
 20
490.7789
 30
0.0
  0
VERTEX
  5
71B
100
AcDbEntity
  8
LAY-9
  6
CONTINUOUS
 62
     1
100
AcDbVertex
100
AcDb2dVertex
 10
302.306312
 20
490.507476
 30
0.0
  0
VERTEX
  5
71C
100
AcDbEntity
  8
LAY-9
  6
CONTINUOUS
 62
     1
100
AcDbVertex
100
AcDb2dVertex
 10
302.316193
 20
490.242606
 30
0.0
  0
VERTEX
  5
71D
100
AcDbEntity
  8
LAY-9
  6
CONTINUOUS
 62
     1
100
AcDbVertex
100
AcDb2dVertex
 10
302.33796
 20
489.983403
 30
0.0
  0
VERTEX
  5
71E
100
AcDbEntity
  8
LAY-9
  6
CONTINUOUS
 62
     1
100
AcDbVertex
100
AcDb2dVertex
 10
302.370896
 20
489.72898
 30
0.0
  0
VERTEX
  5
71F
100
AcDbEntity
  8
LAY-9
  6
CONTINUOUS
 62
     1
100
AcDbVertex
100
AcDb2dVertex
 10
302.414286
 20
489.47845
 30
0.0
  0
VERTEX
  5
720
100
AcDbEntity
  8
LAY-9
  6
CONTINUOUS
 62
     1
100
AcDbVertex
100
AcDb2dVertex
 10
302.467411
 20
489.230928
 30
0.0
  0
VERTEX
  5
721
100
AcDbEntity
  8
LAY-9
  6
CONTINUOUS
 62
     1
100
AcDbVertex
100
AcDb2dVertex
 10
302.529555
 20
488.985525
 30
0.0
  0
VERTEX
  5
722
100
AcDbEntity
  8
LAY-9
  6
CONTINUOUS
 62
     1
100
AcDbVertex
100
AcDb2dVertex
 10
302.6
 20
488.741357
 30
0.0
  0
VERTEX
  5
723
100
AcDbEntity
  8
LAY-9
  6
CONTINUOUS
 62
     1
100
AcDbVertex
100
AcDb2dVertex
 10
302.787262
 20
488.189949
 30
0.0
  0
VERTEX
  5
724
100
AcDbEntity
  8
LAY-9
  6
CONTINUOUS
 62
     1
100
AcDbVertex
100
AcDb2dVertex
 10
303.009364
 20
487.641538
 30
0.0
  0
VERTEX
  5
725
100
AcDbEntity
  8
LAY-9
  6
CONTINUOUS
 62
     1
100
AcDbVertex
100
AcDb2dVertex
 10
303.262208
 20
487.097341
 30
0.0
  0
VERTEX
  5
726
100
AcDbEntity
  8
LAY-9
  6
CONTINUOUS
 62
     1
100
AcDbVertex
100
AcDb2dVertex
 10
303.541697
 20
486.558574
 30
0.0
  0
VERTEX
  5
727
100
AcDbEntity
  8
LAY-9
  6
CONTINUOUS
 62
     1
100
AcDbVertex
100
AcDb2dVertex
 10
303.843734
 20
486.026453
 30
0.0
  0
VERTEX
  5
728
100
AcDbEntity
  8
LAY-9
  6
CONTINUOUS
 62
     1
100
AcDbVertex
100
AcDb2dVertex
 10
304.16422
 20
485.502192
 30
0.0
  0
VERTEX
  5
729
100
AcDbEntity
  8
LAY-9
  6
CONTINUOUS
 62
     1
100
AcDbVertex
100
AcDb2dVertex
 10
304.49906
 20
484.987008
 30
0.0
  0
VERTEX
  5
72A
100
AcDbEntity
  8
LAY-9
  6
CONTINUOUS
 62
     1
100
AcDbVertex
100
AcDb2dVertex
 10
304.844155
 20
484.482117
 30
0.0
  0
VERTEX
  5
72B
100
AcDbEntity
  8
LAY-9
  6
CONTINUOUS
 62
     1
100
AcDbVertex
100
AcDb2dVertex
 10
305.195409
 20
483.988734
 30
0.0
  0
VERTEX
  5
72C
100
AcDbEntity
  8
LAY-9
  6
CONTINUOUS
 62
     1
100
AcDbVertex
100
AcDb2dVertex
 10
305.548723
 20
483.508076
 30
0.0
  0
VERTEX
  5
72D
100
AcDbEntity
  8
LAY-9
  6
CONTINUOUS
 62
     1
100
AcDbVertex
100
AcDb2dVertex
 10
305.9
 20
483.041357
 30
0.0
  0
VERTEX
  5
72E
100
AcDbEntity
  8
LAY-9
  6
CONTINUOUS
 62
     1
100
AcDbVertex
100
AcDb2dVertex
 10
306.214501
 20
482.628474
 30
0.0
  0
VERTEX
  5
72F
100
AcDbEntity
  8
LAY-9
  6
CONTINUOUS
 62
     1
100
AcDbVertex
100
AcDb2dVertex
 10
306.521285
 20
482.221101
 30
0.0
  0
VERTEX
  5
730
100
AcDbEntity
  8
LAY-9
  6
CONTINUOUS
 62
     1
100
AcDbVertex
100
AcDb2dVertex
 10
306.817716
 20
481.812201
 30
0.0
  0
VERTEX
  5
731
100
AcDbEntity
  8
LAY-9
  6
CONTINUOUS
 62
     1
100
AcDbVertex
100
AcDb2dVertex
 10
307.101157
 20
481.394734
 30
0.0
  0
VERTEX
  5
732
100
AcDbEntity
  8
LAY-9
  6
CONTINUOUS
 62
     1
100
AcDbVertex
100
AcDb2dVertex
 10
307.36897
 20
480.961662
 30
0.0
  0
VERTEX
  5
733
100
AcDbEntity
  8
LAY-9
  6
CONTINUOUS
 62
     1
100
AcDbVertex
100
AcDb2dVertex
 10
307.618519
 20
480.505946
 30
0.0
  0
VERTEX
  5
734
100
AcDbEntity
  8
LAY-9
  6
CONTINUOUS
 62
     1
100
AcDbVertex
100
AcDb2dVertex
 10
307.847167
 20
480.020547
 30
0.0
  0
VERTEX
  5
735
100
AcDbEntity
  8
LAY-9
  6
CONTINUOUS
 62
     1
100
AcDbVertex
100
AcDb2dVertex
 10
308.052276
 20
479.498428
 30
0.0
  0
VERTEX
  5
736
100
AcDbEntity
  8
LAY-9
  6
CONTINUOUS
 62
     1
100
AcDbVertex
100
AcDb2dVertex
 10
308.231209
 20
478.932549
 30
0.0
  0
VERTEX
  5
737
100
AcDbEntity
  8
LAY-9
  6
CONTINUOUS
 62
     1
100
AcDbVertex
100
AcDb2dVertex
 10
308.381329
 20
478.315872
 30
0.0
  0
VERTEX
  5
738
100
AcDbEntity
  8
LAY-9
  6
CONTINUOUS
 62
     1
100
AcDbVertex
100
AcDb2dVertex
 10
308.5
 20
477.641357
 30
0.0
  0
VERTEX
  5
739
100
AcDbEntity
  8
LAY-9
  6
CONTINUOUS
 62
     1
100
AcDbVertex
100
AcDb2dVertex
 10
308.55681
 20
477.194561
 30
0.0
  0
VERTEX
  5
73A
100
AcDbEntity
  8
LAY-9
  6
CONTINUOUS
 62
     1
100
AcDbVertex
100
AcDb2dVertex
 10
308.601916
 20
476.734687
 30
0.0
  0
VERTEX
  5
73B
100
AcDbEntity
  8
LAY-9
  6
CONTINUOUS
 62
     1
100
AcDbVertex
100
AcDb2dVertex
 10
308.636645
 20
476.273458
 30
0.0
  0
VERTEX
  5
73C
100
AcDbEntity
  8
LAY-9
  6
CONTINUOUS
 62
     1
100
AcDbVertex
100
AcDb2dVertex
 10
308.662322
 20
475.822595
 30
0.0
  0
VERTEX
  5
73D
100
AcDbEntity
  8
LAY-9
  6
CONTINUOUS
 62
     1
100
AcDbVertex
100
AcDb2dVertex
 10
308.680274
 20
475.393818
 30
0.0
  0
VERTEX
  5
73E
100
AcDbEntity
  8
LAY-9
  6
CONTINUOUS
 62
     1
100
AcDbVertex
100
AcDb2dVertex
 10
308.691826
 20
474.998848
 30
0.0
  0
VERTEX
  5
73F
100
AcDbEntity
  8
LAY-9
  6
CONTINUOUS
 62
     1
100
AcDbVertex
100
AcDb2dVertex
 10
308.698304
 20
474.649408
 30
0.0
  0
VERTEX
  5
740
100
AcDbEntity
  8
LAY-9
  6
CONTINUOUS
 62
     1
100
AcDbVertex
100
AcDb2dVertex
 10
308.701035
 20
474.357217
 30
0.0
  0
VERTEX
  5
741
100
AcDbEntity
  8
LAY-9
  6
CONTINUOUS
 62
     1
100
AcDbVertex
100
AcDb2dVertex
 10
308.701344
 20
474.133998
 30
0.0
  0
VERTEX
  5
742
100
AcDbEntity
  8
LAY-9
  6
CONTINUOUS
 62
     1
100
AcDbVertex
100
AcDb2dVertex
 10
308.700557
 20
473.991471
 30
0.0
  0
VERTEX
  5
743
100
AcDbEntity
  8
LAY-9
  6
CONTINUOUS
 62
     1
100
AcDbVertex
100
AcDb2dVertex
 10
308.7
 20
473.941357
 30
0.0
  0
SEQEND
  5
744
100
AcDbEntity
  8
LAY-9
  6
CONTINUOUS
 62
     1
  0
LINE
  5
745
100
AcDbEntity
  8
LAY-9
  6
CONTINUOUS
 62
     1
100
AcDbLine
 10
58.821313
 20
496.312298
 30
0.0
 11
87.221313
 21
496.312298
 31
0.0
  0
LINE
  5
746
100
AcDbEntity
  8
LAY-9
  6
CONTINUOUS
 62
     1
100
AcDbLine
 10
504.8
 20
177.052078
 30
0.0
 11
61.599809
 21
177.052078
 31
0.0
  0
LINE
  5
747
100
AcDbEntity
  8
LAY-9
  6
CONTINUOUS
 62
     1
100
AcDbLine
 10
504.8
 20
132.052078
 30
0.0
 11
61.599809
 21
132.052078
 31
0.0
  0
ARC
  5
748
100
AcDbEntity
  8
LAY-9
  6
CONTINUOUS
 62
     1
100
AcDbCircle
 10
117.221298
 20
154.552078
 30
0.0
 40
60.0
100
AcDbArc
 50
157.975687
 51
202.024313
  0
ARC
  5
749
100
AcDbEntity
  8
LAY-9
  6
CONTINUOUS
 62
     1
100
AcDbCircle
 10
117.221298
 20
154.552078
 30
0.0
 40
58.4
100
AcDbArc
 50
159.030145
 51
200.969855
  0
LINE
  5
74A
100
AcDbEntity
  8
LAY-9
  6
CONTINUOUS
 62
     1
100
AcDbLine
 10
62.689197
 20
133.652078
 30
0.0
 11
504.174682
 21
133.652078
 31
0.0
  0
LINE
  5
74B
100
AcDbEntity
  8
LAY-9
  6
CONTINUOUS
 62
     1
100
AcDbLine
 10
505.48135
 20
175.452078
 30
0.0
 11
62.689197
 21
175.452078
 31
0.0
  0
LINE
  5
74C
100
AcDbEntity
  8
LAY-9
  6
DIVIDE
 62
     1
100
AcDbLine
 10
37.4
 20
428.895813
 30
0.0
 11
102.2
 21
428.895813
 31
0.0
  0
LINE
  5
74D
100
AcDbEntity
  8
LAY-9
  6
CONTINUOUS
 62
     1
100
AcDbLine
 10
711.07843
 20
435.3
 30
0.0
 11
711.07843
 21
507.512347
 31
0.0
  0
LINE
  5
74E
100
AcDbEntity
  8
LAY-9
  6
CONTINUOUS
 62
     1
100
AcDbLine
 10
709.47843
 20
435.3
 30
0.0
 11
709.47843
 21
507.512347
 31
0.0
  0
LINE
  5
74F
100
AcDbEntity
  8
LAY-9
  6
CONTINUOUS
 62
     1
100
AcDbLine
 10
707.17843
 20
487.512347
 30
0.0
 11
707.17843
 21
505.212347
 31
0.0
  0
LINE
  5
750
100
AcDbEntity
  8
LAY-9
  6
CONTINUOUS
 62
     1
100
AcDbLine
 10
667.67843
 20
509.112347
 30
0.0
 11
709.47843
 21
509.112347
 31
0.0
  0
ARC
  5
751
100
AcDbEntity
  8
LAY-9
  6
CONTINUOUS
 62
     1
100
AcDbCircle
 10
709.47843
 20
507.512347
 30
0.0
 40
1.6
100
AcDbArc
 50
0.0
 51
90.0
  0
ARC
  5
752
100
AcDbEntity
  8
LAY-9
  6
CONTINUOUS
 62
     1
100
AcDbCircle
 10
707.17843
 20
505.212347
 30
0.0
 40
2.3
100
AcDbArc
 50
0.0
 51
90.0
  0
LINE
  5
753
100
AcDbEntity
  8
LAY-9
  6
CONTINUOUS
 62
     1
100
AcDbLine
 10
705.57843
 20
507.512347
 30
0.0
 11
709.47843
 21
507.512347
 31
0.0
  0
LINE
  5
754
100
AcDbEntity
  8
LAY-9
  6
CONTINUOUS
 62
     1
100
AcDbLine
 10
705.57843
 20
505.212347
 30
0.0
 11
707.17843
 21
505.212347
 31
0.0
  0
LINE
  5
755
100
AcDbEntity
  8
LAY-9
  6
CONTINUOUS
 62
     1
100
AcDbLine
 10
666.07843
 20
435.3
 30
0.0
 11
666.07843
 21
507.512347
 31
0.0
  0
LINE
  5
756
100
AcDbEntity
  8
LAY-9
  6
CONTINUOUS
 62
     1
100
AcDbLine
 10
667.67843
 20
435.3
 30
0.0
 11
667.67843
 21
507.512347
 31
0.0
  0
LINE
  5
757
100
AcDbEntity
  8
LAY-9
  6
CONTINUOUS
 62
     1
100
AcDbLine
 10
669.97843
 20
487.512347
 30
0.0
 11
669.97843
 21
505.212347
 31
0.0
  0
ARC
  5
758
100
AcDbEntity
  8
LAY-9
  6
CONTINUOUS
 62
     1
100
AcDbCircle
 10
667.67843
 20
507.512347
 30
0.0
 40
1.6
100
AcDbArc
 50
90.0
 51
180.0
  0
ARC
  5
759
100
AcDbEntity
  8
LAY-9
  6
CONTINUOUS
 62
     1
100
AcDbCircle
 10
669.97843
 20
505.212347
 30
0.0
 40
2.3
100
AcDbArc
 50
90.0
 51
180.0
  0
LINE
  5
75A
100
AcDbEntity
  8
LAY-9
  6
CONTINUOUS
 62
     1
100
AcDbLine
 10
667.67843
 20
507.512347
 30
0.0
 11
671.57843
 21
507.512347
 31
0.0
  0
LINE
  5
75B
100
AcDbEntity
  8
LAY-9
  6
CONTINUOUS
 62
     1
100
AcDbLine
 10
669.97843
 20
505.212347
 30
0.0
 11
671.57843
 21
505.212347
 31
0.0
  0
LINE
  5
75C
100
AcDbEntity
  8
LAY-9
  6
CONTINUOUS
 62
     1
100
AcDbLine
 10
638.57843
 20
513.712335
 30
0.0
 11
638.57843
 21
559.514648
 31
0.0
  0
LINE
  5
75D
100
AcDbEntity
  8
LAY-9
  6
CONTINUOUS
 62
     1
100
AcDbLine
 10
640.22843
 20
513.712335
 30
0.0
 11
640.22843
 21
559.514648
 31
0.0
  0
LINE
  5
75E
100
AcDbEntity
  8
LAY-9
  6
CONTINUOUS
 62
     1
100
AcDbLine
 10
736.97843
 20
512.112335
 30
0.0
 11
640.17843
 21
512.112335
 31
0.0
  0
ARC
  5
75F
100
AcDbEntity
  8
LAY-9
  6
CONTINUOUS
 62
     1
100
AcDbCircle
 10
640.17843
 20
513.712335
 30
0.0
 40
1.6
100
AcDbArc
 50
180.0
 51
270.0
  0
LINE
  5
760
100
AcDbEntity
  8
LAY-9
  6
CONTINUOUS
 62
     1
100
AcDbLine
 10
671.57843
 20
513.712335
 30
0.0
 11
640.22843
 21
513.712335
 31
0.0
  0
LINE
  5
761
100
AcDbEntity
  8
LAY-9
  6
CONTINUOUS
 62
     1
100
AcDbLine
 10
738.57843
 20
513.712335
 30
0.0
 11
738.57843
 21
559.514648
 31
0.0
  0
LINE
  5
762
100
AcDbEntity
  8
LAY-9
  6
CONTINUOUS
 62
     1
100
AcDbLine
 10
736.97843
 20
513.712335
 30
0.0
 11
736.97843
 21
559.514648
 31
0.0
  0
ARC
  5
763
100
AcDbEntity
  8
LAY-9
  6
CONTINUOUS
 62
     1
100
AcDbCircle
 10
736.97843
 20
513.712335
 30
0.0
 40
1.6
100
AcDbArc
 50
270.0
 51
0.0
  0
LINE
  5
764
100
AcDbEntity
  8
LAY-9
  6
CONTINUOUS
 62
     1
100
AcDbLine
 10
736.97843
 20
513.712335
 30
0.0
 11
705.57843
 21
513.712335
 31
0.0
  0
LINE
  5
765
100
AcDbEntity
  8
LAY-9
  6
CONTINUOUS
 62
     1
100
AcDbLine
 10
87.221313
 20
491.512323
 30
0.0
 11
87.221313
 21
487.012323
 31
0.0
  0
LINE
  5
766
100
AcDbEntity
  8
LAY-9
  6
CONTINUOUS
 62
     1
100
AcDbLine
 10
87.221313
 20
487.012323
 30
0.0
 11
107.221313
 21
487.012323
 31
0.0
  0
LINE
  5
767
100
AcDbEntity
  8
LAY-9
  6
CONTINUOUS
 62
     1
100
AcDbLine
 10
107.221313
 20
487.012323
 30
0.0
 11
107.221313
 21
491.512323
 31
0.0
  0
POLYLINE
  5
768
100
AcDbEntity
  8
LAY-9
  6
CONTINUOUS
 62
     1
100
AcDb2dPolyline
 66
     1
 10
0.0
 20
0.0
 30
0.0
 70
   128
  0
VERTEX
  5
769
100
AcDbEntity
  8
LAY-9
  6
CONTINUOUS
 62
     1
100
AcDbVertex
100
AcDb2dVertex
 10
552.0
 20
340.947876
 30
0.0
  0
VERTEX
  5
76A
100
AcDbEntity
  8
LAY-9
  6
CONTINUOUS
 62
     1
100
AcDbVertex
100
AcDb2dVertex
 10
552.031788
 20
340.834872
 30
0.0
  0
VERTEX
  5
76B
100
AcDbEntity
  8
LAY-9
  6
CONTINUOUS
 62
     1
100
AcDbVertex
100
AcDb2dVertex
 10
552.119396
 20
340.514114
 30
0.0
  0
VERTEX
  5
76C
100
AcDbEntity
  8
LAY-9
  6
CONTINUOUS
 62
     1
100
AcDbVertex
100
AcDb2dVertex
 10
552.251189
 20
340.012979
 30
0.0
  0
VERTEX
  5
76D
100
AcDbEntity
  8
LAY-9
  6
CONTINUOUS
 62
     1
100
AcDbVertex
100
AcDb2dVertex
 10
552.415532
 20
339.358847
 30
0.0
  0
VERTEX
  5
76E
100
AcDbEntity
  8
LAY-9
  6
CONTINUOUS
 62
     1
100
AcDbVertex
100
AcDb2dVertex
 10
552.600791
 20
338.579097
 30
0.0
  0
VERTEX
  5
76F
100
AcDbEntity
  8
LAY-9
  6
CONTINUOUS
 62
     1
100
AcDbVertex
100
AcDb2dVertex
 10
552.795329
 20
337.701106
 30
0.0
  0
VERTEX
  5
770
100
AcDbEntity
  8
LAY-9
  6
CONTINUOUS
 62
     1
100
AcDbVertex
100
AcDb2dVertex
 10
552.987512
 20
336.752255
 30
0.0
  0
VERTEX
  5
771
100
AcDbEntity
  8
LAY-9
  6
CONTINUOUS
 62
     1
100
AcDbVertex
100
AcDb2dVertex
 10
553.165706
 20
335.759921
 30
0.0
  0
VERTEX
  5
772
100
AcDbEntity
  8
LAY-9
  6
CONTINUOUS
 62
     1
100
AcDbVertex
100
AcDb2dVertex
 10
553.318275
 20
334.751483
 30
0.0
  0
VERTEX
  5
773
100
AcDbEntity
  8
LAY-9
  6
CONTINUOUS
 62
     1
100
AcDbVertex
100
AcDb2dVertex
 10
553.433585
 20
333.754321
 30
0.0
  0
VERTEX
  5
774
100
AcDbEntity
  8
LAY-9
  6
CONTINUOUS
 62
     1
100
AcDbVertex
100
AcDb2dVertex
 10
553.5
 20
332.795813
 30
0.0
  0
VERTEX
  5
775
100
AcDbEntity
  8
LAY-9
  6
CONTINUOUS
 62
     1
100
AcDbVertex
100
AcDb2dVertex
 10
553.511454
 20
332.068057
 30
0.0
  0
VERTEX
  5
776
100
AcDbEntity
  8
LAY-9
  6
CONTINUOUS
 62
     1
100
AcDbVertex
100
AcDb2dVertex
 10
553.486113
 20
331.37922
 30
0.0
  0
VERTEX
  5
777
100
AcDbEntity
  8
LAY-9
  6
CONTINUOUS
 62
     1
100
AcDbVertex
100
AcDb2dVertex
 10
553.42639
 20
330.725452
 30
0.0
  0
VERTEX
  5
778
100
AcDbEntity
  8
LAY-9
  6
CONTINUOUS
 62
     1
100
AcDbVertex
100
AcDb2dVertex
 10
553.334692
 20
330.102903
 30
0.0
  0
VERTEX
  5
779
100
AcDbEntity
  8
LAY-9
  6
CONTINUOUS
 62
     1
100
AcDbVertex
100
AcDb2dVertex
 10
553.213431
 20
329.507723
 30
0.0
  0
VERTEX
  5
77A
100
AcDbEntity
  8
LAY-9
  6
CONTINUOUS
 62
     1
100
AcDbVertex
100
AcDb2dVertex
 10
553.065016
 20
328.936063
 30
0.0
  0
VERTEX
  5
77B
100
AcDbEntity
  8
LAY-9
  6
CONTINUOUS
 62
     1
100
AcDbVertex
100
AcDb2dVertex
 10
552.891859
 20
328.384072
 30
0.0
  0
VERTEX
  5
77C
100
AcDbEntity
  8
LAY-9
  6
CONTINUOUS
 62
     1
100
AcDbVertex
100
AcDb2dVertex
 10
552.696368
 20
327.847902
 30
0.0
  0
VERTEX
  5
77D
100
AcDbEntity
  8
LAY-9
  6
CONTINUOUS
 62
     1
100
AcDbVertex
100
AcDb2dVertex
 10
552.480955
 20
327.323702
 30
0.0
  0
VERTEX
  5
77E
100
AcDbEntity
  8
LAY-9
  6
CONTINUOUS
 62
     1
100
AcDbVertex
100
AcDb2dVertex
 10
552.248029
 20
326.807622
 30
0.0
  0
VERTEX
  5
77F
100
AcDbEntity
  8
LAY-9
  6
CONTINUOUS
 62
     1
100
AcDbVertex
100
AcDb2dVertex
 10
552.0
 20
326.295813
 30
0.0
  0
VERTEX
  5
780
100
AcDbEntity
  8
LAY-9
  6
CONTINUOUS
 62
     1
100
AcDbVertex
100
AcDb2dVertex
 10
551.725798
 20
325.75658
 30
0.0
  0
VERTEX
  5
781
100
AcDbEntity
  8
LAY-9
  6
CONTINUOUS
 62
     1
100
AcDbVertex
100
AcDb2dVertex
 10
551.44654
 20
325.213751
 30
0.0
  0
VERTEX
  5
782
100
AcDbEntity
  8
LAY-9
  6
CONTINUOUS
 62
     1
100
AcDbVertex
100
AcDb2dVertex
 10
551.171282
 20
324.66326
 30
0.0
  0
VERTEX
  5
783
100
AcDbEntity
  8
LAY-9
  6
CONTINUOUS
 62
     1
100
AcDbVertex
100
AcDb2dVertex
 10
550.909081
 20
324.101045
 30
0.0
  0
VERTEX
  5
784
100
AcDbEntity
  8
LAY-9
  6
CONTINUOUS
 62
     1
100
AcDbVertex
100
AcDb2dVertex
 10
550.668993
 20
323.523039
 30
0.0
  0
VERTEX
  5
785
100
AcDbEntity
  8
LAY-9
  6
CONTINUOUS
 62
     1
100
AcDbVertex
100
AcDb2dVertex
 10
550.460074
 20
322.925179
 30
0.0
  0
VERTEX
  5
786
100
AcDbEntity
  8
LAY-9
  6
CONTINUOUS
 62
     1
100
AcDbVertex
100
AcDb2dVertex
 10
550.291381
 20
322.303401
 30
0.0
  0
VERTEX
  5
787
100
AcDbEntity
  8
LAY-9
  6
CONTINUOUS
 62
     1
100
AcDbVertex
100
AcDb2dVertex
 10
550.171971
 20
321.65364
 30
0.0
  0
VERTEX
  5
788
100
AcDbEntity
  8
LAY-9
  6
CONTINUOUS
 62
     1
100
AcDbVertex
100
AcDb2dVertex
 10
550.1109
 20
320.971831
 30
0.0
  0
VERTEX
  5
789
100
AcDbEntity
  8
LAY-9
  6
CONTINUOUS
 62
     1
100
AcDbVertex
100
AcDb2dVertex
 10
550.117224
 20
320.25391
 30
0.0
  0
VERTEX
  5
78A
100
AcDbEntity
  8
LAY-9
  6
CONTINUOUS
 62
     1
100
AcDbVertex
100
AcDb2dVertex
 10
550.2
 20
319.495813
 30
0.0
  0
VERTEX
  5
78B
100
AcDbEntity
  8
LAY-9
  6
CONTINUOUS
 62
     1
100
AcDbVertex
100
AcDb2dVertex
 10
550.352772
 20
318.742505
 30
0.0
  0
VERTEX
  5
78C
100
AcDbEntity
  8
LAY-9
  6
CONTINUOUS
 62
     1
100
AcDbVertex
100
AcDb2dVertex
 10
550.566101
 20
317.969042
 30
0.0
  0
VERTEX
  5
78D
100
AcDbEntity
  8
LAY-9
  6
CONTINUOUS
 62
     1
100
AcDbVertex
100
AcDb2dVertex
 10
550.824164
 20
317.194785
 30
0.0
  0
VERTEX
  5
78E
100
AcDbEntity
  8
LAY-9
  6
CONTINUOUS
 62
     1
100
AcDbVertex
100
AcDb2dVertex
 10
551.111135
 20
316.439099
 30
0.0
  0
VERTEX
  5
78F
100
AcDbEntity
  8
LAY-9
  6
CONTINUOUS
 62
     1
100
AcDbVertex
100
AcDb2dVertex
 10
551.411187
 20
315.721347
 30
0.0
  0
VERTEX
  5
790
100
AcDbEntity
  8
LAY-9
  6
CONTINUOUS
 62
     1
100
AcDbVertex
100
AcDb2dVertex
 10
551.708496
 20
315.060893
 30
0.0
  0
VERTEX
  5
791
100
AcDbEntity
  8
LAY-9
  6
CONTINUOUS
 62
     1
100
AcDbVertex
100
AcDb2dVertex
 10
551.987236
 20
314.4771
 30
0.0
  0
VERTEX
  5
792
100
AcDbEntity
  8
LAY-9
  6
CONTINUOUS
 62
     1
100
AcDbVertex
100
AcDb2dVertex
 10
552.231582
 20
313.989332
 30
0.0
  0
VERTEX
  5
793
100
AcDbEntity
  8
LAY-9
  6
CONTINUOUS
 62
     1
100
AcDbVertex
100
AcDb2dVertex
 10
552.425708
 20
313.616953
 30
0.0
  0
VERTEX
  5
794
100
AcDbEntity
  8
LAY-9
  6
CONTINUOUS
 62
     1
100
AcDbVertex
100
AcDb2dVertex
 10
552.55379
 20
313.379325
 30
0.0
  0
VERTEX
  5
795
100
AcDbEntity
  8
LAY-9
  6
CONTINUOUS
 62
     1
100
AcDbVertex
100
AcDb2dVertex
 10
552.6
 20
313.295813
 30
0.0
  0
SEQEND
  5
796
100
AcDbEntity
  8
LAY-9
  6
CONTINUOUS
 62
     1
  0
LINE
  5
797
100
AcDbEntity
  8
LAY-9
  6
CONTINUOUS
 62
     1
100
AcDbLine
 10
57.221313
 20
350.947876
 30
0.0
 11
112.933823
 21
350.947876
 31
0.0
  0
LINE
  5
798
100
AcDbEntity
  8
LAY-9
  6
CONTINUOUS
 62
     1
100
AcDbLine
 10
141.508835
 20
350.947876
 30
0.0
 11
548.0
 21
350.947876
 31
0.0
  0
POLYLINE
  5
799
100
AcDbEntity
  8
LAY-9
  6
CONTINUOUS
 62
     1
100
AcDb2dPolyline
 66
     1
 10
0.0
 20
0.0
 30
0.0
 70
   128
  0
VERTEX
  5
79A
100
AcDbEntity
  8
LAY-9
  6
CONTINUOUS
 62
     1
100
AcDbVertex
100
AcDb2dVertex
 10
504.8
 20
177.052078
 30
0.0
  0
VERTEX
  5
79B
100
AcDbEntity
  8
LAY-9
  6
CONTINUOUS
 62
     1
100
AcDbVertex
100
AcDb2dVertex
 10
504.851632
 20
176.905405
 30
0.0
  0
VERTEX
  5
79C
100
AcDbEntity
  8
LAY-9
  6
CONTINUOUS
 62
     1
100
AcDbVertex
100
AcDb2dVertex
 10
504.994801
 20
176.48818
 30
0.0
  0
VERTEX
  5
79D
100
AcDbEntity
  8
LAY-9
  6
CONTINUOUS
 62
     1
100
AcDbVertex
100
AcDb2dVertex
 10
505.211916
 20
175.834595
 30
0.0
  0
VERTEX
  5
79E
100
AcDbEntity
  8
LAY-9
  6
CONTINUOUS
 62
     1
100
AcDbVertex
100
AcDb2dVertex
 10
505.485386
 20
174.978843
 30
0.0
  0
VERTEX
  5
79F
100
AcDbEntity
  8
LAY-9
  6
CONTINUOUS
 62
     1
100
AcDbVertex
100
AcDb2dVertex
 10
505.797621
 20
173.955115
 30
0.0
  0
VERTEX
  5
7A0
100
AcDbEntity
  8
LAY-9
  6
CONTINUOUS
 62
     1
100
AcDbVertex
100
AcDb2dVertex
 10
506.131029
 20
172.797603
 30
0.0
  0
VERTEX
  5
7A1
100
AcDbEntity
  8
LAY-9
  6
CONTINUOUS
 62
     1
100
AcDbVertex
100
AcDb2dVertex
 10
506.468021
 20
171.540498
 30
0.0
  0
VERTEX
  5
7A2
100
AcDbEntity
  8
LAY-9
  6
CONTINUOUS
 62
     1
100
AcDbVertex
100
AcDb2dVertex
 10
506.791004
 20
170.217994
 30
0.0
  0
VERTEX
  5
7A3
100
AcDbEntity
  8
LAY-9
  6
CONTINUOUS
 62
     1
100
AcDbVertex
100
AcDb2dVertex
 10
507.082389
 20
168.864282
 30
0.0
  0
VERTEX
  5
7A4
100
AcDbEntity
  8
LAY-9
  6
CONTINUOUS
 62
     1
100
AcDbVertex
100
AcDb2dVertex
 10
507.324585
 20
167.513553
 30
0.0
  0
VERTEX
  5
7A5
100
AcDbEntity
  8
LAY-9
  6
CONTINUOUS
 62
     1
100
AcDbVertex
100
AcDb2dVertex
 10
507.5
 20
166.2
 30
0.0
  0
VERTEX
  5
7A6
100
AcDbEntity
  8
LAY-9
  6
CONTINUOUS
 62
     1
100
AcDbVertex
100
AcDb2dVertex
 10
507.600541
 20
164.819553
 30
0.0
  0
VERTEX
  5
7A7
100
AcDbEntity
  8
LAY-9
  6
CONTINUOUS
 62
     1
100
AcDbVertex
100
AcDb2dVertex
 10
507.606011
 20
163.518913
 30
0.0
  0
VERTEX
  5
7A8
100
AcDbEntity
  8
LAY-9
  6
CONTINUOUS
 62
     1
100
AcDbVertex
100
AcDb2dVertex
 10
507.525034
 20
162.290174
 30
0.0
  0
VERTEX
  5
7A9
100
AcDbEntity
  8
LAY-9
  6
CONTINUOUS
 62
     1
100
AcDbVertex
100
AcDb2dVertex
 10
507.366234
 20
161.125431
 30
0.0
  0
VERTEX
  5
7AA
100
AcDbEntity
  8
LAY-9
  6
CONTINUOUS
 62
     1
100
AcDbVertex
100
AcDb2dVertex
 10
507.138235
 20
160.016778
 30
0.0
  0
VERTEX
  5
7AB
100
AcDbEntity
  8
LAY-9
  6
CONTINUOUS
 62
     1
100
AcDbVertex
100
AcDb2dVertex
 10
506.849661
 20
158.956307
 30
0.0
  0
VERTEX
  5
7AC
100
AcDbEntity
  8
LAY-9
  6
CONTINUOUS
 62
     1
100
AcDbVertex
100
AcDb2dVertex
 10
506.509136
 20
157.936115
 30
0.0
  0
VERTEX
  5
7AD
100
AcDbEntity
  8
LAY-9
  6
CONTINUOUS
 62
     1
100
AcDbVertex
100
AcDb2dVertex
 10
506.125283
 20
156.948294
 30
0.0
  0
VERTEX
  5
7AE
100
AcDbEntity
  8
LAY-9
  6
CONTINUOUS
 62
     1
100
AcDbVertex
100
AcDb2dVertex
 10
505.706727
 20
155.984938
 30
0.0
  0
VERTEX
  5
7AF
100
AcDbEntity
  8
LAY-9
  6
CONTINUOUS
 62
     1
100
AcDbVertex
100
AcDb2dVertex
 10
505.262091
 20
155.038142
 30
0.0
  0
VERTEX
  5
7B0
100
AcDbEntity
  8
LAY-9
  6
CONTINUOUS
 62
     1
100
AcDbVertex
100
AcDb2dVertex
 10
504.8
 20
154.1
 30
0.0
  0
VERTEX
  5
7B1
100
AcDbEntity
  8
LAY-9
  6
CONTINUOUS
 62
     1
100
AcDbVertex
100
AcDb2dVertex
 10
504.375959
 20
153.254468
 30
0.0
  0
VERTEX
  5
7B2
100
AcDbEntity
  8
LAY-9
  6
CONTINUOUS
 62
     1
100
AcDbVertex
100
AcDb2dVertex
 10
503.95455
 20
152.402577
 30
0.0
  0
VERTEX
  5
7B3
100
AcDbEntity
  8
LAY-9
  6
CONTINUOUS
 62
     1
100
AcDbVertex
100
AcDb2dVertex
 10
503.545588
 20
151.537363
 30
0.0
  0
VERTEX
  5
7B4
100
AcDbEntity
  8
LAY-9
  6
CONTINUOUS
 62
     1
100
AcDbVertex
100
AcDb2dVertex
 10
503.158891
 20
150.651857
 30
0.0
  0
VERTEX
  5
7B5
100
AcDbEntity
  8
LAY-9
  6
CONTINUOUS
 62
     1
100
AcDbVertex
100
AcDb2dVertex
 10
502.804274
 20
149.739095
 30
0.0
  0
VERTEX
  5
7B6
100
AcDbEntity
  8
LAY-9
  6
CONTINUOUS
 62
     1
100
AcDbVertex
100
AcDb2dVertex
 10
502.491555
 20
148.792108
 30
0.0
  0
VERTEX
  5
7B7
100
AcDbEntity
  8
LAY-9
  6
CONTINUOUS
 62
     1
100
AcDbVertex
100
AcDb2dVertex
 10
502.23055
 20
147.803932
 30
0.0
  0
VERTEX
  5
7B8
100
AcDbEntity
  8
LAY-9
  6
CONTINUOUS
 62
     1
100
AcDbVertex
100
AcDb2dVertex
 10
502.031075
 20
146.7676
 30
0.0
  0
VERTEX
  5
7B9
100
AcDbEntity
  8
LAY-9
  6
CONTINUOUS
 62
     1
100
AcDbVertex
100
AcDb2dVertex
 10
501.902948
 20
145.676144
 30
0.0
  0
VERTEX
  5
7BA
100
AcDbEntity
  8
LAY-9
  6
CONTINUOUS
 62
     1
100
AcDbVertex
100
AcDb2dVertex
 10
501.855984
 20
144.5226
 30
0.0
  0
VERTEX
  5
7BB
100
AcDbEntity
  8
LAY-9
  6
CONTINUOUS
 62
     1
100
AcDbVertex
100
AcDb2dVertex
 10
501.9
 20
143.3
 30
0.0
  0
VERTEX
  5
7BC
100
AcDbEntity
  8
LAY-9
  6
CONTINUOUS
 62
     1
100
AcDbVertex
100
AcDb2dVertex
 10
502.04719
 20
141.95684
 30
0.0
  0
VERTEX
  5
7BD
100
AcDbEntity
  8
LAY-9
  6
CONTINUOUS
 62
     1
100
AcDbVertex
100
AcDb2dVertex
 10
502.28177
 20
140.568191
 30
0.0
  0
VERTEX
  5
7BE
100
AcDbEntity
  8
LAY-9
  6
CONTINUOUS
 62
     1
100
AcDbVertex
100
AcDb2dVertex
 10
502.582373
 20
139.170592
 30
0.0
  0
VERTEX
  5
7BF
100
AcDbEntity
  8
LAY-9
  6
CONTINUOUS
 62
     1
100
AcDbVertex
100
AcDb2dVertex
 10
502.927633
 20
137.80058
 30
0.0
  0
VERTEX
  5
7C0
100
AcDbEntity
  8
LAY-9
  6
CONTINUOUS
 62
     1
100
AcDbVertex
100
AcDb2dVertex
 10
503.296181
 20
136.494692
 30
0.0
  0
VERTEX
  5
7C1
100
AcDbEntity
  8
LAY-9
  6
CONTINUOUS
 62
     1
100
AcDbVertex
100
AcDb2dVertex
 10
503.666653
 20
135.289467
 30
0.0
  0
VERTEX
  5
7C2
100
AcDbEntity
  8
LAY-9
  6
CONTINUOUS
 62
     1
100
AcDbVertex
100
AcDb2dVertex
 10
504.017679
 20
134.22144
 30
0.0
  0
VERTEX
  5
7C3
100
AcDbEntity
  8
LAY-9
  6
CONTINUOUS
 62
     1
100
AcDbVertex
100
AcDb2dVertex
 10
504.327894
 20
133.32715
 30
0.0
  0
VERTEX
  5
7C4
100
AcDbEntity
  8
LAY-9
  6
CONTINUOUS
 62
     1
100
AcDbVertex
100
AcDb2dVertex
 10
504.575931
 20
132.643135
 30
0.0
  0
VERTEX
  5
7C5
100
AcDbEntity
  8
LAY-9
  6
CONTINUOUS
 62
     1
100
AcDbVertex
100
AcDb2dVertex
 10
504.740421
 20
132.205932
 30
0.0
  0
VERTEX
  5
7C6
100
AcDbEntity
  8
LAY-9
  6
CONTINUOUS
 62
     1
100
AcDbVertex
100
AcDb2dVertex
 10
504.8
 20
132.052078
 30
0.0
  0
SEQEND
  5
7C7
100
AcDbEntity
  8
LAY-9
  6
CONTINUOUS
 62
     1
  0
LINE
  5
7C8
100
AcDbEntity
  8
LAY-9
  6
DIVIDE
 62
     1
100
AcDbLine
 10
657.9
 20
435.3
 30
0.0
 11
718.8
 21
435.3
 31
0.0
  0
LINE
  5
7C9
100
AcDbEntity
  8
LAY-9
  6
DIVIDE
 62
     1
100
AcDbLine
 10
657.9
 20
430.3
 30
0.0
 11
718.8
 21
430.3
 31
0.0
  0
LINE
  5
7CA
100
AcDbEntity
  8
LAY-9
  6
CONTINUOUS
 62
     1
100
AcDbLine
 10
669.97843
 20
487.512347
 30
0.0
 11
667.67843
 21
487.512347
 31
0.0
  0
LINE
  5
7CB
100
AcDbEntity
  8
LAY-9
  6
CONTINUOUS
 62
     1
100
AcDbLine
 10
707.17843
 20
487.512347
 30
0.0
 11
709.47843
 21
487.512347
 31
0.0
  0
LINE
  5
7CC
100
AcDbEntity
  8
LAY-9
  6
CONTINUOUS
 62
     1
100
AcDbLine
 10
54.221313
 20
428.895813
 30
0.0
 11
54.221313
 21
321.947876
 31
0.0
  0
LINE
  5
7CD
100
AcDbEntity
  8
LAY-9
  6
CONTINUOUS
 62
     1
100
AcDbLine
 10
52.621313
 20
428.895813
 30
0.0
 11
52.621313
 21
321.947876
 31
0.0
  0
LINE
  5
7CE
100
AcDbEntity
  8
LAY-9
  6
CONTINUOUS
 62
     1
100
AcDbLine
 10
57.221313
 20
428.895813
 30
0.0
 11
57.221313
 21
350.947876
 31
0.0
  0
LINE
  5
7CF
100
AcDbEntity
  8
LAY-9
  6
CONTINUOUS
 62
     1
100
AcDbLine
 10
58.821313
 20
428.895813
 30
0.0
 11
58.821313
 21
350.947876
 31
0.0
  0
POLYLINE
  5
7D0
100
AcDbEntity
  8
LAY-9
  6
CONTINUOUS
 62
     1
100
AcDb2dPolyline
 66
     1
 10
0.0
 20
0.0
 30
0.0
 70
   128
  0
VERTEX
  5
7D1
100
AcDbEntity
  8
LAY-9
  6
CONTINUOUS
 62
     1
100
AcDbVertex
100
AcDb2dVertex
 10
548.0
 20
350.947876
 30
0.0
  0
VERTEX
  5
7D2
100
AcDbEntity
  8
LAY-9
  6
CONTINUOUS
 62
     1
100
AcDbVertex
100
AcDb2dVertex
 10
548.166025
 20
351.144667
 30
0.0
  0
VERTEX
  5
7D3
100
AcDbEntity
  8
LAY-9
  6
CONTINUOUS
 62
     1
100
AcDbVertex
100
AcDb2dVertex
 10
548.622483
 20
351.701785
 30
0.0
  0
VERTEX
  5
7D4
100
AcDbEntity
  8
LAY-9
  6
CONTINUOUS
 62
     1
100
AcDbVertex
100
AcDb2dVertex
 10
549.306949
 20
352.569347
 30
0.0
  0
VERTEX
  5
7D5
100
AcDbEntity
  8
LAY-9
  6
CONTINUOUS
 62
     1
100
AcDbVertex
100
AcDb2dVertex
 10
550.156998
 20
353.697473
 30
0.0
  0
VERTEX
  5
7D6
100
AcDbEntity
  8
LAY-9
  6
CONTINUOUS
 62
     1
100
AcDbVertex
100
AcDb2dVertex
 10
551.110207
 20
355.036278
 30
0.0
  0
VERTEX
  5
7D7
100
AcDbEntity
  8
LAY-9
  6
CONTINUOUS
 62
     1
100
AcDbVertex
100
AcDb2dVertex
 10
552.104149
 20
356.535882
 30
0.0
  0
VERTEX
  5
7D8
100
AcDbEntity
  8
LAY-9
  6
CONTINUOUS
 62
     1
100
AcDbVertex
100
AcDb2dVertex
 10
553.0764
 20
358.146402
 30
0.0
  0
VERTEX
  5
7D9
100
AcDbEntity
  8
LAY-9
  6
CONTINUOUS
 62
     1
100
AcDbVertex
100
AcDb2dVertex
 10
553.964536
 20
359.817956
 30
0.0
  0
VERTEX
  5
7DA
100
AcDbEntity
  8
LAY-9
  6
CONTINUOUS
 62
     1
100
AcDbVertex
100
AcDb2dVertex
 10
554.706131
 20
361.500662
 30
0.0
  0
VERTEX
  5
7DB
100
AcDbEntity
  8
LAY-9
  6
CONTINUOUS
 62
     1
100
AcDbVertex
100
AcDb2dVertex
 10
555.23876
 20
363.144637
 30
0.0
  0
VERTEX
  5
7DC
100
AcDbEntity
  8
LAY-9
  6
CONTINUOUS
 62
     1
100
AcDbVertex
100
AcDb2dVertex
 10
555.5
 20
364.7
 30
0.0
  0
VERTEX
  5
7DD
100
AcDbEntity
  8
LAY-9
  6
CONTINUOUS
 62
     1
100
AcDbVertex
100
AcDb2dVertex
 10
555.446742
 20
366.132826
 30
0.0
  0
VERTEX
  5
7DE
100
AcDbEntity
  8
LAY-9
  6
CONTINUOUS
 62
     1
100
AcDbVertex
100
AcDb2dVertex
 10
555.114716
 20
367.454443
 30
0.0
  0
VERTEX
  5
7DF
100
AcDbEntity
  8
LAY-9
  6
CONTINUOUS
 62
     1
100
AcDbVertex
100
AcDb2dVertex
 10
554.560442
 20
368.692751
 30
0.0
  0
VERTEX
  5
7E0
100
AcDbEntity
  8
LAY-9
  6
CONTINUOUS
 62
     1
100
AcDbVertex
100
AcDb2dVertex
 10
553.840444
 20
369.875647
 30
0.0
  0
VERTEX
  5
7E1
100
AcDbEntity
  8
LAY-9
  6
CONTINUOUS
 62
     1
100
AcDbVertex
100
AcDb2dVertex
 10
553.011244
 20
371.03103
 30
0.0
  0
VERTEX
  5
7E2
100
AcDbEntity
  8
LAY-9
  6
CONTINUOUS
 62
     1
100
AcDbVertex
100
AcDb2dVertex
 10
552.129363
 20
372.186798
 30
0.0
  0
VERTEX
  5
7E3
100
AcDbEntity
  8
LAY-9
  6
CONTINUOUS
 62
     1
100
AcDbVertex
100
AcDb2dVertex
 10
551.251324
 20
373.370851
 30
0.0
  0
VERTEX
  5
7E4
100
AcDbEntity
  8
LAY-9
  6
CONTINUOUS
 62
     1
100
AcDbVertex
100
AcDb2dVertex
 10
550.433649
 20
374.611087
 30
0.0
  0
VERTEX
  5
7E5
100
AcDbEntity
  8
LAY-9
  6
CONTINUOUS
 62
     1
100
AcDbVertex
100
AcDb2dVertex
 10
549.732861
 20
375.935404
 30
0.0
  0
VERTEX
  5
7E6
100
AcDbEntity
  8
LAY-9
  6
CONTINUOUS
 62
     1
100
AcDbVertex
100
AcDb2dVertex
 10
549.20548
 20
377.371701
 30
0.0
  0
VERTEX
  5
7E7
100
AcDbEntity
  8
LAY-9
  6
CONTINUOUS
 62
     1
100
AcDbVertex
100
AcDb2dVertex
 10
548.908031
 20
378.947876
 30
0.0
  0
VERTEX
  5
7E8
100
AcDbEntity
  8
LAY-9
  6
CONTINUOUS
 62
     1
100
AcDbVertex
100
AcDb2dVertex
 10
548.870077
 20
380.496075
 30
0.0
  0
VERTEX
  5
7E9
100
AcDbEntity
  8
LAY-9
  6
CONTINUOUS
 62
     1
100
AcDbVertex
100
AcDb2dVertex
 10
549.024067
 20
382.130666
 30
0.0
  0
VERTEX
  5
7EA
100
AcDbEntity
  8
LAY-9
  6
CONTINUOUS
 62
     1
100
AcDbVertex
100
AcDb2dVertex
 10
549.330318
 20
383.80238
 30
0.0
  0
VERTEX
  5
7EB
100
AcDbEntity
  8
LAY-9
  6
CONTINUOUS
 62
     1
100
AcDbVertex
100
AcDb2dVertex
 10
549.749149
 20
385.461945
 30
0.0
  0
VERTEX
  5
7EC
100
AcDbEntity
  8
LAY-9
  6
CONTINUOUS
 62
     1
100
AcDbVertex
100
AcDb2dVertex
 10
550.24088
 20
387.06009
 30
0.0
  0
VERTEX
  5
7ED
100
AcDbEntity
  8
LAY-9
  6
CONTINUOUS
 62
     1
100
AcDbVertex
100
AcDb2dVertex
 10
550.765828
 20
388.547546
 30
0.0
  0
VERTEX
  5
7EE
100
AcDbEntity
  8
LAY-9
  6
CONTINUOUS
 62
     1
100
AcDbVertex
100
AcDb2dVertex
 10
551.284314
 20
389.875041
 30
0.0
  0
VERTEX
  5
7EF
100
AcDbEntity
  8
LAY-9
  6
CONTINUOUS
 62
     1
100
AcDbVertex
100
AcDb2dVertex
 10
551.756655
 20
390.993304
 30
0.0
  0
VERTEX
  5
7F0
100
AcDbEntity
  8
LAY-9
  6
CONTINUOUS
 62
     1
100
AcDbVertex
100
AcDb2dVertex
 10
552.14317
 20
391.853066
 30
0.0
  0
VERTEX
  5
7F1
100
AcDbEntity
  8
LAY-9
  6
CONTINUOUS
 62
     1
100
AcDbVertex
100
AcDb2dVertex
 10
552.404179
 20
392.405055
 30
0.0
  0
VERTEX
  5
7F2
100
AcDbEntity
  8
LAY-9
  6
CONTINUOUS
 62
     1
100
AcDbVertex
100
AcDb2dVertex
 10
552.5
 20
392.6
 30
0.0
  0
SEQEND
  5
7F3
100
AcDbEntity
  8
LAY-9
  6
CONTINUOUS
 62
     1
  0
LINE
  5
7F4
100
AcDbEntity
  8
LAY-9
  6
CONTINUOUS
 62
     1
100
AcDbLine
 10
243.221313
 20
507.312329
 30
0.0
 11
243.221313
 21
511.812329
 31
0.0
  0
LINE
  5
7F5
100
AcDbEntity
  8
LAY-10
  6
CONTINUOUS
 62
     5
100
AcDbLine
 10
15.0
 20
15.0
 30
0.0
 11
826.0
 21
15.0
 31
0.0
  0
LINE
  5
7F6
100
AcDbEntity
  8
LAY-10
  6
CONTINUOUS
 62
     5
100
AcDbLine
 10
826.0
 20
15.0
 30
0.0
 11
826.0
 21
579.0
 31
0.0
  0
LINE
  5
7F7
100
AcDbEntity
  8
LAY-10
  6
CONTINUOUS
 62
     5
100
AcDbLine
 10
15.0
 20
15.0
 30
0.0
 11
15.0
 21
579.0
 31
0.0
  0
LINE
  5
7F8
100
AcDbEntity
  8
LAY-10
  6
CONTINUOUS
 62
     5
100
AcDbLine
 10
15.0
 20
579.0
 30
0.0
 11
826.0
 21
579.0
 31
0.0
  0
LINE
  5
7F9
100
AcDbEntity
  8
LAY-10
  6
CONTINUOUS
 62
     5
100
AcDbLine
 10
15.0
 20
40.0
 30
0.0
 11
826.0
 21
40.0
 31
0.0
  0
LINE
  5
7FA
100
AcDbEntity
  8
LAY-10
  6
CONTINUOUS
 62
     1
100
AcDbLine
 10
224.0
 20
40.0
 30
0.0
 11
224.0
 21
15.0
 31
0.0
  0
LINE
  5
7FB
100
AcDbEntity
  8
LAY-10
  6
CONTINUOUS
 62
     1
100
AcDbLine
 10
249.5
 20
40.0
 30
0.0
 11
249.5
 21
15.0
 31
0.0
  0
LINE
  5
7FC
100
AcDbEntity
  8
LAY-10
  6
CONTINUOUS
 62
     1
100
AcDbLine
 10
275.0
 20
40.0
 30
0.0
 11
275.0
 21
15.0
 31
0.0
  0
LINE
  5
7FD
100
AcDbEntity
  8
LAY-10
  6
CONTINUOUS
 62
     1
100
AcDbLine
 10
300.5
 20
40.0
 30
0.0
 11
300.5
 21
15.0
 31
0.0
  0
LINE
  5
7FE
100
AcDbEntity
  8
LAY-10
  6
CONTINUOUS
 62
     1
100
AcDbLine
 10
326.0
 20
40.0
 30
0.0
 11
326.0
 21
15.0
 31
0.0
  0
LINE
  5
7FF
100
AcDbEntity
  8
LAY-10
  6
CONTINUOUS
 62
     1
100
AcDbLine
 10
377.0
 20
40.0
 30
0.0
 11
377.0
 21
15.0
 31
0.0
  0
LINE
  5
800
100
AcDbEntity
  8
LAY-10
  6
CONTINUOUS
 62
     1
100
AcDbLine
 10
738.0
 20
40.0
 30
0.0
 11
738.0
 21
15.0
 31
0.0
  0
LINE
  5
801
100
AcDbEntity
  8
LAY-10
  6
CONTINUOUS
 62
     1
100
AcDbLine
 10
224.0
 20
32.0
 30
0.0
 11
377.0
 21
32.0
 31
0.0
  0
TEXT
  5
802
100
AcDbEntity
  8
LAY-10
  6
CONTINUOUS
 62
     4
100
AcDbText
 10
227.5
 20
33.0
 30
0.0
 40
6.0
  1
検　  図
 41
0.57856
  7
EXCADSTD
 72
     5
 11
246.700001
 21
33.0
 31
0.0
100
AcDbText
  0
TEXT
  5
803
100
AcDbEntity
  8
LAY-10
  6
CONTINUOUS
 62
     4
100
AcDbText
 10
253.2
 20
33.0
 30
0.0
 40
6.0
  1
担　　当
 41
0.672
  7
EXCADSTD
 72
     5
 11
272.400001
 21
33.0
 31
0.0
100
AcDbText
  0
TEXT
  5
804
100
AcDbEntity
  8
LAY-10
  6
CONTINUOUS
 62
     4
100
AcDbText
 10
278.4
 20
33.0
 30
0.0
 40
6.0
  1
製　　図
 41
0.672
  7
EXCADSTD
 72
     5
 11
297.600001
 21
33.0
 31
0.0
100
AcDbText
  0
TEXT
  5
805
100
AcDbEntity
  8
LAY-10
  6
CONTINUOUS
 62
     4
100
AcDbText
 10
303.9
 20
33.0
 30
0.0
 40
6.0
  1
尺　　度
 41
0.672
  7
EXCADSTD
 72
     5
 11
323.100001
 21
33.0
 31
0.0
100
AcDbText
  0
TEXT
  5
806
100
AcDbEntity
  8
LAY-10
  6
CONTINUOUS
 62
     4
100
AcDbText
 10
339.5
 20
33.0
 30
0.0
 40
6.0
  1
作成年月日
 41
0.672
  7
EXCADSTD
 72
     5
 11
363.500001
 21
33.0
 31
0.0
100
AcDbText
  0
TEXT
  5
807
100
AcDbEntity
  8
LAY-10
  6
CONTINUOUS
 62
   134
100
AcDbText
 10
42.98
 20
20.91
 30
0.0
 40
13.0
  1
日本ドアーチエック製造株式会社
 41
0.653908
  7
EXCADSTD
 72
     5
 11
194.779994
 21
20.91
 31
0.0
100
AcDbText
  0
LINE
  5
808
100
AcDbEntity
  8
LAY-10
  6
CONTINUOUS
 62
     1
100
AcDbLine
 10
841.0
 20
0.0
 30
0.0
 11
841.0
 21
2.0
 31
0.0
  0
LINE
  5
809
100
AcDbEntity
  8
LAY-10
  6
CONTINUOUS
 62
     1
100
AcDbLine
 10
841.0
 20
592.0
 30
0.0
 11
841.0
 21
594.0
 31
0.0
  0
LINE
  5
80A
100
AcDbEntity
  8
LAY-10
  6
CONTINUOUS
 62
     1
100
AcDbLine
 10
841.0
 20
594.0
 30
0.0
 11
839.0
 21
594.0
 31
0.0
  0
LINE
  5
80B
100
AcDbEntity
  8
LAY-10
  6
CONTINUOUS
 62
     1
100
AcDbLine
 10
2.0
 20
594.0
 30
0.0
 11
0.0
 21
594.0
 31
0.0
  0
LINE
  5
80C
100
AcDbEntity
  8
LAY-10
  6
CONTINUOUS
 62
     1
100
AcDbLine
 10
0.0
 20
594.0
 30
0.0
 11
0.0
 21
592.0
 31
0.0
  0
LINE
  5
80D
100
AcDbEntity
  8
LAY-10
  6
CONTINUOUS
 62
     1
100
AcDbLine
 10
0.0
 20
2.0
 30
0.0
 11
0.0
 21
0.0
 31
0.0
  0
LINE
  5
80E
100
AcDbEntity
  8
LAY-10
  6
CONTINUOUS
 62
     1
100
AcDbLine
 10
0.0
 20
0.0
 30
0.0
 11
2.0
 21
0.0
 31
0.0
  0
LINE
  5
80F
100
AcDbEntity
  8
LAY-10
  6
CONTINUOUS
 62
     1
100
AcDbLine
 10
839.0
 20
0.0
 30
0.0
 11
841.0
 21
0.0
 31
0.0
  0
TEXT
  5
810
100
AcDbEntity
  8
LAY-10
  6
CONTINUOUS
 62
     4
100
AcDbText
 10
383.0
 20
33.0
 30
0.0
 40
6.0
  1
図 面 名
 41
0.57856
  7
EXCADSTD
 72
     5
 11
402.200001
 21
33.0
 31
0.0
100
AcDbText
  0
TEXT
  5
811
100
AcDbEntity
  8
LAY-10
  6
CONTINUOUS
 62
     4
100
AcDbText
 10
744.0
 20
33.0
 30
0.0
 40
6.0
  1
図面番号
 41
0.672
  7
EXCADSTD
 72
     5
 11
763.200001
 21
33.0
 31
0.0
100
AcDbText
  0
TEXT
  5
812
100
AcDbEntity
  8
LAY-10
  6
CONTINUOUS
 62
     2
100
AcDbText
 10
306.5
 20
20.2
 30
0.0
 40
6.0
  1
１／１
 41
0.672
  7
EXCADSTD
 72
     5
 11
320.900001
 21
20.2
 31
0.0
100
AcDbText
  0
TEXT
  5
813
100
AcDbEntity
  8
LAY-10
  6
CONTINUOUS
 62
     2
100
AcDbText
 10
332.6
 20
20.2
 30
0.0
 40
6.0
  1
Ｈ１４.　７.　１
 41
0.622617
  7
EXCADSTD
 72
     5
 11
371.000002
 21
20.2
 31
0.0
100
AcDbText
  0
TEXT
  5
814
100
AcDbEntity
  8
LAY-10
  6
CONTINUOUS
 62
     2
100
AcDbText
 10
406.828367
 20
19.274519
 30
0.0
 40
10.0
  1
フロアヒンジ　Ａ－１５００/Ａ－１６００ 納まり図
 41
0.65495
  7
EXCADSTD
 72
     5
 11
598.828367
 21
19.274519
 31
0.0
100
AcDbText
  0
ENDSEC
  0
SECTION
  2
OBJECTS
  0
DICTIONARY
  5
19
100
AcDbDictionary
  3
ACAD_GROUP
350
1A
  3
ACAD_MLINESTYLE
350
1B
  0
DICTIONARY
  5
1A
102
{ACAD_REACTORS
330
19
102
}
100
AcDbDictionary
  0
DICTIONARY
  5
1B
102
{ACAD_REACTORS
330
19
102
}
100
AcDbDictionary
  3
STANDARD
350
1C
  0
MLINESTYLE
  5
1C
102
{ACAD_REACTORS
330
1B
102
}
100
AcDbMlineStyle
  2
Standard
 70
     0
  3

 62
     0
 51
90.0
 52
90.0
 71
     2
 49
0.5
 62
   256
  6
ByLayer
 49
-0.5
 62
   256
  6
ByLayer
  0
ENDSEC
  0
EOF
