  0
SECTION
  2
HEADER
  9
$ACADVER
  1
AC1014
  9
$ACADMAINTVER
 70
     0
  9
$DWGCODEPAGE
  3
ANSI_932
  9
$INSBASE
 10
0.0
 20
0.0
 30
0.0
  9
$EXTMIN
 10
0.0
 20
0.0
 30
0.0
  9
$EXTMAX
 10
841.0
 20
594.0
 30
0.0
  9
$LIMMIN
 10
0.0
 20
0.0
  9
$LIMMAX
 10
841.0
 20
594.0
  9
$ORTHOMODE
 70
     0
  9
$REGENMODE
 70
     1
  9
$FILLMODE
 70
     1
  9
$QTEXTMODE
 70
     0
  9
$MIRRTEXT
 70
     1
  9
$DRAGMODE
 70
     2
  9
$LTSCALE
 40
1.0
  9
$OSMODE
 70
     0
  9
$ATTMODE
 70
     1
  9
$TEXTSIZE
 40
0.2
  9
$TRACEWID
 40
0.05
  9
$TEXTSTYLE
  7
STANDARD
  9
$CLAYER
  8
LAY-1
  9
$CELTYPE
  6
CONTINUOUS
  9
$CECOLOR
 62
   256
  9
$CELTSCALE
 40
1.0
  9
$DELOBJ
 70
     1
  9
$DISPSILH
 70
     0
  9
$DIMSCALE
 40
1.0
  9
$DIMASZ
 40
0.18
  9
$DIMEXO
 40
0.0625
  9
$DIMDLI
 40
0.38
  9
$DIMRND
 40
0.0
  9
$DIMDLE
 40
0.0
  9
$DIMEXE
 40
0.18
  9
$DIMTP
 40
0.0
  9
$DIMTM
 40
0.0
  9
$DIMTXT
 40
0.18
  9
$DIMCEN
 40
0.09
  9
$DIMTSZ
 40
0.0
  9
$DIMTOL
 70
     0
  9
$DIMLIM
 70
     0
  9
$DIMTIH
 70
     1
  9
$DIMTOH
 70
     1
  9
$DIMSE1
 70
     0
  9
$DIMSE2
 70
     0
  9
$DIMTAD
 70
     0
  9
$DIMZIN
 70
     0
  9
$DIMBLK
  1

  9
$DIMASO
 70
     1
  9
$DIMSHO
 70
     1
  9
$DIMPOST
  1

  9
$DIMAPOST
  1

  9
$DIMALT
 70
     0
  9
$DIMALTD
 70
     2
  9
$DIMALTF
 40
25.4
  9
$DIMLFAC
 40
1.0
  9
$DIMTOFL
 70
     0
  9
$DIMTVP
 40
0.0
  9
$DIMTIX
 70
     0
  9
$DIMSOXD
 70
     0
  9
$DIMSAH
 70
     0
  9
$DIMBLK1
  1

  9
$DIMBLK2
  1

  9
$DIMSTYLE
  2
STANDARD
  9
$DIMCLRD
 70
     0
  9
$DIMCLRE
 70
     0
  9
$DIMCLRT
 70
     0
  9
$DIMTFAC
 40
1.0
  9
$DIMGAP
 40
0.09
  9
$DIMJUST
 70
     0
  9
$DIMSD1
 70
     0
  9
$DIMSD2
 70
     0
  9
$DIMTOLJ
 70
     1
  9
$DIMTZIN
 70
     0
  9
$DIMALTZ
 70
     0
  9
$DIMALTTZ
 70
     0
  9
$DIMFIT
 70
     3
  9
$DIMUPT
 70
     0
  9
$DIMUNIT
 70
     2
  9
$DIMDEC
 70
     4
  9
$DIMTDEC
 70
     4
  9
$DIMALTU
 70
     2
  9
$DIMALTTD
 70
     2
  9
$DIMTXSTY
  7
STANDARD
  9
$DIMAUNIT
 70
     0
  9
$LUNITS
 70
     2
  9
$LUPREC
 70
     4
  9
$SKETCHINC
 40
0.1
  9
$FILLETRAD
 40
0.0
  9
$AUNITS
 70
     0
  9
$AUPREC
 70
     0
  9
$MENU
  1
acad
  9
$ELEVATION
 40
0.0
  9
$PELEVATION
 40
0.0
  9
$THICKNESS
 40
0.0
  9
$LIMCHECK
 70
     0
  9
$BLIPMODE
 70
     1
  9
$CHAMFERA
 40
0.0
  9
$CHAMFERB
 40
0.0
  9
$CHAMFERC
 40
0.0
  9
$CHAMFERD
 40
0.0
  9
$SKPOLY
 70
     0
  9
$TDCREATE
 40
2454542.107970972
  9
$TDUPDATE
 40
2454542.107970972
  9
$TDINDWG
 40
0.0000000000
  9
$TDUSRTIMER
 40
0.0000000000
  9
$USRTIMER
 70
     1
  9
$ANGBASE
 50
0.0
  9
$ANGDIR
 70
     0
  9
$PDMODE
 70
     0
  9
$PDSIZE
 40
0.0
  9
$PLINEWID
 40
0.0
  9
$COORDS
 70
     1
  9
$SPLFRAME
 70
     0
  9
$SPLINETYPE
 70
     6
  9
$SPLINESEGS
 70
     8
  9
$ATTDIA
 70
     0
  9
$ATTREQ
 70
     1
  9
$HANDLING
 70
     1
  9
$HANDSEED
  5
6CF
  9
$SURFTAB1
 70
     6
  9
$SURFTAB2
 70
     6
  9
$SURFTYPE
 70
     6
  9
$SURFU
 70
     6
  9
$SURFV
 70
     6
  9
$UCSNAME
  2

  9
$UCSORG
 10
0.0
 20
0.0
 30
0.0
  9
$UCSXDIR
 10
1.0
 20
0.0
 30
0.0
  9
$UCSYDIR
 10
0.0
 20
1.0
 30
0.0
  9
$PUCSNAME
  2

  9
$PUCSORG
 10
0.0
 20
0.0
 30
0.0
  9
$PUCSXDIR
 10
1.0
 20
0.0
 30
0.0
  9
$PUCSYDIR
 10
0.0
 20
1.0
 30
0.0
  9
$USERI1
 70
     0
  9
$USERI2
 70
     0
  9
$USERI3
 70
     0
  9
$USERI4
 70
     0
  9
$USERI5
 70
     0
  9
$USERR1
 40
0.0
  9
$USERR2
 40
0.0
  9
$USERR3
 40
0.0
  9
$USERR4
 40
0.0
  9
$USERR5
 40
0.0
  9
$WORLDVIEW
 70
     1
  9
$SHADEDGE
 70
     3
  9
$SHADEDIF
 70
    70
  9
$TILEMODE
 70
     1
  9
$MAXACTVP
 70
    16
  9
$PINSBASE
 10
0.0
 20
0.0
 30
0.0
  9
$PLIMCHECK
 70
     0
  9
$PEXTMIN
 10
1.000000E+20
 20
1.000000E+20
 30
1.000000E+20
  9
$PEXTMAX
 10
-1.000000E+20
 20
-1.000000E+20
 30
-1.000000E+20
  9
$PLIMMIN
 10
0.0
 20
0.0
  9
$PLIMMAX
 10
12.0
 20
9.0
  9
$UNITMODE
 70
     0
  9
$VISRETAIN
 70
     0
  9
$PLINEGEN
 70
     1
  9
$PSLTSCALE
 70
     0
  9
$TREEDEPTH
 70
  3020
  9
$PICKSTYLE
 70
     1
  9
$CMLSTYLE
  2
Standard
  9
$CMLJUST
 70
     0
  9
$CMLSCALE
 40
1.0
  9
$PROXYGRAPHICS
 70
     0
  9
$MEASUREMENT
 70
     0
  0
ENDSEC
  0
SECTION
  2
CLASSES
  0
CLASS
  1
LWPOLYLINE
  2
AcDbPolyline
  3
"AutoCAD"
 90
        0
280
     0
281
     1
  0
CLASS
  1
IMAGE
  2
AcDbRasterImage
  3
ISM
 90
      127
280
     0
281
     1
  0
CLASS
  1
OLE2FRAME
  2
AcDbOle2Frame
  3
""
 90
        0
280
     0
281
     1
  0
CLASS
  1
HATCH
  2
AcDbHatch
  3
"ACAD_SEDONA"
 90
        0
280
     0
281
     1
  0
CLASS
  1
DICTIONARYVAR
  2
AcDbDictionaryVar
  3
"AutoCAD"
 90
        0
280
     0
281
     0
  0
CLASS
  1
RASTERVARIABLES
  2
AcDbRasterVariables
  3
ISM
 90
        0
280
     0
281
     0
  0
CLASS
  1
IMAGEDEF
  2
AcDbRasterImageDef
  3
ISM
 90
        0
280
     0
281
     0
  0
CLASS
  1
IMAGEDEF_REACTOR
  2
AcDbRasterImageDefReactor
  3
ISM
 90
        1
280
     0
281
     0
  0
CLASS
  1
IDBUFFER
  2
AcDbIdBuffer
  3
"Acad"
 90
        0
280
     0
281
     0
  0
CLASS
  1
SPATIAL_FILTER
  2
AcDbSpatialFilter
  3
"Acad"
 90
        0
280
     0
281
     0
  0
CLASS
  1
XRECORD
  2
AcDbXrecord
  3
"<Built In>"
 90
        0
280
     0
281
     0
  0
CLASS
  1
SORTENTSTABLE
  2
AcDbSortentsTable
  3
"AutoCAD"
 90
        0
280
     0
281
     0
  0
CLASS
  1
LAYER_INDEX
  2
AcDbLayerIndex
  3
"Acad"
 90
        0
280
     0
281
     0
  0
CLASS
  1
SPATIAL_INDEX
  2
AcDbSpatialIndex
  3
"Acad"
 90
        0
280
     0
281
     0
  0
CLASS
  1
OBJECT_PTR
  2
CAseDLPNTableRecord
  3
"ASE-LPNTableRecord"
 90
        1
280
     0
281
     0
  0
CLASS
  1
LAYOUT
  2
AcDbLayout
  3
"AutoCAD 2000"
 90
        0
280
     0
281
     0
  0
CLASS
  1
PLOTSETTINGS
  2
AcDbPlotSettings
  3
"AutoCAD 2000"
 90
        0
280
     0
281
     0
  0
CLASS
  1
ACDBDICTIONARYWDFLT
  2
AcDbDictionaryWithDefault
  3
"AutoCAD 2000"
 90
        0
280
     0
281
     0
  0
CLASS
  1
ACDBPLACEHOLDER
  2
AcDbPlaceHolder
  3
"AutoCAD 2000"
 90
        0
280
     0
281
     0
  0
CLASS
  1
VBA_PROJECT
  2
AcDbVbaProject
  3
"acadvba"
 90
        0
280
     0
281
     0
  0
CLASS
  1
WIPEOUT
  2
AcDbWipeout
  3
WipeOut|AutoCAD Express Tool|expresstools@autodesk.com
 90
      127
280
     0
281
     1
  0
CLASS
  1
WIPEOUTVARIABLES
  2
AcDbWipeoutVariables
  3
WipeOut|AutoCAD Express Tool|expresstools@autodesk.com
 90
        0
280
     0
281
     0
  0
CLASS
  1
RTEXT
  2
RText
  3
RText|AutoCAD Express Tool|expresstools@autodesk.com
 90
        0
280
     0
281
     1
  0
CLASS
  1
ARCALIGNEDTEXT
  2
AcDbArcAlignedText
  3
ATEXT|AutoCAD Express Tool|expresstools@autodesk.com
 90
        0
280
     0
281
     1
  0
ENDSEC
  0
SECTION
  2
TABLES
  0
TABLE
  2
VPORT
  5
7
100
AcDbSymbolTable
 70
     1
  0
VPORT
  5
15
100
AcDbSymbolTableRecord
100
AcDbViewportTableRecord
  2
*ACTIVE
 70
     0
 10
0.0
 20
0.0
 11
1.0
 21
1.0
 12
420.5
 22
297.0
 13
0.0
 23
0.0
 14
1.0
 24
1.0
 15
0.0
 25
0.0
 16
0.0
 26
0.0
 36
1.0
 17
0.0
 27
0.0
 37
0.0
 40
594.0
 41
1.722533
 42
50.0
 43
0.0
 44
0.0
 50
0.0
 51
0.0
 71
     0
 72
   100
 73
     1
 74
     1
 75
     0
 76
     0
 77
     0
 78
     0
  0
ENDTAB
  0
TABLE
  2
LTYPE
  5
4
100
AcDbSymbolTable
 70
     9
  0
LTYPE
  5
11
100
AcDbSymbolTableRecord
100
AcDbLinetypeTableRecord
  2
BYBLOCK
 70
    64
  3

 72
    65
 73
     0
 40
0.0
  0
LTYPE
  5
12
100
AcDbSymbolTableRecord
100
AcDbLinetypeTableRecord
  2
BYLAYER
 70
    64
  3

 72
    65
 73
     0
 40
0.0
  0
LTYPE
  5
13
100
AcDbSymbolTableRecord
100
AcDbLinetypeTableRecord
  2
CONTINUOUS
 70
    64
  3
実線
 72
    65
 73
     0
 40
0.0
  0
LTYPE
  5
1D
100
AcDbSymbolTableRecord
100
AcDbLinetypeTableRecord
  2
DASHED
 70
    64
  3
Dashed __ __ __ __ __ __ __ __ __ __ __ __ __ _
 72
    65
 73
     2
 40
19.05
 49
12.7
 74
     0
 49
-6.35
 74
     0
  0
LTYPE
  5
1E
100
AcDbSymbolTableRecord
100
AcDbLinetypeTableRecord
  2
DASHED2
 70
    64
  3
Dashed (.5x) _ _ _ _ _ _ _ _ _ _ _ _ _ _ _ _ _ 
 72
    65
 73
     2
 40
9.525
 49
6.35
 74
     0
 49
-3.175
 74
     0
  0
LTYPE
  5
1F
100
AcDbSymbolTableRecord
100
AcDbLinetypeTableRecord
  2
DASHDOT
 70
    64
  3
Dash dot __ . __ . __ . __ . __ . __ . __ . __
 72
    65
 73
     4
 40
25.4
 49
12.7
 74
     0
 49
-6.35
 74
     0
 49
0.0
 74
     0
 49
-6.35
 74
     0
  0
LTYPE
  5
20
100
AcDbSymbolTableRecord
100
AcDbLinetypeTableRecord
  2
DIVIDE
 70
    64
  3
Divide ____ . . ____ . . ____ . . ____ . . ____
 72
    65
 73
     6
 40
31.75
 49
12.7
 74
     0
 49
-6.35
 74
     0
 49
0.0
 74
     0
 49
-6.35
 74
     0
 49
0.0
 74
     0
 49
-6.35
 74
     0
  0
LTYPE
  5
21
100
AcDbSymbolTableRecord
100
AcDbLinetypeTableRecord
  2
ACAD_ISO06W100
 70
    64
  3
ISO long-dash triple-dot ____ ... ____ ... ____
 72
    65
 73
     8
 40
36.0
 49
24.0
 74
     0
 49
-3.0
 74
     0
 49
0.0
 74
     0
 49
-3.0
 74
     0
 49
0.0
 74
     0
 49
-3.0
 74
     0
 49
0.0
 74
     0
 49
-3.0
 74
     0
  0
LTYPE
  5
22
100
AcDbSymbolTableRecord
100
AcDbLinetypeTableRecord
  2
ACAD_ISO15W100
 70
    64
  3
ISO double-dash triple-dot __ __ . . . __ __ . .
 72
    65
 73
    10
 40
39.0
 49
12.0
 74
     0
 49
-3.0
 74
     0
 49
12.0
 74
     0
 49
-3.0
 74
     0
 49
0.0
 74
     0
 49
-3.0
 74
     0
 49
0.0
 74
     0
 49
-3.0
 74
     0
 49
0.0
 74
     0
 49
-3.0
 74
     0
  0
ENDTAB
  0
TABLE
  2
LAYER
  5
2
100
AcDbSymbolTable
 70
     9
  0
LAYER
  5
14
100
AcDbSymbolTableRecord
100
AcDbLayerTableRecord
  2
0
 70
     0
 62
     7
  6
CONTINUOUS
  0
LAYER
  5
25
100
AcDbSymbolTableRecord
100
AcDbLayerTableRecord
  2
LAY-1
 70
    64
 62
     3
  6
CONTINUOUS
  0
LAYER
  5
26
100
AcDbSymbolTableRecord
100
AcDbLayerTableRecord
  2
LAY-2
 70
    64
 62
     3
  6
CONTINUOUS
  0
LAYER
  5
27
100
AcDbSymbolTableRecord
100
AcDbLayerTableRecord
  2
LAY-3
 70
    64
 62
     3
  6
CONTINUOUS
  0
LAYER
  5
28
100
AcDbSymbolTableRecord
100
AcDbLayerTableRecord
  2
LAY-4
 70
    64
 62
     3
  6
CONTINUOUS
  0
LAYER
  5
29
100
AcDbSymbolTableRecord
100
AcDbLayerTableRecord
  2
LAY-5
 70
    64
 62
     1
  6
DASHDOT
  0
LAYER
  5
2A
100
AcDbSymbolTableRecord
100
AcDbLayerTableRecord
  2
LAY-6
 70
    64
 62
     2
  6
CONTINUOUS
  0
LAYER
  5
2B
100
AcDbSymbolTableRecord
100
AcDbLayerTableRecord
  2
LAY-9
 70
    64
 62
     1
  6
CONTINUOUS
  0
LAYER
  5
2C
100
AcDbSymbolTableRecord
100
AcDbLayerTableRecord
  2
LAY-10
 70
    64
 62
     5
  6
CONTINUOUS
  0
ENDTAB
  0
TABLE
  2
STYLE
  5
3
100
AcDbSymbolTable
 70
     3
  0
STYLE
  5
17
100
AcDbSymbolTableRecord
100
AcDbTextStyleTableRecord
  2
STANDARD
 70
     0
 40
0.0
 41
1.0
 50
0.0
 71
     0
 42
0.0
  3
monotxt
  4
extfont
  0
STYLE
  5
23
100
AcDbSymbolTableRecord
100
AcDbTextStyleTableRecord
  2
EXCADSTD
 70
    64
 40
0.0
 41
1.0
 50
0.0
 71
     0
 42
0.2
  3
monotxt
  4
extfont
  0
STYLE
  5
24
100
AcDbSymbolTableRecord
100
AcDbTextStyleTableRecord
  2
EXCADVERT
 70
    68
 40
0.0
 41
1.0
 50
0.0
 71
     0
 42
0.286885
  3
monotxt
  4
extfont
  0
ENDTAB
  0
TABLE
  2
VIEW
  5
5
100
AcDbSymbolTable
 70
     0
  0
ENDTAB
  0
TABLE
  2
UCS
  5
6
100
AcDbSymbolTable
 70
     0
  0
ENDTAB
  0
TABLE
  2
APPID
  5
8
100
AcDbSymbolTable
 70
     1
  0
APPID
  5
16
100
AcDbSymbolTableRecord
100
AcDbRegAppTableRecord
  2
ACAD
 70
     0
  0
ENDTAB
  0
TABLE
  2
DIMSTYLE
  5
9
100
AcDbSymbolTable
 70
     1
  0
DIMSTYLE
105
18
100
AcDbSymbolTableRecord
100
AcDbDimStyleTableRecord
  2
STANDARD
 70
     0
  3

  4

  5

  6

  7

 40
1.0
 41
0.18
 42
0.0625
 43
0.38
 44
0.18
 45
0.0
 46
0.0
 47
0.0
 48
0.0
 71
     0
 72
     0
 73
     1
 74
     1
 75
     0
 76
     0
 77
     0
 78
     0
140
0.18
141
0.09
142
0.0
143
25.4
144
1.0
145
0.0
146
1.0
147
0.09
170
     0
171
     2
172
     1
173
     0
174
     0
175
     0
176
     0
177
     0
178
     0
270
     2
271
     4
272
     4
273
     2
274
     2
275
     0
280
     0
281
     0
282
     0
283
     1
284
     0
285
     0
286
     0
287
     3
288
     0
340
17
  0
ENDTAB
  0
TABLE
  2
BLOCK_RECORD
  5
1
100
AcDbSymbolTable
 70
    16
  0
BLOCK_RECORD
  5
A
100
AcDbSymbolTableRecord
100
AcDbBlockTableRecord
  2
*MODEL_SPACE
  0
BLOCK_RECORD
  5
B
100
AcDbSymbolTableRecord
100
AcDbBlockTableRecord
  2
*PAPER_SPACE
  0
BLOCK_RECORD
  5
2D
100
AcDbSymbolTableRecord
100
AcDbBlockTableRecord
  2
_EX_NORM
  0
BLOCK_RECORD
  5
2E
100
AcDbSymbolTableRecord
100
AcDbBlockTableRecord
  2
_EX_BNORM
  0
BLOCK_RECORD
  5
2F
100
AcDbSymbolTableRecord
100
AcDbBlockTableRecord
  2
_EX_BCIR
  0
BLOCK_RECORD
  5
30
100
AcDbSymbolTableRecord
100
AcDbBlockTableRecord
  2
_EX_RCIVIL
  0
BLOCK_RECORD
  5
31
100
AcDbSymbolTableRecord
100
AcDbBlockTableRecord
  2
_EX_SLANT
  0
BLOCK_RECORD
  5
32
100
AcDbSymbolTableRecord
100
AcDbBlockTableRecord
  2
_EX_NONE
  0
BLOCK_RECORD
  5
33
100
AcDbSymbolTableRecord
100
AcDbBlockTableRecord
  2
_EX_CIVIL
  0
BLOCK_RECORD
  5
34
100
AcDbSymbolTableRecord
100
AcDbBlockTableRecord
  2
_EX_WCIR
  0
BLOCK_RECORD
  5
35
100
AcDbSymbolTableRecord
100
AcDbBlockTableRecord
  2
_EX_WCIR2
  0
BLOCK_RECORD
  5
36
100
AcDbSymbolTableRecord
100
AcDbBlockTableRecord
  2
_EX_WNORM
  0
BLOCK_RECORD
  5
37
100
AcDbSymbolTableRecord
100
AcDbBlockTableRecord
  2
_EX_NNORM
  0
BLOCK_RECORD
  5
38
100
AcDbSymbolTableRecord
100
AcDbBlockTableRecord
  2
_EX_BBOX
  0
BLOCK_RECORD
  5
39
100
AcDbSymbolTableRecord
100
AcDbBlockTableRecord
  2
_EX_WBOX
  0
BLOCK_RECORD
  5
3A
100
AcDbSymbolTableRecord
100
AcDbBlockTableRecord
  2
_EX_INTEGRAL
  0
BLOCK_RECORD
  5
3B
100
AcDbSymbolTableRecord
100
AcDbBlockTableRecord
  2
SYM-1
  0
BLOCK_RECORD
  5
3C
100
AcDbSymbolTableRecord
100
AcDbBlockTableRecord
  2
SYM-2
  0
ENDTAB
  0
ENDSEC
  0
SECTION
  2
BLOCKS
  0
BLOCK
  5
D
100
AcDbEntity
  8
0
100
AcDbBlockBegin
  2
*MODEL_SPACE
 70
     0
 10
0.0
 20
0.0
 30
0.0
  3
*MODEL_SPACE
  1

  0
ENDBLK
  5
E
100
AcDbEntity
  8
0
100
AcDbBlockEnd
  0
BLOCK
  5
F
100
AcDbEntity
 67
     1
  8
0
100
AcDbBlockBegin
  2
*PAPER_SPACE
 70
     0
 10
0.0
 20
0.0
 30
0.0
  3
*PAPER_SPACE
  1

  0
ENDBLK
  5
10
100
AcDbEntity
 67
     1
  8
0
100
AcDbBlockEnd
  0
BLOCK
  5
3D
100
AcDbEntity
  8
0
100
AcDbBlockBegin
  2
_EX_NORM
 70
     0
 10
0.0
 20
0.0
 30
0.0
  3
_EX_NORM
  1

  0
LINE
  5
3E
100
AcDbEntity
  8
0
  6
CONTINUOUS
 62
     0
100
AcDbLine
 10
0.0
 20
0.0
 30
0.0
 11
-1.0
 21
0.0
 31
0.0
  0
LINE
  5
3F
100
AcDbEntity
  8
0
  6
CONTINUOUS
 62
     0
100
AcDbLine
 10
0.0
 20
0.0
 30
0.0
 11
-1.0
 21
0.166667
 31
0.0
  0
LINE
  5
40
100
AcDbEntity
  8
0
  6
CONTINUOUS
 62
     0
100
AcDbLine
 10
0.0
 20
0.0
 30
0.0
 11
-1.0
 21
-0.166667
 31
0.0
  0
ENDBLK
  5
41
100
AcDbEntity
  8
0
100
AcDbBlockEnd
  0
BLOCK
  5
42
100
AcDbEntity
  8
0
100
AcDbBlockBegin
  2
_EX_BNORM
 70
     0
 10
0.0
 20
0.0
 30
0.0
  3
_EX_BNORM
  1

  0
LINE
  5
43
100
AcDbEntity
  8
0
  6
CONTINUOUS
 62
     0
100
AcDbLine
 10
0.0
 20
0.0
 30
0.0
 11
-1.0
 21
0.0
 31
0.0
  0
LINE
  5
44
100
AcDbEntity
  8
0
  6
CONTINUOUS
 62
     0
100
AcDbLine
 10
0.0
 20
0.0
 30
0.0
 11
-1.0
 21
0.166667
 31
0.0
  0
LINE
  5
45
100
AcDbEntity
  8
0
  6
CONTINUOUS
 62
     0
100
AcDbLine
 10
0.0
 20
0.0
 30
0.0
 11
-1.0
 21
-0.166667
 31
0.0
  0
LINE
  5
46
100
AcDbEntity
  8
0
  6
CONTINUOUS
 62
     0
100
AcDbLine
 10
0.0
 20
0.0
 30
0.0
 11
-1.0
 21
0.083333
 31
0.0
  0
LINE
  5
47
100
AcDbEntity
  8
0
  6
CONTINUOUS
 62
     0
100
AcDbLine
 10
0.0
 20
0.0
 30
0.0
 11
-1.0
 21
-0.083333
 31
0.0
  0
LINE
  5
48
100
AcDbEntity
  8
0
  6
CONTINUOUS
 62
     0
100
AcDbLine
 10
-1.0
 20
0.166667
 30
0.0
 11
-1.0
 21
-0.166667
 31
0.0
  0
ENDBLK
  5
49
100
AcDbEntity
  8
0
100
AcDbBlockEnd
  0
BLOCK
  5
4A
100
AcDbEntity
  8
0
100
AcDbBlockBegin
  2
_EX_BCIR
 70
     0
 10
0.0
 20
0.0
 30
0.0
  3
_EX_BCIR
  1

  0
LINE
  5
4B
100
AcDbEntity
  8
0
  6
CONTINUOUS
 62
     0
100
AcDbLine
 10
0.0
 20
0.0
 30
0.0
 11
-1.0
 21
0.0
 31
0.0
  0
CIRCLE
  5
4C
100
AcDbEntity
  8
0
  6
CONTINUOUS
 62
     0
100
AcDbCircle
 10
0.0
 20
0.0
 30
0.0
 40
0.5
  0
CIRCLE
  5
4D
100
AcDbEntity
  8
0
  6
CONTINUOUS
 62
     0
100
AcDbCircle
 10
0.0
 20
0.0
 30
0.0
 40
0.25
  0
ENDBLK
  5
4E
100
AcDbEntity
  8
0
100
AcDbBlockEnd
  0
BLOCK
  5
4F
100
AcDbEntity
  8
0
100
AcDbBlockBegin
  2
_EX_RCIVIL
 70
     0
 10
0.0
 20
0.0
 30
0.0
  3
_EX_RCIVIL
  1

  0
LINE
  5
50
100
AcDbEntity
  8
0
  6
CONTINUOUS
 62
     0
100
AcDbLine
 10
0.0
 20
0.0
 30
0.0
 11
-1.0
 21
0.0
 31
0.0
  0
LINE
  5
51
100
AcDbEntity
  8
0
  6
CONTINUOUS
 62
     0
100
AcDbLine
 10
-1.0
 20
-0.25
 30
0.0
 11
0.0
 21
-0.25
 31
0.0
  0
LINE
  5
52
100
AcDbEntity
  8
0
  6
CONTINUOUS
 62
     0
100
AcDbLine
 10
-1.0
 20
-0.125
 30
0.0
 11
0.0
 21
-0.125
 31
0.0
  0
ENDBLK
  5
53
100
AcDbEntity
  8
0
100
AcDbBlockEnd
  0
BLOCK
  5
54
100
AcDbEntity
  8
0
100
AcDbBlockBegin
  2
_EX_SLANT
 70
     0
 10
0.0
 20
0.0
 30
0.0
  3
_EX_SLANT
  1

  0
LINE
  5
55
100
AcDbEntity
  8
0
  6
CONTINUOUS
 62
     0
100
AcDbLine
 10
0.0
 20
0.0
 30
0.0
 11
-1.0
 21
0.0
 31
0.0
  0
LINE
  5
56
100
AcDbEntity
  8
0
  6
CONTINUOUS
 62
     0
100
AcDbLine
 10
0.707107
 20
0.707107
 30
0.0
 11
-0.707107
 21
-0.707107
 31
0.0
  0
ENDBLK
  5
57
100
AcDbEntity
  8
0
100
AcDbBlockEnd
  0
BLOCK
  5
58
100
AcDbEntity
  8
0
100
AcDbBlockBegin
  2
_EX_NONE
 70
     0
 10
0.0
 20
0.0
 30
0.0
  3
_EX_NONE
  1

  0
LINE
  5
59
100
AcDbEntity
  8
0
  6
CONTINUOUS
 62
     0
100
AcDbLine
 10
0.0
 20
0.0
 30
0.0
 11
-1.0
 21
0.0
 31
0.0
  0
ENDBLK
  5
5A
100
AcDbEntity
  8
0
100
AcDbBlockEnd
  0
BLOCK
  5
5B
100
AcDbEntity
  8
0
100
AcDbBlockBegin
  2
_EX_CIVIL
 70
     0
 10
0.0
 20
0.0
 30
0.0
  3
_EX_CIVIL
  1

  0
LINE
  5
5C
100
AcDbEntity
  8
0
  6
CONTINUOUS
 62
     0
100
AcDbLine
 10
0.0
 20
0.0
 30
0.0
 11
-1.0
 21
0.0
 31
0.0
  0
LINE
  5
5D
100
AcDbEntity
  8
0
  6
CONTINUOUS
 62
     0
100
AcDbLine
 10
-1.0
 20
0.25
 30
0.0
 11
0.0
 21
0.25
 31
0.0
  0
LINE
  5
5E
100
AcDbEntity
  8
0
  6
CONTINUOUS
 62
     0
100
AcDbLine
 10
-1.0
 20
0.125
 30
0.0
 11
0.0
 21
0.125
 31
0.0
  0
ENDBLK
  5
5F
100
AcDbEntity
  8
0
100
AcDbBlockEnd
  0
BLOCK
  5
60
100
AcDbEntity
  8
0
100
AcDbBlockBegin
  2
_EX_WCIR
 70
     0
 10
0.0
 20
0.0
 30
0.0
  3
_EX_WCIR
  1

  0
LINE
  5
61
100
AcDbEntity
  8
0
  6
CONTINUOUS
 62
     0
100
AcDbLine
 10
0.0
 20
0.0
 30
0.0
 11
-1.0
 21
0.0
 31
0.0
  0
CIRCLE
  5
62
100
AcDbEntity
  8
0
  6
CONTINUOUS
 62
     0
100
AcDbCircle
 10
0.0
 20
0.0
 30
0.0
 40
0.5
  0
ENDBLK
  5
63
100
AcDbEntity
  8
0
100
AcDbBlockEnd
  0
BLOCK
  5
64
100
AcDbEntity
  8
0
100
AcDbBlockBegin
  2
_EX_WCIR2
 70
     0
 10
0.0
 20
0.0
 30
0.0
  3
_EX_WCIR2
  1

  0
LINE
  5
65
100
AcDbEntity
  8
0
  6
CONTINUOUS
 62
     0
100
AcDbLine
 10
-0.5
 20
0.0
 30
0.0
 11
-1.0
 21
0.0
 31
0.0
  0
CIRCLE
  5
66
100
AcDbEntity
  8
0
  6
CONTINUOUS
 62
     0
100
AcDbCircle
 10
0.0
 20
0.0
 30
0.0
 40
0.5
  0
ENDBLK
  5
67
100
AcDbEntity
  8
0
100
AcDbBlockEnd
  0
BLOCK
  5
68
100
AcDbEntity
  8
0
100
AcDbBlockBegin
  2
_EX_WNORM
 70
     0
 10
0.0
 20
0.0
 30
0.0
  3
_EX_WNORM
  1

  0
LINE
  5
69
100
AcDbEntity
  8
0
  6
CONTINUOUS
 62
     0
100
AcDbLine
 10
-1.0
 20
0.0
 30
0.0
 11
-1.0
 21
0.0
 31
0.0
  0
LINE
  5
6A
100
AcDbEntity
  8
0
  6
CONTINUOUS
 62
     0
100
AcDbLine
 10
0.0
 20
0.0
 30
0.0
 11
-1.0
 21
0.166667
 31
0.0
  0
LINE
  5
6B
100
AcDbEntity
  8
0
  6
CONTINUOUS
 62
     0
100
AcDbLine
 10
0.0
 20
0.0
 30
0.0
 11
-1.0
 21
-0.166667
 31
0.0
  0
LINE
  5
6C
100
AcDbEntity
  8
0
  6
CONTINUOUS
 62
     0
100
AcDbLine
 10
-1.0
 20
0.166667
 30
0.0
 11
-1.0
 21
-0.166667
 31
0.0
  0
ENDBLK
  5
6D
100
AcDbEntity
  8
0
100
AcDbBlockEnd
  0
BLOCK
  5
6E
100
AcDbEntity
  8
0
100
AcDbBlockBegin
  2
_EX_NNORM
 70
     0
 10
0.0
 20
0.0
 30
0.0
  3
_EX_NNORM
  1

  0
LINE
  5
6F
100
AcDbEntity
  8
0
  6
CONTINUOUS
 62
     0
100
AcDbLine
 10
0.0
 20
0.0
 30
0.0
 11
-1.0
 21
0.0
 31
0.0
  0
LINE
  5
70
100
AcDbEntity
  8
0
  6
CONTINUOUS
 62
     0
100
AcDbLine
 10
0.0
 20
0.0
 30
0.0
 11
-1.0
 21
0.166667
 31
0.0
  0
LINE
  5
71
100
AcDbEntity
  8
0
  6
CONTINUOUS
 62
     0
100
AcDbLine
 10
0.0
 20
0.0
 30
0.0
 11
-1.0
 21
-0.166667
 31
0.0
  0
LINE
  5
72
100
AcDbEntity
  8
0
  6
CONTINUOUS
 62
     0
100
AcDbLine
 10
-1.0
 20
0.166667
 30
0.0
 11
-1.0
 21
-0.166667
 31
0.0
  0
ENDBLK
  5
73
100
AcDbEntity
  8
0
100
AcDbBlockEnd
  0
BLOCK
  5
74
100
AcDbEntity
  8
0
100
AcDbBlockBegin
  2
_EX_BBOX
 70
     0
 10
0.0
 20
0.0
 30
0.0
  3
_EX_BBOX
  1

  0
LINE
  5
75
100
AcDbEntity
  8
0
  6
CONTINUOUS
 62
     0
100
AcDbLine
 10
0.0
 20
0.0
 30
0.0
 11
-1.0
 21
0.0
 31
0.0
  0
LINE
  5
76
100
AcDbEntity
  8
0
  6
CONTINUOUS
 62
     0
100
AcDbLine
 10
-0.5
 20
0.5
 30
0.0
 11
0.5
 21
0.5
 31
0.0
  0
LINE
  5
77
100
AcDbEntity
  8
0
  6
CONTINUOUS
 62
     0
100
AcDbLine
 10
0.5
 20
0.5
 30
0.0
 11
0.5
 21
-0.5
 31
0.0
  0
LINE
  5
78
100
AcDbEntity
  8
0
  6
CONTINUOUS
 62
     0
100
AcDbLine
 10
0.5
 20
-0.5
 30
0.0
 11
-0.5
 21
-0.5
 31
0.0
  0
LINE
  5
79
100
AcDbEntity
  8
0
  6
CONTINUOUS
 62
     0
100
AcDbLine
 10
-0.5
 20
-0.5
 30
0.0
 11
-0.5
 21
0.5
 31
0.0
  0
LINE
  5
7A
100
AcDbEntity
  8
0
  6
CONTINUOUS
 62
     0
100
AcDbLine
 10
-0.25
 20
0.25
 30
0.0
 11
0.25
 21
0.25
 31
0.0
  0
LINE
  5
7B
100
AcDbEntity
  8
0
  6
CONTINUOUS
 62
     0
100
AcDbLine
 10
0.25
 20
0.25
 30
0.0
 11
0.25
 21
-0.25
 31
0.0
  0
LINE
  5
7C
100
AcDbEntity
  8
0
  6
CONTINUOUS
 62
     0
100
AcDbLine
 10
0.25
 20
-0.25
 30
0.0
 11
-0.25
 21
-0.25
 31
0.0
  0
LINE
  5
7D
100
AcDbEntity
  8
0
  6
CONTINUOUS
 62
     0
100
AcDbLine
 10
-0.25
 20
-0.25
 30
0.0
 11
-0.25
 21
0.25
 31
0.0
  0
ENDBLK
  5
7E
100
AcDbEntity
  8
0
100
AcDbBlockEnd
  0
BLOCK
  5
7F
100
AcDbEntity
  8
0
100
AcDbBlockBegin
  2
_EX_WBOX
 70
     0
 10
0.0
 20
0.0
 30
0.0
  3
_EX_WBOX
  1

  0
LINE
  5
80
100
AcDbEntity
  8
0
  6
CONTINUOUS
 62
     0
100
AcDbLine
 10
-0.5
 20
0.0
 30
0.0
 11
-1.0
 21
0.0
 31
0.0
  0
LINE
  5
81
100
AcDbEntity
  8
0
  6
CONTINUOUS
 62
     0
100
AcDbLine
 10
-0.5
 20
0.5
 30
0.0
 11
0.5
 21
0.5
 31
0.0
  0
LINE
  5
82
100
AcDbEntity
  8
0
  6
CONTINUOUS
 62
     0
100
AcDbLine
 10
0.5
 20
0.5
 30
0.0
 11
0.5
 21
-0.5
 31
0.0
  0
LINE
  5
83
100
AcDbEntity
  8
0
  6
CONTINUOUS
 62
     0
100
AcDbLine
 10
0.5
 20
-0.5
 30
0.0
 11
-0.5
 21
-0.5
 31
0.0
  0
LINE
  5
84
100
AcDbEntity
  8
0
  6
CONTINUOUS
 62
     0
100
AcDbLine
 10
-0.5
 20
-0.5
 30
0.0
 11
-0.5
 21
0.5
 31
0.0
  0
ENDBLK
  5
85
100
AcDbEntity
  8
0
100
AcDbBlockEnd
  0
BLOCK
  5
86
100
AcDbEntity
  8
0
100
AcDbBlockBegin
  2
_EX_INTEGRAL
 70
     0
 10
0.0
 20
0.0
 30
0.0
  3
_EX_INTEGRAL
  1

  0
LINE
  5
87
100
AcDbEntity
  8
0
  6
CONTINUOUS
 62
     0
100
AcDbLine
 10
0.0
 20
0.0
 30
0.0
 11
-1.0
 21
0.0
 31
0.0
  0
ARC
  5
88
100
AcDbEntity
  8
0
  6
CONTINUOUS
 62
     0
100
AcDbCircle
 10
0.542115
 20
0.164992
 30
0.0
 40
0.56667
100
AcDbArc
 50
73.07249
 51
196.927513
  0
ARC
  5
89
100
AcDbEntity
  8
0
  6
CONTINUOUS
 62
     0
100
AcDbCircle
 10
-0.542115
 20
-0.164992
 30
0.0
 40
0.56667
100
AcDbArc
 50
253.072487
 51
16.927513
  0
ENDBLK
  5
8A
100
AcDbEntity
  8
0
100
AcDbBlockEnd
  0
BLOCK
  5
8B
100
AcDbEntity
  8
0
100
AcDbBlockBegin
  2
SYM-1
 70
     0
 10
0.0
 20
0.0
 30
0.0
  3
SYM-1
  1

  0
ARC
  5
8C
100
AcDbEntity
  8
0
  6
CONTINUOUS
 62
     3
100
AcDbCircle
 10
1.5
 20
1.5
 30
0.0
 40
1.0
100
AcDbArc
 50
180.0
 51
270.0
  0
ARC
  5
8D
100
AcDbEntity
  8
0
  6
CONTINUOUS
 62
     3
100
AcDbCircle
 10
-1.5
 20
-1.5
 30
0.0
 40
1.0
100
AcDbArc
 50
0.0
 51
90.0
  0
ARC
  5
8E
100
AcDbEntity
  8
0
  6
CONTINUOUS
 62
     3
100
AcDbCircle
 10
-1.5
 20
1.5
 30
0.0
 40
1.0
100
AcDbArc
 50
270.0
 51
0.0
  0
ARC
  5
8F
100
AcDbEntity
  8
0
  6
CONTINUOUS
 62
     3
100
AcDbCircle
 10
1.5
 20
-1.5
 30
0.0
 40
1.0
100
AcDbArc
 50
90.0
 51
180.0
  0
ARC
  5
90
100
AcDbEntity
  8
0
  6
CONTINUOUS
 62
     3
100
AcDbCircle
 10
1.5
 20
1.5
 30
0.0
 40
1.0
100
AcDbArc
 50
180.0
 51
270.0
  0
ARC
  5
91
100
AcDbEntity
  8
0
  6
CONTINUOUS
 62
     3
100
AcDbCircle
 10
1.5
 20
-1.5
 30
0.0
 40
1.0
100
AcDbArc
 50
90.0
 51
180.0
  0
CIRCLE
  5
92
100
AcDbEntity
  8
0
  6
CONTINUOUS
 62
     3
100
AcDbCircle
 10
0.0
 20
0.0
 30
0.0
 40
4.0
  0
LINE
  5
93
100
AcDbEntity
  8
0
  6
CONTINUOUS
 62
     3
100
AcDbLine
 10
0.5
 20
1.5
 30
0.0
 11
0.5
 21
2.25
 31
0.0
  0
LINE
  5
94
100
AcDbEntity
  8
0
  6
CONTINUOUS
 62
     3
100
AcDbLine
 10
-0.5
 20
2.25
 30
0.0
 11
0.5
 21
2.25
 31
0.0
  0
LINE
  5
95
100
AcDbEntity
  8
0
  6
CONTINUOUS
 62
     3
100
AcDbLine
 10
-0.5
 20
1.5
 30
0.0
 11
-0.5
 21
2.25
 31
0.0
  0
LINE
  5
96
100
AcDbEntity
  8
0
  6
CONTINUOUS
 62
     3
100
AcDbLine
 10
-0.5
 20
1.5
 30
0.0
 11
-0.5
 21
2.25
 31
0.0
  0
LINE
  5
97
100
AcDbEntity
  8
0
  6
CONTINUOUS
 62
     3
100
AcDbLine
 10
0.5
 20
2.25
 30
0.0
 11
-0.5
 21
2.25
 31
0.0
  0
LINE
  5
98
100
AcDbEntity
  8
0
  6
CONTINUOUS
 62
     3
100
AcDbLine
 10
0.5
 20
1.5
 30
0.0
 11
0.5
 21
2.25
 31
0.0
  0
LINE
  5
99
100
AcDbEntity
  8
0
  6
CONTINUOUS
 62
     3
100
AcDbLine
 10
-2.25
 20
-0.5
 30
0.0
 11
-2.25
 21
0.5
 31
0.0
  0
LINE
  5
9A
100
AcDbEntity
  8
0
  6
CONTINUOUS
 62
     3
100
AcDbLine
 10
0.5
 20
-2.25
 30
0.0
 11
-0.5
 21
-2.25
 31
0.0
  0
LINE
  5
9B
100
AcDbEntity
  8
0
  6
CONTINUOUS
 62
     3
100
AcDbLine
 10
2.25
 20
0.5
 30
0.0
 11
2.25
 21
-0.5
 31
0.0
  0
LINE
  5
9C
100
AcDbEntity
  8
0
  6
CONTINUOUS
 62
     3
100
AcDbLine
 10
-1.5
 20
-0.5
 30
0.0
 11
-2.25
 21
-0.5
 31
0.0
  0
LINE
  5
9D
100
AcDbEntity
  8
0
  6
CONTINUOUS
 62
     3
100
AcDbLine
 10
-1.5
 20
0.5
 30
0.0
 11
-2.25
 21
0.5
 31
0.0
  0
LINE
  5
9E
100
AcDbEntity
  8
0
  6
CONTINUOUS
 62
     3
100
AcDbLine
 10
0.5
 20
-1.5
 30
0.0
 11
0.5
 21
-2.25
 31
0.0
  0
LINE
  5
9F
100
AcDbEntity
  8
0
  6
CONTINUOUS
 62
     3
100
AcDbLine
 10
-0.5
 20
-1.5
 30
0.0
 11
-0.5
 21
-2.25
 31
0.0
  0
LINE
  5
A0
100
AcDbEntity
  8
0
  6
CONTINUOUS
 62
     3
100
AcDbLine
 10
-0.5
 20
-1.5
 30
0.0
 11
-0.5
 21
-2.25
 31
0.0
  0
LINE
  5
A1
100
AcDbEntity
  8
0
  6
CONTINUOUS
 62
     3
100
AcDbLine
 10
0.5
 20
-1.5
 30
0.0
 11
0.5
 21
-2.25
 31
0.0
  0
LINE
  5
A2
100
AcDbEntity
  8
0
  6
CONTINUOUS
 62
     3
100
AcDbLine
 10
1.5
 20
-0.5
 30
0.0
 11
2.25
 21
-0.5
 31
0.0
  0
LINE
  5
A3
100
AcDbEntity
  8
0
  6
CONTINUOUS
 62
     3
100
AcDbLine
 10
1.5
 20
0.5
 30
0.0
 11
2.25
 21
0.5
 31
0.0
  0
LINE
  5
A4
100
AcDbEntity
  8
0
  6
CONTINUOUS
 62
     3
100
AcDbLine
 10
1.5
 20
0.5
 30
0.0
 11
2.25
 21
0.5
 31
0.0
  0
ENDBLK
  5
A5
100
AcDbEntity
  8
0
100
AcDbBlockEnd
  0
BLOCK
  5
A6
100
AcDbEntity
  8
0
100
AcDbBlockBegin
  2
SYM-2
 70
     0
 10
0.0
 20
0.0
 30
0.0
  3
SYM-2
  1

  0
TEXT
  5
A7
100
AcDbEntity
  8
0
  6
CONTINUOUS
 62
     2
100
AcDbText
 10
-2.7
 20
-1.0
 30
0.0
 40
5.0
  1
Ｐ
 41
0.672
  7
EXCADSTD
 72
     5
 11
0.5
 21
-1.0
 31
0.0
100
AcDbText
  0
TEXT
  5
A8
100
AcDbEntity
  8
0
  6
CONTINUOUS
 62
     2
100
AcDbText
 10
-1.8
 20
-0.9
 30
0.0
 40
5.0
  1
Ｌ
 41
0.672
  7
EXCADSTD
 72
     5
 11
1.4
 21
-0.9
 31
0.0
100
AcDbText
  0
ENDBLK
  5
A9
100
AcDbEntity
  8
0
100
AcDbBlockEnd
  0
ENDSEC
  0
SECTION
  2
ENTITIES
  0
LINE
  5
AA
100
AcDbEntity
  8
LAY-1
  6
CONTINUOUS
 62
     3
100
AcDbLine
 10
513.721344
 20
495.940918
 30
0.0
 11
331.721344
 21
495.940918
 31
0.0
  0
LINE
  5
AB
100
AcDbEntity
  8
LAY-1
  6
CONTINUOUS
 62
     3
100
AcDbLine
 10
513.721344
 20
532.940918
 30
0.0
 11
331.721344
 21
532.940918
 31
0.0
  0
LINE
  5
AC
100
AcDbEntity
  8
LAY-1
  6
CONTINUOUS
 62
     3
100
AcDbLine
 10
513.721344
 20
532.940918
 30
0.0
 11
513.721344
 21
495.940979
 31
0.0
  0
LINE
  5
AD
100
AcDbEntity
  8
LAY-1
  6
CONTINUOUS
 62
     3
100
AcDbLine
 10
331.721344
 20
532.940918
 30
0.0
 11
331.721344
 21
495.940979
 31
0.0
  0
LINE
  5
AE
100
AcDbEntity
  8
LAY-1
  6
CONTINUOUS
 62
     3
100
AcDbLine
 10
338.721344
 20
498.440979
 30
0.0
 11
338.721344
 21
530.440918
 31
0.0
  0
LINE
  5
AF
100
AcDbEntity
  8
LAY-1
  6
CONTINUOUS
 62
     3
100
AcDbLine
 10
338.721344
 20
530.440918
 30
0.0
 11
507.721344
 21
530.440918
 31
0.0
  0
LINE
  5
B0
100
AcDbEntity
  8
LAY-1
  6
CONTINUOUS
 62
     3
100
AcDbLine
 10
338.721344
 20
498.440979
 30
0.0
 11
507.721344
 21
498.440979
 31
0.0
  0
LINE
  5
B1
100
AcDbEntity
  8
LAY-1
  6
CONTINUOUS
 62
     3
100
AcDbLine
 10
507.721344
 20
530.440918
 30
0.0
 11
507.721344
 21
498.440979
 31
0.0
  0
CIRCLE
  5
B2
100
AcDbEntity
  8
LAY-1
  6
DASHED2
 62
     3
100
AcDbCircle
 10
347.721344
 20
505.440979
 30
0.0
 40
6.0
  0
CIRCLE
  5
B3
100
AcDbEntity
  8
LAY-1
  6
CONTINUOUS
 62
     3
100
AcDbCircle
 10
347.721344
 20
505.440979
 30
0.0
 40
3.35
  0
CIRCLE
  5
B4
100
AcDbEntity
  8
LAY-1
  6
DASHED2
 62
     3
100
AcDbCircle
 10
494.721344
 20
505.440979
 30
0.0
 40
6.0
  0
CIRCLE
  5
B5
100
AcDbEntity
  8
LAY-1
  6
CONTINUOUS
 62
     3
100
AcDbCircle
 10
494.721344
 20
505.440979
 30
0.0
 40
3.35
  0
CIRCLE
  5
B6
100
AcDbEntity
  8
LAY-1
  6
DASHED2
 62
     3
100
AcDbCircle
 10
347.721344
 20
523.440918
 30
0.0
 40
6.0
  0
CIRCLE
  5
B7
100
AcDbEntity
  8
LAY-1
  6
CONTINUOUS
 62
     3
100
AcDbCircle
 10
347.721344
 20
523.440918
 30
0.0
 40
3.35
  0
CIRCLE
  5
B8
100
AcDbEntity
  8
LAY-1
  6
DASHED2
 62
     3
100
AcDbCircle
 10
494.721344
 20
523.440918
 30
0.0
 40
6.0
  0
CIRCLE
  5
B9
100
AcDbEntity
  8
LAY-1
  6
CONTINUOUS
 62
     3
100
AcDbCircle
 10
494.721344
 20
523.440918
 30
0.0
 40
3.35
  0
CIRCLE
  5
BA
100
AcDbEntity
  8
LAY-1
  6
CONTINUOUS
 62
     3
100
AcDbCircle
 10
372.721329
 20
514.440918
 30
0.0
 40
6.25
  0
LINE
  5
BB
100
AcDbEntity
  8
LAY-1
  6
CONTINUOUS
 62
     3
100
AcDbLine
 10
484.721314
 20
512.190918
 30
0.0
 11
484.721344
 21
516.690918
 31
0.0
  0
LINE
  5
BC
100
AcDbEntity
  8
LAY-1
  6
CONTINUOUS
 62
     3
100
AcDbLine
 10
381.951035
 20
516.690918
 30
0.0
 11
484.721344
 21
516.690918
 31
0.0
  0
LINE
  5
BD
100
AcDbEntity
  8
LAY-1
  6
CONTINUOUS
 62
     3
100
AcDbLine
 10
381.951035
 20
512.190918
 30
0.0
 11
484.721344
 21
512.190918
 31
0.0
  0
ARC
  5
BE
100
AcDbEntity
  8
LAY-1
  6
CONTINUOUS
 62
     3
100
AcDbCircle
 10
432.721344
 20
514.440918
 30
0.0
 40
5.0
100
AcDbArc
 50
26.743665
 51
153.256355
  0
ARC
  5
BF
100
AcDbEntity
  8
LAY-1
  6
CONTINUOUS
 62
     3
100
AcDbCircle
 10
432.721344
 20
514.440918
 30
0.0
 40
5.0
100
AcDbArc
 50
205.468338
 51
331.882709
  0
ARC
  5
C0
100
AcDbEntity
  8
LAY-1
  6
CONTINUOUS
 62
     3
100
AcDbCircle
 10
473.721344
 20
514.440918
 30
0.0
 40
6.0
100
AcDbArc
 50
22.024383
 51
156.514709
  0
ARC
  5
C1
100
AcDbEntity
  8
LAY-1
  6
CONTINUOUS
 62
     3
100
AcDbCircle
 10
473.721344
 20
514.440918
 30
0.0
 40
6.0
100
AcDbArc
 50
203.485273
 51
337.366545
  0
LINE
  5
C2
100
AcDbEntity
  8
LAY-1
  6
CONTINUOUS
 62
     3
100
AcDbLine
 10
458.721375
 20
511.890991
 30
0.0
 11
446.721375
 21
511.890991
 31
0.0
  0
LINE
  5
C3
100
AcDbEntity
  8
LAY-1
  6
CONTINUOUS
 62
     3
100
AcDbLine
 10
458.721375
 20
516.990967
 30
0.0
 11
446.721375
 21
516.990967
 31
0.0
  0
LINE
  5
C4
100
AcDbEntity
  8
LAY-1
  6
CONTINUOUS
 62
     3
100
AcDbLine
 10
458.721375
 20
520.190979
 30
0.0
 11
446.721375
 21
520.190979
 31
0.0
  0
LINE
  5
C5
100
AcDbEntity
  8
LAY-1
  6
CONTINUOUS
 62
     3
100
AcDbLine
 10
446.721375
 20
508.690979
 30
0.0
 11
458.721375
 21
508.690979
 31
0.0
  0
LINE
  5
C6
100
AcDbEntity
  8
LAY-1
  6
CONTINUOUS
 62
     3
100
AcDbLine
 10
458.721375
 20
520.190979
 30
0.0
 11
458.721375
 21
516.990967
 31
0.0
  0
LINE
  5
C7
100
AcDbEntity
  8
LAY-1
  6
CONTINUOUS
 62
     3
100
AcDbLine
 10
446.721375
 20
520.190979
 30
0.0
 11
446.721375
 21
516.990967
 31
0.0
  0
LINE
  5
C8
100
AcDbEntity
  8
LAY-1
  6
CONTINUOUS
 62
     3
100
AcDbLine
 10
458.721375
 20
508.690979
 30
0.0
 11
458.721375
 21
511.890991
 31
0.0
  0
LINE
  5
C9
100
AcDbEntity
  8
LAY-1
  6
CONTINUOUS
 62
     3
100
AcDbLine
 10
446.721375
 20
508.690979
 30
0.0
 11
446.721375
 21
511.890869
 31
0.0
  0
LINE
  5
CA
100
AcDbEntity
  8
LAY-1
  6
CONTINUOUS
 62
     3
100
AcDbLine
 10
456.221375
 20
516.990967
 30
0.0
 11
456.221375
 21
516.690918
 31
0.0
  0
LINE
  5
CB
100
AcDbEntity
  8
LAY-1
  6
CONTINUOUS
 62
     3
100
AcDbLine
 10
449.221375
 20
516.990967
 30
0.0
 11
449.221375
 21
516.690918
 31
0.0
  0
LINE
  5
CC
100
AcDbEntity
  8
LAY-1
  6
CONTINUOUS
 62
     3
100
AcDbLine
 10
456.221375
 20
512.190918
 30
0.0
 11
456.221375
 21
511.890991
 31
0.0
  0
LINE
  5
CD
100
AcDbEntity
  8
LAY-1
  6
CONTINUOUS
 62
     3
100
AcDbLine
 10
449.221375
 20
512.190918
 30
0.0
 11
449.221375
 21
511.890991
 31
0.0
  0
CIRCLE
  5
CE
100
AcDbEntity
  8
LAY-1
  6
CONTINUOUS
 62
     3
100
AcDbCircle
 10
372.721344
 20
514.440857
 30
0.0
 40
9.45
  0
LINE
  5
CF
100
AcDbEntity
  8
LAY-1
  6
CONTINUOUS
 62
     3
100
AcDbLine
 10
137.971329
 20
500.570984
 30
0.0
 11
137.971329
 21
498.370972
 31
0.0
  0
LINE
  5
D0
100
AcDbEntity
  8
LAY-1
  6
CONTINUOUS
 62
     3
100
AcDbLine
 10
125.471329
 20
500.570984
 30
0.0
 11
125.471329
 21
498.370972
 31
0.0
  0
LINE
  5
D1
100
AcDbEntity
  8
LAY-1
  6
CONTINUOUS
 62
     3
100
AcDbLine
 10
272.721344
 20
500.570984
 30
0.0
 11
90.721344
 21
500.570984
 31
0.0
  0
LINE
  5
D2
100
AcDbEntity
  8
LAY-1
  6
CONTINUOUS
 62
     3
100
AcDbLine
 10
272.721344
 20
501.370972
 30
0.0
 11
272.721344
 21
500.570984
 31
0.0
  0
LINE
  5
D3
100
AcDbEntity
  8
LAY-1
  6
CONTINUOUS
 62
     3
100
AcDbLine
 10
90.721344
 20
501.370972
 30
0.0
 11
90.721344
 21
500.570984
 31
0.0
  0
LINE
  5
D4
100
AcDbEntity
  8
LAY-1
  6
CONTINUOUS
 62
     3
100
AcDbLine
 10
97.721344
 20
501.370972
 30
0.0
 11
97.721344
 21
507.370972
 31
0.0
  0
LINE
  5
D5
100
AcDbEntity
  8
LAY-1
  6
CONTINUOUS
 62
     3
100
AcDbLine
 10
266.721344
 20
501.370972
 30
0.0
 11
266.721344
 21
507.370972
 31
0.0
  0
CIRCLE
  5
D6
100
AcDbEntity
  8
LAY-1
  6
CONTINUOUS
 62
     3
100
AcDbCircle
 10
211.721314
 20
518.870972
 30
0.0
 40
3.5
  0
ARC
  5
D7
100
AcDbEntity
  8
LAY-1
  6
CONTINUOUS
 62
     3
100
AcDbCircle
 10
211.721314
 20
518.870972
 30
0.0
 40
6.0
100
AcDbArc
 50
0.0
 51
180.00002
  0
ARC
  5
D8
100
AcDbEntity
  8
LAY-1
  6
CONTINUOUS
 62
     3
100
AcDbCircle
 10
232.721314
 20
522.870972
 30
0.0
 40
6.0
100
AcDbArc
 50
305.685646
 51
234.314969
  0
LINE
  5
D9
100
AcDbEntity
  8
LAY-1
  6
CONTINUOUS
 62
     3
100
AcDbLine
 10
227.621338
 20
507.371033
 30
0.0
 11
227.621338
 21
513.371033
 31
0.0
  0
LINE
  5
DA
100
AcDbEntity
  8
LAY-1
  6
CONTINUOUS
 62
     3
100
AcDbLine
 10
237.821351
 20
507.371033
 30
0.0
 11
237.821351
 21
513.371033
 31
0.0
  0
LINE
  5
DB
100
AcDbEntity
  8
LAY-1
  6
CONTINUOUS
 62
     3
100
AcDbLine
 10
227.621338
 20
513.371033
 30
0.0
 11
237.821351
 21
513.371033
 31
0.0
  0
LINE
  5
DC
100
AcDbEntity
  8
LAY-1
  6
CONTINUOUS
 62
     1
100
AcDbLine
 10
228.221344
 20
507.371033
 30
0.0
 11
228.221344
 21
513.371033
 31
0.0
  0
LINE
  5
DD
100
AcDbEntity
  8
LAY-1
  6
CONTINUOUS
 62
     1
100
AcDbLine
 10
237.221344
 20
507.371033
 30
0.0
 11
237.221344
 21
513.371033
 31
0.0
  0
LINE
  5
DE
100
AcDbEntity
  8
LAY-1
  6
CONTINUOUS
 62
     3
100
AcDbLine
 10
229.221344
 20
517.997559
 30
0.0
 11
229.221344
 21
513.371033
 31
0.0
  0
LINE
  5
DF
100
AcDbEntity
  8
LAY-1
  6
CONTINUOUS
 62
     3
100
AcDbLine
 10
236.221344
 20
517.997559
 30
0.0
 11
236.221344
 21
513.371033
 31
0.0
  0
LINE
  5
E0
100
AcDbEntity
  8
LAY-1
  6
CONTINUOUS
 62
     3
100
AcDbLine
 10
229.221344
 20
517.997559
 30
0.0
 11
236.221375
 21
517.997559
 31
0.0
  0
LINE
  5
E1
100
AcDbEntity
  8
LAY-1
  6
CONTINUOUS
 62
     3
100
AcDbLine
 10
217.721314
 20
518.870972
 30
0.0
 11
217.721314
 21
507.371033
 31
0.0
  0
LINE
  5
E2
100
AcDbEntity
  8
LAY-1
  6
CONTINUOUS
 62
     3
100
AcDbLine
 10
205.721314
 20
518.870972
 30
0.0
 11
205.721314
 21
507.371033
 31
0.0
  0
ARC
  5
E3
100
AcDbEntity
  8
LAY-1
  6
CONTINUOUS
 62
     3
100
AcDbCircle
 10
232.721314
 20
522.870972
 30
0.0
 40
11.0
100
AcDbArc
 50
333.214091
 51
359.999982
  0
ARC
  5
E4
100
AcDbEntity
  8
LAY-1
  6
CONTINUOUS
 62
     3
100
AcDbCircle
 10
231.721314
 20
525.370972
 30
0.0
 40
12.0
100
AcDbArc
 50
0.0
 51
94.76361
  0
LINE
  5
E5
100
AcDbEntity
  8
LAY-1
  6
CONTINUOUS
 62
     3
100
AcDbLine
 10
243.721314
 20
525.370972
 30
0.0
 11
243.721314
 21
522.870972
 31
0.0
  0
ARC
  5
E6
100
AcDbEntity
  8
LAY-1
  6
CONTINUOUS
 62
     3
100
AcDbCircle
 10
240.327973
 20
519.267517
 30
0.0
 40
2.5
100
AcDbArc
 50
180.00002
 51
328.367269
  0
LINE
  5
E7
100
AcDbEntity
  8
LAY-1
  6
CONTINUOUS
 62
     3
100
AcDbLine
 10
230.721314
 20
537.370972
 30
0.0
 11
143.721314
 21
514.870972
 31
0.0
  0
LINE
  5
E8
100
AcDbEntity
  8
LAY-1
  6
CONTINUOUS
 62
     3
100
AcDbLine
 10
228.721314
 20
518.398804
 30
0.0
 11
228.721314
 21
515.663025
 31
0.0
  0
LINE
  5
E9
100
AcDbEntity
  8
LAY-1
  6
CONTINUOUS
 62
     3
100
AcDbLine
 10
217.721314
 20
512.282776
 30
0.0
 11
227.950348
 21
514.689575
 31
0.0
  0
ARC
  5
EA
100
AcDbEntity
  8
LAY-1
  6
CONTINUOUS
 62
     3
100
AcDbCircle
 10
227.721314
 20
515.663025
 30
0.0
 40
1.0
100
AcDbArc
 50
283.240597
 51
359.999982
  0
LINE
  5
EB
100
AcDbEntity
  8
LAY-1
  6
CONTINUOUS
 62
     3
100
AcDbLine
 10
205.721314
 20
510.694519
 30
0.0
 11
195.991913
 21
510.408264
 31
0.0
  0
LINE
  5
EC
100
AcDbEntity
  8
LAY-1
  6
CONTINUOUS
 62
     3
100
AcDbLine
 10
143.721314
 20
508.870972
 30
0.0
 11
186.448853
 21
510.127625
 31
0.0
  0
ARC
  5
ED
100
AcDbEntity
  8
LAY-1
  6
CONTINUOUS
 62
     3
100
AcDbCircle
 10
186.478257
 20
509.128052
 30
0.0
 40
1.0
100
AcDbArc
 50
32.083058
 51
91.684649
  0
ARC
  5
EE
100
AcDbEntity
  8
LAY-1
  6
CONTINUOUS
 62
     3
100
AcDbCircle
 10
196.021317
 20
509.408752
 30
0.0
 40
1.0
100
AcDbArc
 50
91.684764
 51
180.00002
  0
ARC
  5
EF
100
AcDbEntity
  8
LAY-1
  6
DASHED2
 62
     3
100
AcDbCircle
 10
193.074692
 20
502.370972
 30
0.0
 40
1.0
100
AcDbArc
 50
212.083135
 51
270.0
  0
ARC
  5
F0
100
AcDbEntity
  8
LAY-1
  6
DASHED2
 62
     3
100
AcDbCircle
 10
194.021317
 20
502.370972
 30
0.0
 40
1.0
100
AcDbArc
 50
270.0
 51
359.999982
  0
LINE
  5
F1
100
AcDbEntity
  8
LAY-1
  6
CONTINUOUS
 62
     3
100
AcDbLine
 10
195.021317
 20
509.408752
 30
0.0
 11
195.021317
 21
507.370972
 31
0.0
  0
LINE
  5
F2
100
AcDbEntity
  8
LAY-1
  6
DASHED2
 62
     3
100
AcDbLine
 10
195.021332
 20
507.370972
 30
0.0
 11
195.021317
 21
502.370972
 31
0.0
  0
LINE
  5
F3
100
AcDbEntity
  8
LAY-1
  6
CONTINUOUS
 62
     3
100
AcDbLine
 10
187.325531
 20
509.65918
 30
0.0
 11
188.759995
 21
507.370972
 31
0.0
  0
LINE
  5
F4
100
AcDbEntity
  8
LAY-1
  6
DASHED2
 62
     3
100
AcDbLine
 10
188.759964
 20
507.370972
 30
0.0
 11
192.227417
 21
501.839783
 31
0.0
  0
LINE
  5
F5
100
AcDbEntity
  8
LAY-1
  6
CONTINUOUS
 62
     3
100
AcDbLine
 10
272.721344
 20
501.370972
 30
0.0
 11
90.721344
 21
501.370972
 31
0.0
  0
LINE
  5
F6
100
AcDbEntity
  8
LAY-1
  6
DASHED2
 62
     3
100
AcDbLine
 10
247.721314
 20
501.770966
 30
0.0
 11
247.721314
 21
501.370972
 31
0.0
  0
LINE
  5
F7
100
AcDbEntity
  8
LAY-1
  6
DASHED2
 62
     3
100
AcDbLine
 10
253.721314
 20
501.770966
 30
0.0
 11
247.721314
 21
501.770966
 31
0.0
  0
LINE
  5
F8
100
AcDbEntity
  8
LAY-1
  6
DASHED2
 62
     3
100
AcDbLine
 10
250.721314
 20
504.770966
 30
0.0
 11
250.721314
 21
511.870972
 31
0.0
  0
LINE
  5
F9
100
AcDbEntity
  8
LAY-1
  6
DASHED2
 62
     3
100
AcDbLine
 10
253.721314
 20
504.770966
 30
0.0
 11
250.721314
 21
504.770966
 31
0.0
  0
LINE
  5
FA
100
AcDbEntity
  8
LAY-1
  6
DASHED2
 62
     3
100
AcDbLine
 10
250.721314
 20
504.770966
 30
0.0
 11
247.721314
 21
501.770966
 31
0.0
  0
LINE
  5
FB
100
AcDbEntity
  8
LAY-1
  6
CONTINUOUS
 62
     3
100
AcDbLine
 10
250.721314
 20
517.370972
 30
0.0
 11
253.721314
 21
517.370972
 31
0.0
  0
LINE
  5
FC
100
AcDbEntity
  8
LAY-1
  6
CONTINUOUS
 62
     3
100
AcDbLine
 10
250.721314
 20
511.870972
 30
0.0
 11
250.721314
 21
517.370972
 31
0.0
  0
LINE
  5
FD
100
AcDbEntity
  8
LAY-1
  6
DASHED2
 62
     1
100
AcDbLine
 10
251.221314
 20
504.770966
 30
0.0
 11
251.221314
 21
511.870972
 31
0.0
  0
LINE
  5
FE
100
AcDbEntity
  8
LAY-1
  6
CONTINUOUS
 62
     1
100
AcDbLine
 10
251.221314
 20
511.870972
 30
0.0
 11
251.221314
 21
517.370972
 31
0.0
  0
LINE
  5
FF
100
AcDbEntity
  8
LAY-1
  6
CONTINUOUS
 62
     3
100
AcDbLine
 10
256.721314
 20
517.370972
 30
0.0
 11
253.721314
 21
517.370972
 31
0.0
  0
LINE
  5
100
100
AcDbEntity
  8
LAY-1
  6
CONTINUOUS
 62
     1
100
AcDbLine
 10
256.221314
 20
511.870972
 30
0.0
 11
256.221314
 21
517.370972
 31
0.0
  0
LINE
  5
101
100
AcDbEntity
  8
LAY-1
  6
CONTINUOUS
 62
     3
100
AcDbLine
 10
256.721314
 20
511.870972
 30
0.0
 11
256.721314
 21
517.370972
 31
0.0
  0
LINE
  5
102
100
AcDbEntity
  8
LAY-1
  6
DASHED2
 62
     1
100
AcDbLine
 10
256.221314
 20
504.770966
 30
0.0
 11
256.221314
 21
511.870972
 31
0.0
  0
LINE
  5
103
100
AcDbEntity
  8
LAY-1
  6
DASHED2
 62
     3
100
AcDbLine
 10
256.721314
 20
504.770966
 30
0.0
 11
256.721314
 21
511.870972
 31
0.0
  0
LINE
  5
104
100
AcDbEntity
  8
LAY-1
  6
DASHED2
 62
     3
100
AcDbLine
 10
253.721314
 20
504.770966
 30
0.0
 11
256.721314
 21
504.770966
 31
0.0
  0
LINE
  5
105
100
AcDbEntity
  8
LAY-1
  6
DASHED2
 62
     3
100
AcDbLine
 10
256.721314
 20
504.770966
 30
0.0
 11
259.721314
 21
501.770966
 31
0.0
  0
LINE
  5
106
100
AcDbEntity
  8
LAY-1
  6
DASHED2
 62
     3
100
AcDbLine
 10
259.721314
 20
501.770966
 30
0.0
 11
259.721314
 21
501.370972
 31
0.0
  0
LINE
  5
107
100
AcDbEntity
  8
LAY-1
  6
DASHED2
 62
     3
100
AcDbLine
 10
253.721314
 20
501.770966
 30
0.0
 11
259.721314
 21
501.770966
 31
0.0
  0
LINE
  5
108
100
AcDbEntity
  8
LAY-1
  6
DASHED2
 62
     3
100
AcDbLine
 10
100.721344
 20
501.770966
 30
0.0
 11
100.721344
 21
501.370972
 31
0.0
  0
LINE
  5
109
100
AcDbEntity
  8
LAY-1
  6
DASHED2
 62
     3
100
AcDbLine
 10
106.721344
 20
501.770966
 30
0.0
 11
100.721344
 21
501.770966
 31
0.0
  0
LINE
  5
10A
100
AcDbEntity
  8
LAY-1
  6
DASHED2
 62
     3
100
AcDbLine
 10
103.721344
 20
504.770966
 30
0.0
 11
103.721344
 21
511.870972
 31
0.0
  0
LINE
  5
10B
100
AcDbEntity
  8
LAY-1
  6
DASHED2
 62
     3
100
AcDbLine
 10
106.721344
 20
504.770966
 30
0.0
 11
103.721344
 21
504.770966
 31
0.0
  0
LINE
  5
10C
100
AcDbEntity
  8
LAY-1
  6
DASHED2
 62
     3
100
AcDbLine
 10
103.721344
 20
504.770966
 30
0.0
 11
100.721344
 21
501.770966
 31
0.0
  0
LINE
  5
10D
100
AcDbEntity
  8
LAY-1
  6
CONTINUOUS
 62
     3
100
AcDbLine
 10
103.721344
 20
517.370972
 30
0.0
 11
106.721344
 21
517.370972
 31
0.0
  0
LINE
  5
10E
100
AcDbEntity
  8
LAY-1
  6
CONTINUOUS
 62
     3
100
AcDbLine
 10
103.721344
 20
511.870972
 30
0.0
 11
103.721344
 21
517.370972
 31
0.0
  0
LINE
  5
10F
100
AcDbEntity
  8
LAY-1
  6
DASHED2
 62
     1
100
AcDbLine
 10
104.221344
 20
504.770966
 30
0.0
 11
104.221344
 21
511.870972
 31
0.0
  0
LINE
  5
110
100
AcDbEntity
  8
LAY-1
  6
CONTINUOUS
 62
     1
100
AcDbLine
 10
104.221344
 20
511.870972
 30
0.0
 11
104.221344
 21
517.370972
 31
0.0
  0
LINE
  5
111
100
AcDbEntity
  8
LAY-1
  6
CONTINUOUS
 62
     3
100
AcDbLine
 10
109.721344
 20
517.370972
 30
0.0
 11
106.721344
 21
517.370972
 31
0.0
  0
LINE
  5
112
100
AcDbEntity
  8
LAY-1
  6
CONTINUOUS
 62
     1
100
AcDbLine
 10
109.221344
 20
511.870972
 30
0.0
 11
109.221344
 21
517.370972
 31
0.0
  0
LINE
  5
113
100
AcDbEntity
  8
LAY-1
  6
CONTINUOUS
 62
     3
100
AcDbLine
 10
109.721344
 20
511.870972
 30
0.0
 11
109.721344
 21
517.370972
 31
0.0
  0
LINE
  5
114
100
AcDbEntity
  8
LAY-1
  6
DASHED2
 62
     1
100
AcDbLine
 10
109.221344
 20
504.770966
 30
0.0
 11
109.221344
 21
511.870972
 31
0.0
  0
LINE
  5
115
100
AcDbEntity
  8
LAY-1
  6
DASHED2
 62
     3
100
AcDbLine
 10
109.721344
 20
504.770966
 30
0.0
 11
109.721344
 21
511.870972
 31
0.0
  0
LINE
  5
116
100
AcDbEntity
  8
LAY-1
  6
DASHED2
 62
     3
100
AcDbLine
 10
106.721344
 20
504.770966
 30
0.0
 11
109.721344
 21
504.770966
 31
0.0
  0
LINE
  5
117
100
AcDbEntity
  8
LAY-1
  6
DASHED2
 62
     3
100
AcDbLine
 10
109.721344
 20
504.770966
 30
0.0
 11
112.721344
 21
501.770966
 31
0.0
  0
LINE
  5
118
100
AcDbEntity
  8
LAY-1
  6
DASHED2
 62
     3
100
AcDbLine
 10
112.721344
 20
501.770966
 30
0.0
 11
112.721344
 21
501.370972
 31
0.0
  0
LINE
  5
119
100
AcDbEntity
  8
LAY-1
  6
DASHED2
 62
     3
100
AcDbLine
 10
106.721344
 20
501.770966
 30
0.0
 11
112.721344
 21
501.770966
 31
0.0
  0
TEXT
  5
11A
100
AcDbEntity
  8
LAY-1
  6
CONTINUOUS
 62
     2
100
AcDbText
 10
232.75
 20
213.4
 30
0.0
 40
5.0
  1
アーム
 41
0.672
  7
EXCADSTD
 72
     5
 11
244.75
 21
213.4
 31
0.0
100
AcDbText
  0
POLYLINE
  5
11B
100
AcDbEntity
  8
LAY-1
  6
CONTINUOUS
 62
     1
100
AcDb2dPolyline
 66
     1
 10
0.0
 20
0.0
 30
0.0
 70
   128
  0
VERTEX
  5
11C
100
AcDbEntity
  8
LAY-1
  6
CONTINUOUS
 62
     1
100
AcDbVertex
100
AcDb2dVertex
 10
212.9
 20
176.052078
 30
0.0
  0
VERTEX
  5
11D
100
AcDbEntity
  8
LAY-1
  6
CONTINUOUS
 62
     1
100
AcDbVertex
100
AcDb2dVertex
 10
228.9
 20
212.9
 30
0.0
  0
VERTEX
  5
11E
100
AcDbEntity
  8
LAY-1
  6
CONTINUOUS
 62
     1
100
AcDbVertex
100
AcDb2dVertex
 10
248.6
 20
212.9
 30
0.0
  0
SEQEND
  5
11F
100
AcDbEntity
  8
LAY-1
  6
CONTINUOUS
 62
     1
  0
LINE
  5
120
100
AcDbEntity
  8
LAY-1
  6
CONTINUOUS
 62
     1
100
AcDbLine
 10
213.390827
 20
178.019361
 30
0.0
 11
212.9
 21
176.052078
 31
0.0
  0
LINE
  5
121
100
AcDbEntity
  8
LAY-1
  6
CONTINUOUS
 62
     1
100
AcDbLine
 10
212.9
 20
176.052078
 30
0.0
 11
214.002333
 21
177.753834
 31
0.0
  0
LINE
  5
122
100
AcDbEntity
  8
LAY-1
  6
CONTINUOUS
 62
     3
100
AcDbLine
 10
143.721314
 20
514.870972
 30
0.0
 11
141.27136
 21
514.870972
 31
0.0
  0
LINE
  5
123
100
AcDbEntity
  8
LAY-1
  6
CONTINUOUS
 62
     3
100
AcDbLine
 10
143.721314
 20
508.870972
 30
0.0
 11
141.27136
 21
508.870972
 31
0.0
  0
LINE
  5
124
100
AcDbEntity
  8
LAY-1
  6
CONTINUOUS
 62
     3
100
AcDbLine
 10
141.221357
 20
507.371033
 30
0.0
 11
141.221357
 21
539.371033
 31
0.0
  0
LINE
  5
125
100
AcDbEntity
  8
LAY-1
  6
CONTINUOUS
 62
     3
100
AcDbLine
 10
122.221363
 20
507.371033
 30
0.0
 11
122.221363
 21
539.371033
 31
0.0
  0
LINE
  5
126
100
AcDbEntity
  8
LAY-1
  6
CONTINUOUS
 62
     3
100
AcDbLine
 10
97.721344
 20
507.370972
 30
0.0
 11
266.721344
 21
507.370972
 31
0.0
  0
LINE
  5
127
100
AcDbEntity
  8
LAY-1
  6
CONTINUOUS
 62
     3
100
AcDbLine
 10
122.221363
 20
539.371033
 30
0.0
 11
141.221357
 21
539.371033
 31
0.0
  0
LINE
  5
128
100
AcDbEntity
  8
LAY-1
  6
CONTINUOUS
 62
     3
100
AcDbLine
 10
689.799821
 20
500.570984
 30
0.0
 11
689.799821
 21
498.370972
 31
0.0
  0
LINE
  5
129
100
AcDbEntity
  8
LAY-1
  6
CONTINUOUS
 62
     3
100
AcDbLine
 10
677.299821
 20
500.570984
 30
0.0
 11
677.299821
 21
498.370972
 31
0.0
  0
LINE
  5
12A
100
AcDbEntity
  8
LAY-1
  6
CONTINUOUS
 62
     3
100
AcDbLine
 10
693.049849
 20
507.371033
 30
0.0
 11
693.049849
 21
539.371033
 31
0.0
  0
LINE
  5
12B
100
AcDbEntity
  8
LAY-1
  6
CONTINUOUS
 62
     3
100
AcDbLine
 10
674.049855
 20
507.371033
 30
0.0
 11
674.049855
 21
539.371033
 31
0.0
  0
LINE
  5
12C
100
AcDbEntity
  8
LAY-1
  6
CONTINUOUS
 62
     3
100
AcDbLine
 10
674.049855
 20
539.371033
 30
0.0
 11
693.049849
 21
539.371033
 31
0.0
  0
LINE
  5
12D
100
AcDbEntity
  8
LAY-1
  6
CONTINUOUS
 62
     3
100
AcDbLine
 10
702.049836
 20
500.570984
 30
0.0
 11
702.049836
 21
501.370972
 31
0.0
  0
LINE
  5
12E
100
AcDbEntity
  8
LAY-1
  6
CONTINUOUS
 62
     3
100
AcDbLine
 10
699.549851
 20
501.370972
 30
0.0
 11
699.549851
 21
507.370972
 31
0.0
  0
LINE
  5
12F
100
AcDbEntity
  8
LAY-1
  6
CONTINUOUS
 62
     3
100
AcDbLine
 10
667.549821
 20
501.370972
 30
0.0
 11
667.549821
 21
507.370972
 31
0.0
  0
LINE
  5
130
100
AcDbEntity
  8
LAY-1
  6
CONTINUOUS
 62
     3
100
AcDbLine
 10
665.049836
 20
500.570984
 30
0.0
 11
665.049836
 21
501.370972
 31
0.0
  0
LINE
  5
131
100
AcDbEntity
  8
LAY-1
  6
CONTINUOUS
 62
     3
100
AcDbLine
 10
702.049836
 20
500.570984
 30
0.0
 11
665.049836
 21
500.570984
 31
0.0
  0
LINE
  5
132
100
AcDbEntity
  8
LAY-1
  6
CONTINUOUS
 62
     3
100
AcDbLine
 10
702.049836
 20
501.370972
 30
0.0
 11
665.049836
 21
501.370972
 31
0.0
  0
LINE
  5
133
100
AcDbEntity
  8
LAY-1
  6
CONTINUOUS
 62
     3
100
AcDbLine
 10
667.549821
 20
507.370972
 30
0.0
 11
699.549851
 21
507.370972
 31
0.0
  0
LINE
  5
134
100
AcDbEntity
  8
LAY-2
  6
CONTINUOUS
 62
     3
100
AcDbLine
 10
507.721344
 20
408.370972
 30
0.0
 11
356.721329
 21
408.370972
 31
0.0
  0
LINE
  5
135
100
AcDbEntity
  8
LAY-2
  6
CONTINUOUS
 62
     3
100
AcDbLine
 10
507.721344
 20
440.370972
 30
0.0
 11
356.721329
 21
440.370972
 31
0.0
  0
LINE
  5
136
100
AcDbEntity
  8
LAY-2
  6
CONTINUOUS
 62
     3
100
AcDbLine
 10
507.721344
 20
440.370972
 30
0.0
 11
507.721344
 21
408.370972
 31
0.0
  0
LINE
  5
137
100
AcDbEntity
  8
LAY-2
  6
CONTINUOUS
 62
     3
100
AcDbLine
 10
356.721329
 20
440.370972
 30
0.0
 11
356.721329
 21
408.370972
 31
0.0
  0
CIRCLE
  5
138
100
AcDbEntity
  8
LAY-2
  6
CONTINUOUS
 62
     3
100
AcDbCircle
 10
372.721344
 20
424.370911
 30
0.0
 40
6.25
  0
CIRCLE
  5
139
100
AcDbEntity
  8
LAY-2
  6
CONTINUOUS
 62
     3
100
AcDbCircle
 10
372.721344
 20
424.370911
 30
0.0
 40
11.9
  0
CIRCLE
  5
13A
100
AcDbEntity
  8
LAY-2
  6
CONTINUOUS
 62
     3
100
AcDbCircle
 10
402.721329
 20
432.370972
 30
0.0
 40
6.0
  0
CIRCLE
  5
13B
100
AcDbEntity
  8
LAY-2
  6
CONTINUOUS
 62
     3
100
AcDbCircle
 10
402.721329
 20
432.370972
 30
0.0
 40
3.35
  0
CIRCLE
  5
13C
100
AcDbEntity
  8
LAY-2
  6
CONTINUOUS
 62
     3
100
AcDbCircle
 10
448.721344
 20
416.370972
 30
0.0
 40
6.0
  0
CIRCLE
  5
13D
100
AcDbEntity
  8
LAY-2
  6
CONTINUOUS
 62
     3
100
AcDbCircle
 10
448.721344
 20
416.370972
 30
0.0
 40
3.35
  0
CIRCLE
  5
13E
100
AcDbEntity
  8
LAY-2
  6
CONTINUOUS
 62
     3
100
AcDbCircle
 10
494.721344
 20
432.370972
 30
0.0
 40
6.0
  0
CIRCLE
  5
13F
100
AcDbEntity
  8
LAY-2
  6
CONTINUOUS
 62
     3
100
AcDbCircle
 10
494.721344
 20
432.370972
 30
0.0
 40
3.35
  0
LINE
  5
140
100
AcDbEntity
  8
LAY-2
  6
CONTINUOUS
 62
     3
100
AcDbLine
 10
266.721344
 20
492.370972
 30
0.0
 11
115.721329
 21
492.370972
 31
0.0
  0
LINE
  5
141
100
AcDbEntity
  8
LAY-2
  6
CONTINUOUS
 62
     3
100
AcDbLine
 10
266.721344
 20
498.370972
 30
0.0
 11
266.721344
 21
492.370972
 31
0.0
  0
LINE
  5
142
100
AcDbEntity
  8
LAY-2
  6
CONTINUOUS
 62
     3
100
AcDbLine
 10
115.721329
 20
498.370972
 30
0.0
 11
115.721329
 21
492.370972
 31
0.0
  0
LINE
  5
143
100
AcDbEntity
  8
LAY-2
  6
CONTINUOUS
 62
     3
100
AcDbLine
 10
266.721344
 20
498.370972
 30
0.0
 11
115.721329
 21
498.370972
 31
0.0
  0
LINE
  5
144
100
AcDbEntity
  8
LAY-2
  6
CONTINUOUS
 62
     3
100
AcDbLine
 10
117.721344
 20
492.370972
 30
0.0
 11
117.721344
 21
491.170972
 31
0.0
  0
LINE
  5
145
100
AcDbEntity
  8
LAY-2
  6
CONTINUOUS
 62
     3
100
AcDbLine
 10
145.721344
 20
492.370972
 30
0.0
 11
145.721344
 21
491.170972
 31
0.0
  0
LINE
  5
146
100
AcDbEntity
  8
LAY-2
  6
CONTINUOUS
 62
     3
100
AcDbLine
 10
117.721344
 20
491.170972
 30
0.0
 11
145.721344
 21
491.170972
 31
0.0
  0
ARC
  5
147
100
AcDbEntity
  8
LAY-2
  6
CONTINUOUS
 62
     3
100
AcDbCircle
 10
119.871344
 20
491.170972
 30
0.0
 40
1.0
100
AcDbArc
 50
180.0
 51
270.0
  0
ARC
  5
148
100
AcDbEntity
  8
LAY-2
  6
CONTINUOUS
 62
     3
100
AcDbCircle
 10
143.571344
 20
491.170972
 30
0.0
 40
1.0
100
AcDbArc
 50
270.0
 51
0.0
  0
LINE
  5
149
100
AcDbEntity
  8
LAY-2
  6
DASHED2
 62
     3
100
AcDbLine
 10
155.721329
 20
497.970978
 30
0.0
 11
155.721329
 21
498.370972
 31
0.0
  0
LINE
  5
14A
100
AcDbEntity
  8
LAY-2
  6
DASHED2
 62
     3
100
AcDbLine
 10
155.721329
 20
497.970978
 30
0.0
 11
161.721329
 21
497.970978
 31
0.0
  0
LINE
  5
14B
100
AcDbEntity
  8
LAY-2
  6
DASHED2
 62
     3
100
AcDbLine
 10
158.721329
 20
494.970978
 30
0.0
 11
158.721329
 21
487.870972
 31
0.0
  0
LINE
  5
14C
100
AcDbEntity
  8
LAY-2
  6
DASHED2
 62
     3
100
AcDbLine
 10
158.721329
 20
494.970978
 30
0.0
 11
161.721329
 21
494.970978
 31
0.0
  0
LINE
  5
14D
100
AcDbEntity
  8
LAY-2
  6
DASHED2
 62
     3
100
AcDbLine
 10
155.721329
 20
497.970978
 30
0.0
 11
158.721329
 21
494.970978
 31
0.0
  0
LINE
  5
14E
100
AcDbEntity
  8
LAY-2
  6
CONTINUOUS
 62
     3
100
AcDbLine
 10
161.721329
 20
482.370972
 30
0.0
 11
158.721329
 21
482.370972
 31
0.0
  0
LINE
  5
14F
100
AcDbEntity
  8
LAY-2
  6
CONTINUOUS
 62
     3
100
AcDbLine
 10
158.721329
 20
487.870972
 30
0.0
 11
158.721329
 21
482.370972
 31
0.0
  0
LINE
  5
150
100
AcDbEntity
  8
LAY-2
  6
CONTINUOUS
 62
     1
100
AcDbLine
 10
159.221329
 20
487.870972
 30
0.0
 11
159.221329
 21
482.370972
 31
0.0
  0
LINE
  5
151
100
AcDbEntity
  8
LAY-2
  6
DASHED2
 62
     1
100
AcDbLine
 10
159.221329
 20
494.970978
 30
0.0
 11
159.221329
 21
487.870972
 31
0.0
  0
LINE
  5
152
100
AcDbEntity
  8
LAY-2
  6
DASHED2
 62
     3
100
AcDbLine
 10
164.721329
 20
494.970978
 30
0.0
 11
161.721329
 21
494.970978
 31
0.0
  0
LINE
  5
153
100
AcDbEntity
  8
LAY-2
  6
DASHED2
 62
     3
100
AcDbLine
 10
167.721329
 20
497.970978
 30
0.0
 11
164.721329
 21
494.970978
 31
0.0
  0
LINE
  5
154
100
AcDbEntity
  8
LAY-2
  6
DASHED2
 62
     3
100
AcDbLine
 10
167.721329
 20
497.970978
 30
0.0
 11
161.721329
 21
497.970978
 31
0.0
  0
LINE
  5
155
100
AcDbEntity
  8
LAY-2
  6
DASHED2
 62
     3
100
AcDbLine
 10
167.721329
 20
497.970978
 30
0.0
 11
167.721329
 21
498.370972
 31
0.0
  0
LINE
  5
156
100
AcDbEntity
  8
LAY-2
  6
DASHED2
 62
     3
100
AcDbLine
 10
164.721329
 20
494.970978
 30
0.0
 11
164.721329
 21
487.870972
 31
0.0
  0
LINE
  5
157
100
AcDbEntity
  8
LAY-2
  6
DASHED2
 62
     1
100
AcDbLine
 10
164.221329
 20
494.970978
 30
0.0
 11
164.221329
 21
487.870972
 31
0.0
  0
LINE
  5
158
100
AcDbEntity
  8
LAY-2
  6
CONTINUOUS
 62
     1
100
AcDbLine
 10
164.221329
 20
487.870972
 30
0.0
 11
164.221329
 21
482.370972
 31
0.0
  0
LINE
  5
159
100
AcDbEntity
  8
LAY-2
  6
CONTINUOUS
 62
     3
100
AcDbLine
 10
164.721329
 20
487.870972
 30
0.0
 11
164.721329
 21
482.370972
 31
0.0
  0
LINE
  5
15A
100
AcDbEntity
  8
LAY-2
  6
CONTINUOUS
 62
     3
100
AcDbLine
 10
161.721329
 20
482.370972
 30
0.0
 11
164.721329
 21
482.370972
 31
0.0
  0
LINE
  5
15B
100
AcDbEntity
  8
LAY-2
  6
DASHED2
 62
     3
100
AcDbLine
 10
201.721344
 20
497.970978
 30
0.0
 11
201.721344
 21
498.370972
 31
0.0
  0
LINE
  5
15C
100
AcDbEntity
  8
LAY-2
  6
DASHED2
 62
     3
100
AcDbLine
 10
201.721344
 20
497.970978
 30
0.0
 11
207.721344
 21
497.970978
 31
0.0
  0
LINE
  5
15D
100
AcDbEntity
  8
LAY-2
  6
DASHED2
 62
     3
100
AcDbLine
 10
204.721344
 20
494.970978
 30
0.0
 11
204.721344
 21
487.870972
 31
0.0
  0
LINE
  5
15E
100
AcDbEntity
  8
LAY-2
  6
DASHED2
 62
     3
100
AcDbLine
 10
204.721344
 20
494.970978
 30
0.0
 11
207.721344
 21
494.970978
 31
0.0
  0
LINE
  5
15F
100
AcDbEntity
  8
LAY-2
  6
DASHED2
 62
     3
100
AcDbLine
 10
201.721344
 20
497.970978
 30
0.0
 11
204.721344
 21
494.970978
 31
0.0
  0
LINE
  5
160
100
AcDbEntity
  8
LAY-2
  6
CONTINUOUS
 62
     3
100
AcDbLine
 10
207.721344
 20
482.370972
 30
0.0
 11
204.721344
 21
482.370972
 31
0.0
  0
LINE
  5
161
100
AcDbEntity
  8
LAY-2
  6
CONTINUOUS
 62
     3
100
AcDbLine
 10
204.721344
 20
487.870972
 30
0.0
 11
204.721344
 21
482.370972
 31
0.0
  0
LINE
  5
162
100
AcDbEntity
  8
LAY-2
  6
CONTINUOUS
 62
     1
100
AcDbLine
 10
205.221344
 20
487.870972
 30
0.0
 11
205.221344
 21
482.370972
 31
0.0
  0
LINE
  5
163
100
AcDbEntity
  8
LAY-2
  6
DASHED2
 62
     1
100
AcDbLine
 10
205.221344
 20
494.970978
 30
0.0
 11
205.221344
 21
487.870972
 31
0.0
  0
LINE
  5
164
100
AcDbEntity
  8
LAY-2
  6
DASHED2
 62
     3
100
AcDbLine
 10
210.721344
 20
494.970978
 30
0.0
 11
207.721344
 21
494.970978
 31
0.0
  0
LINE
  5
165
100
AcDbEntity
  8
LAY-2
  6
DASHED2
 62
     3
100
AcDbLine
 10
213.721344
 20
497.970978
 30
0.0
 11
210.721344
 21
494.970978
 31
0.0
  0
LINE
  5
166
100
AcDbEntity
  8
LAY-2
  6
DASHED2
 62
     3
100
AcDbLine
 10
213.721344
 20
497.970978
 30
0.0
 11
207.721344
 21
497.970978
 31
0.0
  0
LINE
  5
167
100
AcDbEntity
  8
LAY-2
  6
DASHED2
 62
     3
100
AcDbLine
 10
213.721344
 20
497.970978
 30
0.0
 11
213.721344
 21
498.370972
 31
0.0
  0
LINE
  5
168
100
AcDbEntity
  8
LAY-2
  6
DASHED2
 62
     3
100
AcDbLine
 10
210.721344
 20
494.970978
 30
0.0
 11
210.721344
 21
487.870972
 31
0.0
  0
LINE
  5
169
100
AcDbEntity
  8
LAY-2
  6
DASHED2
 62
     1
100
AcDbLine
 10
210.221344
 20
494.970978
 30
0.0
 11
210.221344
 21
487.870972
 31
0.0
  0
LINE
  5
16A
100
AcDbEntity
  8
LAY-2
  6
CONTINUOUS
 62
     1
100
AcDbLine
 10
210.221344
 20
487.870972
 30
0.0
 11
210.221344
 21
482.370972
 31
0.0
  0
LINE
  5
16B
100
AcDbEntity
  8
LAY-2
  6
CONTINUOUS
 62
     3
100
AcDbLine
 10
210.721344
 20
487.870972
 30
0.0
 11
210.721344
 21
482.370972
 31
0.0
  0
LINE
  5
16C
100
AcDbEntity
  8
LAY-2
  6
CONTINUOUS
 62
     3
100
AcDbLine
 10
207.721344
 20
482.370972
 30
0.0
 11
210.721344
 21
482.370972
 31
0.0
  0
LINE
  5
16D
100
AcDbEntity
  8
LAY-2
  6
DASHED2
 62
     3
100
AcDbLine
 10
247.721344
 20
497.970978
 30
0.0
 11
247.721344
 21
498.370972
 31
0.0
  0
LINE
  5
16E
100
AcDbEntity
  8
LAY-2
  6
DASHED2
 62
     3
100
AcDbLine
 10
247.721344
 20
497.970978
 30
0.0
 11
253.721344
 21
497.970978
 31
0.0
  0
LINE
  5
16F
100
AcDbEntity
  8
LAY-2
  6
DASHED2
 62
     3
100
AcDbLine
 10
250.721344
 20
494.970978
 30
0.0
 11
250.721344
 21
487.870972
 31
0.0
  0
LINE
  5
170
100
AcDbEntity
  8
LAY-2
  6
DASHED2
 62
     3
100
AcDbLine
 10
250.721344
 20
494.970978
 30
0.0
 11
253.721344
 21
494.970978
 31
0.0
  0
LINE
  5
171
100
AcDbEntity
  8
LAY-2
  6
DASHED2
 62
     3
100
AcDbLine
 10
247.721344
 20
497.970978
 30
0.0
 11
250.721344
 21
494.970978
 31
0.0
  0
LINE
  5
172
100
AcDbEntity
  8
LAY-2
  6
CONTINUOUS
 62
     3
100
AcDbLine
 10
253.721344
 20
482.370972
 30
0.0
 11
250.721344
 21
482.370972
 31
0.0
  0
LINE
  5
173
100
AcDbEntity
  8
LAY-2
  6
CONTINUOUS
 62
     3
100
AcDbLine
 10
250.721344
 20
487.870972
 30
0.0
 11
250.721344
 21
482.370972
 31
0.0
  0
LINE
  5
174
100
AcDbEntity
  8
LAY-2
  6
CONTINUOUS
 62
     1
100
AcDbLine
 10
251.221344
 20
487.870972
 30
0.0
 11
251.221344
 21
482.370972
 31
0.0
  0
LINE
  5
175
100
AcDbEntity
  8
LAY-2
  6
DASHED2
 62
     1
100
AcDbLine
 10
251.221344
 20
494.970978
 30
0.0
 11
251.221344
 21
487.870972
 31
0.0
  0
LINE
  5
176
100
AcDbEntity
  8
LAY-2
  6
DASHED2
 62
     3
100
AcDbLine
 10
256.721344
 20
494.970978
 30
0.0
 11
253.721344
 21
494.970978
 31
0.0
  0
LINE
  5
177
100
AcDbEntity
  8
LAY-2
  6
DASHED2
 62
     3
100
AcDbLine
 10
259.721344
 20
497.970978
 30
0.0
 11
256.721344
 21
494.970978
 31
0.0
  0
LINE
  5
178
100
AcDbEntity
  8
LAY-2
  6
DASHED2
 62
     3
100
AcDbLine
 10
259.721344
 20
497.970978
 30
0.0
 11
253.721344
 21
497.970978
 31
0.0
  0
LINE
  5
179
100
AcDbEntity
  8
LAY-2
  6
DASHED2
 62
     3
100
AcDbLine
 10
259.721344
 20
497.970978
 30
0.0
 11
259.721344
 21
498.370972
 31
0.0
  0
LINE
  5
17A
100
AcDbEntity
  8
LAY-2
  6
DASHED2
 62
     3
100
AcDbLine
 10
256.721344
 20
494.970978
 30
0.0
 11
256.721344
 21
487.870972
 31
0.0
  0
LINE
  5
17B
100
AcDbEntity
  8
LAY-2
  6
DASHED2
 62
     1
100
AcDbLine
 10
256.221344
 20
494.970978
 30
0.0
 11
256.221344
 21
487.870972
 31
0.0
  0
LINE
  5
17C
100
AcDbEntity
  8
LAY-2
  6
CONTINUOUS
 62
     1
100
AcDbLine
 10
256.221344
 20
487.870972
 30
0.0
 11
256.221344
 21
482.370972
 31
0.0
  0
LINE
  5
17D
100
AcDbEntity
  8
LAY-2
  6
CONTINUOUS
 62
     3
100
AcDbLine
 10
256.721344
 20
487.870972
 30
0.0
 11
256.721344
 21
482.370972
 31
0.0
  0
LINE
  5
17E
100
AcDbEntity
  8
LAY-2
  6
CONTINUOUS
 62
     3
100
AcDbLine
 10
253.721344
 20
482.370972
 30
0.0
 11
256.721344
 21
482.370972
 31
0.0
  0
ARC
  5
17F
100
AcDbEntity
  8
LAY-2
  6
CONTINUOUS
 62
     3
100
AcDbCircle
 10
135.271344
 20
482.570972
 30
0.0
 40
5.2
100
AcDbArc
 50
270.0
 51
0.0
  0
ARC
  5
180
100
AcDbEntity
  8
LAY-2
  6
CONTINUOUS
 62
     3
100
AcDbCircle
 10
140.971344
 20
489.670972
 30
0.0
 40
0.5
100
AcDbArc
 50
90.0
 51
180.0
  0
LINE
  5
181
100
AcDbEntity
  8
LAY-2
  6
CONTINUOUS
 62
     3
100
AcDbLine
 10
140.471344
 20
489.670972
 30
0.0
 11
140.471344
 21
482.570972
 31
0.0
  0
ARC
  5
182
100
AcDbEntity
  8
LAY-2
  6
CONTINUOUS
 62
     3
100
AcDbCircle
 10
128.171344
 20
482.570972
 30
0.0
 40
5.2
100
AcDbArc
 50
180.0
 51
270.0
  0
ARC
  5
183
100
AcDbEntity
  8
LAY-2
  6
CONTINUOUS
 62
     3
100
AcDbCircle
 10
122.471344
 20
489.670972
 30
0.0
 40
0.5
100
AcDbArc
 50
0.0
 51
90.0
  0
LINE
  5
184
100
AcDbEntity
  8
LAY-2
  6
CONTINUOUS
 62
     3
100
AcDbLine
 10
122.971344
 20
489.670972
 30
0.0
 11
122.971344
 21
482.570972
 31
0.0
  0
LINE
  5
185
100
AcDbEntity
  8
LAY-2
  6
CONTINUOUS
 62
     3
100
AcDbLine
 10
135.271344
 20
477.370972
 30
0.0
 11
128.171344
 21
477.370972
 31
0.0
  0
LINE
  5
186
100
AcDbEntity
  8
LAY-2
  6
CONTINUOUS
 62
     3
100
AcDbLine
 10
119.871344
 20
490.170972
 30
0.0
 11
143.571344
 21
490.170972
 31
0.0
  0
LINE
  5
187
100
AcDbEntity
  8
LAY-2
  6
CONTINUOUS
 62
     3
100
AcDbLine
 10
667.549821
 20
498.370972
 30
0.0
 11
667.549821
 21
492.370972
 31
0.0
  0
LINE
  5
188
100
AcDbEntity
  8
LAY-2
  6
CONTINUOUS
 62
     3
100
AcDbLine
 10
669.549836
 20
492.370972
 30
0.0
 11
669.549836
 21
491.170972
 31
0.0
  0
LINE
  5
189
100
AcDbEntity
  8
LAY-2
  6
CONTINUOUS
 62
     3
100
AcDbLine
 10
697.549836
 20
492.370972
 30
0.0
 11
697.549836
 21
491.170972
 31
0.0
  0
LINE
  5
18A
100
AcDbEntity
  8
LAY-2
  6
CONTINUOUS
 62
     3
100
AcDbLine
 10
669.549836
 20
491.170972
 30
0.0
 11
697.549836
 21
491.170972
 31
0.0
  0
ARC
  5
18B
100
AcDbEntity
  8
LAY-2
  6
CONTINUOUS
 62
     3
100
AcDbCircle
 10
671.699836
 20
491.170972
 30
0.0
 40
1.0
100
AcDbArc
 50
180.0
 51
270.0
  0
ARC
  5
18C
100
AcDbEntity
  8
LAY-2
  6
CONTINUOUS
 62
     3
100
AcDbCircle
 10
695.399836
 20
491.170972
 30
0.0
 40
1.0
100
AcDbArc
 50
270.0
 51
0.0
  0
ARC
  5
18D
100
AcDbEntity
  8
LAY-2
  6
CONTINUOUS
 62
     3
100
AcDbCircle
 10
687.099836
 20
482.570972
 30
0.0
 40
5.2
100
AcDbArc
 50
270.0
 51
0.0
  0
ARC
  5
18E
100
AcDbEntity
  8
LAY-2
  6
CONTINUOUS
 62
     3
100
AcDbCircle
 10
692.799836
 20
489.670972
 30
0.0
 40
0.5
100
AcDbArc
 50
90.0
 51
180.0
  0
LINE
  5
18F
100
AcDbEntity
  8
LAY-2
  6
CONTINUOUS
 62
     3
100
AcDbLine
 10
692.299836
 20
489.670972
 30
0.0
 11
692.299836
 21
482.570972
 31
0.0
  0
ARC
  5
190
100
AcDbEntity
  8
LAY-2
  6
CONTINUOUS
 62
     3
100
AcDbCircle
 10
679.999836
 20
482.570972
 30
0.0
 40
5.2
100
AcDbArc
 50
180.0
 51
270.0
  0
ARC
  5
191
100
AcDbEntity
  8
LAY-2
  6
CONTINUOUS
 62
     3
100
AcDbCircle
 10
674.299836
 20
489.670972
 30
0.0
 40
0.5
100
AcDbArc
 50
0.0
 51
90.0
  0
LINE
  5
192
100
AcDbEntity
  8
LAY-2
  6
CONTINUOUS
 62
     3
100
AcDbLine
 10
674.799836
 20
489.670972
 30
0.0
 11
674.799836
 21
482.570972
 31
0.0
  0
LINE
  5
193
100
AcDbEntity
  8
LAY-2
  6
CONTINUOUS
 62
     3
100
AcDbLine
 10
687.099836
 20
477.370972
 30
0.0
 11
679.999836
 21
477.370972
 31
0.0
  0
LINE
  5
194
100
AcDbEntity
  8
LAY-2
  6
CONTINUOUS
 62
     3
100
AcDbLine
 10
671.699836
 20
490.170972
 30
0.0
 11
695.399836
 21
490.170972
 31
0.0
  0
LINE
  5
195
100
AcDbEntity
  8
LAY-2
  6
CONTINUOUS
 62
     3
100
AcDbLine
 10
699.549851
 20
498.370972
 30
0.0
 11
699.549851
 21
492.370972
 31
0.0
  0
LINE
  5
196
100
AcDbEntity
  8
LAY-2
  6
CONTINUOUS
 62
     3
100
AcDbLine
 10
699.549851
 20
492.370972
 30
0.0
 11
667.549821
 21
492.370972
 31
0.0
  0
LINE
  5
197
100
AcDbEntity
  8
LAY-2
  6
CONTINUOUS
 62
     3
100
AcDbLine
 10
699.549851
 20
498.370972
 30
0.0
 11
667.549821
 21
498.370972
 31
0.0
  0
LINE
  5
198
100
AcDbEntity
  8
LAY-3
  6
CONTINUOUS
 62
     3
100
AcDbLine
 10
694.049836
 20
281.052063
 30
0.0
 11
673.049836
 21
281.052063
 31
0.0
  0
LINE
  5
199
100
AcDbEntity
  8
LAY-3
  6
CONTINUOUS
 62
     3
100
AcDbLine
 10
695.549836
 20
299.552063
 30
0.0
 11
695.549836
 21
282.552063
 31
0.0
  0
LINE
  5
19A
100
AcDbEntity
  8
LAY-3
  6
CONTINUOUS
 62
     3
100
AcDbLine
 10
671.549836
 20
299.552063
 30
0.0
 11
671.549836
 21
282.552063
 31
0.0
  0
ARC
  5
19B
100
AcDbEntity
  8
LAY-3
  6
CONTINUOUS
 62
     3
100
AcDbCircle
 10
673.049836
 20
299.552063
 30
0.0
 40
1.5
100
AcDbArc
 50
89.999981
 51
180.00002
  0
ARC
  5
19C
100
AcDbEntity
  8
LAY-3
  6
CONTINUOUS
 62
     3
100
AcDbCircle
 10
694.049836
 20
299.552063
 30
0.0
 40
1.5
100
AcDbArc
 50
0.0
 51
89.999981
  0
ARC
  5
19D
100
AcDbEntity
  8
LAY-3
  6
CONTINUOUS
 62
     3
100
AcDbCircle
 10
673.049836
 20
282.552063
 30
0.0
 40
1.5
100
AcDbArc
 50
180.00002
 51
270.0
  0
ARC
  5
19E
100
AcDbEntity
  8
LAY-3
  6
CONTINUOUS
 62
     3
100
AcDbCircle
 10
694.049836
 20
282.552063
 30
0.0
 40
1.5
100
AcDbArc
 50
270.0
 51
359.999982
  0
LINE
  5
19F
100
AcDbEntity
  8
LAY-3
  6
CONTINUOUS
 62
     3
100
AcDbLine
 10
673.049836
 20
301.052063
 30
0.0
 11
694.049836
 21
301.052063
 31
0.0
  0
LINE
  5
1A0
100
AcDbEntity
  8
LAY-3
  6
CONTINUOUS
 62
     3
100
AcDbLine
 10
152.22136
 20
331.052124
 30
0.0
 11
113.221344
 21
331.052124
 31
0.0
  0
LINE
  5
1A1
100
AcDbEntity
  8
LAY-3
  6
CONTINUOUS
 62
     3
100
AcDbLine
 10
111.721344
 20
332.552124
 30
0.0
 11
111.721344
 21
349.552124
 31
0.0
  0
LINE
  5
1A2
100
AcDbEntity
  8
LAY-3
  6
CONTINUOUS
 62
     3
100
AcDbLine
 10
113.221344
 20
351.052124
 30
0.0
 11
278.221344
 21
351.052124
 31
0.0
  0
LINE
  5
1A3
100
AcDbEntity
  8
LAY-3
  6
CONTINUOUS
 62
     3
100
AcDbLine
 10
279.721344
 20
349.552124
 30
0.0
 11
279.721344
 21
340.552124
 31
0.0
  0
LINE
  5
1A4
100
AcDbEntity
  8
LAY-3
  6
CONTINUOUS
 62
     3
100
AcDbLine
 10
155.22136
 20
339.052124
 30
0.0
 11
278.221344
 21
339.052124
 31
0.0
  0
LINE
  5
1A5
100
AcDbEntity
  8
LAY-3
  6
CONTINUOUS
 62
     3
100
AcDbLine
 10
153.72136
 20
337.552124
 30
0.0
 11
153.72136
 21
332.552124
 31
0.0
  0
ARC
  5
1A6
100
AcDbEntity
  8
LAY-3
  6
CONTINUOUS
 62
     3
100
AcDbCircle
 10
155.22136
 20
337.552124
 30
0.0
 40
1.5
100
AcDbArc
 50
89.999981
 51
180.00002
  0
ARC
  5
1A7
100
AcDbEntity
  8
LAY-3
  6
CONTINUOUS
 62
     3
100
AcDbCircle
 10
152.22136
 20
332.552124
 30
0.0
 40
1.5
100
AcDbArc
 50
270.0
 51
359.999982
  0
ARC
  5
1A8
100
AcDbEntity
  8
LAY-3
  6
CONTINUOUS
 62
     3
100
AcDbCircle
 10
113.221344
 20
332.552124
 30
0.0
 40
1.5
100
AcDbArc
 50
180.00002
 51
270.0
  0
ARC
  5
1A9
100
AcDbEntity
  8
LAY-3
  6
CONTINUOUS
 62
     3
100
AcDbCircle
 10
113.221344
 20
349.552124
 30
0.0
 40
1.5
100
AcDbArc
 50
89.999981
 51
180.00002
  0
ARC
  5
1AA
100
AcDbEntity
  8
LAY-3
  6
DASHED
 62
     3
100
AcDbCircle
 10
278.221344
 20
349.552124
 30
0.0
 40
1.5
100
AcDbArc
 50
0.0
 51
89.999981
  0
ARC
  5
1AB
100
AcDbEntity
  8
LAY-3
  6
DASHED
 62
     3
100
AcDbCircle
 10
278.221344
 20
340.552124
 30
0.0
 40
1.5
100
AcDbArc
 50
270.0
 51
359.999982
  0
LINE
  5
1AC
100
AcDbEntity
  8
LAY-3
  6
DASHED2
 62
     3
100
AcDbLine
 10
169.221344
 20
342.052124
 30
0.0
 11
159.221344
 21
342.052124
 31
0.0
  0
LINE
  5
1AD
100
AcDbEntity
  8
LAY-3
  6
CONTINUOUS
 62
     3
100
AcDbLine
 10
169.221344
 20
334.452124
 30
0.0
 11
159.221344
 21
334.452124
 31
0.0
  0
LINE
  5
1AE
100
AcDbEntity
  8
LAY-3
  6
DASHED2
 62
     3
100
AcDbLine
 10
169.221344
 20
339.052124
 30
0.0
 11
169.221344
 21
342.052124
 31
0.0
  0
LINE
  5
1AF
100
AcDbEntity
  8
LAY-3
  6
DASHED2
 62
     3
100
AcDbLine
 10
159.221344
 20
339.052124
 30
0.0
 11
159.221344
 21
342.052124
 31
0.0
  0
LINE
  5
1B0
100
AcDbEntity
  8
LAY-3
  6
DASHED2
 62
     3
100
AcDbLine
 10
167.221344
 20
340.452124
 30
0.0
 11
167.221344
 21
357.852063
 31
0.0
  0
LINE
  5
1B1
100
AcDbEntity
  8
LAY-3
  6
DASHED2
 62
     1
100
AcDbLine
 10
166.871344
 20
357.852063
 30
0.0
 11
166.871344
 21
340.452124
 31
0.0
  0
LINE
  5
1B2
100
AcDbEntity
  8
LAY-3
  6
DASHED2
 62
     3
100
AcDbLine
 10
161.221344
 20
340.452124
 30
0.0
 11
161.221344
 21
357.852063
 31
0.0
  0
LINE
  5
1B3
100
AcDbEntity
  8
LAY-3
  6
DASHED2
 62
     1
100
AcDbLine
 10
161.571344
 20
357.852063
 30
0.0
 11
161.571344
 21
340.452124
 31
0.0
  0
LINE
  5
1B4
100
AcDbEntity
  8
LAY-3
  6
CONTINUOUS
 62
     3
100
AcDbLine
 10
167.221344
 20
360.452124
 30
0.0
 11
161.221344
 21
360.452124
 31
0.0
  0
LINE
  5
1B5
100
AcDbEntity
  8
LAY-3
  6
CONTINUOUS
 62
     1
100
AcDbLine
 10
161.571344
 20
357.852063
 30
0.0
 11
161.571344
 21
360.452124
 31
0.0
  0
LINE
  5
1B6
100
AcDbEntity
  8
LAY-3
  6
CONTINUOUS
 62
     1
100
AcDbLine
 10
166.871344
 20
357.852063
 30
0.0
 11
166.871344
 21
360.452124
 31
0.0
  0
LINE
  5
1B7
100
AcDbEntity
  8
LAY-3
  6
CONTINUOUS
 62
     3
100
AcDbLine
 10
161.221344
 20
357.852063
 30
0.0
 11
161.221344
 21
360.452124
 31
0.0
  0
LINE
  5
1B8
100
AcDbEntity
  8
LAY-3
  6
CONTINUOUS
 62
     3
100
AcDbLine
 10
167.221344
 20
357.852063
 30
0.0
 11
167.221344
 21
360.452124
 31
0.0
  0
LINE
  5
1B9
100
AcDbEntity
  8
LAY-3
  6
CONTINUOUS
 62
     3
100
AcDbLine
 10
169.221344
 20
339.052124
 30
0.0
 11
169.221344
 21
334.452124
 31
0.0
  0
LINE
  5
1BA
100
AcDbEntity
  8
LAY-3
  6
CONTINUOUS
 62
     3
100
AcDbLine
 10
159.221344
 20
339.052124
 30
0.0
 11
159.221344
 21
334.452124
 31
0.0
  0
LINE
  5
1BB
100
AcDbEntity
  8
LAY-3
  6
DASHED2
 62
     3
100
AcDbLine
 10
169.221344
 20
340.452124
 30
0.0
 11
159.221344
 21
340.452124
 31
0.0
  0
LINE
  5
1BC
100
AcDbEntity
  8
LAY-3
  6
DASHED2
 62
     3
100
AcDbLine
 10
194.221344
 20
342.052124
 30
0.0
 11
184.221344
 21
342.052124
 31
0.0
  0
LINE
  5
1BD
100
AcDbEntity
  8
LAY-3
  6
CONTINUOUS
 62
     3
100
AcDbLine
 10
194.221344
 20
334.452124
 30
0.0
 11
184.221344
 21
334.452124
 31
0.0
  0
LINE
  5
1BE
100
AcDbEntity
  8
LAY-3
  6
DASHED2
 62
     3
100
AcDbLine
 10
194.221344
 20
339.052124
 30
0.0
 11
194.221344
 21
342.052124
 31
0.0
  0
LINE
  5
1BF
100
AcDbEntity
  8
LAY-3
  6
DASHED2
 62
     3
100
AcDbLine
 10
184.221344
 20
339.052124
 30
0.0
 11
184.221344
 21
342.052124
 31
0.0
  0
LINE
  5
1C0
100
AcDbEntity
  8
LAY-3
  6
DASHED2
 62
     3
100
AcDbLine
 10
192.221344
 20
340.452124
 30
0.0
 11
192.221344
 21
357.852063
 31
0.0
  0
LINE
  5
1C1
100
AcDbEntity
  8
LAY-3
  6
DASHED2
 62
     1
100
AcDbLine
 10
191.871344
 20
357.852063
 30
0.0
 11
191.871344
 21
340.452124
 31
0.0
  0
LINE
  5
1C2
100
AcDbEntity
  8
LAY-3
  6
DASHED2
 62
     3
100
AcDbLine
 10
186.221344
 20
340.452124
 30
0.0
 11
186.221344
 21
357.852063
 31
0.0
  0
LINE
  5
1C3
100
AcDbEntity
  8
LAY-3
  6
DASHED2
 62
     1
100
AcDbLine
 10
186.571344
 20
357.852063
 30
0.0
 11
186.571344
 21
340.452124
 31
0.0
  0
LINE
  5
1C4
100
AcDbEntity
  8
LAY-3
  6
CONTINUOUS
 62
     3
100
AcDbLine
 10
192.221344
 20
360.452124
 30
0.0
 11
186.221344
 21
360.452124
 31
0.0
  0
LINE
  5
1C5
100
AcDbEntity
  8
LAY-3
  6
CONTINUOUS
 62
     1
100
AcDbLine
 10
186.571344
 20
357.852063
 30
0.0
 11
186.571344
 21
360.452124
 31
0.0
  0
LINE
  5
1C6
100
AcDbEntity
  8
LAY-3
  6
CONTINUOUS
 62
     1
100
AcDbLine
 10
191.871344
 20
357.852063
 30
0.0
 11
191.871344
 21
360.452124
 31
0.0
  0
LINE
  5
1C7
100
AcDbEntity
  8
LAY-3
  6
CONTINUOUS
 62
     3
100
AcDbLine
 10
186.221344
 20
357.852063
 30
0.0
 11
186.221344
 21
360.452124
 31
0.0
  0
LINE
  5
1C8
100
AcDbEntity
  8
LAY-3
  6
CONTINUOUS
 62
     3
100
AcDbLine
 10
192.221344
 20
357.852063
 30
0.0
 11
192.221344
 21
360.452124
 31
0.0
  0
LINE
  5
1C9
100
AcDbEntity
  8
LAY-3
  6
CONTINUOUS
 62
     3
100
AcDbLine
 10
194.221344
 20
339.052124
 30
0.0
 11
194.221344
 21
334.452124
 31
0.0
  0
LINE
  5
1CA
100
AcDbEntity
  8
LAY-3
  6
CONTINUOUS
 62
     3
100
AcDbLine
 10
184.221344
 20
339.052124
 30
0.0
 11
184.221344
 21
334.452124
 31
0.0
  0
LINE
  5
1CB
100
AcDbEntity
  8
LAY-3
  6
DASHED2
 62
     3
100
AcDbLine
 10
194.221344
 20
340.452124
 30
0.0
 11
184.221344
 21
340.452124
 31
0.0
  0
LINE
  5
1CC
100
AcDbEntity
  8
LAY-3
  6
DASHED2
 62
     3
100
AcDbLine
 10
234.221344
 20
342.052124
 30
0.0
 11
224.221344
 21
342.052124
 31
0.0
  0
LINE
  5
1CD
100
AcDbEntity
  8
LAY-3
  6
CONTINUOUS
 62
     3
100
AcDbLine
 10
234.221344
 20
334.452124
 30
0.0
 11
224.221344
 21
334.452124
 31
0.0
  0
LINE
  5
1CE
100
AcDbEntity
  8
LAY-3
  6
DASHED2
 62
     3
100
AcDbLine
 10
234.221344
 20
339.052124
 30
0.0
 11
234.221344
 21
342.052124
 31
0.0
  0
LINE
  5
1CF
100
AcDbEntity
  8
LAY-3
  6
DASHED2
 62
     3
100
AcDbLine
 10
224.221344
 20
339.052124
 30
0.0
 11
224.221344
 21
342.052124
 31
0.0
  0
LINE
  5
1D0
100
AcDbEntity
  8
LAY-3
  6
DASHED2
 62
     3
100
AcDbLine
 10
232.221344
 20
340.452124
 30
0.0
 11
232.221344
 21
357.852063
 31
0.0
  0
LINE
  5
1D1
100
AcDbEntity
  8
LAY-3
  6
DASHED2
 62
     1
100
AcDbLine
 10
231.871344
 20
357.852063
 30
0.0
 11
231.871344
 21
340.452124
 31
0.0
  0
LINE
  5
1D2
100
AcDbEntity
  8
LAY-3
  6
DASHED2
 62
     3
100
AcDbLine
 10
226.221344
 20
340.452124
 30
0.0
 11
226.221344
 21
357.852063
 31
0.0
  0
LINE
  5
1D3
100
AcDbEntity
  8
LAY-3
  6
DASHED2
 62
     1
100
AcDbLine
 10
226.571344
 20
357.852063
 30
0.0
 11
226.571344
 21
340.452124
 31
0.0
  0
LINE
  5
1D4
100
AcDbEntity
  8
LAY-3
  6
CONTINUOUS
 62
     3
100
AcDbLine
 10
232.221344
 20
360.452124
 30
0.0
 11
226.221344
 21
360.452124
 31
0.0
  0
LINE
  5
1D5
100
AcDbEntity
  8
LAY-3
  6
CONTINUOUS
 62
     1
100
AcDbLine
 10
226.571344
 20
357.852063
 30
0.0
 11
226.571344
 21
360.452124
 31
0.0
  0
LINE
  5
1D6
100
AcDbEntity
  8
LAY-3
  6
CONTINUOUS
 62
     1
100
AcDbLine
 10
231.871344
 20
357.852063
 30
0.0
 11
231.871344
 21
360.452124
 31
0.0
  0
LINE
  5
1D7
100
AcDbEntity
  8
LAY-3
  6
CONTINUOUS
 62
     3
100
AcDbLine
 10
226.221344
 20
357.852063
 30
0.0
 11
226.221344
 21
360.452124
 31
0.0
  0
LINE
  5
1D8
100
AcDbEntity
  8
LAY-3
  6
CONTINUOUS
 62
     3
100
AcDbLine
 10
232.221344
 20
357.852063
 30
0.0
 11
232.221344
 21
360.452124
 31
0.0
  0
LINE
  5
1D9
100
AcDbEntity
  8
LAY-3
  6
CONTINUOUS
 62
     3
100
AcDbLine
 10
234.221344
 20
339.052124
 30
0.0
 11
234.221344
 21
334.452124
 31
0.0
  0
LINE
  5
1DA
100
AcDbEntity
  8
LAY-3
  6
CONTINUOUS
 62
     3
100
AcDbLine
 10
224.221344
 20
339.052124
 30
0.0
 11
224.221344
 21
334.452124
 31
0.0
  0
LINE
  5
1DB
100
AcDbEntity
  8
LAY-3
  6
DASHED2
 62
     3
100
AcDbLine
 10
234.221344
 20
340.452124
 30
0.0
 11
224.221344
 21
340.452124
 31
0.0
  0
LINE
  5
1DC
100
AcDbEntity
  8
LAY-3
  6
DASHED2
 62
     3
100
AcDbLine
 10
274.221344
 20
342.052124
 30
0.0
 11
264.221344
 21
342.052124
 31
0.0
  0
LINE
  5
1DD
100
AcDbEntity
  8
LAY-3
  6
CONTINUOUS
 62
     3
100
AcDbLine
 10
274.221344
 20
334.452124
 30
0.0
 11
264.221344
 21
334.452124
 31
0.0
  0
LINE
  5
1DE
100
AcDbEntity
  8
LAY-3
  6
DASHED2
 62
     3
100
AcDbLine
 10
274.221344
 20
339.052124
 30
0.0
 11
274.221344
 21
342.052124
 31
0.0
  0
LINE
  5
1DF
100
AcDbEntity
  8
LAY-3
  6
DASHED2
 62
     3
100
AcDbLine
 10
264.221344
 20
339.052124
 30
0.0
 11
264.221344
 21
342.052124
 31
0.0
  0
LINE
  5
1E0
100
AcDbEntity
  8
LAY-3
  6
DASHED2
 62
     3
100
AcDbLine
 10
272.221344
 20
340.452124
 30
0.0
 11
272.221344
 21
357.852063
 31
0.0
  0
LINE
  5
1E1
100
AcDbEntity
  8
LAY-3
  6
DASHED2
 62
     1
100
AcDbLine
 10
271.871344
 20
357.852063
 30
0.0
 11
271.871344
 21
340.452124
 31
0.0
  0
LINE
  5
1E2
100
AcDbEntity
  8
LAY-3
  6
DASHED2
 62
     3
100
AcDbLine
 10
266.221344
 20
340.452124
 30
0.0
 11
266.221344
 21
357.852063
 31
0.0
  0
LINE
  5
1E3
100
AcDbEntity
  8
LAY-3
  6
DASHED2
 62
     1
100
AcDbLine
 10
266.571344
 20
357.852063
 30
0.0
 11
266.571344
 21
340.452124
 31
0.0
  0
LINE
  5
1E4
100
AcDbEntity
  8
LAY-3
  6
CONTINUOUS
 62
     3
100
AcDbLine
 10
272.221344
 20
360.452124
 30
0.0
 11
266.221344
 21
360.452124
 31
0.0
  0
LINE
  5
1E5
100
AcDbEntity
  8
LAY-3
  6
CONTINUOUS
 62
     1
100
AcDbLine
 10
266.571344
 20
357.852063
 30
0.0
 11
266.571344
 21
360.452124
 31
0.0
  0
LINE
  5
1E6
100
AcDbEntity
  8
LAY-3
  6
CONTINUOUS
 62
     1
100
AcDbLine
 10
271.871344
 20
357.852063
 30
0.0
 11
271.871344
 21
360.452124
 31
0.0
  0
LINE
  5
1E7
100
AcDbEntity
  8
LAY-3
  6
CONTINUOUS
 62
     3
100
AcDbLine
 10
266.221344
 20
357.852063
 30
0.0
 11
266.221344
 21
360.452124
 31
0.0
  0
LINE
  5
1E8
100
AcDbEntity
  8
LAY-3
  6
CONTINUOUS
 62
     3
100
AcDbLine
 10
272.221344
 20
357.852063
 30
0.0
 11
272.221344
 21
360.452124
 31
0.0
  0
LINE
  5
1E9
100
AcDbEntity
  8
LAY-3
  6
CONTINUOUS
 62
     3
100
AcDbLine
 10
274.221344
 20
339.052124
 30
0.0
 11
274.221344
 21
334.452124
 31
0.0
  0
LINE
  5
1EA
100
AcDbEntity
  8
LAY-3
  6
CONTINUOUS
 62
     3
100
AcDbLine
 10
264.221344
 20
339.052124
 30
0.0
 11
264.221344
 21
334.452124
 31
0.0
  0
LINE
  5
1EB
100
AcDbEntity
  8
LAY-3
  6
DASHED2
 62
     3
100
AcDbLine
 10
274.221344
 20
340.452124
 30
0.0
 11
264.221344
 21
340.452124
 31
0.0
  0
LINE
  5
1EC
100
AcDbEntity
  8
LAY-3
  6
CONTINUOUS
 62
     3
100
AcDbLine
 10
113.221344
 20
176.052078
 30
0.0
 11
278.221344
 21
176.052078
 31
0.0
  0
LINE
  5
1ED
100
AcDbEntity
  8
LAY-3
  6
CONTINUOUS
 62
     3
100
AcDbLine
 10
113.221344
 20
152.052078
 30
0.0
 11
278.221344
 21
152.052078
 31
0.0
  0
LINE
  5
1EE
100
AcDbEntity
  8
LAY-3
  6
CONTINUOUS
 62
     3
100
AcDbLine
 10
111.721344
 20
174.552078
 30
0.0
 11
111.721344
 21
153.552078
 31
0.0
  0
LINE
  5
1EF
100
AcDbEntity
  8
LAY-3
  6
CONTINUOUS
 62
     3
100
AcDbLine
 10
279.721344
 20
174.552078
 30
0.0
 11
279.721344
 21
153.552078
 31
0.0
  0
LINE
  5
1F0
100
AcDbEntity
  8
LAY-3
  6
CONTINUOUS
 62
     3
100
AcDbLine
 10
144.221344
 20
168.752075
 30
0.0
 11
119.221344
 21
168.752075
 31
0.0
  0
LINE
  5
1F1
100
AcDbEntity
  8
LAY-3
  6
CONTINUOUS
 62
     3
100
AcDbLine
 10
144.221344
 20
159.352081
 30
0.0
 11
119.221344
 21
159.352081
 31
0.0
  0
LINE
  5
1F2
100
AcDbEntity
  8
LAY-3
  6
DASHED2
 62
     3
100
AcDbLine
 10
144.221344
 20
170.302078
 30
0.0
 11
119.221344
 21
170.302078
 31
0.0
  0
LINE
  5
1F3
100
AcDbEntity
  8
LAY-3
  6
DASHED2
 62
     3
100
AcDbLine
 10
144.221344
 20
157.802078
 30
0.0
 11
119.221344
 21
157.802078
 31
0.0
  0
ARC
  5
1F4
100
AcDbEntity
  8
LAY-3
  6
DASHED
 62
     3
100
AcDbCircle
 10
113.221344
 20
174.552078
 30
0.0
 40
1.5
100
AcDbArc
 50
89.999981
 51
180.00002
  0
ARC
  5
1F5
100
AcDbEntity
  8
LAY-3
  6
DASHED
 62
     3
100
AcDbCircle
 10
113.221344
 20
174.552078
 30
0.0
 40
1.5
100
AcDbArc
 50
89.999981
 51
180.00002
  0
ARC
  5
1F6
100
AcDbEntity
  8
LAY-3
  6
DASHED
 62
     3
100
AcDbCircle
 10
113.221344
 20
153.552078
 30
0.0
 40
1.5
100
AcDbArc
 50
180.00002
 51
270.0
  0
CIRCLE
  5
1F7
100
AcDbEntity
  8
LAY-3
  6
DASHED2
 62
     3
100
AcDbCircle
 10
164.221344
 20
159.052078
 30
0.0
 40
6.0
  0
CIRCLE
  5
1F8
100
AcDbEntity
  8
LAY-3
  6
CONTINUOUS
 62
     3
100
AcDbCircle
 10
164.221344
 20
159.052078
 30
0.0
 40
3.35
  0
CIRCLE
  5
1F9
100
AcDbEntity
  8
LAY-3
  6
DASHED2
 62
     3
100
AcDbCircle
 10
189.221344
 20
169.052078
 30
0.0
 40
6.0
  0
CIRCLE
  5
1FA
100
AcDbEntity
  8
LAY-3
  6
CONTINUOUS
 62
     3
100
AcDbCircle
 10
189.221344
 20
169.052078
 30
0.0
 40
3.35
  0
CIRCLE
  5
1FB
100
AcDbEntity
  8
LAY-3
  6
DASHED2
 62
     3
100
AcDbCircle
 10
229.221344
 20
159.052078
 30
0.0
 40
6.0
  0
CIRCLE
  5
1FC
100
AcDbEntity
  8
LAY-3
  6
CONTINUOUS
 62
     3
100
AcDbCircle
 10
229.221344
 20
159.052078
 30
0.0
 40
3.35
  0
CIRCLE
  5
1FD
100
AcDbEntity
  8
LAY-3
  6
DASHED2
 62
     3
100
AcDbCircle
 10
269.221344
 20
169.052078
 30
0.0
 40
6.0
  0
CIRCLE
  5
1FE
100
AcDbEntity
  8
LAY-3
  6
CONTINUOUS
 62
     3
100
AcDbCircle
 10
269.221344
 20
169.052078
 30
0.0
 40
3.35
  0
ARC
  5
1FF
100
AcDbEntity
  8
LAY-3
  6
DASHED
 62
     3
100
AcDbCircle
 10
278.221344
 20
174.552078
 30
0.0
 40
1.5
100
AcDbArc
 50
0.0
 51
89.999981
  0
ARC
  5
200
100
AcDbEntity
  8
LAY-3
  6
DASHED
 62
     3
100
AcDbCircle
 10
278.221344
 20
153.552078
 30
0.0
 40
1.5
100
AcDbArc
 50
270.0
 51
359.999982
  0
LINE
  5
201
100
AcDbEntity
  8
LAY-3
  6
DASHED2
 62
     3
100
AcDbLine
 10
153.721344
 20
153.552078
 30
0.0
 11
153.721344
 21
174.552078
 31
0.0
  0
ARC
  5
202
100
AcDbEntity
  8
LAY-3
  6
DASHED2
 62
     3
100
AcDbCircle
 10
152.221344
 20
174.552078
 30
0.0
 40
1.5
100
AcDbArc
 50
0.000172
 51
89.999981
  0
ARC
  5
203
100
AcDbEntity
  8
LAY-3
  6
DASHED2
 62
     3
100
AcDbCircle
 10
152.221344
 20
153.552078
 30
0.0
 40
1.5
100
AcDbArc
 50
270.0
 51
359.999982
  0
LINE
  5
204
100
AcDbEntity
  8
LAY-3
  6
CONTINUOUS
 62
     3
100
AcDbLine
 10
119.221344
 20
170.302078
 30
0.0
 11
119.221344
 21
157.802078
 31
0.0
  0
LINE
  5
205
100
AcDbEntity
  8
LAY-3
  6
CONTINUOUS
 62
     3
100
AcDbLine
 10
144.221344
 20
170.302078
 30
0.0
 11
144.221344
 21
157.802078
 31
0.0
  0
LINE
  5
206
100
AcDbEntity
  8
LAY-4
  6
CONTINUOUS
 62
     3
100
AcDbLine
 10
594.549836
 20
269.552063
 30
0.0
 11
772.549836
 21
269.552063
 31
0.0
  0
LINE
  5
207
100
AcDbEntity
  8
LAY-4
  6
CONTINUOUS
 62
     3
100
AcDbLine
 10
753.549811
 20
223.952087
 30
0.0
 11
613.54986
 21
223.952087
 31
0.0
  0
LINE
  5
208
100
AcDbEntity
  8
LAY-4
  6
CONTINUOUS
 62
     3
100
AcDbLine
 10
603.54986
 20
233.952087
 30
0.0
 11
603.54986
 21
265.952087
 31
0.0
  0
LINE
  5
209
100
AcDbEntity
  8
LAY-4
  6
CONTINUOUS
 62
     3
100
AcDbLine
 10
765.549811
 20
267.952087
 30
0.0
 11
594.549836
 21
267.952087
 31
0.0
  0
LINE
  5
20A
100
AcDbEntity
  8
LAY-4
  6
CONTINUOUS
 62
     3
100
AcDbLine
 10
594.549836
 20
269.552063
 30
0.0
 11
594.549836
 21
264.752075
 31
0.0
  0
LINE
  5
20B
100
AcDbEntity
  8
LAY-4
  6
CONTINUOUS
 62
     3
100
AcDbLine
 10
594.549836
 20
264.752075
 30
0.0
 11
602.149836
 21
264.752075
 31
0.0
  0
LINE
  5
20C
100
AcDbEntity
  8
LAY-4
  6
CONTINUOUS
 62
     3
100
AcDbLine
 10
602.149836
 20
264.752075
 30
0.0
 11
602.149836
 21
267.952087
 31
0.0
  0
ARC
  5
20D
100
AcDbEntity
  8
LAY-4
  6
CONTINUOUS
 62
     3
100
AcDbCircle
 10
601.54986
 20
265.952087
 30
0.0
 40
2.0
100
AcDbArc
 50
0.0
 51
89.999981
  0
LINE
  5
20E
100
AcDbEntity
  8
LAY-4
  6
CONTINUOUS
 62
     3
100
AcDbLine
 10
763.549811
 20
233.952087
 30
0.0
 11
763.549811
 21
265.952087
 31
0.0
  0
LINE
  5
20F
100
AcDbEntity
  8
LAY-4
  6
CONTINUOUS
 62
     3
100
AcDbLine
 10
772.549836
 20
267.952087
 30
0.0
 11
765.549811
 21
267.952087
 31
0.0
  0
LINE
  5
210
100
AcDbEntity
  8
LAY-4
  6
CONTINUOUS
 62
     3
100
AcDbLine
 10
772.549836
 20
269.552063
 30
0.0
 11
772.549836
 21
264.752075
 31
0.0
  0
LINE
  5
211
100
AcDbEntity
  8
LAY-4
  6
CONTINUOUS
 62
     3
100
AcDbLine
 10
772.549836
 20
264.752075
 30
0.0
 11
764.949836
 21
264.752075
 31
0.0
  0
LINE
  5
212
100
AcDbEntity
  8
LAY-4
  6
CONTINUOUS
 62
     3
100
AcDbLine
 10
764.949836
 20
264.752075
 30
0.0
 11
764.949836
 21
267.952087
 31
0.0
  0
ARC
  5
213
100
AcDbEntity
  8
LAY-4
  6
CONTINUOUS
 62
     3
100
AcDbCircle
 10
765.549811
 20
265.952087
 30
0.0
 40
2.0
100
AcDbArc
 50
89.999981
 51
180.00002
  0
LINE
  5
214
100
AcDbEntity
  8
LAY-4
  6
CONTINUOUS
 62
     3
100
AcDbLine
 10
701.799225
 20
223.952148
 30
0.0
 11
699.299225
 21
220.952087
 31
0.0
  0
LINE
  5
215
100
AcDbEntity
  8
LAY-4
  6
CONTINUOUS
 62
     3
100
AcDbLine
 10
699.299225
 20
220.952087
 30
0.0
 11
667.800446
 21
220.952087
 31
0.0
  0
LINE
  5
216
100
AcDbEntity
  8
LAY-4
  6
CONTINUOUS
 62
     3
100
AcDbLine
 10
665.300324
 20
223.952148
 30
0.0
 11
667.800446
 21
220.952087
 31
0.0
  0
ARC
  5
217
100
AcDbEntity
  8
LAY-4
  6
CONTINUOUS
 62
     3
100
AcDbCircle
 10
753.549811
 20
233.952087
 30
0.0
 40
10.0
100
AcDbArc
 50
270.000001
 51
359.999982
  0
ARC
  5
218
100
AcDbEntity
  8
LAY-4
  6
CONTINUOUS
 62
     3
100
AcDbCircle
 10
613.54986
 20
233.952087
 30
0.0
 40
10.0
100
AcDbArc
 50
180.00002
 51
270.000001
  0
LINE
  5
219
100
AcDbEntity
  8
LAY-4
  6
CONTINUOUS
 62
     3
100
AcDbLine
 10
628.386994
 20
220.952087
 30
0.0
 11
638.712555
 21
220.952087
 31
0.0
  0
LINE
  5
21A
100
AcDbEntity
  8
LAY-4
  6
CONTINUOUS
 62
     3
100
AcDbLine
 10
623.787018
 20
223.952087
 30
0.0
 11
628.386994
 21
220.952087
 31
0.0
  0
LINE
  5
21B
100
AcDbEntity
  8
LAY-4
  6
CONTINUOUS
 62
     3
100
AcDbLine
 10
643.312531
 20
223.952087
 30
0.0
 11
638.712555
 21
220.952087
 31
0.0
  0
LINE
  5
21C
100
AcDbEntity
  8
LAY-4
  6
CONTINUOUS
 62
     3
100
AcDbLine
 10
738.712555
 20
220.952087
 30
0.0
 11
728.387116
 21
220.952087
 31
0.0
  0
LINE
  5
21D
100
AcDbEntity
  8
LAY-4
  6
CONTINUOUS
 62
     3
100
AcDbLine
 10
743.312653
 20
223.952087
 30
0.0
 11
738.712555
 21
220.952087
 31
0.0
  0
LINE
  5
21E
100
AcDbEntity
  8
LAY-4
  6
CONTINUOUS
 62
     3
100
AcDbLine
 10
723.78714
 20
223.952087
 30
0.0
 11
728.387116
 21
220.952087
 31
0.0
  0
LINE
  5
21F
100
AcDbEntity
  8
LAY-4
  6
CONTINUOUS
 62
     3
100
AcDbLine
 10
593.549836
 20
271.052063
 30
0.0
 11
593.549836
 21
269.552063
 31
0.0
  0
LINE
  5
220
100
AcDbEntity
  8
LAY-4
  6
CONTINUOUS
 62
     3
100
AcDbLine
 10
773.549836
 20
271.052063
 30
0.0
 11
773.549836
 21
269.552063
 31
0.0
  0
LINE
  5
221
100
AcDbEntity
  8
LAY-4
  6
CONTINUOUS
 62
     3
100
AcDbLine
 10
593.549836
 20
271.052063
 30
0.0
 11
773.549836
 21
271.052063
 31
0.0
  0
LINE
  5
222
100
AcDbEntity
  8
LAY-4
  6
CONTINUOUS
 62
     3
100
AcDbLine
 10
773.549836
 20
269.552063
 30
0.0
 11
593.549836
 21
269.552063
 31
0.0
  0
LINE
  5
223
100
AcDbEntity
  8
LAY-4
  6
CONTINUOUS
 62
     3
100
AcDbLine
 10
714.549714
 20
271.052063
 30
0.0
 11
652.549714
 21
271.052063
 31
0.0
  0
LINE
  5
224
100
AcDbEntity
  8
LAY-4
  6
CONTINUOUS
 62
     3
100
AcDbLine
 10
677.474762
 20
281.052063
 30
0.0
 11
677.299714
 21
279.052063
 31
0.0
  0
LINE
  5
225
100
AcDbEntity
  8
LAY-4
  6
CONTINUOUS
 62
     3
100
AcDbLine
 10
689.624787
 20
281.052063
 30
0.0
 11
689.799836
 21
279.052063
 31
0.0
  0
LINE
  5
226
100
AcDbEntity
  8
LAY-4
  6
DASHED2
 62
     3
100
AcDbLine
 10
689.624787
 20
281.052063
 30
0.0
 11
687.875107
 21
301.052063
 31
0.0
  0
LINE
  5
227
100
AcDbEntity
  8
LAY-4
  6
DASHED2
 62
     3
100
AcDbLine
 10
677.474762
 20
281.052063
 30
0.0
 11
679.224442
 21
301.052063
 31
0.0
  0
LINE
  5
228
100
AcDbEntity
  8
LAY-4
  6
DASHED2
 62
     3
100
AcDbLine
 10
679.049469
 20
299.052002
 30
0.0
 11
688.05008
 21
299.052002
 31
0.0
  0
LINE
  5
229
100
AcDbEntity
  8
LAY-4
  6
DASHED2
 62
     3
100
AcDbLine
 10
688.05008
 20
298.052002
 30
0.0
 11
679.049469
 21
298.052002
 31
0.0
  0
LINE
  5
22A
100
AcDbEntity
  8
LAY-4
  6
CONTINUOUS
 62
     3
100
AcDbLine
 10
68.721344
 20
74.052094
 30
0.0
 11
423.721344
 21
74.052094
 31
0.0
  0
LINE
  5
22B
100
AcDbEntity
  8
LAY-4
  6
CONTINUOUS
 62
     3
100
AcDbLine
 10
423.721344
 20
74.052094
 30
0.0
 11
423.721344
 21
254.052094
 31
0.0
  0
LINE
  5
22C
100
AcDbEntity
  8
LAY-4
  6
CONTINUOUS
 62
     3
100
AcDbLine
 10
423.721344
 20
254.052094
 30
0.0
 11
68.721344
 21
254.052094
 31
0.0
  0
LINE
  5
22D
100
AcDbEntity
  8
LAY-4
  6
DASHED2
 62
     3
100
AcDbLine
 10
73.421357
 20
238.052094
 30
0.0
 11
73.421357
 21
90.052094
 31
0.0
  0
ARC
  5
22E
100
AcDbEntity
  8
LAY-4
  6
DASHED2
 62
     3
100
AcDbCircle
 10
88.421357
 20
238.052094
 30
0.0
 40
15.0
100
AcDbArc
 50
89.999981
 51
180.00002
  0
ARC
  5
22F
100
AcDbEntity
  8
LAY-4
  6
DASHED2
 62
     3
100
AcDbCircle
 10
88.421357
 20
90.052094
 30
0.0
 40
15.0
100
AcDbArc
 50
180.00002
 51
270.000001
  0
LINE
  5
230
100
AcDbEntity
  8
LAY-4
  6
DASHED2
 62
     3
100
AcDbLine
 10
413.421357
 20
90.052094
 30
0.0
 11
413.421357
 21
238.052094
 31
0.0
  0
ARC
  5
231
100
AcDbEntity
  8
LAY-4
  6
DASHED2
 62
     3
100
AcDbCircle
 10
398.421357
 20
238.052094
 30
0.0
 40
15.0
100
AcDbArc
 50
0.0
 51
89.999981
  0
ARC
  5
232
100
AcDbEntity
  8
LAY-4
  6
DASHED2
 62
     3
100
AcDbCircle
 10
398.421357
 20
90.052094
 30
0.0
 40
15.0
100
AcDbArc
 50
270.000001
 51
359.999982
  0
LINE
  5
233
100
AcDbEntity
  8
LAY-4
  6
DASHED2
 62
     3
100
AcDbLine
 10
88.421357
 20
75.052094
 30
0.0
 11
398.421357
 21
75.052094
 31
0.0
  0
LINE
  5
234
100
AcDbEntity
  8
LAY-4
  6
DASHED2
 62
     3
100
AcDbLine
 10
398.421357
 20
253.052094
 30
0.0
 11
88.421357
 21
253.052094
 31
0.0
  0
LINE
  5
235
100
AcDbEntity
  8
LAY-4
  6
CONTINUOUS
 62
     3
100
AcDbLine
 10
68.721344
 20
321.052063
 30
0.0
 11
68.721344
 21
319.552063
 31
0.0
  0
LINE
  5
236
100
AcDbEntity
  8
LAY-4
  6
CONTINUOUS
 62
     3
100
AcDbLine
 10
423.721344
 20
321.052063
 30
0.0
 11
423.721344
 21
319.552063
 31
0.0
  0
LINE
  5
237
100
AcDbEntity
  8
LAY-4
  6
CONTINUOUS
 62
     3
100
AcDbLine
 10
68.721344
 20
319.552063
 30
0.0
 11
423.721344
 21
319.552063
 31
0.0
  0
LINE
  5
238
100
AcDbEntity
  8
LAY-4
  6
CONTINUOUS
 62
     3
100
AcDbLine
 10
208.889832
 20
270.952057
 30
0.0
 11
157.152833
 21
270.952057
 31
0.0
  0
LINE
  5
239
100
AcDbEntity
  8
LAY-4
  6
CONTINUOUS
 62
     3
100
AcDbLine
 10
378.258606
 20
270.952087
 30
0.0
 11
388.584137
 21
270.952087
 31
0.0
  0
LINE
  5
23A
100
AcDbEntity
  8
LAY-4
  6
CONTINUOUS
 62
     3
100
AcDbLine
 10
157.152833
 20
270.952057
 30
0.0
 11
153.611146
 21
273.952026
 31
0.0
  0
LINE
  5
23B
100
AcDbEntity
  8
LAY-4
  6
CONTINUOUS
 62
     3
100
AcDbLine
 10
208.889832
 20
270.952057
 30
0.0
 11
212.43155
 21
273.952026
 31
0.0
  0
LINE
  5
23C
100
AcDbEntity
  8
LAY-4
  6
CONTINUOUS
 62
     3
100
AcDbLine
 10
373.6586
 20
273.952057
 30
0.0
 11
378.258606
 21
270.952087
 31
0.0
  0
LINE
  5
23D
100
AcDbEntity
  8
LAY-4
  6
CONTINUOUS
 62
     3
100
AcDbLine
 10
393.184113
 20
273.952057
 30
0.0
 11
388.584137
 21
270.952087
 31
0.0
  0
LINE
  5
23E
100
AcDbEntity
  8
LAY-4
  6
CONTINUOUS
 62
     3
100
AcDbLine
 10
73.421326
 20
317.952057
 30
0.0
 11
73.421326
 21
319.552063
 31
0.0
  0
LINE
  5
23F
100
AcDbEntity
  8
LAY-4
  6
CONTINUOUS
 62
     3
100
AcDbLine
 10
74.221344
 20
317.952087
 30
0.0
 11
74.221344
 21
283.952057
 31
0.0
  0
ARC
  5
240
100
AcDbEntity
  8
LAY-4
  6
CONTINUOUS
 62
     3
100
AcDbCircle
 10
84.221344
 20
283.952057
 30
0.0
 40
10.0
100
AcDbArc
 50
180.00002
 51
270.000001
  0
LINE
  5
241
100
AcDbEntity
  8
LAY-4
  6
CONTINUOUS
 62
     3
100
AcDbLine
 10
83.421326
 20
317.952057
 30
0.0
 11
83.421326
 21
314.752075
 31
0.0
  0
LINE
  5
242
100
AcDbEntity
  8
LAY-4
  6
CONTINUOUS
 62
     3
100
AcDbLine
 10
403.021332
 20
314.752075
 30
0.0
 11
403.021332
 21
317.952026
 31
0.0
  0
LINE
  5
243
100
AcDbEntity
  8
LAY-4
  6
CONTINUOUS
 62
     3
100
AcDbLine
 10
83.421326
 20
314.752075
 30
0.0
 11
403.021332
 21
314.752075
 31
0.0
  0
LINE
  5
244
100
AcDbEntity
  8
LAY-4
  6
CONTINUOUS
 62
     3
100
AcDbLine
 10
413.421357
 20
317.952057
 30
0.0
 11
413.421357
 21
319.552063
 31
0.0
  0
LINE
  5
245
100
AcDbEntity
  8
LAY-4
  6
CONTINUOUS
 62
     3
100
AcDbLine
 10
412.621369
 20
317.952087
 30
0.0
 11
412.621369
 21
283.952057
 31
0.0
  0
ARC
  5
246
100
AcDbEntity
  8
LAY-4
  6
CONTINUOUS
 62
     3
100
AcDbCircle
 10
402.621369
 20
283.952057
 30
0.0
 40
10.0
100
AcDbArc
 50
270.000001
 51
359.999982
  0
LINE
  5
247
100
AcDbEntity
  8
LAY-4
  6
CONTINUOUS
 62
     3
100
AcDbLine
 10
73.421326
 20
319.552063
 30
0.0
 11
413.421357
 21
319.552063
 31
0.0
  0
LINE
  5
248
100
AcDbEntity
  8
LAY-4
  6
CONTINUOUS
 62
     3
100
AcDbLine
 10
402.621369
 20
273.952057
 30
0.0
 11
84.221344
 21
273.952057
 31
0.0
  0
LINE
  5
249
100
AcDbEntity
  8
LAY-4
  6
CONTINUOUS
 62
     3
100
AcDbLine
 10
73.421326
 20
317.952057
 30
0.0
 11
413.421357
 21
317.952057
 31
0.0
  0
LINE
  5
24A
100
AcDbEntity
  8
LAY-4
  6
CONTINUOUS
 62
     3
100
AcDbLine
 10
143.573456
 20
168.752075
 30
0.0
 11
119.869233
 21
168.752075
 31
0.0
  0
LINE
  5
24B
100
AcDbEntity
  8
LAY-4
  6
CONTINUOUS
 62
     3
100
AcDbLine
 10
143.573456
 20
159.352081
 30
0.0
 11
119.869233
 21
159.352081
 31
0.0
  0
LINE
  5
24C
100
AcDbEntity
  8
LAY-4
  6
CONTINUOUS
 62
     3
100
AcDbLine
 10
162.721344
 20
321.052063
 30
0.0
 11
68.721344
 21
321.052063
 31
0.0
  0
LINE
  5
24D
100
AcDbEntity
  8
LAY-4
  6
CONTINUOUS
 62
     3
100
AcDbLine
 10
121.571344
 20
329.052094
 30
0.0
 11
141.871344
 21
329.052094
 31
0.0
  0
LINE
  5
24E
100
AcDbEntity
  8
LAY-4
  6
CONTINUOUS
 62
     3
100
AcDbLine
 10
121.472834
 20
331.052124
 30
0.0
 11
121.571344
 21
329.052094
 31
0.0
  0
LINE
  5
24F
100
AcDbEntity
  8
LAY-4
  6
CONTINUOUS
 62
     3
100
AcDbLine
 10
141.969855
 20
331.052124
 30
0.0
 11
141.871344
 21
329.052094
 31
0.0
  0
LINE
  5
250
100
AcDbEntity
  8
LAY-4
  6
DASHED2
 62
     3
100
AcDbLine
 10
120.221338
 20
349.052063
 30
0.0
 11
143.221351
 21
349.052063
 31
0.0
  0
LINE
  5
251
100
AcDbEntity
  8
LAY-4
  6
DASHED2
 62
     3
100
AcDbLine
 10
143.221351
 20
349.052063
 30
0.0
 11
144.221351
 21
348.052063
 31
0.0
  0
LINE
  5
252
100
AcDbEntity
  8
LAY-4
  6
DASHED2
 62
     3
100
AcDbLine
 10
120.221338
 20
349.052063
 30
0.0
 11
119.221338
 21
348.052063
 31
0.0
  0
LINE
  5
253
100
AcDbEntity
  8
LAY-4
  6
DASHED2
 62
     3
100
AcDbLine
 10
120.635523
 20
348.052124
 30
0.0
 11
121.635553
 21
349.052063
 31
0.0
  0
LINE
  5
254
100
AcDbEntity
  8
LAY-4
  6
DASHED2
 62
     3
100
AcDbLine
 10
142.807136
 20
348.052124
 30
0.0
 11
141.807136
 21
349.052063
 31
0.0
  0
LINE
  5
255
100
AcDbEntity
  8
LAY-4
  6
DASHED2
 62
     3
100
AcDbLine
 10
144.221351
 20
351.052063
 30
0.0
 11
144.221351
 21
331.052124
 31
0.0
  0
LINE
  5
256
100
AcDbEntity
  8
LAY-4
  6
DASHED2
 62
     3
100
AcDbLine
 10
119.221338
 20
351.052063
 30
0.0
 11
119.221338
 21
331.052124
 31
0.0
  0
LINE
  5
257
100
AcDbEntity
  8
LAY-4
  6
DASHED2
 62
     3
100
AcDbLine
 10
120.635523
 20
348.052124
 30
0.0
 11
119.221338
 21
348.052124
 31
0.0
  0
LINE
  5
258
100
AcDbEntity
  8
LAY-4
  6
DASHED2
 62
     3
100
AcDbLine
 10
142.807136
 20
348.052124
 30
0.0
 11
144.221351
 21
348.052124
 31
0.0
  0
LINE
  5
259
100
AcDbEntity
  8
LAY-4
  6
DASHED2
 62
     3
100
AcDbLine
 10
121.472834
 20
331.052094
 30
0.0
 11
120.635523
 21
348.052124
 31
0.0
  0
LINE
  5
25A
100
AcDbEntity
  8
LAY-4
  6
DASHED2
 62
     3
100
AcDbLine
 10
141.969855
 20
331.052094
 30
0.0
 11
142.807136
 21
348.052124
 31
0.0
  0
LINE
  5
25B
100
AcDbEntity
  8
LAY-4
  6
CONTINUOUS
 62
     3
100
AcDbLine
 10
671.199738
 20
279.052063
 30
0.0
 11
677.299714
 21
279.052063
 31
0.0
  0
LINE
  5
25C
100
AcDbEntity
  8
LAY-4
  6
CONTINUOUS
 62
     3
100
AcDbLine
 10
689.799836
 20
279.052063
 30
0.0
 11
695.899811
 21
279.052063
 31
0.0
  0
INSERT
  5
25D
100
AcDbEntity
  8
LAY-4
  6
CONTINUOUS
 62
     0
100
AcDbBlockReference
  2
SYM-1
 10
391.721375
 20
249.052078
 30
0.0
  0
INSERT
  5
25E
100
AcDbEntity
  8
LAY-4
  6
CONTINUOUS
 62
     0
100
AcDbBlockReference
  2
SYM-1
 10
391.721344
 20
79.052078
 30
0.0
  0
INSERT
  5
25F
100
AcDbEntity
  8
LAY-4
  6
CONTINUOUS
 62
     0
100
AcDbBlockReference
  2
SYM-1
 10
189.721375
 20
249.052109
 30
0.0
  0
INSERT
  5
260
100
AcDbEntity
  8
LAY-4
  6
CONTINUOUS
 62
     0
100
AcDbBlockReference
  2
SYM-1
 10
91.721344
 20
249.052109
 30
0.0
  0
INSERT
  5
261
100
AcDbEntity
  8
LAY-4
  6
CONTINUOUS
 62
     0
100
AcDbBlockReference
  2
SYM-1
 10
91.721344
 20
79.052078
 30
0.0
  0
INSERT
  5
262
100
AcDbEntity
  8
LAY-4
  6
CONTINUOUS
 62
     0
100
AcDbBlockReference
  2
SYM-1
 10
173.721344
 20
79.052078
 30
0.0
  0
INSERT
  5
263
100
AcDbEntity
  8
LAY-4
  6
CONTINUOUS
 62
     0
100
AcDbBlockReference
  2
SYM-1
 10
189.721344
 20
79.052078
 30
0.0
  0
LINE
  5
264
100
AcDbEntity
  8
LAY-4
  6
CONTINUOUS
 62
     3
100
AcDbLine
 10
423.7
 20
321.052063
 30
0.0
 11
162.721344
 21
321.052063
 31
0.0
  0
LINE
  5
265
100
AcDbEntity
  8
LAY-4
  6
CONTINUOUS
 62
     3
100
AcDbLine
 10
181.721344
 20
321.052063
 30
0.0
 11
181.721344
 21
319.552063
 31
0.0
  0
LINE
  5
266
100
AcDbEntity
  8
LAY-4
  6
CONTINUOUS
 62
     3
100
AcDbLine
 10
68.721344
 20
100.6
 30
0.0
 11
68.721344
 21
74.052094
 31
0.0
  0
LINE
  5
267
100
AcDbEntity
  8
LAY-4
  6
CONTINUOUS
 62
     3
100
AcDbLine
 10
68.721344
 20
254.052094
 30
0.0
 11
68.721344
 21
100.6
 31
0.0
  0
LINE
  5
268
100
AcDbEntity
  8
LAY-4
  6
CONTINUOUS
 62
     3
100
AcDbLine
 10
181.721344
 20
254.052094
 30
0.0
 11
181.721344
 21
249.98
 31
0.0
  0
INSERT
  5
269
100
AcDbEntity
  8
LAY-4
  6
CONTINUOUS
 62
     0
100
AcDbBlockReference
  2
SYM-1
 10
173.721375
 20
249.052109
 30
0.0
  0
ARC
  5
26A
100
AcDbEntity
  8
LAY-4
  6
CONTINUOUS
 62
     3
100
AcDbCircle
 10
131.721344
 20
164.052094
 30
0.0
 40
31.0
100
AcDbArc
 50
220.177808
 51
319.822192
  0
ARC
  5
26B
100
AcDbEntity
  8
LAY-4
  6
CONTINUOUS
 62
     3
100
AcDbCircle
 10
131.721344
 20
164.052094
 30
0.0
 40
31.0
100
AcDbArc
 50
40.177731
 51
139.822269
  0
ARC
  5
26C
100
AcDbEntity
  8
LAY-4
  6
DASHED2
 62
     3
100
AcDbCircle
 10
131.721344
 20
164.052094
 30
0.0
 40
31.0
100
AcDbArc
 50
319.822192
 51
40.177731
  0
ARC
  5
26D
100
AcDbEntity
  8
LAY-4
  6
DASHED2
 62
     3
100
AcDbCircle
 10
131.721344
 20
164.052094
 30
0.0
 40
31.0
100
AcDbArc
 50
139.822269
 51
220.177808
  0
CIRCLE
  5
26E
100
AcDbEntity
  8
LAY-4
  6
DASHED2
 62
     3
100
AcDbCircle
 10
131.721344
 20
164.052094
 30
0.0
 40
12.75
  0
LINE
  5
26F
100
AcDbEntity
  8
LAY-4
  6
DASHED2
 62
     3
100
AcDbLine
 10
142.454255
 20
170.302078
 30
0.0
 11
120.608277
 21
170.302078
 31
0.0
  0
LINE
  5
270
100
AcDbEntity
  8
LAY-4
  6
CONTINUOUS
 62
     3
100
AcDbLine
 10
181.721344
 20
144.052078
 30
0.0
 11
181.721344
 21
74.052094
 31
0.0
  0
LINE
  5
271
100
AcDbEntity
  8
LAY-4
  6
CONTINUOUS
 62
     3
100
AcDbLine
 10
181.721344
 20
250.51
 30
0.0
 11
181.721344
 21
184.052078
 31
0.0
  0
LINE
  5
272
100
AcDbEntity
  8
LAY-4
  6
DASHED2
 62
     3
100
AcDbLine
 10
181.721344
 20
184.052078
 30
0.0
 11
181.721344
 21
144.052078
 31
0.0
  0
LINE
  5
273
100
AcDbEntity
  8
LAY-4
  6
CONTINUOUS
 62
     3
100
AcDbLine
 10
714.549714
 20
277.052063
 30
0.0
 11
714.549714
 21
271.052063
 31
0.0
  0
LINE
  5
274
100
AcDbEntity
  8
LAY-4
  6
CONTINUOUS
 62
     3
100
AcDbLine
 10
652.549714
 20
271.052063
 30
0.0
 11
652.549714
 21
277.052063
 31
0.0
  0
LINE
  5
275
100
AcDbEntity
  8
LAY-4
  6
CONTINUOUS
 62
     3
100
AcDbLine
 10
713.549714
 20
278.052063
 30
0.0
 11
653.549714
 21
278.052063
 31
0.0
  0
ARC
  5
276
100
AcDbEntity
  8
LAY-4
  6
CONTINUOUS
 62
     3
100
AcDbCircle
 10
653.549714
 20
277.052063
 30
0.0
 40
1.0
100
AcDbArc
 50
89.999981
 51
180.00002
  0
ARC
  5
277
100
AcDbEntity
  8
LAY-4
  6
CONTINUOUS
 62
     3
100
AcDbCircle
 10
713.549714
 20
277.052063
 30
0.0
 40
1.0
100
AcDbArc
 50
0.0
 51
89.999981
  0
LINE
  5
278
100
AcDbEntity
  8
LAY-4
  6
CONTINUOUS
 62
     3
100
AcDbLine
 10
695.899811
 20
278.052063
 30
0.0
 11
695.899811
 21
279.052063
 31
0.0
  0
LINE
  5
279
100
AcDbEntity
  8
LAY-4
  6
CONTINUOUS
 62
     3
100
AcDbLine
 10
671.199738
 20
278.052063
 30
0.0
 11
671.199738
 21
279.052063
 31
0.0
  0
LINE
  5
27A
100
AcDbEntity
  8
LAY-4
  6
CONTINUOUS
 62
     3
100
AcDbLine
 10
162.721344
 20
327.052063
 30
0.0
 11
162.721344
 21
321.052063
 31
0.0
  0
LINE
  5
27B
100
AcDbEntity
  8
LAY-4
  6
CONTINUOUS
 62
     3
100
AcDbLine
 10
100.721344
 20
321.052063
 30
0.0
 11
100.721344
 21
327.052063
 31
0.0
  0
LINE
  5
27C
100
AcDbEntity
  8
LAY-4
  6
CONTINUOUS
 62
     3
100
AcDbLine
 10
161.721344
 20
328.052063
 30
0.0
 11
101.721344
 21
328.052063
 31
0.0
  0
ARC
  5
27D
100
AcDbEntity
  8
LAY-4
  6
CONTINUOUS
 62
     3
100
AcDbCircle
 10
101.721344
 20
327.052063
 30
0.0
 40
1.0
100
AcDbArc
 50
89.999981
 51
180.00002
  0
ARC
  5
27E
100
AcDbEntity
  8
LAY-4
  6
CONTINUOUS
 62
     3
100
AcDbCircle
 10
161.721344
 20
327.052063
 30
0.0
 40
1.0
100
AcDbArc
 50
0.0
 51
89.999981
  0
LINE
  5
27F
100
AcDbEntity
  8
LAY-4
  6
CONTINUOUS
 62
     3
100
AcDbLine
 10
119.221338
 20
331.052124
 30
0.0
 11
119.221338
 21
328.052063
 31
0.0
  0
LINE
  5
280
100
AcDbEntity
  8
LAY-4
  6
CONTINUOUS
 62
     3
100
AcDbLine
 10
144.221381
 20
331.052124
 30
0.0
 11
144.221351
 21
328.052063
 31
0.0
  0
LINE
  5
281
100
AcDbEntity
  8
LAY-5
  6
DASHDOT
 62
     1
100
AcDbLine
 10
131.721344
 20
256.305954
 30
0.0
 11
131.721344
 21
58.42363
 31
0.0
  0
LINE
  5
282
100
AcDbEntity
  8
LAY-5
  6
DASHDOT
 62
     1
100
AcDbLine
 10
220.351532
 20
518.870972
 30
0.0
 11
202.743897
 21
518.870972
 31
0.0
  0
LINE
  5
283
100
AcDbEntity
  8
LAY-5
  6
DASHDOT
 62
     1
100
AcDbLine
 10
224.453309
 20
522.870972
 30
0.0
 11
241.560761
 21
522.870972
 31
0.0
  0
LINE
  5
284
100
AcDbEntity
  8
LAY-5
  6
DASHDOT
 62
     1
100
AcDbLine
 10
211.721314
 20
528.2
 30
0.0
 11
211.721314
 21
505.104492
 31
0.0
  0
LINE
  5
285
100
AcDbEntity
  8
LAY-5
  6
DASHDOT
 62
     1
100
AcDbLine
 10
232.721314
 20
505.104492
 30
0.0
 11
232.721314
 21
531.317139
 31
0.0
  0
LINE
  5
286
100
AcDbEntity
  8
LAY-5
  6
DASHDOT
 62
     1
100
AcDbLine
 10
131.721344
 20
542.92218
 30
0.0
 11
131.721344
 21
476.304492
 31
0.0
  0
LINE
  5
287
100
AcDbEntity
  8
LAY-5
  6
DASHDOT
 62
     1
100
AcDbLine
 10
394.013474
 20
432.370972
 30
0.0
 11
412.2
 21
432.370972
 31
0.0
  0
LINE
  5
288
100
AcDbEntity
  8
LAY-5
  6
DASHDOT
 62
     1
100
AcDbLine
 10
440.3
 20
416.370972
 30
0.0
 11
457.913849
 21
416.370972
 31
0.0
  0
LINE
  5
289
100
AcDbEntity
  8
LAY-5
  6
DASHDOT
 62
     1
100
AcDbLine
 10
485.622895
 20
432.370972
 30
0.0
 11
503.944764
 21
432.370972
 31
0.0
  0
LINE
  5
28A
100
AcDbEntity
  8
LAY-5
  6
DASHDOT
 62
     1
100
AcDbLine
 10
402.721329
 20
440.370972
 30
0.0
 11
402.721329
 21
425.2
 31
0.0
  0
LINE
  5
28B
100
AcDbEntity
  8
LAY-5
  6
DASHDOT
 62
     1
100
AcDbLine
 10
448.721344
 20
424.370972
 30
0.0
 11
448.721344
 21
405.6
 31
0.0
  0
LINE
  5
28C
100
AcDbEntity
  8
LAY-5
  6
DASHDOT
 62
     1
100
AcDbLine
 10
494.721344
 20
440.370972
 30
0.0
 11
494.721344
 21
425.2
 31
0.0
  0
LINE
  5
28D
100
AcDbEntity
  8
LAY-5
  6
DASHDOT
 62
     1
100
AcDbLine
 10
494.721344
 20
530.440979
 30
0.0
 11
494.721344
 21
514.856812
 31
0.0
  0
LINE
  5
28E
100
AcDbEntity
  8
LAY-5
  6
DASHDOT
 62
     1
100
AcDbLine
 10
494.721344
 20
498.44104
 30
0.0
 11
494.721344
 21
513.273438
 31
0.0
  0
LINE
  5
28F
100
AcDbEntity
  8
LAY-5
  6
DASHDOT
 62
     1
100
AcDbLine
 10
485.622895
 20
523.440918
 30
0.0
 11
504.2
 21
523.440918
 31
0.0
  0
LINE
  5
290
100
AcDbEntity
  8
LAY-5
  6
DASHDOT
 62
     1
100
AcDbLine
 10
485.622895
 20
505.440918
 30
0.0
 11
504.2
 21
505.440918
 31
0.0
  0
LINE
  5
291
100
AcDbEntity
  8
LAY-5
  6
DASHDOT
 62
     1
100
AcDbLine
 10
347.721344
 20
530.440979
 30
0.0
 11
347.721344
 21
515.196106
 31
0.0
  0
LINE
  5
292
100
AcDbEntity
  8
LAY-5
  6
DASHDOT
 62
     1
100
AcDbLine
 10
347.721344
 20
498.44104
 30
0.0
 11
347.721344
 21
513.160339
 31
0.0
  0
LINE
  5
293
100
AcDbEntity
  8
LAY-5
  6
DASHDOT
 62
     1
100
AcDbLine
 10
339.500214
 20
523.440918
 30
0.0
 11
356.691132
 21
523.440918
 31
0.0
  0
LINE
  5
294
100
AcDbEntity
  8
LAY-5
  6
DASHDOT
 62
     1
100
AcDbLine
 10
356.691132
 20
505.440918
 30
0.0
 11
339.500214
 21
505.440918
 31
0.0
  0
LINE
  5
295
100
AcDbEntity
  8
LAY-5
  6
DASHDOT
 62
     1
100
AcDbLine
 10
372.721344
 20
491.1
 30
0.0
 11
372.721344
 21
536.2
 31
0.0
  0
LINE
  5
296
100
AcDbEntity
  8
LAY-5
  6
DASHDOT
 62
     1
100
AcDbLine
 10
432.721344
 20
508.0
 30
0.0
 11
432.721344
 21
520.6
 31
0.0
  0
LINE
  5
297
100
AcDbEntity
  8
LAY-5
  6
DASHDOT
 62
     1
100
AcDbLine
 10
452.721344
 20
507.5
 30
0.0
 11
452.721344
 21
521.8
 31
0.0
  0
LINE
  5
298
100
AcDbEntity
  8
LAY-5
  6
DASHDOT
 62
     1
100
AcDbLine
 10
473.721344
 20
507.2
 30
0.0
 11
473.721344
 21
522.1
 31
0.0
  0
LINE
  5
299
100
AcDbEntity
  8
LAY-5
  6
DASHDOT
 62
     1
100
AcDbLine
 10
353.7
 20
424.370972
 30
0.0
 11
513.053345
 21
424.370972
 31
0.0
  0
LINE
  5
29A
100
AcDbEntity
  8
LAY-5
  6
DASHDOT
 62
     1
100
AcDbLine
 10
372.721344
 20
444.1
 30
0.0
 11
372.721344
 21
404.8
 31
0.0
  0
LINE
  5
29B
100
AcDbEntity
  8
LAY-5
  6
DASHDOT
 62
     1
100
AcDbLine
 10
329.5
 20
514.440918
 30
0.0
 11
515.6
 21
514.440918
 31
0.0
  0
LINE
  5
29C
100
AcDbEntity
  8
LAY-5
  6
DASHDOT
 62
     1
100
AcDbLine
 10
64.5
 20
164.052078
 30
0.0
 11
428.9
 21
164.052078
 31
0.0
  0
LINE
  5
29D
100
AcDbEntity
  8
LAY-5
  6
DASHDOT
 62
     1
100
AcDbLine
 10
391.721344
 20
83.91
 30
0.0
 11
391.721344
 21
74.052078
 31
0.0
  0
LINE
  5
29E
100
AcDbEntity
  8
LAY-5
  6
DASHDOT
 62
     1
100
AcDbLine
 10
396.79
 20
79.052078
 30
0.0
 11
386.56
 21
79.052078
 31
0.0
  0
LINE
  5
29F
100
AcDbEntity
  8
LAY-5
  6
DASHDOT
 62
     1
100
AcDbLine
 10
391.721375
 20
243.8
 30
0.0
 11
391.721375
 21
254.052094
 31
0.0
  0
LINE
  5
2A0
100
AcDbEntity
  8
LAY-5
  6
DASHDOT
 62
     1
100
AcDbLine
 10
397.2
 20
249.052078
 30
0.0
 11
386.5
 21
249.052078
 31
0.0
  0
LINE
  5
2A1
100
AcDbEntity
  8
LAY-5
  6
DASHDOT
 62
     1
100
AcDbLine
 10
91.721344
 20
243.8
 30
0.0
 11
91.721344
 21
254.052094
 31
0.0
  0
LINE
  5
2A2
100
AcDbEntity
  8
LAY-5
  6
DASHDOT
 62
     1
100
AcDbLine
 10
86.0
 20
249.052109
 30
0.0
 11
97.1
 21
249.052109
 31
0.0
  0
LINE
  5
2A3
100
AcDbEntity
  8
LAY-5
  6
DASHDOT
 62
     1
100
AcDbLine
 10
91.721344
 20
84.3
 30
0.0
 11
91.721344
 21
74.052078
 31
0.0
  0
LINE
  5
2A4
100
AcDbEntity
  8
LAY-5
  6
DASHDOT
 62
     1
100
AcDbLine
 10
86.82
 20
79.052078
 30
0.0
 11
96.85
 21
79.052078
 31
0.0
  0
LINE
  5
2A5
100
AcDbEntity
  8
LAY-5
  6
DASHDOT
 62
     1
100
AcDbLine
 10
173.721344
 20
84.5
 30
0.0
 11
173.721344
 21
74.052078
 31
0.0
  0
LINE
  5
2A6
100
AcDbEntity
  8
LAY-5
  6
DASHDOT
 62
     1
100
AcDbLine
 10
189.721344
 20
84.34
 30
0.0
 11
189.721344
 21
74.052078
 31
0.0
  0
LINE
  5
2A7
100
AcDbEntity
  8
LAY-5
  6
DASHDOT
 62
     1
100
AcDbLine
 10
184.5
 20
79.052078
 30
0.0
 11
195.19
 21
79.052078
 31
0.0
  0
LINE
  5
2A8
100
AcDbEntity
  8
LAY-5
  6
DASHDOT
 62
     1
100
AcDbLine
 10
168.2
 20
79.052078
 30
0.0
 11
179.08
 21
79.052078
 31
0.0
  0
LINE
  5
2A9
100
AcDbEntity
  8
LAY-5
  6
DASHDOT
 62
     1
100
AcDbLine
 10
173.721375
 20
244.03
 30
0.0
 11
173.721375
 21
254.052094
 31
0.0
  0
LINE
  5
2AA
100
AcDbEntity
  8
LAY-5
  6
DASHDOT
 62
     1
100
AcDbLine
 10
189.721375
 20
243.89
 30
0.0
 11
189.721375
 21
254.052094
 31
0.0
  0
LINE
  5
2AB
100
AcDbEntity
  8
LAY-5
  6
DASHDOT
 62
     1
100
AcDbLine
 10
184.91
 20
249.052109
 30
0.0
 11
195.08
 21
249.052109
 31
0.0
  0
LINE
  5
2AC
100
AcDbEntity
  8
LAY-5
  6
DASHDOT
 62
     1
100
AcDbLine
 10
168.52
 20
249.052109
 30
0.0
 11
178.44
 21
249.052109
 31
0.0
  0
LINE
  5
2AD
100
AcDbEntity
  8
LAY-5
  6
DASHDOT
 62
     1
100
AcDbLine
 10
189.221344
 20
362.5
 30
0.0
 11
189.221344
 21
333.3
 31
0.0
  0
LINE
  5
2AE
100
AcDbEntity
  8
LAY-5
  6
DASHDOT
 62
     1
100
AcDbLine
 10
164.221344
 20
362.3
 30
0.0
 11
164.221344
 21
333.3
 31
0.0
  0
LINE
  5
2AF
100
AcDbEntity
  8
LAY-5
  6
DASHDOT
 62
     1
100
AcDbLine
 10
269.221344
 20
361.9
 30
0.0
 11
269.221344
 21
333.0
 31
0.0
  0
LINE
  5
2B0
100
AcDbEntity
  8
LAY-5
  6
DASHDOT
 62
     1
100
AcDbLine
 10
229.221344
 20
361.8
 30
0.0
 11
229.221344
 21
333.1
 31
0.0
  0
LINE
  5
2B1
100
AcDbEntity
  8
LAY-5
  6
DASHDOT
 62
     1
100
AcDbLine
 10
106.721344
 20
499.7
 30
0.0
 11
106.721344
 21
518.8
 31
0.0
  0
LINE
  5
2B2
100
AcDbEntity
  8
LAY-5
  6
DASHDOT
 62
     1
100
AcDbLine
 10
253.721314
 20
500.0
 30
0.0
 11
253.721314
 21
518.9
 31
0.0
  0
LINE
  5
2B3
100
AcDbEntity
  8
LAY-5
  6
DASHDOT
 62
     1
100
AcDbLine
 10
253.721344
 20
499.2
 30
0.0
 11
253.721344
 21
481.6
 31
0.0
  0
LINE
  5
2B4
100
AcDbEntity
  8
LAY-5
  6
DASHDOT
 62
     1
100
AcDbLine
 10
207.721344
 20
499.3
 30
0.0
 11
207.721344
 21
481.28
 31
0.0
  0
LINE
  5
2B5
100
AcDbEntity
  8
LAY-5
  6
DASHDOT
 62
     1
100
AcDbLine
 10
161.721329
 20
499.3
 30
0.0
 11
161.721329
 21
481.21
 31
0.0
  0
LINE
  5
2B6
100
AcDbEntity
  8
LAY-5
  6
DASHDOT
 62
     1
100
AcDbLine
 10
131.721344
 20
147.9
 30
0.0
 11
131.721344
 21
179.1
 31
0.0
  0
LINE
  5
2B7
100
AcDbEntity
  8
LAY-5
  6
DASHDOT
 62
     1
100
AcDbLine
 10
164.221344
 20
152.052078
 30
0.0
 11
164.221344
 21
167.0
 31
0.0
  0
LINE
  5
2B8
100
AcDbEntity
  8
LAY-5
  6
DASHDOT
 62
     1
100
AcDbLine
 10
189.221344
 20
160.107132
 30
0.0
 11
189.221344
 21
179.1
 31
0.0
  0
LINE
  5
2B9
100
AcDbEntity
  8
LAY-5
  6
DASHDOT
 62
     1
100
AcDbLine
 10
229.221344
 20
152.052078
 30
0.0
 11
229.221344
 21
167.0
 31
0.0
  0
LINE
  5
2BA
100
AcDbEntity
  8
LAY-5
  6
DASHDOT
 62
     1
100
AcDbLine
 10
269.221344
 20
159.807007
 30
0.0
 11
269.221344
 21
179.1
 31
0.0
  0
LINE
  5
2BB
100
AcDbEntity
  8
LAY-5
  6
DASHDOT
 62
     1
100
AcDbLine
 10
154.913239
 20
159.052078
 30
0.0
 11
174.721832
 21
159.052078
 31
0.0
  0
LINE
  5
2BC
100
AcDbEntity
  8
LAY-5
  6
DASHDOT
 62
     1
100
AcDbLine
 10
196.960229
 20
168.826202
 30
0.0
 11
179.317047
 21
168.826202
 31
0.0
  0
LINE
  5
2BD
100
AcDbEntity
  8
LAY-5
  6
DASHDOT
 62
     1
100
AcDbLine
 10
221.460229
 20
158.826218
 30
0.0
 11
239.125519
 21
158.826218
 31
0.0
  0
LINE
  5
2BE
100
AcDbEntity
  8
LAY-5
  6
DASHDOT
 62
     1
100
AcDbLine
 10
259.316925
 20
168.826202
 30
0.0
 11
279.125519
 21
168.826202
 31
0.0
  0
LINE
  5
2BF
100
AcDbEntity
  8
LAY-5
  6
DASHDOT
 62
     1
100
AcDbLine
 10
109.160229
 20
164.052078
 30
0.0
 11
284.160229
 21
164.052078
 31
0.0
  0
LINE
  5
2C0
100
AcDbEntity
  8
LAY-5
  6
DASHDOT
 62
     1
100
AcDbLine
 10
347.721344
 20
485.1
 30
0.0
 11
347.721344
 21
536.2
 31
0.0
  0
LINE
  5
2C1
100
AcDbEntity
  8
LAY-5
  6
DASHDOT
 62
     1
100
AcDbLine
 10
683.549836
 20
542.92218
 30
0.0
 11
683.549836
 21
476.304492
 31
0.0
  0
LINE
  5
2C2
100
AcDbEntity
  8
LAY-5
  6
DASHDOT
 62
     1
100
AcDbLine
 10
683.549836
 20
218.0
 30
0.0
 11
683.549836
 21
552.0
 31
0.0
  0
LINE
  5
2C3
100
AcDbEntity
  8
LAY-5
  6
DASHDOT
 62
     1
100
AcDbLine
 10
131.721344
 20
271.508209
 30
0.0
 11
131.721344
 21
355.3
 31
0.0
  0
LINE
  5
2C4
100
AcDbEntity
  8
LAY-6
  6
CONTINUOUS
 62
     1
100
AcDbLine
 10
423.721344
 20
254.052094
 30
0.0
 11
445.5
 21
254.052094
 31
0.0
  0
LINE
  5
2C5
100
AcDbEntity
  8
LAY-6
  6
CONTINUOUS
 62
     1
100
AcDbLine
 10
423.721344
 20
74.052094
 30
0.0
 11
445.5
 21
74.052094
 31
0.0
  0
TEXT
  5
2C6
100
AcDbEntity
  8
LAY-6
  6
CONTINUOUS
 62
     2
100
AcDbText
 10
443.5
 20
163.052094
 30
0.0
 40
5.0
  1
１８０
 50
90.0
 41
0.672
  7
EXCADSTD
 72
     5
 11
443.5
 21
175.052094
 31
0.0
100
AcDbText
  0
LINE
  5
2C7
100
AcDbEntity
  8
LAY-6
  6
CONTINUOUS
 62
     1
100
AcDbLine
 10
444.0
 20
254.052094
 30
0.0
 11
444.0
 21
74.052094
 31
0.0
  0
LINE
  5
2C8
100
AcDbEntity
  8
LAY-6
  6
CONTINUOUS
 62
     1
100
AcDbLine
 10
444.5
 20
251.052094
 30
0.0
 11
444.0
 21
254.052094
 31
0.0
  0
LINE
  5
2C9
100
AcDbEntity
  8
LAY-6
  6
CONTINUOUS
 62
     1
100
AcDbLine
 10
444.0
 20
254.052094
 30
0.0
 11
443.5
 21
251.052094
 31
0.0
  0
LINE
  5
2CA
100
AcDbEntity
  8
LAY-6
  6
CONTINUOUS
 62
     1
100
AcDbLine
 10
443.5
 20
77.052094
 30
0.0
 11
444.0
 21
74.052094
 31
0.0
  0
LINE
  5
2CB
100
AcDbEntity
  8
LAY-6
  6
CONTINUOUS
 62
     1
100
AcDbLine
 10
444.0
 20
74.052094
 30
0.0
 11
444.5
 21
77.052094
 31
0.0
  0
LINE
  5
2CC
100
AcDbEntity
  8
LAY-6
  6
CONTINUOUS
 62
     1
100
AcDbLine
 10
68.721344
 20
74.052094
 30
0.0
 11
68.721344
 21
60.8
 31
0.0
  0
LINE
  5
2CD
100
AcDbEntity
  8
LAY-6
  6
CONTINUOUS
 62
     1
100
AcDbLine
 10
131.721344
 20
58.42363
 30
0.0
 11
131.721344
 21
63.8
 31
0.0
  0
TEXT
  5
2CE
100
AcDbEntity
  8
LAY-6
  6
CONTINUOUS
 62
     2
100
AcDbText
 10
98.621344
 20
62.8
 30
0.0
 40
5.0
  1
６３
 41
0.672
  7
EXCADSTD
 72
     5
 11
105.954144
 21
62.8
 31
0.0
100
AcDbText
  0
LINE
  5
2CF
100
AcDbEntity
  8
LAY-6
  6
CONTINUOUS
 62
     1
100
AcDbLine
 10
68.721344
 20
62.3
 30
0.0
 11
131.721344
 21
62.3
 31
0.0
  0
LINE
  5
2D0
100
AcDbEntity
  8
LAY-6
  6
CONTINUOUS
 62
     1
100
AcDbLine
 10
71.721344
 20
62.8
 30
0.0
 11
68.721344
 21
62.3
 31
0.0
  0
LINE
  5
2D1
100
AcDbEntity
  8
LAY-6
  6
CONTINUOUS
 62
     1
100
AcDbLine
 10
68.721344
 20
62.3
 30
0.0
 11
71.721344
 21
61.8
 31
0.0
  0
LINE
  5
2D2
100
AcDbEntity
  8
LAY-6
  6
CONTINUOUS
 62
     1
100
AcDbLine
 10
128.721344
 20
61.8
 30
0.0
 11
131.721344
 21
62.3
 31
0.0
  0
LINE
  5
2D3
100
AcDbEntity
  8
LAY-6
  6
CONTINUOUS
 62
     1
100
AcDbLine
 10
131.721344
 20
62.3
 30
0.0
 11
128.721344
 21
62.8
 31
0.0
  0
LINE
  5
2D4
100
AcDbEntity
  8
LAY-6
  6
CONTINUOUS
 62
     1
100
AcDbLine
 10
181.721344
 20
74.052094
 30
0.0
 11
181.721344
 21
60.8
 31
0.0
  0
TEXT
  5
2D5
100
AcDbEntity
  8
LAY-6
  6
CONTINUOUS
 62
     2
100
AcDbText
 10
154.421344
 20
62.8
 30
0.0
 40
5.0
  1
５０
 41
0.672
  7
EXCADSTD
 72
     5
 11
161.754144
 21
62.8
 31
0.0
100
AcDbText
  0
LINE
  5
2D6
100
AcDbEntity
  8
LAY-6
  6
CONTINUOUS
 62
     1
100
AcDbLine
 10
131.721344
 20
62.3
 30
0.0
 11
181.721344
 21
62.3
 31
0.0
  0
LINE
  5
2D7
100
AcDbEntity
  8
LAY-6
  6
CONTINUOUS
 62
     1
100
AcDbLine
 10
134.721344
 20
62.8
 30
0.0
 11
131.721344
 21
62.3
 31
0.0
  0
LINE
  5
2D8
100
AcDbEntity
  8
LAY-6
  6
CONTINUOUS
 62
     1
100
AcDbLine
 10
131.721344
 20
62.3
 30
0.0
 11
134.721344
 21
61.8
 31
0.0
  0
LINE
  5
2D9
100
AcDbEntity
  8
LAY-6
  6
CONTINUOUS
 62
     1
100
AcDbLine
 10
178.721344
 20
61.8
 30
0.0
 11
181.721344
 21
62.3
 31
0.0
  0
LINE
  5
2DA
100
AcDbEntity
  8
LAY-6
  6
CONTINUOUS
 62
     1
100
AcDbLine
 10
181.721344
 20
62.3
 30
0.0
 11
178.721344
 21
62.8
 31
0.0
  0
LINE
  5
2DB
100
AcDbEntity
  8
LAY-6
  6
CONTINUOUS
 62
     1
100
AcDbLine
 10
423.721344
 20
74.052094
 30
0.0
 11
423.721344
 21
60.8
 31
0.0
  0
TEXT
  5
2DC
100
AcDbEntity
  8
LAY-6
  6
CONTINUOUS
 62
     2
100
AcDbText
 10
300.421344
 20
62.8
 30
0.0
 40
5.0
  1
２４２
 41
0.672
  7
EXCADSTD
 72
     5
 11
312.421344
 21
62.8
 31
0.0
100
AcDbText
  0
LINE
  5
2DD
100
AcDbEntity
  8
LAY-6
  6
CONTINUOUS
 62
     1
100
AcDbLine
 10
181.721344
 20
62.3
 30
0.0
 11
423.721344
 21
62.3
 31
0.0
  0
LINE
  5
2DE
100
AcDbEntity
  8
LAY-6
  6
CONTINUOUS
 62
     1
100
AcDbLine
 10
184.721344
 20
62.8
 30
0.0
 11
181.721344
 21
62.3
 31
0.0
  0
LINE
  5
2DF
100
AcDbEntity
  8
LAY-6
  6
CONTINUOUS
 62
     1
100
AcDbLine
 10
181.721344
 20
62.3
 30
0.0
 11
184.721344
 21
61.8
 31
0.0
  0
LINE
  5
2E0
100
AcDbEntity
  8
LAY-6
  6
CONTINUOUS
 62
     1
100
AcDbLine
 10
420.721344
 20
61.8
 30
0.0
 11
423.721344
 21
62.3
 31
0.0
  0
LINE
  5
2E1
100
AcDbEntity
  8
LAY-6
  6
CONTINUOUS
 62
     1
100
AcDbLine
 10
423.721344
 20
62.3
 30
0.0
 11
420.721344
 21
62.8
 31
0.0
  0
LINE
  5
2E2
100
AcDbEntity
  8
LAY-6
  6
CONTINUOUS
 62
     1
100
AcDbLine
 10
68.721344
 20
60.8
 30
0.0
 11
68.721344
 21
50.0
 31
0.0
  0
LINE
  5
2E3
100
AcDbEntity
  8
LAY-6
  6
CONTINUOUS
 62
     1
100
AcDbLine
 10
423.721344
 20
60.8
 30
0.0
 11
423.721344
 21
50.0
 31
0.0
  0
TEXT
  5
2E4
100
AcDbEntity
  8
LAY-6
  6
CONTINUOUS
 62
     2
100
AcDbText
 10
242.421344
 20
52.0
 30
0.0
 40
5.0
  1
３５５
 41
0.672
  7
EXCADSTD
 72
     5
 11
254.421344
 21
52.0
 31
0.0
100
AcDbText
  0
LINE
  5
2E5
100
AcDbEntity
  8
LAY-6
  6
CONTINUOUS
 62
     1
100
AcDbLine
 10
68.721344
 20
51.5
 30
0.0
 11
423.721344
 21
51.5
 31
0.0
  0
LINE
  5
2E6
100
AcDbEntity
  8
LAY-6
  6
CONTINUOUS
 62
     1
100
AcDbLine
 10
71.721344
 20
52.0
 30
0.0
 11
68.721344
 21
51.5
 31
0.0
  0
LINE
  5
2E7
100
AcDbEntity
  8
LAY-6
  6
CONTINUOUS
 62
     1
100
AcDbLine
 10
68.721344
 20
51.5
 30
0.0
 11
71.721344
 21
51.0
 31
0.0
  0
LINE
  5
2E8
100
AcDbEntity
  8
LAY-6
  6
CONTINUOUS
 62
     1
100
AcDbLine
 10
420.721344
 20
51.0
 30
0.0
 11
423.721344
 21
51.5
 31
0.0
  0
LINE
  5
2E9
100
AcDbEntity
  8
LAY-6
  6
CONTINUOUS
 62
     1
100
AcDbLine
 10
423.721344
 20
51.5
 30
0.0
 11
420.721344
 21
52.0
 31
0.0
  0
LINE
  5
2EA
100
AcDbEntity
  8
LAY-6
  6
CONTINUOUS
 62
     1
100
AcDbLine
 10
97.721313
 20
511.870972
 30
0.0
 11
97.721313
 21
547.8
 31
0.0
  0
TEXT
  5
2EB
100
AcDbEntity
  8
LAY-6
  6
CONTINUOUS
 62
     2
100
AcDbText
 10
103.721313
 20
546.8
 30
0.0
 40
5.0
  1
２０
 41
0.672
  7
EXCADSTD
 72
     5
 11
111.054113
 21
546.8
 31
0.0
100
AcDbText
  0
LINE
  5
2EC
100
AcDbEntity
  8
LAY-6
  6
CONTINUOUS
 62
     1
100
AcDbLine
 10
117.721313
 20
511.870972
 30
0.0
 11
117.721313
 21
547.8
 31
0.0
  0
LINE
  5
2ED
100
AcDbEntity
  8
LAY-6
  6
CONTINUOUS
 62
     1
100
AcDbLine
 10
97.721313
 20
546.3
 30
0.0
 11
117.721313
 21
546.3
 31
0.0
  0
LINE
  5
2EE
100
AcDbEntity
  8
LAY-6
  6
CONTINUOUS
 62
     1
100
AcDbLine
 10
100.721313
 20
546.8
 30
0.0
 11
97.721313
 21
546.3
 31
0.0
  0
LINE
  5
2EF
100
AcDbEntity
  8
LAY-6
  6
CONTINUOUS
 62
     1
100
AcDbLine
 10
97.721313
 20
546.3
 30
0.0
 11
100.721313
 21
545.8
 31
0.0
  0
LINE
  5
2F0
100
AcDbEntity
  8
LAY-6
  6
CONTINUOUS
 62
     1
100
AcDbLine
 10
114.721313
 20
545.8
 30
0.0
 11
117.721313
 21
546.3
 31
0.0
  0
LINE
  5
2F1
100
AcDbEntity
  8
LAY-6
  6
CONTINUOUS
 62
     1
100
AcDbLine
 10
117.721313
 20
546.3
 30
0.0
 11
114.721313
 21
546.8
 31
0.0
  0
TEXT
  5
2F2
100
AcDbEntity
  8
LAY-6
  6
CONTINUOUS
 62
     2
100
AcDbText
 10
122.921329
 20
546.8
 30
0.0
 40
5.0
  1
１４
 41
0.672
  7
EXCADSTD
 72
     5
 11
130.254129
 21
546.8
 31
0.0
100
AcDbText
  0
LINE
  5
2F3
100
AcDbEntity
  8
LAY-6
  6
CONTINUOUS
 62
     1
100
AcDbLine
 10
131.721344
 20
542.92218
 30
0.0
 11
131.721344
 21
547.8
 31
0.0
  0
LINE
  5
2F4
100
AcDbEntity
  8
LAY-6
  6
CONTINUOUS
 62
     1
100
AcDbLine
 10
117.721313
 20
546.3
 30
0.0
 11
131.721344
 21
546.3
 31
0.0
  0
LINE
  5
2F5
100
AcDbEntity
  8
LAY-6
  6
CONTINUOUS
 62
     1
100
AcDbLine
 10
120.721313
 20
546.8
 30
0.0
 11
117.721313
 21
546.3
 31
0.0
  0
LINE
  5
2F6
100
AcDbEntity
  8
LAY-6
  6
CONTINUOUS
 62
     1
100
AcDbLine
 10
117.721313
 20
546.3
 30
0.0
 11
120.721313
 21
545.8
 31
0.0
  0
LINE
  5
2F7
100
AcDbEntity
  8
LAY-6
  6
CONTINUOUS
 62
     1
100
AcDbLine
 10
128.721344
 20
545.8
 30
0.0
 11
131.721344
 21
546.3
 31
0.0
  0
LINE
  5
2F8
100
AcDbEntity
  8
LAY-6
  6
CONTINUOUS
 62
     1
100
AcDbLine
 10
131.721344
 20
546.3
 30
0.0
 11
128.721344
 21
546.8
 31
0.0
  0
LINE
  5
2F9
100
AcDbEntity
  8
LAY-6
  6
CONTINUOUS
 62
     1
100
AcDbLine
 10
247.721344
 20
511.870972
 30
0.0
 11
247.721344
 21
547.8
 31
0.0
  0
TEXT
  5
2FA
100
AcDbEntity
  8
LAY-6
  6
CONTINUOUS
 62
     2
100
AcDbText
 10
183.721344
 20
546.8
 30
0.0
 40
5.0
  1
１１６
 41
0.672
  7
EXCADSTD
 72
     5
 11
195.721344
 21
546.8
 31
0.0
100
AcDbText
  0
LINE
  5
2FB
100
AcDbEntity
  8
LAY-6
  6
CONTINUOUS
 62
     1
100
AcDbLine
 10
131.721344
 20
546.3
 30
0.0
 11
247.721344
 21
546.3
 31
0.0
  0
LINE
  5
2FC
100
AcDbEntity
  8
LAY-6
  6
CONTINUOUS
 62
     1
100
AcDbLine
 10
134.721344
 20
546.8
 30
0.0
 11
131.721344
 21
546.3
 31
0.0
  0
LINE
  5
2FD
100
AcDbEntity
  8
LAY-6
  6
CONTINUOUS
 62
     1
100
AcDbLine
 10
131.721344
 20
546.3
 30
0.0
 11
134.721344
 21
545.8
 31
0.0
  0
LINE
  5
2FE
100
AcDbEntity
  8
LAY-6
  6
CONTINUOUS
 62
     1
100
AcDbLine
 10
244.721344
 20
545.8
 30
0.0
 11
247.721344
 21
546.3
 31
0.0
  0
LINE
  5
2FF
100
AcDbEntity
  8
LAY-6
  6
CONTINUOUS
 62
     1
100
AcDbLine
 10
247.721344
 20
546.3
 30
0.0
 11
244.721344
 21
546.8
 31
0.0
  0
LINE
  5
300
100
AcDbEntity
  8
LAY-6
  6
CONTINUOUS
 62
     1
100
AcDbLine
 10
266.721344
 20
511.870972
 30
0.0
 11
266.721344
 21
547.8
 31
0.0
  0
TEXT
  5
301
100
AcDbEntity
  8
LAY-6
  6
CONTINUOUS
 62
     2
100
AcDbText
 10
253.221344
 20
546.8
 30
0.0
 40
5.0
  1
１９
 41
0.672
  7
EXCADSTD
 72
     5
 11
260.554144
 21
546.8
 31
0.0
100
AcDbText
  0
LINE
  5
302
100
AcDbEntity
  8
LAY-6
  6
CONTINUOUS
 62
     1
100
AcDbLine
 10
247.721344
 20
546.3
 30
0.0
 11
266.721344
 21
546.3
 31
0.0
  0
LINE
  5
303
100
AcDbEntity
  8
LAY-6
  6
CONTINUOUS
 62
     1
100
AcDbLine
 10
250.721344
 20
546.8
 30
0.0
 11
247.721344
 21
546.3
 31
0.0
  0
LINE
  5
304
100
AcDbEntity
  8
LAY-6
  6
CONTINUOUS
 62
     1
100
AcDbLine
 10
247.721344
 20
546.3
 30
0.0
 11
250.721344
 21
545.8
 31
0.0
  0
LINE
  5
305
100
AcDbEntity
  8
LAY-6
  6
CONTINUOUS
 62
     1
100
AcDbLine
 10
263.721344
 20
545.8
 30
0.0
 11
266.721344
 21
546.3
 31
0.0
  0
LINE
  5
306
100
AcDbEntity
  8
LAY-6
  6
CONTINUOUS
 62
     1
100
AcDbLine
 10
266.721344
 20
546.3
 30
0.0
 11
263.721344
 21
546.8
 31
0.0
  0
TEXT
  5
307
100
AcDbEntity
  8
LAY-6
  6
CONTINUOUS
 62
     2
100
AcDbText
 10
119.721337
 20
467.7
 30
0.0
 40
5.0
  1
１６
 41
0.672
  7
EXCADSTD
 72
     5
 11
127.054137
 21
467.7
 31
0.0
100
AcDbText
  0
LINE
  5
308
100
AcDbEntity
  8
LAY-6
  6
CONTINUOUS
 62
     1
100
AcDbLine
 10
115.721329
 20
492.370972
 30
0.0
 11
115.721329
 21
465.7
 31
0.0
  0
LINE
  5
309
100
AcDbEntity
  8
LAY-6
  6
CONTINUOUS
 62
     1
100
AcDbLine
 10
131.721344
 20
476.304492
 30
0.0
 11
131.721344
 21
465.7
 31
0.0
  0
LINE
  5
30A
100
AcDbEntity
  8
LAY-6
  6
CONTINUOUS
 62
     1
100
AcDbLine
 10
115.721329
 20
467.2
 30
0.0
 11
131.721344
 21
467.2
 31
0.0
  0
LINE
  5
30B
100
AcDbEntity
  8
LAY-6
  6
CONTINUOUS
 62
     1
100
AcDbLine
 10
118.721329
 20
467.7
 30
0.0
 11
115.721329
 21
467.2
 31
0.0
  0
LINE
  5
30C
100
AcDbEntity
  8
LAY-6
  6
CONTINUOUS
 62
     1
100
AcDbLine
 10
115.721329
 20
467.2
 30
0.0
 11
118.721329
 21
466.7
 31
0.0
  0
LINE
  5
30D
100
AcDbEntity
  8
LAY-6
  6
CONTINUOUS
 62
     1
100
AcDbLine
 10
128.721344
 20
466.7
 30
0.0
 11
131.721344
 21
467.2
 31
0.0
  0
LINE
  5
30E
100
AcDbEntity
  8
LAY-6
  6
CONTINUOUS
 62
     1
100
AcDbLine
 10
131.721344
 20
467.2
 30
0.0
 11
128.721344
 21
467.7
 31
0.0
  0
TEXT
  5
30F
100
AcDbEntity
  8
LAY-6
  6
CONTINUOUS
 62
     2
100
AcDbText
 10
137.721344
 20
467.7
 30
0.0
 40
5.0
  1
２０
 41
0.672
  7
EXCADSTD
 72
     5
 11
145.054144
 21
467.7
 31
0.0
100
AcDbText
  0
LINE
  5
310
100
AcDbEntity
  8
LAY-6
  6
CONTINUOUS
 62
     1
100
AcDbLine
 10
151.721344
 20
487.870972
 30
0.0
 11
151.721344
 21
465.7
 31
0.0
  0
LINE
  5
311
100
AcDbEntity
  8
LAY-6
  6
CONTINUOUS
 62
     1
100
AcDbLine
 10
131.721344
 20
467.2
 30
0.0
 11
151.721344
 21
467.2
 31
0.0
  0
LINE
  5
312
100
AcDbEntity
  8
LAY-6
  6
CONTINUOUS
 62
     1
100
AcDbLine
 10
134.721344
 20
467.7
 30
0.0
 11
131.721344
 21
467.2
 31
0.0
  0
LINE
  5
313
100
AcDbEntity
  8
LAY-6
  6
CONTINUOUS
 62
     1
100
AcDbLine
 10
131.721344
 20
467.2
 30
0.0
 11
134.721344
 21
466.7
 31
0.0
  0
LINE
  5
314
100
AcDbEntity
  8
LAY-6
  6
CONTINUOUS
 62
     1
100
AcDbLine
 10
148.721344
 20
466.7
 30
0.0
 11
151.721344
 21
467.2
 31
0.0
  0
LINE
  5
315
100
AcDbEntity
  8
LAY-6
  6
CONTINUOUS
 62
     1
100
AcDbLine
 10
151.721344
 20
467.2
 30
0.0
 11
148.721344
 21
467.7
 31
0.0
  0
LINE
  5
316
100
AcDbEntity
  8
LAY-6
  6
CONTINUOUS
 62
     1
100
AcDbLine
 10
266.721344
 20
487.870972
 30
0.0
 11
266.721344
 21
465.7
 31
0.0
  0
TEXT
  5
317
100
AcDbEntity
  8
LAY-6
  6
CONTINUOUS
 62
     2
100
AcDbText
 10
203.221344
 20
467.7
 30
0.0
 40
5.0
  1
１１５
 41
0.672
  7
EXCADSTD
 72
     5
 11
215.221344
 21
467.7
 31
0.0
100
AcDbText
  0
LINE
  5
318
100
AcDbEntity
  8
LAY-6
  6
CONTINUOUS
 62
     1
100
AcDbLine
 10
151.721344
 20
467.2
 30
0.0
 11
266.721344
 21
467.2
 31
0.0
  0
LINE
  5
319
100
AcDbEntity
  8
LAY-6
  6
CONTINUOUS
 62
     1
100
AcDbLine
 10
154.721344
 20
467.7
 30
0.0
 11
151.721344
 21
467.2
 31
0.0
  0
LINE
  5
31A
100
AcDbEntity
  8
LAY-6
  6
CONTINUOUS
 62
     1
100
AcDbLine
 10
151.721344
 20
467.2
 30
0.0
 11
154.721344
 21
466.7
 31
0.0
  0
LINE
  5
31B
100
AcDbEntity
  8
LAY-6
  6
CONTINUOUS
 62
     1
100
AcDbLine
 10
263.721344
 20
466.7
 30
0.0
 11
266.721344
 21
467.2
 31
0.0
  0
LINE
  5
31C
100
AcDbEntity
  8
LAY-6
  6
CONTINUOUS
 62
     1
100
AcDbLine
 10
266.721344
 20
467.2
 30
0.0
 11
263.721344
 21
467.7
 31
0.0
  0
LINE
  5
31D
100
AcDbEntity
  8
LAY-6
  6
CONTINUOUS
 62
     1
100
AcDbLine
 10
266.721344
 20
492.370972
 30
0.0
 11
281.6
 21
492.370972
 31
0.0
  0
TEXT
  5
31E
100
AcDbEntity
  8
LAY-6
  6
CONTINUOUS
 62
     2
100
AcDbText
 10
279.6
 20
493.370972
 30
0.0
 40
5.0
  1
６
 50
90.0
 41
0.672
  7
EXCADSTD
 72
     5
 11
279.6
 21
496.570972
 31
0.0
100
AcDbText
  0
LINE
  5
31F
100
AcDbEntity
  8
LAY-6
  6
CONTINUOUS
 62
     1
100
AcDbLine
 10
280.1
 20
492.370972
 30
0.0
 11
280.1
 21
498.370972
 31
0.0
  0
LINE
  5
320
100
AcDbEntity
  8
LAY-6
  6
CONTINUOUS
 62
     1
100
AcDbLine
 10
279.633333
 20
495.170972
 30
0.0
 11
280.1
 21
492.370972
 31
0.0
  0
LINE
  5
321
100
AcDbEntity
  8
LAY-6
  6
CONTINUOUS
 62
     1
100
AcDbLine
 10
280.1
 20
492.370972
 30
0.0
 11
280.566667
 21
495.170972
 31
0.0
  0
LINE
  5
322
100
AcDbEntity
  8
LAY-6
  6
CONTINUOUS
 62
     1
100
AcDbLine
 10
280.566667
 20
495.570972
 30
0.0
 11
280.1
 21
498.370972
 31
0.0
  0
LINE
  5
323
100
AcDbEntity
  8
LAY-6
  6
CONTINUOUS
 62
     1
100
AcDbLine
 10
280.1
 20
498.370972
 30
0.0
 11
279.633333
 21
495.570972
 31
0.0
  0
LINE
  5
324
100
AcDbEntity
  8
LAY-6
  6
CONTINUOUS
 62
     1
100
AcDbLine
 10
266.721344
 20
507.370972
 30
0.0
 11
281.6
 21
507.370972
 31
0.0
  0
TEXT
  5
325
100
AcDbEntity
  8
LAY-6
  6
CONTINUOUS
 62
     2
100
AcDbText
 10
279.6
 20
502.370972
 30
0.0
 40
5.0
  1
６
 50
90.0
 41
0.672
  7
EXCADSTD
 72
     5
 11
279.6
 21
505.570972
 31
0.0
100
AcDbText
  0
LINE
  5
326
100
AcDbEntity
  8
LAY-6
  6
CONTINUOUS
 62
     1
100
AcDbLine
 10
280.1
 20
501.370972
 30
0.0
 11
280.1
 21
507.370972
 31
0.0
  0
LINE
  5
327
100
AcDbEntity
  8
LAY-6
  6
CONTINUOUS
 62
     1
100
AcDbLine
 10
279.633333
 20
504.170972
 30
0.0
 11
280.1
 21
501.370972
 31
0.0
  0
LINE
  5
328
100
AcDbEntity
  8
LAY-6
  6
CONTINUOUS
 62
     1
100
AcDbLine
 10
280.1
 20
501.370972
 30
0.0
 11
280.566667
 21
504.170972
 31
0.0
  0
LINE
  5
329
100
AcDbEntity
  8
LAY-6
  6
CONTINUOUS
 62
     1
100
AcDbLine
 10
280.566667
 20
504.570972
 30
0.0
 11
280.1
 21
507.370972
 31
0.0
  0
LINE
  5
32A
100
AcDbEntity
  8
LAY-6
  6
CONTINUOUS
 62
     1
100
AcDbLine
 10
280.1
 20
507.370972
 30
0.0
 11
279.633333
 21
504.570972
 31
0.0
  0
LINE
  5
32B
100
AcDbEntity
  8
LAY-6
  6
CONTINUOUS
 62
     1
100
AcDbLine
 10
504.2
 20
523.440918
 30
0.0
 11
526.7
 21
523.440918
 31
0.0
  0
LINE
  5
32C
100
AcDbEntity
  8
LAY-6
  6
CONTINUOUS
 62
     1
100
AcDbLine
 10
504.2
 20
505.440918
 30
0.0
 11
526.7
 21
505.440918
 31
0.0
  0
TEXT
  5
32D
100
AcDbEntity
  8
LAY-6
  6
CONTINUOUS
 62
     2
100
AcDbText
 10
524.7
 20
510.440918
 30
0.0
 40
5.0
  1
１８
 50
90.0
 41
0.672
  7
EXCADSTD
 72
     5
 11
524.7
 21
517.773718
 31
0.0
100
AcDbText
  0
LINE
  5
32E
100
AcDbEntity
  8
LAY-6
  6
CONTINUOUS
 62
     1
100
AcDbLine
 10
525.2
 20
523.440918
 30
0.0
 11
525.2
 21
505.440918
 31
0.0
  0
LINE
  5
32F
100
AcDbEntity
  8
LAY-6
  6
CONTINUOUS
 62
     1
100
AcDbLine
 10
525.7
 20
520.440918
 30
0.0
 11
525.2
 21
523.440918
 31
0.0
  0
LINE
  5
330
100
AcDbEntity
  8
LAY-6
  6
CONTINUOUS
 62
     1
100
AcDbLine
 10
525.2
 20
523.440918
 30
0.0
 11
524.7
 21
520.440918
 31
0.0
  0
LINE
  5
331
100
AcDbEntity
  8
LAY-6
  6
CONTINUOUS
 62
     1
100
AcDbLine
 10
524.7
 20
508.440918
 30
0.0
 11
525.2
 21
505.440918
 31
0.0
  0
LINE
  5
332
100
AcDbEntity
  8
LAY-6
  6
CONTINUOUS
 62
     1
100
AcDbLine
 10
525.2
 20
505.440918
 30
0.0
 11
525.7
 21
508.440918
 31
0.0
  0
LINE
  5
333
100
AcDbEntity
  8
LAY-6
  6
CONTINUOUS
 62
     1
100
AcDbLine
 10
507.721344
 20
530.440918
 30
0.0
 11
537.2
 21
530.440918
 31
0.0
  0
LINE
  5
334
100
AcDbEntity
  8
LAY-6
  6
CONTINUOUS
 62
     1
100
AcDbLine
 10
507.721344
 20
498.440979
 30
0.0
 11
537.2
 21
498.440979
 31
0.0
  0
TEXT
  5
335
100
AcDbEntity
  8
LAY-6
  6
CONTINUOUS
 62
     2
100
AcDbText
 10
535.2
 20
510.440948
 30
0.0
 40
5.0
  1
３２
 50
90.0
 41
0.672
  7
EXCADSTD
 72
     5
 11
535.2
 21
517.773749
 31
0.0
100
AcDbText
  0
LINE
  5
336
100
AcDbEntity
  8
LAY-6
  6
CONTINUOUS
 62
     1
100
AcDbLine
 10
535.7
 20
530.440918
 30
0.0
 11
535.7
 21
498.440979
 31
0.0
  0
LINE
  5
337
100
AcDbEntity
  8
LAY-6
  6
CONTINUOUS
 62
     1
100
AcDbLine
 10
536.2
 20
527.440918
 30
0.0
 11
535.7
 21
530.440918
 31
0.0
  0
LINE
  5
338
100
AcDbEntity
  8
LAY-6
  6
CONTINUOUS
 62
     1
100
AcDbLine
 10
535.7
 20
530.440918
 30
0.0
 11
535.2
 21
527.440918
 31
0.0
  0
LINE
  5
339
100
AcDbEntity
  8
LAY-6
  6
CONTINUOUS
 62
     1
100
AcDbLine
 10
535.2
 20
501.440979
 30
0.0
 11
535.7
 21
498.440979
 31
0.0
  0
LINE
  5
33A
100
AcDbEntity
  8
LAY-6
  6
CONTINUOUS
 62
     1
100
AcDbLine
 10
535.7
 20
498.440979
 30
0.0
 11
536.2
 21
501.440979
 31
0.0
  0
LINE
  5
33B
100
AcDbEntity
  8
LAY-6
  6
CONTINUOUS
 62
     1
100
AcDbLine
 10
507.721344
 20
440.370972
 30
0.0
 11
522.8
 21
440.370972
 31
0.0
  0
LINE
  5
33C
100
AcDbEntity
  8
LAY-6
  6
CONTINUOUS
 62
     1
100
AcDbLine
 10
507.721344
 20
408.370972
 30
0.0
 11
522.8
 21
408.370972
 31
0.0
  0
TEXT
  5
33D
100
AcDbEntity
  8
LAY-6
  6
CONTINUOUS
 62
     2
100
AcDbText
 10
520.8
 20
420.370972
 30
0.0
 40
5.0
  1
３２
 50
90.0
 41
0.672
  7
EXCADSTD
 72
     5
 11
520.8
 21
427.703772
 31
0.0
100
AcDbText
  0
LINE
  5
33E
100
AcDbEntity
  8
LAY-6
  6
CONTINUOUS
 62
     1
100
AcDbLine
 10
521.3
 20
440.370972
 30
0.0
 11
521.3
 21
408.370972
 31
0.0
  0
LINE
  5
33F
100
AcDbEntity
  8
LAY-6
  6
CONTINUOUS
 62
     1
100
AcDbLine
 10
521.8
 20
437.370972
 30
0.0
 11
521.3
 21
440.370972
 31
0.0
  0
LINE
  5
340
100
AcDbEntity
  8
LAY-6
  6
CONTINUOUS
 62
     1
100
AcDbLine
 10
521.3
 20
440.370972
 30
0.0
 11
520.8
 21
437.370972
 31
0.0
  0
LINE
  5
341
100
AcDbEntity
  8
LAY-6
  6
CONTINUOUS
 62
     1
100
AcDbLine
 10
520.8
 20
411.370972
 30
0.0
 11
521.3
 21
408.370972
 31
0.0
  0
LINE
  5
342
100
AcDbEntity
  8
LAY-6
  6
CONTINUOUS
 62
     1
100
AcDbLine
 10
521.3
 20
408.370972
 30
0.0
 11
521.8
 21
411.370972
 31
0.0
  0
LINE
  5
343
100
AcDbEntity
  8
LAY-6
  6
CONTINUOUS
 62
     1
100
AcDbLine
 10
331.721344
 20
532.940918
 30
0.0
 11
320.1
 21
532.940918
 31
0.0
  0
LINE
  5
344
100
AcDbEntity
  8
LAY-6
  6
CONTINUOUS
 62
     1
100
AcDbLine
 10
331.721344
 20
495.940918
 30
0.0
 11
320.1
 21
495.940918
 31
0.0
  0
TEXT
  5
345
100
AcDbEntity
  8
LAY-6
  6
CONTINUOUS
 62
     2
100
AcDbText
 10
321.1
 20
512.340918
 30
0.0
 40
5.0
  1
３７
 50
90.0
 41
0.672
  7
EXCADSTD
 72
     5
 11
321.1
 21
519.673718
 31
0.0
100
AcDbText
  0
LINE
  5
346
100
AcDbEntity
  8
LAY-6
  6
CONTINUOUS
 62
     1
100
AcDbLine
 10
321.6
 20
532.940918
 30
0.0
 11
321.6
 21
495.940918
 31
0.0
  0
LINE
  5
347
100
AcDbEntity
  8
LAY-6
  6
CONTINUOUS
 62
     1
100
AcDbLine
 10
322.1
 20
529.940918
 30
0.0
 11
321.6
 21
532.940918
 31
0.0
  0
LINE
  5
348
100
AcDbEntity
  8
LAY-6
  6
CONTINUOUS
 62
     1
100
AcDbLine
 10
321.6
 20
532.940918
 30
0.0
 11
321.1
 21
529.940918
 31
0.0
  0
LINE
  5
349
100
AcDbEntity
  8
LAY-6
  6
CONTINUOUS
 62
     1
100
AcDbLine
 10
321.1
 20
498.940918
 30
0.0
 11
321.6
 21
495.940918
 31
0.0
  0
LINE
  5
34A
100
AcDbEntity
  8
LAY-6
  6
CONTINUOUS
 62
     1
100
AcDbLine
 10
321.6
 20
495.940918
 30
0.0
 11
322.1
 21
498.940918
 31
0.0
  0
LINE
  5
34B
100
AcDbEntity
  8
LAY-6
  6
CONTINUOUS
 62
     1
100
AcDbLine
 10
331.721344
 20
532.940918
 30
0.0
 11
331.721344
 21
544.0
 31
0.0
  0
LINE
  5
34C
100
AcDbEntity
  8
LAY-6
  6
CONTINUOUS
 62
     1
100
AcDbLine
 10
372.721344
 20
536.2
 30
0.0
 11
372.721344
 21
544.0
 31
0.0
  0
TEXT
  5
34D
100
AcDbEntity
  8
LAY-6
  6
CONTINUOUS
 62
     2
100
AcDbText
 10
352.021344
 20
543.0
 30
0.0
 40
5.0
  1
４１
 41
0.672
  7
EXCADSTD
 72
     5
 11
359.354144
 21
543.0
 31
0.0
100
AcDbText
  0
LINE
  5
34E
100
AcDbEntity
  8
LAY-6
  6
CONTINUOUS
 62
     1
100
AcDbLine
 10
331.721344
 20
542.5
 30
0.0
 11
372.721344
 21
542.5
 31
0.0
  0
LINE
  5
34F
100
AcDbEntity
  8
LAY-6
  6
CONTINUOUS
 62
     1
100
AcDbLine
 10
334.721344
 20
543.0
 30
0.0
 11
331.721344
 21
542.5
 31
0.0
  0
LINE
  5
350
100
AcDbEntity
  8
LAY-6
  6
CONTINUOUS
 62
     1
100
AcDbLine
 10
331.721344
 20
542.5
 30
0.0
 11
334.721344
 21
542.0
 31
0.0
  0
LINE
  5
351
100
AcDbEntity
  8
LAY-6
  6
CONTINUOUS
 62
     1
100
AcDbLine
 10
369.721344
 20
542.0
 30
0.0
 11
372.721344
 21
542.5
 31
0.0
  0
LINE
  5
352
100
AcDbEntity
  8
LAY-6
  6
CONTINUOUS
 62
     1
100
AcDbLine
 10
372.721344
 20
542.5
 30
0.0
 11
369.721344
 21
543.0
 31
0.0
  0
LINE
  5
353
100
AcDbEntity
  8
LAY-6
  6
CONTINUOUS
 62
     1
100
AcDbLine
 10
513.721344
 20
532.940918
 30
0.0
 11
513.721344
 21
544.0
 31
0.0
  0
TEXT
  5
354
100
AcDbEntity
  8
LAY-6
  6
CONTINUOUS
 62
     2
100
AcDbText
 10
442.621344
 20
543.0
 30
0.0
 40
5.0
  1
１４１
 41
0.672
  7
EXCADSTD
 72
     5
 11
454.621344
 21
543.0
 31
0.0
100
AcDbText
  0
LINE
  5
355
100
AcDbEntity
  8
LAY-6
  6
CONTINUOUS
 62
     1
100
AcDbLine
 10
372.721344
 20
542.5
 30
0.0
 11
513.721344
 21
542.5
 31
0.0
  0
LINE
  5
356
100
AcDbEntity
  8
LAY-6
  6
CONTINUOUS
 62
     1
100
AcDbLine
 10
375.721344
 20
543.0
 30
0.0
 11
372.721344
 21
542.5
 31
0.0
  0
LINE
  5
357
100
AcDbEntity
  8
LAY-6
  6
CONTINUOUS
 62
     1
100
AcDbLine
 10
372.721344
 20
542.5
 30
0.0
 11
375.721344
 21
542.0
 31
0.0
  0
LINE
  5
358
100
AcDbEntity
  8
LAY-6
  6
CONTINUOUS
 62
     1
100
AcDbLine
 10
510.721344
 20
542.0
 30
0.0
 11
513.721344
 21
542.5
 31
0.0
  0
LINE
  5
359
100
AcDbEntity
  8
LAY-6
  6
CONTINUOUS
 62
     1
100
AcDbLine
 10
513.721344
 20
542.5
 30
0.0
 11
510.721344
 21
543.0
 31
0.0
  0
LINE
  5
35A
100
AcDbEntity
  8
LAY-6
  6
CONTINUOUS
 62
     1
100
AcDbLine
 10
372.721344
 20
491.1
 30
0.0
 11
372.721344
 21
484.3
 31
0.0
  0
TEXT
  5
35B
100
AcDbEntity
  8
LAY-6
  6
CONTINUOUS
 62
     2
100
AcDbText
 10
356.221344
 20
486.3
 30
0.0
 40
5.0
  1
２５
 41
0.672
  7
EXCADSTD
 72
     5
 11
363.554144
 21
486.3
 31
0.0
100
AcDbText
  0
LINE
  5
35C
100
AcDbEntity
  8
LAY-6
  6
CONTINUOUS
 62
     1
100
AcDbLine
 10
347.721344
 20
485.8
 30
0.0
 11
372.721344
 21
485.8
 31
0.0
  0
LINE
  5
35D
100
AcDbEntity
  8
LAY-6
  6
CONTINUOUS
 62
     1
100
AcDbLine
 10
350.721344
 20
486.3
 30
0.0
 11
347.721344
 21
485.8
 31
0.0
  0
LINE
  5
35E
100
AcDbEntity
  8
LAY-6
  6
CONTINUOUS
 62
     1
100
AcDbLine
 10
347.721344
 20
485.8
 30
0.0
 11
350.721344
 21
485.3
 31
0.0
  0
LINE
  5
35F
100
AcDbEntity
  8
LAY-6
  6
CONTINUOUS
 62
     1
100
AcDbLine
 10
369.721344
 20
485.3
 30
0.0
 11
372.721344
 21
485.8
 31
0.0
  0
LINE
  5
360
100
AcDbEntity
  8
LAY-6
  6
CONTINUOUS
 62
     1
100
AcDbLine
 10
372.721344
 20
485.8
 30
0.0
 11
369.721344
 21
486.3
 31
0.0
  0
LINE
  5
361
100
AcDbEntity
  8
LAY-6
  6
CONTINUOUS
 62
     1
100
AcDbLine
 10
494.721344
 20
498.44104
 30
0.0
 11
494.721344
 21
484.3
 31
0.0
  0
TEXT
  5
362
100
AcDbEntity
  8
LAY-6
  6
CONTINUOUS
 62
     2
100
AcDbText
 10
427.721344
 20
486.3
 30
0.0
 40
5.0
  1
１２２
 41
0.672
  7
EXCADSTD
 72
     5
 11
439.721344
 21
486.3
 31
0.0
100
AcDbText
  0
LINE
  5
363
100
AcDbEntity
  8
LAY-6
  6
CONTINUOUS
 62
     1
100
AcDbLine
 10
372.721344
 20
485.8
 30
0.0
 11
494.721344
 21
485.8
 31
0.0
  0
LINE
  5
364
100
AcDbEntity
  8
LAY-6
  6
CONTINUOUS
 62
     1
100
AcDbLine
 10
375.721344
 20
486.3
 30
0.0
 11
372.721344
 21
485.8
 31
0.0
  0
LINE
  5
365
100
AcDbEntity
  8
LAY-6
  6
CONTINUOUS
 62
     1
100
AcDbLine
 10
372.721344
 20
485.8
 30
0.0
 11
375.721344
 21
485.3
 31
0.0
  0
LINE
  5
366
100
AcDbEntity
  8
LAY-6
  6
CONTINUOUS
 62
     1
100
AcDbLine
 10
491.721344
 20
485.3
 30
0.0
 11
494.721344
 21
485.8
 31
0.0
  0
LINE
  5
367
100
AcDbEntity
  8
LAY-6
  6
CONTINUOUS
 62
     1
100
AcDbLine
 10
494.721344
 20
485.8
 30
0.0
 11
491.721344
 21
486.3
 31
0.0
  0
LINE
  5
368
100
AcDbEntity
  8
LAY-6
  6
CONTINUOUS
 62
     1
100
AcDbLine
 10
372.721344
 20
491.1
 30
0.0
 11
372.721344
 21
474.2
 31
0.0
  0
TEXT
  5
369
100
AcDbEntity
  8
LAY-6
  6
CONTINUOUS
 62
     2
100
AcDbText
 10
351.721344
 20
476.2
 30
0.0
 40
5.0
  1
３４
 41
0.672
  7
EXCADSTD
 72
     5
 11
359.054144
 21
476.2
 31
0.0
100
AcDbText
  0
LINE
  5
36A
100
AcDbEntity
  8
LAY-6
  6
CONTINUOUS
 62
     1
100
AcDbLine
 10
338.721344
 20
475.7
 30
0.0
 11
372.721344
 21
475.7
 31
0.0
  0
LINE
  5
36B
100
AcDbEntity
  8
LAY-6
  6
CONTINUOUS
 62
     1
100
AcDbLine
 10
341.721344
 20
476.2
 30
0.0
 11
338.721344
 21
475.7
 31
0.0
  0
LINE
  5
36C
100
AcDbEntity
  8
LAY-6
  6
CONTINUOUS
 62
     1
100
AcDbLine
 10
338.721344
 20
475.7
 30
0.0
 11
341.721344
 21
475.2
 31
0.0
  0
LINE
  5
36D
100
AcDbEntity
  8
LAY-6
  6
CONTINUOUS
 62
     1
100
AcDbLine
 10
369.721344
 20
475.2
 30
0.0
 11
372.721344
 21
475.7
 31
0.0
  0
LINE
  5
36E
100
AcDbEntity
  8
LAY-6
  6
CONTINUOUS
 62
     1
100
AcDbLine
 10
372.721344
 20
475.7
 30
0.0
 11
369.721344
 21
476.2
 31
0.0
  0
LINE
  5
36F
100
AcDbEntity
  8
LAY-6
  6
CONTINUOUS
 62
     1
100
AcDbLine
 10
338.721344
 20
498.440979
 30
0.0
 11
338.721344
 21
474.2
 31
0.0
  0
TEXT
  5
370
100
AcDbEntity
  8
LAY-6
  6
CONTINUOUS
 62
     2
100
AcDbText
 10
434.221344
 20
476.2
 30
0.0
 40
5.0
  1
１３５
 41
0.672
  7
EXCADSTD
 72
     5
 11
446.221344
 21
476.2
 31
0.0
100
AcDbText
  0
LINE
  5
371
100
AcDbEntity
  8
LAY-6
  6
CONTINUOUS
 62
     1
100
AcDbLine
 10
372.721344
 20
475.7
 30
0.0
 11
507.721344
 21
475.7
 31
0.0
  0
LINE
  5
372
100
AcDbEntity
  8
LAY-6
  6
CONTINUOUS
 62
     1
100
AcDbLine
 10
375.721344
 20
476.2
 30
0.0
 11
372.721344
 21
475.7
 31
0.0
  0
LINE
  5
373
100
AcDbEntity
  8
LAY-6
  6
CONTINUOUS
 62
     1
100
AcDbLine
 10
372.721344
 20
475.7
 30
0.0
 11
375.721344
 21
475.2
 31
0.0
  0
LINE
  5
374
100
AcDbEntity
  8
LAY-6
  6
CONTINUOUS
 62
     1
100
AcDbLine
 10
504.721344
 20
475.2
 30
0.0
 11
507.721344
 21
475.7
 31
0.0
  0
LINE
  5
375
100
AcDbEntity
  8
LAY-6
  6
CONTINUOUS
 62
     1
100
AcDbLine
 10
507.721344
 20
475.7
 30
0.0
 11
504.721344
 21
476.2
 31
0.0
  0
LINE
  5
376
100
AcDbEntity
  8
LAY-6
  6
CONTINUOUS
 62
     1
100
AcDbLine
 10
507.721344
 20
498.440979
 30
0.0
 11
507.721344
 21
474.2
 31
0.0
  0
LINE
  5
377
100
AcDbEntity
  8
LAY-6
  6
CONTINUOUS
 62
     1
100
AcDbLine
 10
372.721344
 20
404.8
 30
0.0
 11
372.721344
 21
394.2
 31
0.0
  0
LINE
  5
378
100
AcDbEntity
  8
LAY-6
  6
CONTINUOUS
 62
     1
100
AcDbLine
 10
402.721329
 20
425.2
 30
0.0
 11
402.721329
 21
394.2
 31
0.0
  0
TEXT
  5
379
100
AcDbEntity
  8
LAY-6
  6
CONTINUOUS
 62
     2
100
AcDbText
 10
383.721337
 20
396.2
 30
0.0
 40
5.0
  1
３０
 41
0.672
  7
EXCADSTD
 72
     5
 11
391.054137
 21
396.2
 31
0.0
100
AcDbText
  0
LINE
  5
37A
100
AcDbEntity
  8
LAY-6
  6
CONTINUOUS
 62
     1
100
AcDbLine
 10
372.721344
 20
395.7
 30
0.0
 11
402.721329
 21
395.7
 31
0.0
  0
LINE
  5
37B
100
AcDbEntity
  8
LAY-6
  6
CONTINUOUS
 62
     1
100
AcDbLine
 10
375.721344
 20
396.2
 30
0.0
 11
372.721344
 21
395.7
 31
0.0
  0
LINE
  5
37C
100
AcDbEntity
  8
LAY-6
  6
CONTINUOUS
 62
     1
100
AcDbLine
 10
372.721344
 20
395.7
 30
0.0
 11
375.721344
 21
395.2
 31
0.0
  0
LINE
  5
37D
100
AcDbEntity
  8
LAY-6
  6
CONTINUOUS
 62
     1
100
AcDbLine
 10
399.721329
 20
395.2
 30
0.0
 11
402.721329
 21
395.7
 31
0.0
  0
LINE
  5
37E
100
AcDbEntity
  8
LAY-6
  6
CONTINUOUS
 62
     1
100
AcDbLine
 10
402.721329
 20
395.7
 30
0.0
 11
399.721329
 21
396.2
 31
0.0
  0
LINE
  5
37F
100
AcDbEntity
  8
LAY-6
  6
CONTINUOUS
 62
     1
100
AcDbLine
 10
448.721344
 20
405.6
 30
0.0
 11
448.721344
 21
394.2
 31
0.0
  0
TEXT
  5
380
100
AcDbEntity
  8
LAY-6
  6
CONTINUOUS
 62
     2
100
AcDbText
 10
421.721337
 20
396.2
 30
0.0
 40
5.0
  1
４６
 41
0.672
  7
EXCADSTD
 72
     5
 11
429.054137
 21
396.2
 31
0.0
100
AcDbText
  0
LINE
  5
381
100
AcDbEntity
  8
LAY-6
  6
CONTINUOUS
 62
     1
100
AcDbLine
 10
402.721329
 20
395.7
 30
0.0
 11
448.721344
 21
395.7
 31
0.0
  0
LINE
  5
382
100
AcDbEntity
  8
LAY-6
  6
CONTINUOUS
 62
     1
100
AcDbLine
 10
405.721329
 20
396.2
 30
0.0
 11
402.721329
 21
395.7
 31
0.0
  0
LINE
  5
383
100
AcDbEntity
  8
LAY-6
  6
CONTINUOUS
 62
     1
100
AcDbLine
 10
402.721329
 20
395.7
 30
0.0
 11
405.721329
 21
395.2
 31
0.0
  0
LINE
  5
384
100
AcDbEntity
  8
LAY-6
  6
CONTINUOUS
 62
     1
100
AcDbLine
 10
445.721344
 20
395.2
 30
0.0
 11
448.721344
 21
395.7
 31
0.0
  0
LINE
  5
385
100
AcDbEntity
  8
LAY-6
  6
CONTINUOUS
 62
     1
100
AcDbLine
 10
448.721344
 20
395.7
 30
0.0
 11
445.721344
 21
396.2
 31
0.0
  0
LINE
  5
386
100
AcDbEntity
  8
LAY-6
  6
CONTINUOUS
 62
     1
100
AcDbLine
 10
494.721344
 20
425.2
 30
0.0
 11
494.721344
 21
394.2
 31
0.0
  0
TEXT
  5
387
100
AcDbEntity
  8
LAY-6
  6
CONTINUOUS
 62
     2
100
AcDbText
 10
467.721344
 20
396.2
 30
0.0
 40
5.0
  1
４６
 41
0.672
  7
EXCADSTD
 72
     5
 11
475.054144
 21
396.2
 31
0.0
100
AcDbText
  0
LINE
  5
388
100
AcDbEntity
  8
LAY-6
  6
CONTINUOUS
 62
     1
100
AcDbLine
 10
448.721344
 20
395.7
 30
0.0
 11
494.721344
 21
395.7
 31
0.0
  0
LINE
  5
389
100
AcDbEntity
  8
LAY-6
  6
CONTINUOUS
 62
     1
100
AcDbLine
 10
451.721344
 20
396.2
 30
0.0
 11
448.721344
 21
395.7
 31
0.0
  0
LINE
  5
38A
100
AcDbEntity
  8
LAY-6
  6
CONTINUOUS
 62
     1
100
AcDbLine
 10
448.721344
 20
395.7
 30
0.0
 11
451.721344
 21
395.2
 31
0.0
  0
LINE
  5
38B
100
AcDbEntity
  8
LAY-6
  6
CONTINUOUS
 62
     1
100
AcDbLine
 10
491.721344
 20
395.2
 30
0.0
 11
494.721344
 21
395.7
 31
0.0
  0
LINE
  5
38C
100
AcDbEntity
  8
LAY-6
  6
CONTINUOUS
 62
     1
100
AcDbLine
 10
494.721344
 20
395.7
 30
0.0
 11
491.721344
 21
396.2
 31
0.0
  0
LINE
  5
38D
100
AcDbEntity
  8
LAY-6
  6
CONTINUOUS
 62
     1
100
AcDbLine
 10
356.721329
 20
408.370972
 30
0.0
 11
356.721329
 21
384.0
 31
0.0
  0
LINE
  5
38E
100
AcDbEntity
  8
LAY-6
  6
CONTINUOUS
 62
     1
100
AcDbLine
 10
372.721344
 20
394.2
 30
0.0
 11
372.721344
 21
384.0
 31
0.0
  0
TEXT
  5
38F
100
AcDbEntity
  8
LAY-6
  6
CONTINUOUS
 62
     2
100
AcDbText
 10
360.721337
 20
386.0
 30
0.0
 40
5.0
  1
１６
 41
0.672
  7
EXCADSTD
 72
     5
 11
368.054137
 21
386.0
 31
0.0
100
AcDbText
  0
LINE
  5
390
100
AcDbEntity
  8
LAY-6
  6
CONTINUOUS
 62
     1
100
AcDbLine
 10
356.721329
 20
385.5
 30
0.0
 11
372.721344
 21
385.5
 31
0.0
  0
LINE
  5
391
100
AcDbEntity
  8
LAY-6
  6
CONTINUOUS
 62
     1
100
AcDbLine
 10
359.721329
 20
386.0
 30
0.0
 11
356.721329
 21
385.5
 31
0.0
  0
LINE
  5
392
100
AcDbEntity
  8
LAY-6
  6
CONTINUOUS
 62
     1
100
AcDbLine
 10
356.721329
 20
385.5
 30
0.0
 11
359.721329
 21
385.0
 31
0.0
  0
LINE
  5
393
100
AcDbEntity
  8
LAY-6
  6
CONTINUOUS
 62
     1
100
AcDbLine
 10
369.721344
 20
385.0
 30
0.0
 11
372.721344
 21
385.5
 31
0.0
  0
LINE
  5
394
100
AcDbEntity
  8
LAY-6
  6
CONTINUOUS
 62
     1
100
AcDbLine
 10
372.721344
 20
385.5
 30
0.0
 11
369.721344
 21
386.0
 31
0.0
  0
TEXT
  5
395
100
AcDbEntity
  8
LAY-6
  6
CONTINUOUS
 62
     2
100
AcDbText
 10
434.221344
 20
386.0
 30
0.0
 40
5.0
  1
１３５
 41
0.672
  7
EXCADSTD
 72
     5
 11
446.221344
 21
386.0
 31
0.0
100
AcDbText
  0
LINE
  5
396
100
AcDbEntity
  8
LAY-6
  6
CONTINUOUS
 62
     1
100
AcDbLine
 10
372.721344
 20
385.5
 30
0.0
 11
507.721344
 21
385.5
 31
0.0
  0
LINE
  5
397
100
AcDbEntity
  8
LAY-6
  6
CONTINUOUS
 62
     1
100
AcDbLine
 10
375.721344
 20
386.0
 30
0.0
 11
372.721344
 21
385.5
 31
0.0
  0
LINE
  5
398
100
AcDbEntity
  8
LAY-6
  6
CONTINUOUS
 62
     1
100
AcDbLine
 10
372.721344
 20
385.5
 30
0.0
 11
375.721344
 21
385.0
 31
0.0
  0
LINE
  5
399
100
AcDbEntity
  8
LAY-6
  6
CONTINUOUS
 62
     1
100
AcDbLine
 10
504.721344
 20
385.0
 30
0.0
 11
507.721344
 21
385.5
 31
0.0
  0
LINE
  5
39A
100
AcDbEntity
  8
LAY-6
  6
CONTINUOUS
 62
     1
100
AcDbLine
 10
507.721344
 20
385.5
 30
0.0
 11
504.721344
 21
386.0
 31
0.0
  0
LINE
  5
39B
100
AcDbEntity
  8
LAY-6
  6
CONTINUOUS
 62
     1
100
AcDbLine
 10
507.721344
 20
408.370972
 30
0.0
 11
507.721344
 21
384.0
 31
0.0
  0
LINE
  5
39C
100
AcDbEntity
  8
LAY-6
  6
CONTINUOUS
 62
     1
100
AcDbLine
 10
440.3
 20
416.370972
 30
0.0
 11
426.5
 21
416.370972
 31
0.0
  0
LINE
  5
39D
100
AcDbEntity
  8
LAY-6
  6
CONTINUOUS
 62
     1
100
AcDbLine
 10
429.0
 20
424.370972
 30
0.0
 11
426.5
 21
424.370972
 31
0.0
  0
TEXT
  5
39E
100
AcDbEntity
  8
LAY-6
  6
CONTINUOUS
 62
     2
100
AcDbText
 10
427.5
 20
418.370972
 30
0.0
 40
5.0
  1
８
 50
90.0
 41
0.672
  7
EXCADSTD
 72
     5
 11
427.5
 21
421.570972
 31
0.0
100
AcDbText
  0
LINE
  5
39F
100
AcDbEntity
  8
LAY-6
  6
CONTINUOUS
 62
     1
100
AcDbLine
 10
428.0
 20
416.370972
 30
0.0
 11
428.0
 21
424.370972
 31
0.0
  0
LINE
  5
3A0
100
AcDbEntity
  8
LAY-6
  6
CONTINUOUS
 62
     1
100
AcDbLine
 10
427.5
 20
419.370972
 30
0.0
 11
428.0
 21
416.370972
 31
0.0
  0
LINE
  5
3A1
100
AcDbEntity
  8
LAY-6
  6
CONTINUOUS
 62
     1
100
AcDbLine
 10
428.0
 20
416.370972
 30
0.0
 11
428.5
 21
419.370972
 31
0.0
  0
LINE
  5
3A2
100
AcDbEntity
  8
LAY-6
  6
CONTINUOUS
 62
     1
100
AcDbLine
 10
428.5
 20
421.370972
 30
0.0
 11
428.0
 21
424.370972
 31
0.0
  0
LINE
  5
3A3
100
AcDbEntity
  8
LAY-6
  6
CONTINUOUS
 62
     1
100
AcDbLine
 10
428.0
 20
424.370972
 30
0.0
 11
427.5
 21
421.370972
 31
0.0
  0
LINE
  5
3A4
100
AcDbEntity
  8
LAY-6
  6
CONTINUOUS
 62
     1
100
AcDbLine
 10
412.2
 20
432.370972
 30
0.0
 11
429.5
 21
432.370972
 31
0.0
  0
TEXT
  5
3A5
100
AcDbEntity
  8
LAY-6
  6
CONTINUOUS
 62
     2
100
AcDbText
 10
427.5
 20
426.370972
 30
0.0
 40
5.0
  1
８
 50
90.0
 41
0.672
  7
EXCADSTD
 72
     5
 11
427.5
 21
429.570972
 31
0.0
100
AcDbText
  0
LINE
  5
3A6
100
AcDbEntity
  8
LAY-6
  6
CONTINUOUS
 62
     1
100
AcDbLine
 10
428.0
 20
424.370972
 30
0.0
 11
428.0
 21
432.370972
 31
0.0
  0
LINE
  5
3A7
100
AcDbEntity
  8
LAY-6
  6
CONTINUOUS
 62
     1
100
AcDbLine
 10
427.5
 20
427.370972
 30
0.0
 11
428.0
 21
424.370972
 31
0.0
  0
LINE
  5
3A8
100
AcDbEntity
  8
LAY-6
  6
CONTINUOUS
 62
     1
100
AcDbLine
 10
428.0
 20
424.370972
 30
0.0
 11
428.5
 21
427.370972
 31
0.0
  0
LINE
  5
3A9
100
AcDbEntity
  8
LAY-6
  6
CONTINUOUS
 62
     1
100
AcDbLine
 10
428.5
 20
429.370972
 30
0.0
 11
428.0
 21
432.370972
 31
0.0
  0
LINE
  5
3AA
100
AcDbEntity
  8
LAY-6
  6
CONTINUOUS
 62
     1
100
AcDbLine
 10
428.0
 20
432.370972
 30
0.0
 11
427.5
 21
429.370972
 31
0.0
  0
TEXT
  5
3AB
100
AcDbEntity
  8
LAY-6
  6
CONTINUOUS
 62
     2
100
AcDbText
 10
244.2
 20
561.3
 30
0.0
 40
5.0
  1
４－Ｍ６×１６皿小ネジ
 41
0.672
  7
EXCADSTD
 72
     5
 11
288.2
 21
561.3
 31
0.0
100
AcDbText
  0
TEXT
  5
3AC
100
AcDbEntity
  8
LAY-6
  6
CONTINUOUS
 62
     2
100
AcDbText
 10
219.30095
 20
453.099049
 30
0.0
 40
5.0
  1
３－Ｍ６×１６皿小ネジ
 50
359.891073
 41
0.672
  7
EXCADSTD
 72
     5
 11
263.30087
 21
453.015398
 31
0.0
100
AcDbText
  0
LINE
  5
3AD
100
AcDbEntity
  8
LAY-6
  6
CONTINUOUS
 62
     1
100
AcDbLine
 10
111.721344
 20
349.552124
 30
0.0
 11
111.721344
 21
375.3
 31
0.0
  0
LINE
  5
3AE
100
AcDbEntity
  8
LAY-6
  6
CONTINUOUS
 62
     1
100
AcDbLine
 10
131.721344
 20
355.3
 30
0.0
 11
131.721344
 21
375.3
 31
0.0
  0
TEXT
  5
3AF
100
AcDbEntity
  8
LAY-6
  6
CONTINUOUS
 62
     2
100
AcDbText
 10
117.721344
 20
374.3
 30
0.0
 40
5.0
  1
２０
 41
0.672
  7
EXCADSTD
 72
     5
 11
125.054144
 21
374.3
 31
0.0
100
AcDbText
  0
LINE
  5
3B0
100
AcDbEntity
  8
LAY-6
  6
CONTINUOUS
 62
     1
100
AcDbLine
 10
111.721344
 20
373.8
 30
0.0
 11
131.721344
 21
373.8
 31
0.0
  0
LINE
  5
3B1
100
AcDbEntity
  8
LAY-6
  6
CONTINUOUS
 62
     1
100
AcDbLine
 10
114.721344
 20
374.3
 30
0.0
 11
111.721344
 21
373.8
 31
0.0
  0
LINE
  5
3B2
100
AcDbEntity
  8
LAY-6
  6
CONTINUOUS
 62
     1
100
AcDbLine
 10
111.721344
 20
373.8
 30
0.0
 11
114.721344
 21
373.3
 31
0.0
  0
LINE
  5
3B3
100
AcDbEntity
  8
LAY-6
  6
CONTINUOUS
 62
     1
100
AcDbLine
 10
128.721344
 20
373.3
 30
0.0
 11
131.721344
 21
373.8
 31
0.0
  0
LINE
  5
3B4
100
AcDbEntity
  8
LAY-6
  6
CONTINUOUS
 62
     1
100
AcDbLine
 10
131.721344
 20
373.8
 30
0.0
 11
128.721344
 21
374.3
 31
0.0
  0
LINE
  5
3B5
100
AcDbEntity
  8
LAY-6
  6
CONTINUOUS
 62
     1
100
AcDbLine
 10
279.721344
 20
349.552124
 30
0.0
 11
279.721344
 21
375.3
 31
0.0
  0
TEXT
  5
3B6
100
AcDbEntity
  8
LAY-6
  6
CONTINUOUS
 62
     2
100
AcDbText
 10
199.721344
 20
374.3
 30
0.0
 40
5.0
  1
１４８
 41
0.672
  7
EXCADSTD
 72
     5
 11
211.721344
 21
374.3
 31
0.0
100
AcDbText
  0
LINE
  5
3B7
100
AcDbEntity
  8
LAY-6
  6
CONTINUOUS
 62
     1
100
AcDbLine
 10
131.721344
 20
373.8
 30
0.0
 11
279.721344
 21
373.8
 31
0.0
  0
LINE
  5
3B8
100
AcDbEntity
  8
LAY-6
  6
CONTINUOUS
 62
     1
100
AcDbLine
 10
134.721344
 20
374.3
 30
0.0
 11
131.721344
 21
373.8
 31
0.0
  0
LINE
  5
3B9
100
AcDbEntity
  8
LAY-6
  6
CONTINUOUS
 62
     1
100
AcDbLine
 10
131.721344
 20
373.8
 30
0.0
 11
134.721344
 21
373.3
 31
0.0
  0
LINE
  5
3BA
100
AcDbEntity
  8
LAY-6
  6
CONTINUOUS
 62
     1
100
AcDbLine
 10
276.721344
 20
373.3
 30
0.0
 11
279.721344
 21
373.8
 31
0.0
  0
LINE
  5
3BB
100
AcDbEntity
  8
LAY-6
  6
CONTINUOUS
 62
     1
100
AcDbLine
 10
279.721344
 20
373.8
 30
0.0
 11
276.721344
 21
374.3
 31
0.0
  0
LINE
  5
3BC
100
AcDbEntity
  8
LAY-6
  6
CONTINUOUS
 62
     1
100
AcDbLine
 10
111.721344
 20
375.3
 30
0.0
 11
111.721344
 21
386.0
 31
0.0
  0
LINE
  5
3BD
100
AcDbEntity
  8
LAY-6
  6
CONTINUOUS
 62
     1
100
AcDbLine
 10
279.721344
 20
375.3
 30
0.0
 11
279.721344
 21
386.0
 31
0.0
  0
TEXT
  5
3BE
100
AcDbEntity
  8
LAY-6
  6
CONTINUOUS
 62
     2
100
AcDbText
 10
189.721344
 20
385.0
 30
0.0
 40
5.0
  1
１６８
 41
0.672
  7
EXCADSTD
 72
     5
 11
201.721344
 21
385.0
 31
0.0
100
AcDbText
  0
LINE
  5
3BF
100
AcDbEntity
  8
LAY-6
  6
CONTINUOUS
 62
     1
100
AcDbLine
 10
111.721344
 20
384.5
 30
0.0
 11
279.721344
 21
384.5
 31
0.0
  0
LINE
  5
3C0
100
AcDbEntity
  8
LAY-6
  6
CONTINUOUS
 62
     1
100
AcDbLine
 10
114.721344
 20
385.0
 30
0.0
 11
111.721344
 21
384.5
 31
0.0
  0
LINE
  5
3C1
100
AcDbEntity
  8
LAY-6
  6
CONTINUOUS
 62
     1
100
AcDbLine
 10
111.721344
 20
384.5
 30
0.0
 11
114.721344
 21
384.0
 31
0.0
  0
LINE
  5
3C2
100
AcDbEntity
  8
LAY-6
  6
CONTINUOUS
 62
     1
100
AcDbLine
 10
276.721344
 20
384.0
 30
0.0
 11
279.721344
 21
384.5
 31
0.0
  0
LINE
  5
3C3
100
AcDbEntity
  8
LAY-6
  6
CONTINUOUS
 62
     1
100
AcDbLine
 10
279.721344
 20
384.5
 30
0.0
 11
276.721344
 21
385.0
 31
0.0
  0
TEXT
  5
3C4
100
AcDbEntity
  8
LAY-6
  6
CONTINUOUS
 62
     2
100
AcDbText
 10
127.721345
 20
337.3
 30
0.0
 40
5.0
  1
２５
 41
0.672
  7
EXCADSTD
 72
     5
 11
135.054145
 21
337.3
 31
0.0
100
AcDbText
  0
LINE
  5
3C5
100
AcDbEntity
  8
LAY-6
  6
CONTINUOUS
 62
     1
100
AcDbLine
 10
119.221338
 20
336.8
 30
0.0
 11
144.221351
 21
336.8
 31
0.0
  0
LINE
  5
3C6
100
AcDbEntity
  8
LAY-6
  6
CONTINUOUS
 62
     1
100
AcDbLine
 10
122.221338
 20
337.3
 30
0.0
 11
119.221338
 21
336.8
 31
0.0
  0
LINE
  5
3C7
100
AcDbEntity
  8
LAY-6
  6
CONTINUOUS
 62
     1
100
AcDbLine
 10
119.221338
 20
336.8
 30
0.0
 11
122.221338
 21
336.3
 31
0.0
  0
LINE
  5
3C8
100
AcDbEntity
  8
LAY-6
  6
CONTINUOUS
 62
     1
100
AcDbLine
 10
141.221351
 20
336.3
 30
0.0
 11
144.221351
 21
336.8
 31
0.0
  0
LINE
  5
3C9
100
AcDbEntity
  8
LAY-6
  6
CONTINUOUS
 62
     1
100
AcDbLine
 10
144.221351
 20
336.8
 30
0.0
 11
141.221351
 21
337.3
 31
0.0
  0
LINE
  5
3CA
100
AcDbEntity
  8
LAY-6
  6
CONTINUOUS
 62
     1
100
AcDbLine
 10
462.7
 20
331.052063
 30
0.0
 11
302.3
 21
331.052063
 31
0.0
  0
TEXT
  5
3CB
100
AcDbEntity
  8
LAY-6
  6
CONTINUOUS
 62
     2
100
AcDbText
 10
303.3
 20
322.052063
 30
0.0
 40
5.0
  1
１０
 50
90.0
 41
0.672
  7
EXCADSTD
 72
     5
 11
303.3
 21
329.384863
 31
0.0
100
AcDbText
  0
LINE
  5
3CC
100
AcDbEntity
  8
LAY-6
  6
CONTINUOUS
 62
     1
100
AcDbLine
 10
303.8
 20
321.052063
 30
0.0
 11
303.8
 21
331.052063
 31
0.0
  0
LINE
  5
3CD
100
AcDbEntity
  8
LAY-6
  6
CONTINUOUS
 62
     1
100
AcDbLine
 10
303.3
 20
324.052063
 30
0.0
 11
303.8
 21
321.052063
 31
0.0
  0
LINE
  5
3CE
100
AcDbEntity
  8
LAY-6
  6
CONTINUOUS
 62
     1
100
AcDbLine
 10
303.8
 20
321.052063
 30
0.0
 11
304.3
 21
324.052063
 31
0.0
  0
LINE
  5
3CF
100
AcDbEntity
  8
LAY-6
  6
CONTINUOUS
 62
     1
100
AcDbLine
 10
304.3
 20
328.052063
 30
0.0
 11
303.8
 21
331.052063
 31
0.0
  0
LINE
  5
3D0
100
AcDbEntity
  8
LAY-6
  6
CONTINUOUS
 62
     1
100
AcDbLine
 10
303.8
 20
331.052063
 30
0.0
 11
303.3
 21
328.052063
 31
0.0
  0
LINE
  5
3D1
100
AcDbEntity
  8
LAY-6
  6
CONTINUOUS
 62
     1
100
AcDbLine
 10
462.540584
 20
351.052063
 30
0.0
 11
302.3
 21
351.052063
 31
0.0
  0
TEXT
  5
3D2
100
AcDbEntity
  8
LAY-6
  6
CONTINUOUS
 62
     2
100
AcDbText
 10
303.3
 20
337.052063
 30
0.0
 40
5.0
  1
２０
 50
90.0
 41
0.672
  7
EXCADSTD
 72
     5
 11
303.3
 21
344.384863
 31
0.0
100
AcDbText
  0
LINE
  5
3D3
100
AcDbEntity
  8
LAY-6
  6
CONTINUOUS
 62
     1
100
AcDbLine
 10
303.8
 20
331.052063
 30
0.0
 11
303.8
 21
351.052063
 31
0.0
  0
LINE
  5
3D4
100
AcDbEntity
  8
LAY-6
  6
CONTINUOUS
 62
     1
100
AcDbLine
 10
303.3
 20
334.052063
 30
0.0
 11
303.8
 21
331.052063
 31
0.0
  0
LINE
  5
3D5
100
AcDbEntity
  8
LAY-6
  6
CONTINUOUS
 62
     1
100
AcDbLine
 10
303.8
 20
331.052063
 30
0.0
 11
304.3
 21
334.052063
 31
0.0
  0
LINE
  5
3D6
100
AcDbEntity
  8
LAY-6
  6
CONTINUOUS
 62
     1
100
AcDbLine
 10
304.3
 20
348.052063
 30
0.0
 11
303.8
 21
351.052063
 31
0.0
  0
LINE
  5
3D7
100
AcDbEntity
  8
LAY-6
  6
CONTINUOUS
 62
     1
100
AcDbLine
 10
303.8
 20
351.052063
 30
0.0
 11
303.3
 21
348.052063
 31
0.0
  0
LINE
  5
3D8
100
AcDbEntity
  8
LAY-6
  6
CONTINUOUS
 62
     1
100
AcDbLine
 10
73.421326
 20
317.952057
 30
0.0
 11
73.421326
 21
298.1
 31
0.0
  0
LINE
  5
3D9
100
AcDbEntity
  8
LAY-6
  6
CONTINUOUS
 62
     1
100
AcDbLine
 10
131.721344
 20
298.4
 30
0.0
 11
131.721344
 21
301.1
 31
0.0
  0
TEXT
  5
3DA
100
AcDbEntity
  8
LAY-6
  6
CONTINUOUS
 62
     2
100
AcDbText
 10
95.571335
 20
300.1
 30
0.0
 40
5.0
  1
５８.３
 41
0.616
  7
EXCADSTD
 72
     5
 11
109.571335
 21
300.1
 31
0.0
100
AcDbText
  0
LINE
  5
3DB
100
AcDbEntity
  8
LAY-6
  6
CONTINUOUS
 62
     1
100
AcDbLine
 10
73.421326
 20
299.6
 30
0.0
 11
131.721344
 21
299.6
 31
0.0
  0
LINE
  5
3DC
100
AcDbEntity
  8
LAY-6
  6
CONTINUOUS
 62
     1
100
AcDbLine
 10
76.421326
 20
300.1
 30
0.0
 11
73.421326
 21
299.6
 31
0.0
  0
LINE
  5
3DD
100
AcDbEntity
  8
LAY-6
  6
CONTINUOUS
 62
     1
100
AcDbLine
 10
73.421326
 20
299.6
 30
0.0
 11
76.421326
 21
299.1
 31
0.0
  0
LINE
  5
3DE
100
AcDbEntity
  8
LAY-6
  6
CONTINUOUS
 62
     1
100
AcDbLine
 10
128.721344
 20
299.1
 30
0.0
 11
131.721344
 21
299.6
 31
0.0
  0
LINE
  5
3DF
100
AcDbEntity
  8
LAY-6
  6
CONTINUOUS
 62
     1
100
AcDbLine
 10
131.721344
 20
299.6
 30
0.0
 11
128.721344
 21
300.1
 31
0.0
  0
LINE
  5
3E0
100
AcDbEntity
  8
LAY-6
  6
CONTINUOUS
 62
     1
100
AcDbLine
 10
413.421357
 20
317.952057
 30
0.0
 11
413.421357
 21
298.1
 31
0.0
  0
TEXT
  5
3E1
100
AcDbEntity
  8
LAY-6
  6
CONTINUOUS
 62
     2
100
AcDbText
 10
263.57135
 20
300.1
 30
0.0
 40
5.0
  1
２８１.７
 41
0.62784
  7
EXCADSTD
 72
     5
 11
281.57135
 21
300.1
 31
0.0
100
AcDbText
  0
LINE
  5
3E2
100
AcDbEntity
  8
LAY-6
  6
CONTINUOUS
 62
     1
100
AcDbLine
 10
131.721344
 20
299.6
 30
0.0
 11
413.421357
 21
299.6
 31
0.0
  0
LINE
  5
3E3
100
AcDbEntity
  8
LAY-6
  6
CONTINUOUS
 62
     1
100
AcDbLine
 10
134.721344
 20
300.1
 30
0.0
 11
131.721344
 21
299.6
 31
0.0
  0
LINE
  5
3E4
100
AcDbEntity
  8
LAY-6
  6
CONTINUOUS
 62
     1
100
AcDbLine
 10
131.721344
 20
299.6
 30
0.0
 11
134.721344
 21
299.1
 31
0.0
  0
LINE
  5
3E5
100
AcDbEntity
  8
LAY-6
  6
CONTINUOUS
 62
     1
100
AcDbLine
 10
410.421357
 20
299.1
 30
0.0
 11
413.421357
 21
299.6
 31
0.0
  0
LINE
  5
3E6
100
AcDbEntity
  8
LAY-6
  6
CONTINUOUS
 62
     1
100
AcDbLine
 10
413.421357
 20
299.6
 30
0.0
 11
410.421357
 21
300.1
 31
0.0
  0
LINE
  5
3E7
100
AcDbEntity
  8
LAY-6
  6
CONTINUOUS
 62
     1
100
AcDbLine
 10
73.421326
 20
298.1
 30
0.0
 11
73.421326
 21
287.8
 31
0.0
  0
LINE
  5
3E8
100
AcDbEntity
  8
LAY-6
  6
CONTINUOUS
 62
     1
100
AcDbLine
 10
413.421357
 20
298.1
 30
0.0
 11
413.421357
 21
287.8
 31
0.0
  0
TEXT
  5
3E9
100
AcDbEntity
  8
LAY-6
  6
CONTINUOUS
 62
     2
100
AcDbText
 10
237.421341
 20
289.8
 30
0.0
 40
5.0
  1
３４０
 41
0.672
  7
EXCADSTD
 72
     5
 11
249.421341
 21
289.8
 31
0.0
100
AcDbText
  0
LINE
  5
3EA
100
AcDbEntity
  8
LAY-6
  6
CONTINUOUS
 62
     1
100
AcDbLine
 10
73.421326
 20
289.3
 30
0.0
 11
413.421357
 21
289.3
 31
0.0
  0
LINE
  5
3EB
100
AcDbEntity
  8
LAY-6
  6
CONTINUOUS
 62
     1
100
AcDbLine
 10
76.421326
 20
289.8
 30
0.0
 11
73.421326
 21
289.3
 31
0.0
  0
LINE
  5
3EC
100
AcDbEntity
  8
LAY-6
  6
CONTINUOUS
 62
     1
100
AcDbLine
 10
73.421326
 20
289.3
 30
0.0
 11
76.421326
 21
288.8
 31
0.0
  0
LINE
  5
3ED
100
AcDbEntity
  8
LAY-6
  6
CONTINUOUS
 62
     1
100
AcDbLine
 10
410.421357
 20
288.8
 30
0.0
 11
413.421357
 21
289.3
 31
0.0
  0
LINE
  5
3EE
100
AcDbEntity
  8
LAY-6
  6
CONTINUOUS
 62
     1
100
AcDbLine
 10
413.421357
 20
289.3
 30
0.0
 11
410.421357
 21
289.8
 31
0.0
  0
LINE
  5
3EF
100
AcDbEntity
  8
LAY-6
  6
CONTINUOUS
 62
     1
100
AcDbLine
 10
671.549836
 20
282.552063
 30
0.0
 11
671.549836
 21
289.7
 31
0.0
  0
LINE
  5
3F0
100
AcDbEntity
  8
LAY-6
  6
CONTINUOUS
 62
     1
100
AcDbLine
 10
695.549836
 20
282.552063
 30
0.0
 11
695.549836
 21
289.7
 31
0.0
  0
TEXT
  5
3F1
100
AcDbEntity
  8
LAY-6
  6
CONTINUOUS
 62
     2
100
AcDbText
 10
679.549836
 20
288.7
 30
0.0
 40
5.0
  1
２４
 41
0.672
  7
EXCADSTD
 72
     5
 11
686.882636
 21
288.7
 31
0.0
100
AcDbText
  0
LINE
  5
3F2
100
AcDbEntity
  8
LAY-6
  6
CONTINUOUS
 62
     1
100
AcDbLine
 10
671.549836
 20
288.2
 30
0.0
 11
695.549836
 21
288.2
 31
0.0
  0
LINE
  5
3F3
100
AcDbEntity
  8
LAY-6
  6
CONTINUOUS
 62
     1
100
AcDbLine
 10
674.549836
 20
288.7
 30
0.0
 11
671.549836
 21
288.2
 31
0.0
  0
LINE
  5
3F4
100
AcDbEntity
  8
LAY-6
  6
CONTINUOUS
 62
     1
100
AcDbLine
 10
671.549836
 20
288.2
 30
0.0
 11
674.549836
 21
287.7
 31
0.0
  0
LINE
  5
3F5
100
AcDbEntity
  8
LAY-6
  6
CONTINUOUS
 62
     1
100
AcDbLine
 10
692.549836
 20
287.7
 30
0.0
 11
695.549836
 21
288.2
 31
0.0
  0
LINE
  5
3F6
100
AcDbEntity
  8
LAY-6
  6
CONTINUOUS
 62
     1
100
AcDbLine
 10
695.549836
 20
288.2
 30
0.0
 11
692.549836
 21
288.7
 31
0.0
  0
TEXT
  5
3F7
100
AcDbEntity
  8
LAY-6
  6
CONTINUOUS
 62
     2
100
AcDbText
 10
680.149714
 20
259.1
 30
0.0
 40
5.0
  1
φ６２
 41
0.672
  7
EXCADSTD
 72
     5
 11
692.149714
 21
259.1
 31
0.0
100
AcDbText
  0
LINE
  5
3F8
100
AcDbEntity
  8
LAY-6
  6
CONTINUOUS
 62
     1
100
AcDbLine
 10
652.549714
 20
258.6
 30
0.0
 11
714.549714
 21
258.6
 31
0.0
  0
LINE
  5
3F9
100
AcDbEntity
  8
LAY-6
  6
CONTINUOUS
 62
     1
100
AcDbLine
 10
655.549714
 20
259.1
 30
0.0
 11
652.549714
 21
258.6
 31
0.0
  0
LINE
  5
3FA
100
AcDbEntity
  8
LAY-6
  6
CONTINUOUS
 62
     1
100
AcDbLine
 10
652.549714
 20
258.6
 30
0.0
 11
655.549714
 21
258.1
 31
0.0
  0
LINE
  5
3FB
100
AcDbEntity
  8
LAY-6
  6
CONTINUOUS
 62
     1
100
AcDbLine
 10
711.549714
 20
258.1
 30
0.0
 11
714.549714
 21
258.6
 31
0.0
  0
LINE
  5
3FC
100
AcDbEntity
  8
LAY-6
  6
CONTINUOUS
 62
     1
100
AcDbLine
 10
714.549714
 20
258.6
 30
0.0
 11
711.549714
 21
259.1
 31
0.0
  0
LINE
  5
3FD
100
AcDbEntity
  8
LAY-6
  6
CONTINUOUS
 62
     1
100
AcDbLine
 10
603.54986
 20
265.952087
 30
0.0
 11
603.54986
 21
245.8
 31
0.0
  0
LINE
  5
3FE
100
AcDbEntity
  8
LAY-6
  6
CONTINUOUS
 62
     1
100
AcDbLine
 10
763.549811
 20
265.952087
 30
0.0
 11
763.549811
 21
245.8
 31
0.0
  0
TEXT
  5
3FF
100
AcDbEntity
  8
LAY-6
  6
CONTINUOUS
 62
     2
100
AcDbText
 10
680.149835
 20
247.8
 30
0.0
 40
5.0
  1
１６０
 41
0.672
  7
EXCADSTD
 72
     5
 11
692.149835
 21
247.8
 31
0.0
100
AcDbText
  0
LINE
  5
400
100
AcDbEntity
  8
LAY-6
  6
CONTINUOUS
 62
     1
100
AcDbLine
 10
603.54986
 20
247.3
 30
0.0
 11
763.549811
 21
247.3
 31
0.0
  0
LINE
  5
401
100
AcDbEntity
  8
LAY-6
  6
CONTINUOUS
 62
     1
100
AcDbLine
 10
606.54986
 20
247.8
 30
0.0
 11
603.54986
 21
247.3
 31
0.0
  0
LINE
  5
402
100
AcDbEntity
  8
LAY-6
  6
CONTINUOUS
 62
     1
100
AcDbLine
 10
603.54986
 20
247.3
 30
0.0
 11
606.54986
 21
246.8
 31
0.0
  0
LINE
  5
403
100
AcDbEntity
  8
LAY-6
  6
CONTINUOUS
 62
     1
100
AcDbLine
 10
760.549811
 20
246.8
 30
0.0
 11
763.549811
 21
247.3
 31
0.0
  0
LINE
  5
404
100
AcDbEntity
  8
LAY-6
  6
CONTINUOUS
 62
     1
100
AcDbLine
 10
763.549811
 20
247.3
 30
0.0
 11
760.549811
 21
247.8
 31
0.0
  0
LINE
  5
405
100
AcDbEntity
  8
LAY-6
  6
CONTINUOUS
 62
     1
100
AcDbLine
 10
594.549836
 20
264.752075
 30
0.0
 11
594.549836
 21
234.8
 31
0.0
  0
LINE
  5
406
100
AcDbEntity
  8
LAY-6
  6
CONTINUOUS
 62
     1
100
AcDbLine
 10
772.549836
 20
264.752075
 30
0.0
 11
772.549836
 21
234.8
 31
0.0
  0
TEXT
  5
407
100
AcDbEntity
  8
LAY-6
  6
CONTINUOUS
 62
     2
100
AcDbText
 10
680.149836
 20
236.8
 30
0.0
 40
5.0
  1
１７８
 41
0.672
  7
EXCADSTD
 72
     5
 11
692.149836
 21
236.8
 31
0.0
100
AcDbText
  0
LINE
  5
408
100
AcDbEntity
  8
LAY-6
  6
CONTINUOUS
 62
     1
100
AcDbLine
 10
594.549836
 20
236.3
 30
0.0
 11
772.549836
 21
236.3
 31
0.0
  0
LINE
  5
409
100
AcDbEntity
  8
LAY-6
  6
CONTINUOUS
 62
     1
100
AcDbLine
 10
597.549836
 20
236.8
 30
0.0
 11
594.549836
 21
236.3
 31
0.0
  0
LINE
  5
40A
100
AcDbEntity
  8
LAY-6
  6
CONTINUOUS
 62
     1
100
AcDbLine
 10
594.549836
 20
236.3
 30
0.0
 11
597.549836
 21
235.8
 31
0.0
  0
LINE
  5
40B
100
AcDbEntity
  8
LAY-6
  6
CONTINUOUS
 62
     1
100
AcDbLine
 10
769.549836
 20
235.8
 30
0.0
 11
772.549836
 21
236.3
 31
0.0
  0
LINE
  5
40C
100
AcDbEntity
  8
LAY-6
  6
CONTINUOUS
 62
     1
100
AcDbLine
 10
772.549836
 20
236.3
 30
0.0
 11
769.549836
 21
236.8
 31
0.0
  0
LINE
  5
40D
100
AcDbEntity
  8
LAY-6
  6
CONTINUOUS
 62
     1
100
AcDbLine
 10
694.049836
 20
281.052063
 30
0.0
 11
731.4
 21
281.052063
 31
0.0
  0
TEXT
  5
40E
100
AcDbEntity
  8
LAY-6
  6
CONTINUOUS
 62
     2
100
AcDbText
 10
729.4
 20
272.052063
 30
0.0
 40
5.0
  1
１０
 50
90.0
 41
0.672
  7
EXCADSTD
 72
     5
 11
729.4
 21
279.384863
 31
0.0
100
AcDbText
  0
LINE
  5
40F
100
AcDbEntity
  8
LAY-6
  6
CONTINUOUS
 62
     1
100
AcDbLine
 10
729.9
 20
271.052063
 30
0.0
 11
729.9
 21
281.052063
 31
0.0
  0
LINE
  5
410
100
AcDbEntity
  8
LAY-6
  6
CONTINUOUS
 62
     1
100
AcDbLine
 10
729.4
 20
274.052063
 30
0.0
 11
729.9
 21
271.052063
 31
0.0
  0
LINE
  5
411
100
AcDbEntity
  8
LAY-6
  6
CONTINUOUS
 62
     1
100
AcDbLine
 10
729.9
 20
271.052063
 30
0.0
 11
730.4
 21
274.052063
 31
0.0
  0
LINE
  5
412
100
AcDbEntity
  8
LAY-6
  6
CONTINUOUS
 62
     1
100
AcDbLine
 10
730.4
 20
278.052063
 30
0.0
 11
729.9
 21
281.052063
 31
0.0
  0
LINE
  5
413
100
AcDbEntity
  8
LAY-6
  6
CONTINUOUS
 62
     1
100
AcDbLine
 10
729.9
 20
281.052063
 30
0.0
 11
729.4
 21
278.052063
 31
0.0
  0
TEXT
  5
414
100
AcDbEntity
  8
LAY-6
  6
CONTINUOUS
 62
     2
100
AcDbText
 10
729.4
 20
287.052063
 30
0.0
 40
5.0
  1
２０
 50
90.0
 41
0.672
  7
EXCADSTD
 72
     5
 11
729.4
 21
294.384863
 31
0.0
100
AcDbText
  0
LINE
  5
415
100
AcDbEntity
  8
LAY-6
  6
CONTINUOUS
 62
     1
100
AcDbLine
 10
729.9
 20
281.052063
 30
0.0
 11
729.9
 21
301.052063
 31
0.0
  0
LINE
  5
416
100
AcDbEntity
  8
LAY-6
  6
CONTINUOUS
 62
     1
100
AcDbLine
 10
729.4
 20
284.052063
 30
0.0
 11
729.9
 21
281.052063
 31
0.0
  0
LINE
  5
417
100
AcDbEntity
  8
LAY-6
  6
CONTINUOUS
 62
     1
100
AcDbLine
 10
729.9
 20
281.052063
 30
0.0
 11
730.4
 21
284.052063
 31
0.0
  0
LINE
  5
418
100
AcDbEntity
  8
LAY-6
  6
CONTINUOUS
 62
     1
100
AcDbLine
 10
730.4
 20
298.052063
 30
0.0
 11
729.9
 21
301.052063
 31
0.0
  0
LINE
  5
419
100
AcDbEntity
  8
LAY-6
  6
CONTINUOUS
 62
     1
100
AcDbLine
 10
729.9
 20
301.052063
 30
0.0
 11
729.4
 21
298.052063
 31
0.0
  0
LINE
  5
41A
100
AcDbEntity
  8
LAY-6
  6
CONTINUOUS
 62
     1
100
AcDbLine
 10
652.549714
 20
271.052063
 30
0.0
 11
642.2
 21
271.052063
 31
0.0
  0
LINE
  5
41B
100
AcDbEntity
  8
LAY-6
  6
CONTINUOUS
 62
     1
100
AcDbLine
 10
653.549714
 20
278.052063
 30
0.0
 11
642.2
 21
278.052063
 31
0.0
  0
TEXT
  5
41C
100
AcDbEntity
  8
LAY-6
  6
CONTINUOUS
 62
     2
100
AcDbText
 10
643.2
 20
272.552063
 30
0.0
 40
5.0
  1
７
 50
90.0
 41
0.672
  7
EXCADSTD
 72
     5
 11
643.2
 21
275.752063
 31
0.0
100
AcDbText
  0
LINE
  5
41D
100
AcDbEntity
  8
LAY-6
  6
CONTINUOUS
 62
     1
100
AcDbLine
 10
643.7
 20
283.052063
 30
0.0
 11
643.7
 21
266.052063
 31
0.0
  0
LINE
  5
41E
100
AcDbEntity
  8
LAY-6
  6
CONTINUOUS
 62
     1
100
AcDbLine
 10
643.2
 20
281.052063
 30
0.0
 11
643.7
 21
278.052063
 31
0.0
  0
LINE
  5
41F
100
AcDbEntity
  8
LAY-6
  6
CONTINUOUS
 62
     1
100
AcDbLine
 10
643.7
 20
278.052063
 30
0.0
 11
644.2
 21
281.052063
 31
0.0
  0
LINE
  5
420
100
AcDbEntity
  8
LAY-6
  6
CONTINUOUS
 62
     1
100
AcDbLine
 10
644.2
 20
268.052063
 30
0.0
 11
643.7
 21
271.052063
 31
0.0
  0
LINE
  5
421
100
AcDbEntity
  8
LAY-6
  6
CONTINUOUS
 62
     1
100
AcDbLine
 10
643.7
 20
271.052063
 30
0.0
 11
643.2
 21
268.052063
 31
0.0
  0
TEXT
  5
422
100
AcDbEntity
  8
LAY-6
  6
CONTINUOUS
 62
     2
100
AcDbText
 10
786.4
 20
220.452087
 30
0.0
 40
5.0
  1
３
 50
90.0
 41
0.672
  7
EXCADSTD
 72
     5
 11
786.4
 21
223.652087
 31
0.0
100
AcDbText
  0
LINE
  5
423
100
AcDbEntity
  8
LAY-6
  6
CONTINUOUS
 62
     1
100
AcDbLine
 10
753.549811
 20
223.952087
 30
0.0
 11
788.4
 21
223.952087
 31
0.0
  0
LINE
  5
424
100
AcDbEntity
  8
LAY-6
  6
CONTINUOUS
 62
     1
100
AcDbLine
 10
786.9
 20
215.952087
 30
0.0
 11
786.9
 21
228.952087
 31
0.0
  0
LINE
  5
425
100
AcDbEntity
  8
LAY-6
  6
CONTINUOUS
 62
     1
100
AcDbLine
 10
787.4
 20
217.952087
 30
0.0
 11
786.9
 21
220.952087
 31
0.0
  0
LINE
  5
426
100
AcDbEntity
  8
LAY-6
  6
CONTINUOUS
 62
     1
100
AcDbLine
 10
786.9
 20
220.952087
 30
0.0
 11
786.4
 21
217.952087
 31
0.0
  0
LINE
  5
427
100
AcDbEntity
  8
LAY-6
  6
CONTINUOUS
 62
     1
100
AcDbLine
 10
786.4
 20
226.952087
 30
0.0
 11
786.9
 21
223.952087
 31
0.0
  0
LINE
  5
428
100
AcDbEntity
  8
LAY-6
  6
CONTINUOUS
 62
     1
100
AcDbLine
 10
786.9
 20
223.952087
 30
0.0
 11
787.4
 21
226.952087
 31
0.0
  0
TEXT
  5
429
100
AcDbEntity
  8
LAY-6
  6
CONTINUOUS
 62
     2
100
AcDbText
 10
786.4
 20
239.752075
 30
0.0
 40
5.0
  1
４５.６
 50
90.0
 41
0.616
  7
EXCADSTD
 72
     5
 11
786.4
 21
253.752075
 31
0.0
100
AcDbText
  0
LINE
  5
42A
100
AcDbEntity
  8
LAY-6
  6
CONTINUOUS
 62
     1
100
AcDbLine
 10
786.9
 20
223.952087
 30
0.0
 11
786.9
 21
269.552063
 31
0.0
  0
LINE
  5
42B
100
AcDbEntity
  8
LAY-6
  6
CONTINUOUS
 62
     1
100
AcDbLine
 10
786.4
 20
226.952087
 30
0.0
 11
786.9
 21
223.952087
 31
0.0
  0
LINE
  5
42C
100
AcDbEntity
  8
LAY-6
  6
CONTINUOUS
 62
     1
100
AcDbLine
 10
786.9
 20
223.952087
 30
0.0
 11
787.4
 21
226.952087
 31
0.0
  0
LINE
  5
42D
100
AcDbEntity
  8
LAY-6
  6
CONTINUOUS
 62
     1
100
AcDbLine
 10
787.4
 20
266.552063
 30
0.0
 11
786.9
 21
269.552063
 31
0.0
  0
LINE
  5
42E
100
AcDbEntity
  8
LAY-6
  6
CONTINUOUS
 62
     1
100
AcDbLine
 10
786.9
 20
269.552063
 30
0.0
 11
786.4
 21
266.552063
 31
0.0
  0
TEXT
  5
42F
100
AcDbEntity
  8
LAY-6
  6
CONTINUOUS
 62
     2
100
AcDbText
 10
785.9
 20
277.702063
 30
0.0
 40
5.0
  1
１.５
 50
90.0
 41
0.595556
  7
EXCADSTD
 72
     5
 11
785.9
 21
287.702063
 31
0.0
100
AcDbText
  0
TEXT
  5
430
100
AcDbEntity
  8
LAY-6
  6
CONTINUOUS
 62
     2
100
AcDbText
 10
785.9
 20
287.702063
 30
0.0
 40
5.0
  1
ｔ
 50
90.0
 41
0.672
  7
EXCADSTD
 72
     5
 11
785.9
 21
290.902063
 31
0.0
100
AcDbText
  0
LINE
  5
431
100
AcDbEntity
  8
LAY-6
  6
CONTINUOUS
 62
     1
100
AcDbLine
 10
786.9
 20
264.552063
 30
0.0
 11
786.9
 21
291.4
 31
0.0
  0
LINE
  5
432
100
AcDbEntity
  8
LAY-6
  6
CONTINUOUS
 62
     1
100
AcDbLine
 10
787.4
 20
266.552063
 30
0.0
 11
786.9
 21
269.552063
 31
0.0
  0
LINE
  5
433
100
AcDbEntity
  8
LAY-6
  6
CONTINUOUS
 62
     1
100
AcDbLine
 10
786.9
 20
269.552063
 30
0.0
 11
786.4
 21
266.552063
 31
0.0
  0
LINE
  5
434
100
AcDbEntity
  8
LAY-6
  6
CONTINUOUS
 62
     1
100
AcDbLine
 10
786.4
 20
274.052063
 30
0.0
 11
786.9
 21
271.052063
 31
0.0
  0
LINE
  5
435
100
AcDbEntity
  8
LAY-6
  6
CONTINUOUS
 62
     1
100
AcDbLine
 10
786.9
 20
271.052063
 30
0.0
 11
787.4
 21
274.052063
 31
0.0
  0
LINE
  5
436
100
AcDbEntity
  8
LAY-6
  6
CONTINUOUS
 62
     1
100
AcDbLine
 10
111.721344
 20
174.552078
 30
0.0
 11
111.721344
 21
193.0
 31
0.0
  0
LINE
  5
437
100
AcDbEntity
  8
LAY-6
  6
CONTINUOUS
 62
     1
100
AcDbLine
 10
131.721344
 20
179.1
 30
0.0
 11
131.721344
 21
193.0
 31
0.0
  0
TEXT
  5
438
100
AcDbEntity
  8
LAY-6
  6
CONTINUOUS
 62
     2
100
AcDbText
 10
117.721344
 20
192.0
 30
0.0
 40
5.0
  1
２０
 41
0.672
  7
EXCADSTD
 72
     5
 11
125.054144
 21
192.0
 31
0.0
100
AcDbText
  0
LINE
  5
439
100
AcDbEntity
  8
LAY-6
  6
CONTINUOUS
 62
     1
100
AcDbLine
 10
111.721344
 20
191.5
 30
0.0
 11
131.721344
 21
191.5
 31
0.0
  0
LINE
  5
43A
100
AcDbEntity
  8
LAY-6
  6
CONTINUOUS
 62
     1
100
AcDbLine
 10
114.721344
 20
192.0
 30
0.0
 11
111.721344
 21
191.5
 31
0.0
  0
LINE
  5
43B
100
AcDbEntity
  8
LAY-6
  6
CONTINUOUS
 62
     1
100
AcDbLine
 10
111.721344
 20
191.5
 30
0.0
 11
114.721344
 21
191.0
 31
0.0
  0
LINE
  5
43C
100
AcDbEntity
  8
LAY-6
  6
CONTINUOUS
 62
     1
100
AcDbLine
 10
128.721344
 20
191.0
 30
0.0
 11
131.721344
 21
191.5
 31
0.0
  0
LINE
  5
43D
100
AcDbEntity
  8
LAY-6
  6
CONTINUOUS
 62
     1
100
AcDbLine
 10
131.721344
 20
191.5
 30
0.0
 11
128.721344
 21
192.0
 31
0.0
  0
LINE
  5
43E
100
AcDbEntity
  8
LAY-6
  6
CONTINUOUS
 62
     1
100
AcDbLine
 10
164.221344
 20
167.0
 30
0.0
 11
164.221344
 21
193.0
 31
0.0
  0
TEXT
  5
43F
100
AcDbEntity
  8
LAY-6
  6
CONTINUOUS
 62
     2
100
AcDbText
 10
140.971344
 20
192.0
 30
0.0
 40
5.0
  1
３２.５
 41
0.616
  7
EXCADSTD
 72
     5
 11
154.971344
 21
192.0
 31
0.0
100
AcDbText
  0
LINE
  5
440
100
AcDbEntity
  8
LAY-6
  6
CONTINUOUS
 62
     1
100
AcDbLine
 10
131.721344
 20
191.5
 30
0.0
 11
164.221344
 21
191.5
 31
0.0
  0
LINE
  5
441
100
AcDbEntity
  8
LAY-6
  6
CONTINUOUS
 62
     1
100
AcDbLine
 10
134.721344
 20
192.0
 30
0.0
 11
131.721344
 21
191.5
 31
0.0
  0
LINE
  5
442
100
AcDbEntity
  8
LAY-6
  6
CONTINUOUS
 62
     1
100
AcDbLine
 10
131.721344
 20
191.5
 30
0.0
 11
134.721344
 21
191.0
 31
0.0
  0
LINE
  5
443
100
AcDbEntity
  8
LAY-6
  6
CONTINUOUS
 62
     1
100
AcDbLine
 10
161.221344
 20
191.0
 30
0.0
 11
164.221344
 21
191.5
 31
0.0
  0
LINE
  5
444
100
AcDbEntity
  8
LAY-6
  6
CONTINUOUS
 62
     1
100
AcDbLine
 10
164.221344
 20
191.5
 30
0.0
 11
161.221344
 21
192.0
 31
0.0
  0
LINE
  5
445
100
AcDbEntity
  8
LAY-6
  6
CONTINUOUS
 62
     1
100
AcDbLine
 10
189.221344
 20
179.1
 30
0.0
 11
189.221344
 21
193.0
 31
0.0
  0
TEXT
  5
446
100
AcDbEntity
  8
LAY-6
  6
CONTINUOUS
 62
     2
100
AcDbText
 10
172.721344
 20
192.0
 30
0.0
 40
5.0
  1
２５
 41
0.672
  7
EXCADSTD
 72
     5
 11
180.054144
 21
192.0
 31
0.0
100
AcDbText
  0
LINE
  5
447
100
AcDbEntity
  8
LAY-6
  6
CONTINUOUS
 62
     1
100
AcDbLine
 10
164.221344
 20
191.5
 30
0.0
 11
189.221344
 21
191.5
 31
0.0
  0
LINE
  5
448
100
AcDbEntity
  8
LAY-6
  6
CONTINUOUS
 62
     1
100
AcDbLine
 10
167.221344
 20
192.0
 30
0.0
 11
164.221344
 21
191.5
 31
0.0
  0
LINE
  5
449
100
AcDbEntity
  8
LAY-6
  6
CONTINUOUS
 62
     1
100
AcDbLine
 10
164.221344
 20
191.5
 30
0.0
 11
167.221344
 21
191.0
 31
0.0
  0
LINE
  5
44A
100
AcDbEntity
  8
LAY-6
  6
CONTINUOUS
 62
     1
100
AcDbLine
 10
186.221344
 20
191.0
 30
0.0
 11
189.221344
 21
191.5
 31
0.0
  0
LINE
  5
44B
100
AcDbEntity
  8
LAY-6
  6
CONTINUOUS
 62
     1
100
AcDbLine
 10
189.221344
 20
191.5
 30
0.0
 11
186.221344
 21
192.0
 31
0.0
  0
LINE
  5
44C
100
AcDbEntity
  8
LAY-6
  6
CONTINUOUS
 62
     1
100
AcDbLine
 10
229.221344
 20
167.0
 30
0.0
 11
229.221344
 21
193.0
 31
0.0
  0
TEXT
  5
44D
100
AcDbEntity
  8
LAY-6
  6
CONTINUOUS
 62
     2
100
AcDbText
 10
205.221344
 20
192.0
 30
0.0
 40
5.0
  1
４０
 41
0.672
  7
EXCADSTD
 72
     5
 11
212.554144
 21
192.0
 31
0.0
100
AcDbText
  0
LINE
  5
44E
100
AcDbEntity
  8
LAY-6
  6
CONTINUOUS
 62
     1
100
AcDbLine
 10
189.221344
 20
191.5
 30
0.0
 11
229.221344
 21
191.5
 31
0.0
  0
LINE
  5
44F
100
AcDbEntity
  8
LAY-6
  6
CONTINUOUS
 62
     1
100
AcDbLine
 10
192.221344
 20
192.0
 30
0.0
 11
189.221344
 21
191.5
 31
0.0
  0
LINE
  5
450
100
AcDbEntity
  8
LAY-6
  6
CONTINUOUS
 62
     1
100
AcDbLine
 10
189.221344
 20
191.5
 30
0.0
 11
192.221344
 21
191.0
 31
0.0
  0
LINE
  5
451
100
AcDbEntity
  8
LAY-6
  6
CONTINUOUS
 62
     1
100
AcDbLine
 10
226.221344
 20
191.0
 30
0.0
 11
229.221344
 21
191.5
 31
0.0
  0
LINE
  5
452
100
AcDbEntity
  8
LAY-6
  6
CONTINUOUS
 62
     1
100
AcDbLine
 10
229.221344
 20
191.5
 30
0.0
 11
226.221344
 21
192.0
 31
0.0
  0
LINE
  5
453
100
AcDbEntity
  8
LAY-6
  6
CONTINUOUS
 62
     1
100
AcDbLine
 10
269.221344
 20
179.1
 30
0.0
 11
269.221344
 21
193.0
 31
0.0
  0
TEXT
  5
454
100
AcDbEntity
  8
LAY-6
  6
CONTINUOUS
 62
     2
100
AcDbText
 10
245.221344
 20
192.0
 30
0.0
 40
5.0
  1
４０
 41
0.672
  7
EXCADSTD
 72
     5
 11
252.554144
 21
192.0
 31
0.0
100
AcDbText
  0
LINE
  5
455
100
AcDbEntity
  8
LAY-6
  6
CONTINUOUS
 62
     1
100
AcDbLine
 10
229.221344
 20
191.5
 30
0.0
 11
269.221344
 21
191.5
 31
0.0
  0
LINE
  5
456
100
AcDbEntity
  8
LAY-6
  6
CONTINUOUS
 62
     1
100
AcDbLine
 10
232.221344
 20
192.0
 30
0.0
 11
229.221344
 21
191.5
 31
0.0
  0
LINE
  5
457
100
AcDbEntity
  8
LAY-6
  6
CONTINUOUS
 62
     1
100
AcDbLine
 10
229.221344
 20
191.5
 30
0.0
 11
232.221344
 21
191.0
 31
0.0
  0
LINE
  5
458
100
AcDbEntity
  8
LAY-6
  6
CONTINUOUS
 62
     1
100
AcDbLine
 10
266.221344
 20
191.0
 30
0.0
 11
269.221344
 21
191.5
 31
0.0
  0
LINE
  5
459
100
AcDbEntity
  8
LAY-6
  6
CONTINUOUS
 62
     1
100
AcDbLine
 10
269.221344
 20
191.5
 30
0.0
 11
266.221344
 21
192.0
 31
0.0
  0
LINE
  5
45A
100
AcDbEntity
  8
LAY-6
  6
CONTINUOUS
 62
     1
100
AcDbLine
 10
279.721344
 20
174.552078
 30
0.0
 11
279.721344
 21
193.0
 31
0.0
  0
LINE
  5
45B
100
AcDbEntity
  8
LAY-6
  6
CONTINUOUS
 62
     1
100
AcDbLine
 10
111.721344
 20
193.0
 30
0.0
 11
111.721344
 21
202.4
 31
0.0
  0
LINE
  5
45C
100
AcDbEntity
  8
LAY-6
  6
CONTINUOUS
 62
     1
100
AcDbLine
 10
279.721344
 20
193.0
 30
0.0
 11
279.721344
 21
202.4
 31
0.0
  0
TEXT
  5
45D
100
AcDbEntity
  8
LAY-6
  6
CONTINUOUS
 62
     2
100
AcDbText
 10
189.721344
 20
201.4
 30
0.0
 40
5.0
  1
１６８
 41
0.672
  7
EXCADSTD
 72
     5
 11
201.721344
 21
201.4
 31
0.0
100
AcDbText
  0
LINE
  5
45E
100
AcDbEntity
  8
LAY-6
  6
CONTINUOUS
 62
     1
100
AcDbLine
 10
111.721344
 20
200.9
 30
0.0
 11
279.721344
 21
200.9
 31
0.0
  0
LINE
  5
45F
100
AcDbEntity
  8
LAY-6
  6
CONTINUOUS
 62
     1
100
AcDbLine
 10
114.721344
 20
201.4
 30
0.0
 11
111.721344
 21
200.9
 31
0.0
  0
LINE
  5
460
100
AcDbEntity
  8
LAY-6
  6
CONTINUOUS
 62
     1
100
AcDbLine
 10
111.721344
 20
200.9
 30
0.0
 11
114.721344
 21
200.4
 31
0.0
  0
LINE
  5
461
100
AcDbEntity
  8
LAY-6
  6
CONTINUOUS
 62
     1
100
AcDbLine
 10
276.721344
 20
200.4
 30
0.0
 11
279.721344
 21
200.9
 31
0.0
  0
LINE
  5
462
100
AcDbEntity
  8
LAY-6
  6
CONTINUOUS
 62
     1
100
AcDbLine
 10
279.721344
 20
200.9
 30
0.0
 11
276.721344
 21
201.4
 31
0.0
  0
LINE
  5
463
100
AcDbEntity
  8
LAY-6
  6
CONTINUOUS
 62
     1
100
AcDbLine
 10
278.221344
 20
176.052078
 30
0.0
 11
294.360229
 21
176.052078
 31
0.0
  0
LINE
  5
464
100
AcDbEntity
  8
LAY-6
  6
CONTINUOUS
 62
     1
100
AcDbLine
 10
278.221344
 20
152.052078
 30
0.0
 11
294.360229
 21
152.052078
 31
0.0
  0
TEXT
  5
465
100
AcDbEntity
  8
LAY-6
  6
CONTINUOUS
 62
     2
100
AcDbText
 10
292.360229
 20
160.052078
 30
0.0
 40
5.0
  1
２４
 50
90.0
 41
0.672
  7
EXCADSTD
 72
     5
 11
292.360229
 21
167.384878
 31
0.0
100
AcDbText
  0
LINE
  5
466
100
AcDbEntity
  8
LAY-6
  6
CONTINUOUS
 62
     1
100
AcDbLine
 10
292.860229
 20
176.052078
 30
0.0
 11
292.860229
 21
152.052078
 31
0.0
  0
LINE
  5
467
100
AcDbEntity
  8
LAY-6
  6
CONTINUOUS
 62
     1
100
AcDbLine
 10
293.360229
 20
173.052078
 30
0.0
 11
292.860229
 21
176.052078
 31
0.0
  0
LINE
  5
468
100
AcDbEntity
  8
LAY-6
  6
CONTINUOUS
 62
     1
100
AcDbLine
 10
292.860229
 20
176.052078
 30
0.0
 11
292.360229
 21
173.052078
 31
0.0
  0
LINE
  5
469
100
AcDbEntity
  8
LAY-6
  6
CONTINUOUS
 62
     1
100
AcDbLine
 10
292.360229
 20
155.052078
 30
0.0
 11
292.860229
 21
152.052078
 31
0.0
  0
LINE
  5
46A
100
AcDbEntity
  8
LAY-6
  6
CONTINUOUS
 62
     1
100
AcDbLine
 10
292.860229
 20
152.052078
 30
0.0
 11
293.360229
 21
155.052078
 31
0.0
  0
LINE
  5
46B
100
AcDbEntity
  8
LAY-6
  6
CONTINUOUS
 62
     1
100
AcDbLine
 10
196.960229
 20
168.826202
 30
0.0
 11
212.260229
 21
168.826202
 31
0.0
  0
LINE
  5
46C
100
AcDbEntity
  8
LAY-6
  6
CONTINUOUS
 62
     1
100
AcDbLine
 10
221.460229
 20
158.826218
 30
0.0
 11
209.260229
 21
158.826218
 31
0.0
  0
TEXT
  5
46D
100
AcDbEntity
  8
LAY-6
  6
CONTINUOUS
 62
     2
100
AcDbText
 10
210.260229
 20
159.82621
 30
0.0
 40
5.0
  1
１０
 50
90.0
 41
0.672
  7
EXCADSTD
 72
     5
 11
210.260229
 21
167.15901
 31
0.0
100
AcDbText
  0
LINE
  5
46E
100
AcDbEntity
  8
LAY-6
  6
CONTINUOUS
 62
     1
100
AcDbLine
 10
210.760229
 20
168.826202
 30
0.0
 11
210.760229
 21
158.826218
 31
0.0
  0
LINE
  5
46F
100
AcDbEntity
  8
LAY-6
  6
CONTINUOUS
 62
     1
100
AcDbLine
 10
211.260229
 20
165.826202
 30
0.0
 11
210.760229
 21
168.826202
 31
0.0
  0
LINE
  5
470
100
AcDbEntity
  8
LAY-6
  6
CONTINUOUS
 62
     1
100
AcDbLine
 10
210.760229
 20
168.826202
 30
0.0
 11
210.260229
 21
165.826202
 31
0.0
  0
LINE
  5
471
100
AcDbEntity
  8
LAY-6
  6
CONTINUOUS
 62
     1
100
AcDbLine
 10
210.260229
 20
161.826218
 30
0.0
 11
210.760229
 21
158.826218
 31
0.0
  0
LINE
  5
472
100
AcDbEntity
  8
LAY-6
  6
CONTINUOUS
 62
     1
100
AcDbLine
 10
210.760229
 20
158.826218
 30
0.0
 11
211.260229
 21
161.826218
 31
0.0
  0
TEXT
  5
473
100
AcDbEntity
  8
LAY-6
  6
CONTINUOUS
 62
     2
100
AcDbText
 10
487.3
 20
552.0
 30
0.0
 40
5.0
  1
トッププレート　０．８ｔ
 41
0.672
  7
EXCADSTD
 72
     5
 11
535.3
 21
552.0
 31
0.0
100
AcDbText
  0
POLYLINE
  5
474
100
AcDbEntity
  8
LAY-6
  6
CONTINUOUS
 62
     1
100
AcDb2dPolyline
 66
     1
 10
0.0
 20
0.0
 30
0.0
 70
   128
  0
VERTEX
  5
475
100
AcDbEntity
  8
LAY-6
  6
CONTINUOUS
 62
     1
100
AcDbVertex
100
AcDb2dVertex
 10
469.8
 20
532.940918
 30
0.0
  0
VERTEX
  5
476
100
AcDbEntity
  8
LAY-6
  6
CONTINUOUS
 62
     1
100
AcDbVertex
100
AcDb2dVertex
 10
486.9
 20
552.0
 30
0.0
  0
VERTEX
  5
477
100
AcDbEntity
  8
LAY-6
  6
CONTINUOUS
 62
     1
100
AcDbVertex
100
AcDb2dVertex
 10
534.6
 20
552.0
 30
0.0
  0
SEQEND
  5
478
100
AcDbEntity
  8
LAY-6
  6
CONTINUOUS
 62
     1
  0
LINE
  5
479
100
AcDbEntity
  8
LAY-6
  6
CONTINUOUS
 62
     1
100
AcDbLine
 10
471.431287
 20
535.507804
 30
0.0
 11
469.8
 21
532.940918
 31
0.0
  0
LINE
  5
47A
100
AcDbEntity
  8
LAY-6
  6
CONTINUOUS
 62
     1
100
AcDbLine
 10
469.8
 20
532.940918
 30
0.0
 11
472.175613
 21
534.839987
 31
0.0
  0
TEXT
  5
47B
100
AcDbEntity
  8
LAY-6
  6
CONTINUOUS
 62
     2
100
AcDbText
 10
245.299984
 20
391.3
 30
0.0
 40
5.0
  1
４－Ｍ６×２０バネ座金組込六角穴付きボルト
 41
0.672
  7
EXCADSTD
 72
     5
 11
329.299984
 21
391.3
 31
0.0
100
AcDbText
  0
TEXT
  5
47C
100
AcDbEntity
  8
LAY-6
  6
CONTINUOUS
 62
     2
100
AcDbText
 10
319.800031
 20
369.70034
 30
0.0
 40
5.0
  1
裏板４．５ｔ以上（別途）
 41
0.672
  7
EXCADSTD
 72
     5
 11
367.800031
 21
369.70034
 31
0.0
100
AcDbText
  0
INSERT
  5
47D
100
AcDbEntity
  8
LAY-6
  6
CONTINUOUS
 62
     0
100
AcDbBlockReference
  2
SYM-2
 10
96.0
 20
63.8
 30
0.0
  0
INSERT
  5
47E
100
AcDbEntity
  8
LAY-6
  6
CONTINUOUS
 62
     0
100
AcDbBlockReference
  2
SYM-2
 10
151.5
 20
64.1
 30
0.0
  0
INSERT
  5
47F
100
AcDbEntity
  8
LAY-6
  6
CONTINUOUS
 62
     0
100
AcDbBlockReference
  2
SYM-2
 10
239.2
 20
53.0
 30
0.0
  0
INSERT
  5
480
100
AcDbEntity
  8
LAY-6
  6
CONTINUOUS
 62
     0
100
AcDbBlockReference
  2
SYM-2
 10
296.9
 20
63.8
 30
0.0
  0
INSERT
  5
481
100
AcDbEntity
  8
LAY-6
  6
CONTINUOUS
 62
     0
100
AcDbBlockReference
  2
SYM-2
 10
442.7
 20
160.2
 30
0.0
 50
90.0
  0
INSERT
  5
482
100
AcDbEntity
  8
LAY-6
  6
CONTINUOUS
 62
     0
100
AcDbBlockReference
  2
SYM-2
 10
349.3
 20
543.5
 30
0.0
  0
INSERT
  5
483
100
AcDbEntity
  8
LAY-6
  6
CONTINUOUS
 62
     0
100
AcDbBlockReference
  2
SYM-2
 10
439.1
 20
544.1
 30
0.0
  0
INSERT
  5
484
100
AcDbEntity
  8
LAY-6
  6
CONTINUOUS
 62
     0
100
AcDbBlockReference
  2
SYM-2
 10
319.7
 20
509.1
 30
0.0
 50
90.0
  0
TEXT
  5
485
100
AcDbEntity
  8
LAY-6
  6
CONTINUOUS
 62
     2
100
AcDbText
 10
323.9
 20
454.1
 30
0.0
 40
6.0
  1
トップピボット（ドア側）
 41
0.672
  7
EXCADSTD
 72
     5
 11
381.500002
 21
454.1
 31
0.0
100
AcDbText
  0
LINE
  5
486
100
AcDbEntity
  8
LAY-6
  6
CONTINUOUS
 62
     1
100
AcDbLine
 10
321.5
 20
560.7
 30
0.0
 11
379.5
 21
560.7
 31
0.0
  0
LINE
  5
487
100
AcDbEntity
  8
LAY-6
  6
CONTINUOUS
 62
     1
100
AcDbLine
 10
323.9
 20
453.5
 30
0.0
 11
381.5
 21
453.5
 31
0.0
  0
INSERT
  5
488
100
AcDbEntity
  8
LAY-6
  6
CONTINUOUS
 62
     0
100
AcDbBlockReference
  2
SYM-2
 10
785.4
 20
277.3
 30
0.0
 50
90.0
  0
TEXT
  5
489
100
AcDbEntity
  8
LAY-6
  6
CONTINUOUS
 62
     2
100
AcDbText
 10
55.2
 20
554.4
 30
0.0
 40
6.0
  1
トップピボット
 41
0.672
  7
EXCADSTD
 72
     5
 11
88.800001
 21
554.4
 31
0.0
100
AcDbText
  0
TEXT
  5
48A
100
AcDbEntity
  8
LAY-6
  6
CONTINUOUS
 62
     2
100
AcDbText
 10
361.0
 20
277.0
 30
0.0
 40
6.0
  1
セメントケース
 41
0.672
  7
EXCADSTD
 72
     5
 11
394.600001
 21
277.0
 31
0.0
100
AcDbText
  0
TEXT
  5
48B
100
AcDbEntity
  8
LAY-6
  6
CONTINUOUS
 62
     2
100
AcDbText
 10
289.7
 20
506.5
 30
0.0
 40
6.0
  1
上 枠
 41
0.595556
  7
EXCADSTD
 72
     5
 11
301.7
 21
506.5
 31
0.0
100
AcDbText
  0
TEXT
  5
48C
100
AcDbEntity
  8
LAY-6
  6
CONTINUOUS
 62
     2
100
AcDbText
 10
290.1
 20
486.4
 30
0.0
 40
6.0
  1
ド ア
 41
0.595556
  7
EXCADSTD
 72
     5
 11
302.1
 21
486.4
 31
0.0
100
AcDbText
  0
TEXT
  5
48D
100
AcDbEntity
  8
LAY-6
  6
CONTINUOUS
 62
     2
100
AcDbText
 10
57.3
 20
466.1
 30
0.0
 40
6.0
  1
竪　枠
 41
0.8
  7
EXCADVERT
 72
     3
 11
57.3
 21
448.1
 31
0.0
100
AcDbText
  0
TEXT
  5
48E
100
AcDbEntity
  8
LAY-6
  6
CONTINUOUS
 62
     2
100
AcDbText
 10
445.0
 20
310.75
 30
0.0
 40
6.0
  1
床　面
 41
0.672
  7
EXCADSTD
 72
     5
 11
459.400001
 21
310.75
 31
0.0
100
AcDbText
  0
TEXT
  5
48F
100
AcDbEntity
  8
LAY-6
  6
CONTINUOUS
 62
     2
100
AcDbText
 10
53.500031
 20
173.500015
 30
0.0
 40
6.0
  1
竪　枠
 41
0.8
  7
EXCADVERT
 72
     3
 11
53.500031
 21
155.500015
 31
0.0
100
AcDbText
  0
LINE
  5
490
100
AcDbEntity
  8
LAY-6
  6
CONTINUOUS
 62
     1
100
AcDbLine
 10
308.0
 20
501.370972
 30
0.0
 11
272.8
 21
501.370972
 31
0.0
  0
LINE
  5
491
100
AcDbEntity
  8
LAY-6
  6
CONTINUOUS
 62
     1
100
AcDbLine
 10
287.6
 20
501.370972
 30
0.0
 11
278.6
 21
501.370972
 31
0.0
  0
LINE
  5
492
100
AcDbEntity
  8
LAY-6
  6
CONTINUOUS
 62
     1
100
AcDbLine
 10
307.0
 20
498.370972
 30
0.0
 11
266.721344
 21
498.370972
 31
0.0
  0
LINE
  5
493
100
AcDbEntity
  8
LAY-6
  6
CONTINUOUS
 62
     1
100
AcDbLine
 10
286.8
 20
498.370972
 30
0.0
 11
278.6
 21
498.370972
 31
0.0
  0
LINE
  5
494
100
AcDbEntity
  8
LAY-6
  6
CONTINUOUS
 62
     1
100
AcDbLine
 10
180.16
 20
498.370972
 30
0.0
 11
183.1
 21
498.370972
 31
0.0
  0
LINE
  5
495
100
AcDbEntity
  8
LAY-6
  6
CONTINUOUS
 62
     1
100
AcDbLine
 10
180.3
 20
501.370972
 30
0.0
 11
183.1
 21
501.370972
 31
0.0
  0
LINE
  5
496
100
AcDbEntity
  8
LAY-6
  6
CONTINUOUS
 62
     1
100
AcDbLine
 10
253.721314
 20
517.370984
 30
0.0
 11
254.903274
 21
520.128333
 31
0.0
  0
LINE
  5
497
100
AcDbEntity
  8
LAY-6
  6
CONTINUOUS
 62
     1
100
AcDbLine
 10
253.721314
 20
517.370984
 30
0.0
 11
256.123596
 21
519.167938
 31
0.0
  0
LINE
  5
498
100
AcDbEntity
  8
LAY-6
  6
CONTINUOUS
 62
     1
100
AcDbLine
 10
253.721314
 20
517.370984
 30
0.0
 11
287.9
 21
560.8
 31
0.0
  0
LINE
  5
499
100
AcDbEntity
  8
LAY-6
  6
CONTINUOUS
 62
     1
100
AcDbLine
 10
287.9
 20
560.8
 30
0.0
 11
244.4
 21
560.8
 31
0.0
  0
LINE
  5
49A
100
AcDbEntity
  8
LAY-6
  6
CONTINUOUS
 62
     1
100
AcDbLine
 10
694.049836
 20
301.052063
 30
0.0
 11
731.4
 21
301.052063
 31
0.0
  0
LINE
  5
49B
100
AcDbEntity
  8
LAY-6
  6
CONTINUOUS
 62
     1
100
AcDbLine
 10
714.549714
 20
271.052063
 30
0.0
 11
714.549714
 21
257.1
 31
0.0
  0
LINE
  5
49C
100
AcDbEntity
  8
LAY-6
  6
CONTINUOUS
 62
     1
100
AcDbLine
 10
652.549714
 20
271.052063
 30
0.0
 11
652.549714
 21
257.1
 31
0.0
  0
LINE
  5
49D
100
AcDbEntity
  8
LAY-6
  6
CONTINUOUS
 62
     1
100
AcDbLine
 10
773.5
 20
269.552063
 30
0.0
 11
788.4
 21
269.552063
 31
0.0
  0
LINE
  5
49E
100
AcDbEntity
  8
LAY-6
  6
CONTINUOUS
 62
     1
100
AcDbLine
 10
773.5
 20
271.052063
 30
0.0
 11
788.4
 21
271.052063
 31
0.0
  0
LINE
  5
49F
100
AcDbEntity
  8
LAY-6
  6
CONTINUOUS
 62
     1
100
AcDbLine
 10
738.7
 20
220.952087
 30
0.0
 11
788.4
 21
220.952087
 31
0.0
  0
LINE
  5
4A0
100
AcDbEntity
  8
LAY-6
  6
CONTINUOUS
 62
     1
100
AcDbLine
 10
465.7
 20
321.052063
 30
0.0
 11
423.7
 21
321.052063
 31
0.0
  0
POLYLINE
  5
4A1
100
AcDbEntity
  8
LAY-6
  6
CONTINUOUS
 62
     1
100
AcDb2dPolyline
 66
     1
 10
0.0
 20
0.0
 30
0.0
 70
   128
  0
VERTEX
  5
4A2
100
AcDbEntity
  8
LAY-6
  6
CONTINUOUS
 62
     1
100
AcDbVertex
100
AcDb2dVertex
 10
253.721344
 20
482.370972
 30
0.0
  0
VERTEX
  5
4A3
100
AcDbEntity
  8
LAY-6
  6
CONTINUOUS
 62
     1
100
AcDbVertex
100
AcDb2dVertex
 10
266.3
 20
452.9
 30
0.0
  0
VERTEX
  5
4A4
100
AcDbEntity
  8
LAY-6
  6
CONTINUOUS
 62
     1
100
AcDbVertex
100
AcDb2dVertex
 10
219.8
 20
452.9
 30
0.0
  0
SEQEND
  5
4A5
100
AcDbEntity
  8
LAY-6
  6
CONTINUOUS
 62
     1
  0
LINE
  5
4A6
100
AcDbEntity
  8
LAY-6
  6
CONTINUOUS
 62
     1
100
AcDbLine
 10
254.813029
 20
480.662366
 30
0.0
 11
253.721344
 21
482.370972
 31
0.0
  0
LINE
  5
4A7
100
AcDbEntity
  8
LAY-6
  6
CONTINUOUS
 62
     1
100
AcDbLine
 10
253.721344
 20
482.370972
 30
0.0
 11
254.199876
 21
480.400663
 31
0.0
  0
POLYLINE
  5
4A8
100
AcDbEntity
  8
LAY-6
  6
CONTINUOUS
 62
     1
100
AcDb2dPolyline
 66
     1
 10
0.0
 20
0.0
 30
0.0
 70
   128
  0
VERTEX
  5
4A9
100
AcDbEntity
  8
LAY-6
  6
CONTINUOUS
 62
     1
100
AcDbVertex
100
AcDb2dVertex
 10
229.221344
 20
360.452124
 30
0.0
  0
VERTEX
  5
4AA
100
AcDbEntity
  8
LAY-6
  6
CONTINUOUS
 62
     1
100
AcDbVertex
100
AcDb2dVertex
 10
244.900031
 20
391.00003
 30
0.0
  0
VERTEX
  5
4AB
100
AcDbEntity
  8
LAY-6
  6
CONTINUOUS
 62
     1
100
AcDbVertex
100
AcDb2dVertex
 10
329.100031
 20
391.00003
 30
0.0
  0
SEQEND
  5
4AC
100
AcDbEntity
  8
LAY-6
  6
CONTINUOUS
 62
     1
  0
LINE
  5
4AD
100
AcDbEntity
  8
LAY-6
  6
CONTINUOUS
 62
     1
100
AcDbLine
 10
230.146368
 20
363.349421
 30
0.0
 11
229.221344
 21
360.452124
 31
0.0
  0
LINE
  5
4AE
100
AcDbEntity
  8
LAY-6
  6
CONTINUOUS
 62
     1
100
AcDbLine
 10
229.221344
 20
360.452124
 30
0.0
 11
231.036031
 21
362.892802
 31
0.0
  0
TEXT
  5
4AF
100
AcDbEntity
  8
LAY-6
  6
CONTINUOUS
 62
     2
100
AcDbText
 10
297.734747
 20
167.638859
 30
0.0
 40
6.0
  1
ド　ア
 41
0.672
  7
EXCADSTD
 72
     5
 11
312.134748
 21
167.638859
 31
0.0
100
AcDbText
  0
POLYLINE
  5
4B0
100
AcDbEntity
  8
LAY-6
  6
CONTINUOUS
 62
     1
100
AcDb2dPolyline
 66
     1
 10
0.0
 20
0.0
 30
0.0
 70
   128
  0
VERTEX
  5
4B1
100
AcDbEntity
  8
LAY-6
  6
CONTINUOUS
 62
     1
100
AcDbVertex
100
AcDb2dVertex
 10
310.800031
 20
355.552403
 30
0.0
  0
VERTEX
  5
4B2
100
AcDbEntity
  8
LAY-6
  6
CONTINUOUS
 62
     1
100
AcDbVertex
100
AcDb2dVertex
 10
318.900031
 20
369.50003
 30
0.0
  0
VERTEX
  5
4B3
100
AcDbEntity
  8
LAY-6
  6
CONTINUOUS
 62
     1
100
AcDbVertex
100
AcDb2dVertex
 10
365.9
 20
369.50003
 30
0.0
  0
SEQEND
  5
4B4
100
AcDbEntity
  8
LAY-6
  6
CONTINUOUS
 62
     1
  0
LINE
  5
4B5
100
AcDbEntity
  8
LAY-6
  6
CONTINUOUS
 62
     1
100
AcDbLine
 10
311.874253
 20
358.397758
 30
0.0
 11
310.800031
 21
355.552403
 31
0.0
  0
LINE
  5
4B6
100
AcDbEntity
  8
LAY-6
  6
CONTINUOUS
 62
     1
100
AcDbLine
 10
310.800031
 20
355.552403
 30
0.0
 11
312.739005
 21
357.895559
 31
0.0
  0
INSERT
  5
4B7
100
AcDbEntity
  8
LAY-6
  6
CONTINUOUS
 62
     0
100
AcDbBlockReference
  2
SYM-2
 10
517.9
 20
553.0
 30
0.0
  0
TEXT
  5
4B8
100
AcDbEntity
  8
LAY-6
  6
CONTINUOUS
 62
     2
100
AcDbText
 10
321.281089
 20
561.516987
 30
0.0
 40
6.0
  1
トップピボット（上枠側）
 41
0.672
  7
EXCADSTD
 72
     5
 11
378.881091
 21
561.516987
 31
0.0
100
AcDbText
  0
TEXT
  5
4B9
100
AcDbEntity
  8
LAY-6
  6
CONTINUOUS
 62
     2
100
AcDbText
 10
143.471344
 20
457.8
 30
0.0
 40
5.0
  1
φ
 41
0.672
  7
EXCADSTD
 72
     5
 11
146.671344
 21
457.8
 31
0.0
100
AcDbText
  0
TEXT
  5
4BA
100
AcDbEntity
  8
LAY-6
  6
CONTINUOUS
 62
     2
100
AcDbText
 10
147.471344
 20
457.8
 30
0.0
 40
5.0
  1
１７.５
 41
0.616
  7
EXCADSTD
 72
     5
 11
161.471344
 21
457.8
 31
0.0
100
AcDbText
  0
LINE
  5
4BB
100
AcDbEntity
  8
LAY-6
  6
CONTINUOUS
 62
     1
100
AcDbLine
 10
122.971344
 20
481.070972
 30
0.0
 11
122.971344
 21
455.8
 31
0.0
  0
LINE
  5
4BC
100
AcDbEntity
  8
LAY-6
  6
CONTINUOUS
 62
     1
100
AcDbLine
 10
140.471344
 20
481.070972
 30
0.0
 11
140.471344
 21
455.8
 31
0.0
  0
LINE
  5
4BD
100
AcDbEntity
  8
LAY-6
  6
CONTINUOUS
 62
     1
100
AcDbLine
 10
117.971344
 20
457.3
 30
0.0
 11
161.971344
 21
457.3
 31
0.0
  0
LINE
  5
4BE
100
AcDbEntity
  8
LAY-6
  6
CONTINUOUS
 62
     1
100
AcDbLine
 10
119.971344
 20
456.8
 30
0.0
 11
122.971344
 21
457.3
 31
0.0
  0
LINE
  5
4BF
100
AcDbEntity
  8
LAY-6
  6
CONTINUOUS
 62
     1
100
AcDbLine
 10
122.971344
 20
457.3
 30
0.0
 11
119.971344
 21
457.8
 31
0.0
  0
LINE
  5
4C0
100
AcDbEntity
  8
LAY-6
  6
CONTINUOUS
 62
     1
100
AcDbLine
 10
143.471344
 20
457.8
 30
0.0
 11
140.471344
 21
457.3
 31
0.0
  0
LINE
  5
4C1
100
AcDbEntity
  8
LAY-6
  6
CONTINUOUS
 62
     1
100
AcDbLine
 10
140.471344
 20
457.3
 30
0.0
 11
143.471344
 21
456.8
 31
0.0
  0
TEXT
  5
4C2
100
AcDbEntity
  8
LAY-6
  6
CONTINUOUS
 62
     2
100
AcDbText
 10
125.72136
 20
556.2
 30
0.0
 40
5.0
  1
φ
 41
0.672
  7
EXCADSTD
 72
     5
 11
128.92136
 21
556.2
 31
0.0
100
AcDbText
  0
TEXT
  5
4C3
100
AcDbEntity
  8
LAY-6
  6
CONTINUOUS
 62
     2
100
AcDbText
 10
129.72136
 20
556.2
 30
0.0
 40
5.0
  1
１９
 41
0.672
  7
EXCADSTD
 72
     5
 11
137.05416
 21
556.2
 31
0.0
100
AcDbText
  0
LINE
  5
4C4
100
AcDbEntity
  8
LAY-6
  6
CONTINUOUS
 62
     1
100
AcDbLine
 10
122.221363
 20
540.871033
 30
0.0
 11
122.221363
 21
557.2
 31
0.0
  0
LINE
  5
4C5
100
AcDbEntity
  8
LAY-6
  6
CONTINUOUS
 62
     1
100
AcDbLine
 10
141.221357
 20
540.871033
 30
0.0
 11
141.221357
 21
557.2
 31
0.0
  0
LINE
  5
4C6
100
AcDbEntity
  8
LAY-6
  6
CONTINUOUS
 62
     1
100
AcDbLine
 10
122.221363
 20
555.7
 30
0.0
 11
141.221357
 21
555.7
 31
0.0
  0
LINE
  5
4C7
100
AcDbEntity
  8
LAY-6
  6
CONTINUOUS
 62
     1
100
AcDbLine
 10
125.221363
 20
556.2
 30
0.0
 11
122.221363
 21
555.7
 31
0.0
  0
LINE
  5
4C8
100
AcDbEntity
  8
LAY-6
  6
CONTINUOUS
 62
     1
100
AcDbLine
 10
122.221363
 20
555.7
 30
0.0
 11
125.221363
 21
555.2
 31
0.0
  0
LINE
  5
4C9
100
AcDbEntity
  8
LAY-6
  6
CONTINUOUS
 62
     1
100
AcDbLine
 10
138.221357
 20
555.2
 30
0.0
 11
141.221357
 21
555.7
 31
0.0
  0
LINE
  5
4CA
100
AcDbEntity
  8
LAY-6
  6
CONTINUOUS
 62
     1
100
AcDbLine
 10
141.221357
 20
555.7
 30
0.0
 11
138.221357
 21
556.2
 31
0.0
  0
TEXT
  5
4CB
100
AcDbEntity
  8
LAY-6
  6
CONTINUOUS
 62
     2
100
AcDbText
 10
82.7
 20
516.371003
 30
0.0
 40
5.0
  1
３８
 50
90.0
 41
0.672
  7
EXCADSTD
 72
     5
 11
82.7
 21
523.703803
 31
0.0
100
AcDbText
  0
LINE
  5
4CC
100
AcDbEntity
  8
LAY-6
  6
CONTINUOUS
 62
     1
100
AcDbLine
 10
120.721363
 20
539.371033
 30
0.0
 11
81.7
 21
539.371033
 31
0.0
  0
LINE
  5
4CD
100
AcDbEntity
  8
LAY-6
  6
CONTINUOUS
 62
     1
100
AcDbLine
 10
89.221344
 20
501.370972
 30
0.0
 11
81.7
 21
501.370972
 31
0.0
  0
LINE
  5
4CE
100
AcDbEntity
  8
LAY-6
  6
CONTINUOUS
 62
     1
100
AcDbLine
 10
83.2
 20
539.371033
 30
0.0
 11
83.2
 21
501.370972
 31
0.0
  0
LINE
  5
4CF
100
AcDbEntity
  8
LAY-6
  6
CONTINUOUS
 62
     1
100
AcDbLine
 10
83.7
 20
536.371033
 30
0.0
 11
83.2
 21
539.371033
 31
0.0
  0
LINE
  5
4D0
100
AcDbEntity
  8
LAY-6
  6
CONTINUOUS
 62
     1
100
AcDbLine
 10
83.2
 20
539.371033
 30
0.0
 11
82.7
 21
536.371033
 31
0.0
  0
LINE
  5
4D1
100
AcDbEntity
  8
LAY-6
  6
CONTINUOUS
 62
     1
100
AcDbLine
 10
82.7
 20
504.370972
 30
0.0
 11
83.2
 21
501.370972
 31
0.0
  0
LINE
  5
4D2
100
AcDbEntity
  8
LAY-6
  6
CONTINUOUS
 62
     1
100
AcDbLine
 10
83.2
 20
501.370972
 30
0.0
 11
83.7
 21
504.370972
 31
0.0
  0
TEXT
  5
4D3
100
AcDbEntity
  8
LAY-6
  6
CONTINUOUS
 62
     2
100
AcDbText
 10
82.7
 20
483.870972
 30
0.0
 40
5.0
  1
２１
 50
90.0
 41
0.672
  7
EXCADSTD
 72
     5
 11
82.7
 21
491.203772
 31
0.0
100
AcDbText
  0
LINE
  5
4D4
100
AcDbEntity
  8
LAY-6
  6
CONTINUOUS
 62
     1
100
AcDbLine
 10
130.221344
 20
477.370972
 30
0.0
 11
81.7
 21
477.370972
 31
0.0
  0
LINE
  5
4D5
100
AcDbEntity
  8
LAY-6
  6
CONTINUOUS
 62
     1
100
AcDbLine
 10
82.0
 20
498.370972
 30
0.0
 11
81.7
 21
498.370972
 31
0.0
  0
LINE
  5
4D6
100
AcDbEntity
  8
LAY-6
  6
CONTINUOUS
 62
     1
100
AcDbLine
 10
83.2
 20
477.370972
 30
0.0
 11
83.2
 21
498.370972
 31
0.0
  0
LINE
  5
4D7
100
AcDbEntity
  8
LAY-6
  6
CONTINUOUS
 62
     1
100
AcDbLine
 10
82.7
 20
480.370972
 30
0.0
 11
83.2
 21
477.370972
 31
0.0
  0
LINE
  5
4D8
100
AcDbEntity
  8
LAY-6
  6
CONTINUOUS
 62
     1
100
AcDbLine
 10
83.2
 20
477.370972
 30
0.0
 11
83.7
 21
480.370972
 31
0.0
  0
LINE
  5
4D9
100
AcDbEntity
  8
LAY-6
  6
CONTINUOUS
 62
     1
100
AcDbLine
 10
83.7
 20
495.370972
 30
0.0
 11
83.2
 21
498.370972
 31
0.0
  0
LINE
  5
4DA
100
AcDbEntity
  8
LAY-6
  6
CONTINUOUS
 62
     1
100
AcDbLine
 10
83.2
 20
498.370972
 30
0.0
 11
82.7
 21
495.370972
 31
0.0
  0
TEXT
  5
4DB
100
AcDbEntity
  8
LAY-6
  6
CONTINUOUS
 62
     2
100
AcDbText
 10
679.549836
 20
464.2
 30
0.0
 40
5.0
  1
３２
 41
0.672
  7
EXCADSTD
 72
     5
 11
686.882636
 21
464.2
 31
0.0
100
AcDbText
  0
LINE
  5
4DC
100
AcDbEntity
  8
LAY-6
  6
CONTINUOUS
 62
     1
100
AcDbLine
 10
667.549821
 20
490.870972
 30
0.0
 11
667.549821
 21
462.2
 31
0.0
  0
LINE
  5
4DD
100
AcDbEntity
  8
LAY-6
  6
CONTINUOUS
 62
     1
100
AcDbLine
 10
699.549851
 20
490.870972
 30
0.0
 11
699.549851
 21
462.2
 31
0.0
  0
LINE
  5
4DE
100
AcDbEntity
  8
LAY-6
  6
CONTINUOUS
 62
     1
100
AcDbLine
 10
667.549821
 20
463.7
 30
0.0
 11
699.549851
 21
463.7
 31
0.0
  0
LINE
  5
4DF
100
AcDbEntity
  8
LAY-6
  6
CONTINUOUS
 62
     1
100
AcDbLine
 10
670.549821
 20
464.2
 30
0.0
 11
667.549821
 21
463.7
 31
0.0
  0
LINE
  5
4E0
100
AcDbEntity
  8
LAY-6
  6
CONTINUOUS
 62
     1
100
AcDbLine
 10
667.549821
 20
463.7
 30
0.0
 11
670.549821
 21
463.2
 31
0.0
  0
LINE
  5
4E1
100
AcDbEntity
  8
LAY-6
  6
CONTINUOUS
 62
     1
100
AcDbLine
 10
696.549851
 20
463.2
 30
0.0
 11
699.549851
 21
463.7
 31
0.0
  0
LINE
  5
4E2
100
AcDbEntity
  8
LAY-6
  6
CONTINUOUS
 62
     1
100
AcDbLine
 10
699.549851
 20
463.7
 30
0.0
 11
696.549851
 21
464.2
 31
0.0
  0
TEXT
  5
4E3
100
AcDbEntity
  8
LAY-6
  6
CONTINUOUS
 62
     2
100
AcDbText
 10
679.549836
 20
549.4
 30
0.0
 40
5.0
  1
３２
 41
0.672
  7
EXCADSTD
 72
     5
 11
686.882636
 21
549.4
 31
0.0
100
AcDbText
  0
LINE
  5
4E4
100
AcDbEntity
  8
LAY-6
  6
CONTINUOUS
 62
     1
100
AcDbLine
 10
667.549821
 20
508.870972
 30
0.0
 11
667.549821
 21
550.4
 31
0.0
  0
LINE
  5
4E5
100
AcDbEntity
  8
LAY-6
  6
CONTINUOUS
 62
     1
100
AcDbLine
 10
699.549851
 20
508.870972
 30
0.0
 11
699.549851
 21
550.4
 31
0.0
  0
LINE
  5
4E6
100
AcDbEntity
  8
LAY-6
  6
CONTINUOUS
 62
     1
100
AcDbLine
 10
667.549821
 20
548.9
 30
0.0
 11
699.549851
 21
548.9
 31
0.0
  0
LINE
  5
4E7
100
AcDbEntity
  8
LAY-6
  6
CONTINUOUS
 62
     1
100
AcDbLine
 10
670.549821
 20
549.4
 30
0.0
 11
667.549821
 21
548.9
 31
0.0
  0
LINE
  5
4E8
100
AcDbEntity
  8
LAY-6
  6
CONTINUOUS
 62
     1
100
AcDbLine
 10
667.549821
 20
548.9
 30
0.0
 11
670.549821
 21
548.4
 31
0.0
  0
LINE
  5
4E9
100
AcDbEntity
  8
LAY-6
  6
CONTINUOUS
 62
     1
100
AcDbLine
 10
696.549851
 20
548.4
 30
0.0
 11
699.549851
 21
548.9
 31
0.0
  0
LINE
  5
4EA
100
AcDbEntity
  8
LAY-6
  6
CONTINUOUS
 62
     1
100
AcDbLine
 10
699.549851
 20
548.9
 30
0.0
 11
696.549851
 21
549.4
 31
0.0
  0
TEXT
  5
4EB
100
AcDbEntity
  8
LAY-6
  6
CONTINUOUS
 62
     2
100
AcDbText
 10
717.2
 20
516.371003
 30
0.0
 40
5.0
  1
３８
 50
90.0
 41
0.672
  7
EXCADSTD
 72
     5
 11
717.2
 21
523.703803
 31
0.0
100
AcDbText
  0
LINE
  5
4EC
100
AcDbEntity
  8
LAY-6
  6
CONTINUOUS
 62
     1
100
AcDbLine
 10
703.549836
 20
501.370972
 30
0.0
 11
719.2
 21
501.370972
 31
0.0
  0
LINE
  5
4ED
100
AcDbEntity
  8
LAY-6
  6
CONTINUOUS
 62
     1
100
AcDbLine
 10
694.549849
 20
539.371033
 30
0.0
 11
719.2
 21
539.371033
 31
0.0
  0
LINE
  5
4EE
100
AcDbEntity
  8
LAY-6
  6
CONTINUOUS
 62
     1
100
AcDbLine
 10
717.7
 20
501.370972
 30
0.0
 11
717.7
 21
539.371033
 31
0.0
  0
LINE
  5
4EF
100
AcDbEntity
  8
LAY-6
  6
CONTINUOUS
 62
     1
100
AcDbLine
 10
717.2
 20
504.370972
 30
0.0
 11
717.7
 21
501.370972
 31
0.0
  0
LINE
  5
4F0
100
AcDbEntity
  8
LAY-6
  6
CONTINUOUS
 62
     1
100
AcDbLine
 10
717.7
 20
501.370972
 30
0.0
 11
718.2
 21
504.370972
 31
0.0
  0
LINE
  5
4F1
100
AcDbEntity
  8
LAY-6
  6
CONTINUOUS
 62
     1
100
AcDbLine
 10
718.2
 20
536.371033
 30
0.0
 11
717.7
 21
539.371033
 31
0.0
  0
LINE
  5
4F2
100
AcDbEntity
  8
LAY-6
  6
CONTINUOUS
 62
     1
100
AcDbLine
 10
717.7
 20
539.371033
 30
0.0
 11
717.2
 21
536.371033
 31
0.0
  0
TEXT
  5
4F3
100
AcDbEntity
  8
LAY-6
  6
CONTINUOUS
 62
     2
100
AcDbText
 10
717.0
 20
483.870972
 30
0.0
 40
5.0
  1
２１
 50
90.0
 41
0.672
  7
EXCADSTD
 72
     5
 11
717.0
 21
491.203772
 31
0.0
100
AcDbText
  0
LINE
  5
4F4
100
AcDbEntity
  8
LAY-6
  6
CONTINUOUS
 62
     1
100
AcDbLine
 10
701.049851
 20
498.370972
 30
0.0
 11
719.0
 21
498.370972
 31
0.0
  0
LINE
  5
4F5
100
AcDbEntity
  8
LAY-6
  6
CONTINUOUS
 62
     1
100
AcDbLine
 10
685.049836
 20
477.370972
 30
0.0
 11
719.0
 21
477.370972
 31
0.0
  0
LINE
  5
4F6
100
AcDbEntity
  8
LAY-6
  6
CONTINUOUS
 62
     1
100
AcDbLine
 10
717.5
 20
498.370972
 30
0.0
 11
717.5
 21
477.370972
 31
0.0
  0
LINE
  5
4F7
100
AcDbEntity
  8
LAY-6
  6
CONTINUOUS
 62
     1
100
AcDbLine
 10
718.0
 20
495.370972
 30
0.0
 11
717.5
 21
498.370972
 31
0.0
  0
LINE
  5
4F8
100
AcDbEntity
  8
LAY-6
  6
CONTINUOUS
 62
     1
100
AcDbLine
 10
717.5
 20
498.370972
 30
0.0
 11
717.0
 21
495.370972
 31
0.0
  0
LINE
  5
4F9
100
AcDbEntity
  8
LAY-6
  6
CONTINUOUS
 62
     1
100
AcDbLine
 10
717.0
 20
480.370972
 30
0.0
 11
717.5
 21
477.370972
 31
0.0
  0
LINE
  5
4FA
100
AcDbEntity
  8
LAY-6
  6
CONTINUOUS
 62
     1
100
AcDbLine
 10
717.5
 20
477.370972
 30
0.0
 11
718.0
 21
480.370972
 31
0.0
  0
TEXT
  5
4FB
100
AcDbEntity
  8
LAY-6
  6
CONTINUOUS
 62
     2
100
AcDbText
 10
677.603512
 20
386.956192
 30
0.0
 40
6.0
  1
ド　ア
 41
0.672
  7
EXCADSTD
 72
     5
 11
692.003512
 21
386.956192
 31
0.0
100
AcDbText
  0
LINE
  5
4FC
100
AcDbEntity
  8
LAY-9
  6
CONTINUOUS
 62
     1
100
AcDbLine
 10
670.5815
 20
301.052063
 30
0.0
 11
675.0815
 21
305.552063
 31
0.0
  0
LINE
  5
4FD
100
AcDbEntity
  8
LAY-9
  6
CONTINUOUS
 62
     1
100
AcDbLine
 10
673.409927
 20
301.052063
 30
0.0
 11
677.909927
 21
305.552063
 31
0.0
  0
LINE
  5
4FE
100
AcDbEntity
  8
LAY-9
  6
CONTINUOUS
 62
     1
100
AcDbLine
 10
690.38049
 20
301.052063
 30
0.0
 11
694.88049
 21
305.552063
 31
0.0
  0
LINE
  5
4FF
100
AcDbEntity
  8
LAY-9
  6
CONTINUOUS
 62
     1
100
AcDbLine
 10
693.208917
 20
301.052063
 30
0.0
 11
697.708917
 21
305.552063
 31
0.0
  0
LINE
  5
500
100
AcDbEntity
  8
LAY-9
  6
CONTINUOUS
 62
     1
100
AcDbLine
 10
108.505569
 20
507.370972
 30
0.0
 11
113.005569
 21
511.870972
 31
0.0
  0
LINE
  5
501
100
AcDbEntity
  8
LAY-9
  6
CONTINUOUS
 62
     1
100
AcDbLine
 10
111.333996
 20
507.370972
 30
0.0
 11
115.833996
 21
511.870972
 31
0.0
  0
LINE
  5
502
100
AcDbEntity
  8
LAY-9
  6
CONTINUOUS
 62
     1
100
AcDbLine
 10
255.133996
 20
507.370972
 30
0.0
 11
259.633996
 21
511.870972
 31
0.0
  0
LINE
  5
503
100
AcDbEntity
  8
LAY-9
  6
CONTINUOUS
 62
     1
100
AcDbLine
 10
257.962423
 20
507.370972
 30
0.0
 11
262.462423
 21
511.870972
 31
0.0
  0
LINE
  5
504
100
AcDbEntity
  8
LAY-9
  6
CONTINUOUS
 62
     1
100
AcDbLine
 10
165.361304
 20
487.870972
 30
0.0
 11
169.861304
 21
492.370972
 31
0.0
  0
LINE
  5
505
100
AcDbEntity
  8
LAY-9
  6
CONTINUOUS
 62
     1
100
AcDbLine
 10
168.189731
 20
487.870972
 30
0.0
 11
172.689731
 21
492.370972
 31
0.0
  0
LINE
  5
506
100
AcDbEntity
  8
LAY-9
  6
CONTINUOUS
 62
     1
100
AcDbLine
 10
193.645575
 20
487.870972
 30
0.0
 11
198.145575
 21
492.370972
 31
0.0
  0
LINE
  5
507
100
AcDbEntity
  8
LAY-9
  6
CONTINUOUS
 62
     1
100
AcDbLine
 10
196.474002
 20
487.870972
 30
0.0
 11
200.974002
 21
492.370972
 31
0.0
  0
LINE
  5
508
100
AcDbEntity
  8
LAY-9
  6
CONTINUOUS
 62
     1
100
AcDbLine
 10
221.929847
 20
487.870972
 30
0.0
 11
226.429847
 21
492.370972
 31
0.0
  0
LINE
  5
509
100
AcDbEntity
  8
LAY-9
  6
CONTINUOUS
 62
     1
100
AcDbLine
 10
224.758274
 20
487.870972
 30
0.0
 11
229.258274
 21
492.370972
 31
0.0
  0
LINE
  5
50A
100
AcDbEntity
  8
LAY-9
  6
CONTINUOUS
 62
     1
100
AcDbLine
 10
250.214118
 20
487.870972
 30
0.0
 11
254.714118
 21
492.370972
 31
0.0
  0
LINE
  5
50B
100
AcDbEntity
  8
LAY-9
  6
CONTINUOUS
 62
     1
100
AcDbLine
 10
253.042545
 20
487.870972
 30
0.0
 11
257.542545
 21
492.370972
 31
0.0
  0
LINE
  5
50C
100
AcDbEntity
  8
LAY-9
  6
CONTINUOUS
 62
     1
100
AcDbLine
 10
95.522049
 20
351.052063
 30
0.0
 11
100.022049
 21
355.552063
 31
0.0
  0
LINE
  5
50D
100
AcDbEntity
  8
LAY-9
  6
CONTINUOUS
 62
     1
100
AcDbLine
 10
98.350476
 20
351.052063
 30
0.0
 11
102.850476
 21
355.552063
 31
0.0
  0
LINE
  5
50E
100
AcDbEntity
  8
LAY-9
  6
CONTINUOUS
 62
     1
100
AcDbLine
 10
123.80632
 20
351.052063
 30
0.0
 11
128.30632
 21
355.552063
 31
0.0
  0
LINE
  5
50F
100
AcDbEntity
  8
LAY-9
  6
CONTINUOUS
 62
     1
100
AcDbLine
 10
126.634747
 20
351.052063
 30
0.0
 11
131.134747
 21
355.552063
 31
0.0
  0
LINE
  5
510
100
AcDbEntity
  8
LAY-9
  6
CONTINUOUS
 62
     1
100
AcDbLine
 10
152.090591
 20
351.052063
 30
0.0
 11
156.590591
 21
355.552063
 31
0.0
  0
LINE
  5
511
100
AcDbEntity
  8
LAY-9
  6
CONTINUOUS
 62
     1
100
AcDbLine
 10
154.919019
 20
351.052063
 30
0.0
 11
159.419019
 21
355.552063
 31
0.0
  0
LINE
  5
512
100
AcDbEntity
  8
LAY-9
  6
CONTINUOUS
 62
     1
100
AcDbLine
 10
180.374863
 20
351.052063
 30
0.0
 11
184.874863
 21
355.552063
 31
0.0
  0
LINE
  5
513
100
AcDbEntity
  8
LAY-9
  6
CONTINUOUS
 62
     1
100
AcDbLine
 10
183.20329
 20
351.052063
 30
0.0
 11
187.70329
 21
355.552063
 31
0.0
  0
LINE
  5
514
100
AcDbEntity
  8
LAY-9
  6
CONTINUOUS
 62
     1
100
AcDbLine
 10
208.659134
 20
351.052063
 30
0.0
 11
213.159134
 21
355.552063
 31
0.0
  0
LINE
  5
515
100
AcDbEntity
  8
LAY-9
  6
CONTINUOUS
 62
     1
100
AcDbLine
 10
211.487561
 20
351.052063
 30
0.0
 11
215.987561
 21
355.552063
 31
0.0
  0
LINE
  5
516
100
AcDbEntity
  8
LAY-9
  6
CONTINUOUS
 62
     1
100
AcDbLine
 10
236.943405
 20
351.052063
 30
0.0
 11
241.443405
 21
355.552063
 31
0.0
  0
LINE
  5
517
100
AcDbEntity
  8
LAY-9
  6
CONTINUOUS
 62
     1
100
AcDbLine
 10
239.771832
 20
351.052063
 30
0.0
 11
244.271832
 21
355.552063
 31
0.0
  0
LINE
  5
518
100
AcDbEntity
  8
LAY-9
  6
CONTINUOUS
 62
     1
100
AcDbLine
 10
265.227676
 20
351.052063
 30
0.0
 11
269.727676
 21
355.552063
 31
0.0
  0
LINE
  5
519
100
AcDbEntity
  8
LAY-9
  6
CONTINUOUS
 62
     1
100
AcDbLine
 10
268.056104
 20
351.052063
 30
0.0
 11
272.556104
 21
355.552063
 31
0.0
  0
LINE
  5
51A
100
AcDbEntity
  8
LAY-9
  6
CONTINUOUS
 62
     1
100
AcDbLine
 10
293.511948
 20
351.052063
 30
0.0
 11
298.011948
 21
355.552063
 31
0.0
  0
LINE
  5
51B
100
AcDbEntity
  8
LAY-9
  6
CONTINUOUS
 62
     1
100
AcDbLine
 10
296.340375
 20
351.052063
 30
0.0
 11
300.840375
 21
355.552063
 31
0.0
  0
LINE
  5
51C
100
AcDbEntity
  8
LAY-9
  6
CONTINUOUS
 62
     1
100
AcDbLine
 10
321.796219
 20
351.052063
 30
0.0
 11
326.296219
 21
355.552063
 31
0.0
  0
LINE
  5
51D
100
AcDbEntity
  8
LAY-9
  6
CONTINUOUS
 62
     1
100
AcDbLine
 10
324.624646
 20
351.052063
 30
0.0
 11
329.124646
 21
355.552063
 31
0.0
  0
LINE
  5
51E
100
AcDbEntity
  8
LAY-9
  6
CONTINUOUS
 62
     1
100
AcDbLine
 10
350.08049
 20
351.052063
 30
0.0
 11
354.58049
 21
355.552063
 31
0.0
  0
LINE
  5
51F
100
AcDbEntity
  8
LAY-9
  6
CONTINUOUS
 62
     1
100
AcDbLine
 10
352.908917
 20
351.052063
 30
0.0
 11
357.408917
 21
355.552063
 31
0.0
  0
LINE
  5
520
100
AcDbEntity
  8
LAY-9
  6
CONTINUOUS
 62
     1
100
AcDbLine
 10
378.364761
 20
351.052063
 30
0.0
 11
382.864761
 21
355.552063
 31
0.0
  0
LINE
  5
521
100
AcDbEntity
  8
LAY-9
  6
CONTINUOUS
 62
     1
100
AcDbLine
 10
381.193188
 20
351.052063
 30
0.0
 11
385.693188
 21
355.552063
 31
0.0
  0
LINE
  5
522
100
AcDbEntity
  8
LAY-9
  6
CONTINUOUS
 62
     1
100
AcDbLine
 10
406.649033
 20
351.052063
 30
0.0
 11
411.149033
 21
355.552063
 31
0.0
  0
LINE
  5
523
100
AcDbEntity
  8
LAY-9
  6
CONTINUOUS
 62
     1
100
AcDbLine
 10
409.47746
 20
351.052063
 30
0.0
 11
413.97746
 21
355.552063
 31
0.0
  0
LINE
  5
524
100
AcDbEntity
  8
LAY-9
  6
CONTINUOUS
 62
     1
100
AcDbLine
 10
434.933304
 20
351.052063
 30
0.0
 11
439.433304
 21
355.552063
 31
0.0
  0
LINE
  5
525
100
AcDbEntity
  8
LAY-9
  6
CONTINUOUS
 62
     1
100
AcDbLine
 10
437.761731
 20
351.052063
 30
0.0
 11
442.261731
 21
355.552063
 31
0.0
  0
LINE
  5
526
100
AcDbEntity
  8
LAY-9
  6
CONTINUOUS
 62
     1
100
AcDbLine
 10
44.549469
 20
214.052078
 30
0.0
 11
67.121344
 21
214.052078
 31
0.0
  0
LINE
  5
527
100
AcDbEntity
  8
LAY-9
  6
CONTINUOUS
 62
     1
100
AcDbLine
 10
44.549469
 20
212.452078
 30
0.0
 11
67.121344
 21
212.452078
 31
0.0
  0
LINE
  5
528
100
AcDbEntity
  8
LAY-9
  6
CONTINUOUS
 62
     1
100
AcDbLine
 10
44.549469
 20
114.052078
 30
0.0
 11
67.121344
 21
114.052078
 31
0.0
  0
LINE
  5
529
100
AcDbEntity
  8
LAY-9
  6
CONTINUOUS
 62
     1
100
AcDbLine
 10
44.549469
 20
115.652078
 30
0.0
 11
67.121344
 21
115.652078
 31
0.0
  0
LINE
  5
52A
100
AcDbEntity
  8
LAY-9
  6
CONTINUOUS
 62
     1
100
AcDbLine
 10
67.121344
 20
212.452078
 30
0.0
 11
67.121344
 21
115.652078
 31
0.0
  0
ARC
  5
52B
100
AcDbEntity
  8
LAY-9
  6
CONTINUOUS
 62
     1
100
AcDbCircle
 10
67.121344
 20
212.452078
 30
0.0
 40
1.6
100
AcDbArc
 50
0.0
 51
90.0
  0
ARC
  5
52C
100
AcDbEntity
  8
LAY-9
  6
CONTINUOUS
 62
     1
100
AcDbCircle
 10
67.121344
 20
115.652078
 30
0.0
 40
1.6
100
AcDbArc
 50
270.0
 51
0.0
  0
LINE
  5
52D
100
AcDbEntity
  8
LAY-9
  6
CONTINUOUS
 62
     1
100
AcDbLine
 10
68.721344
 20
502.970972
 30
0.0
 11
97.721344
 21
502.970972
 31
0.0
  0
LINE
  5
52E
100
AcDbEntity
  8
LAY-9
  6
CONTINUOUS
 62
     1
100
AcDbLine
 10
266.721344
 20
502.970972
 30
0.0
 11
308.624785
 21
502.970972
 31
0.0
  0
LINE
  5
52F
100
AcDbEntity
  8
LAY-9
  6
CONTINUOUS
 62
     1
100
AcDbLine
 10
73.321344
 20
496.770972
 30
0.0
 11
115.721329
 21
496.770972
 31
0.0
  0
LINE
  5
530
100
AcDbEntity
  8
LAY-9
  6
CONTINUOUS
 62
     1
100
AcDbLine
 10
266.721344
 20
496.770972
 30
0.0
 11
306.538211
 21
496.770972
 31
0.0
  0
LINE
  5
531
100
AcDbEntity
  8
LAY-9
  6
CONTINUOUS
 62
     1
100
AcDbLine
 10
73.321344
 20
355.552063
 30
0.0
 11
464.03866
 21
355.552063
 31
0.0
  0
LINE
  5
532
100
AcDbEntity
  8
LAY-9
  6
CONTINUOUS
 62
     1
100
AcDbLine
 10
73.321344
 20
357.852063
 30
0.0
 11
464.536816
 21
357.852063
 31
0.0
  0
LINE
  5
533
100
AcDbEntity
  8
LAY-9
  6
CONTINUOUS
 62
     1
100
AcDbLine
 10
68.721344
 20
311.052063
 30
0.0
 11
67.121344
 21
311.052063
 31
0.0
  0
LINE
  5
534
100
AcDbEntity
  8
LAY-9
  6
CONTINUOUS
 62
     1
100
AcDbLine
 10
593.549836
 20
271.052063
 30
0.0
 11
563.4
 21
271.052063
 31
0.0
  0
POLYLINE
  5
535
100
AcDbEntity
  8
LAY-9
  6
CONTINUOUS
 62
     1
100
AcDb2dPolyline
 66
     1
 10
0.0
 20
0.0
 30
0.0
 70
   128
  0
VERTEX
  5
536
100
AcDbEntity
  8
LAY-9
  6
CONTINUOUS
 62
     1
100
AcDbVertex
100
AcDb2dVertex
 10
563.4
 20
271.052063
 30
0.0
  0
VERTEX
  5
537
100
AcDbEntity
  8
LAY-9
  6
CONTINUOUS
 62
     1
100
AcDbVertex
100
AcDb2dVertex
 10
563.477323
 20
270.904244
 30
0.0
  0
VERTEX
  5
538
100
AcDbEntity
  8
LAY-9
  6
CONTINUOUS
 62
     1
100
AcDbVertex
100
AcDb2dVertex
 10
563.690593
 20
270.484372
 30
0.0
  0
VERTEX
  5
539
100
AcDbEntity
  8
LAY-9
  6
CONTINUOUS
 62
     1
100
AcDbVertex
100
AcDb2dVertex
 10
564.011765
 20
269.827821
 30
0.0
  0
VERTEX
  5
53A
100
AcDbEntity
  8
LAY-9
  6
CONTINUOUS
 62
     1
100
AcDbVertex
100
AcDb2dVertex
 10
564.412792
 20
268.969967
 30
0.0
  0
VERTEX
  5
53B
100
AcDbEntity
  8
LAY-9
  6
CONTINUOUS
 62
     1
100
AcDbVertex
100
AcDb2dVertex
 10
564.865626
 20
267.946184
 30
0.0
  0
VERTEX
  5
53C
100
AcDbEntity
  8
LAY-9
  6
CONTINUOUS
 62
     1
100
AcDbVertex
100
AcDb2dVertex
 10
565.342223
 20
266.791848
 30
0.0
  0
VERTEX
  5
53D
100
AcDbEntity
  8
LAY-9
  6
CONTINUOUS
 62
     1
100
AcDbVertex
100
AcDb2dVertex
 10
565.814534
 20
265.542334
 30
0.0
  0
VERTEX
  5
53E
100
AcDbEntity
  8
LAY-9
  6
CONTINUOUS
 62
     1
100
AcDbVertex
100
AcDb2dVertex
 10
566.254514
 20
264.233017
 30
0.0
  0
VERTEX
  5
53F
100
AcDbEntity
  8
LAY-9
  6
CONTINUOUS
 62
     1
100
AcDbVertex
100
AcDb2dVertex
 10
566.634116
 20
262.899272
 30
0.0
  0
VERTEX
  5
540
100
AcDbEntity
  8
LAY-9
  6
CONTINUOUS
 62
     1
100
AcDbVertex
100
AcDb2dVertex
 10
566.925294
 20
261.576475
 30
0.0
  0
VERTEX
  5
541
100
AcDbEntity
  8
LAY-9
  6
CONTINUOUS
 62
     1
100
AcDbVertex
100
AcDb2dVertex
 10
567.1
 20
260.3
 30
0.0
  0
VERTEX
  5
542
100
AcDbEntity
  8
LAY-9
  6
CONTINUOUS
 62
     1
100
AcDbVertex
100
AcDb2dVertex
 10
567.138934
 20
259.160918
 30
0.0
  0
VERTEX
  5
543
100
AcDbEntity
  8
LAY-9
  6
CONTINUOUS
 62
     1
100
AcDbVertex
100
AcDb2dVertex
 10
567.062113
 20
258.087711
 30
0.0
  0
VERTEX
  5
544
100
AcDbEntity
  8
LAY-9
  6
CONTINUOUS
 62
     1
100
AcDbVertex
100
AcDb2dVertex
 10
566.883102
 20
257.073147
 30
0.0
  0
VERTEX
  5
545
100
AcDbEntity
  8
LAY-9
  6
CONTINUOUS
 62
     1
100
AcDbVertex
100
AcDb2dVertex
 10
566.615466
 20
256.109994
 30
0.0
  0
VERTEX
  5
546
100
AcDbEntity
  8
LAY-9
  6
CONTINUOUS
 62
     1
100
AcDbVertex
100
AcDb2dVertex
 10
566.272771
 20
255.191022
 30
0.0
  0
VERTEX
  5
547
100
AcDbEntity
  8
LAY-9
  6
CONTINUOUS
 62
     1
100
AcDbVertex
100
AcDb2dVertex
 10
565.868582
 20
254.308998
 30
0.0
  0
VERTEX
  5
548
100
AcDbEntity
  8
LAY-9
  6
CONTINUOUS
 62
     1
100
AcDbVertex
100
AcDb2dVertex
 10
565.416463
 20
253.456691
 30
0.0
  0
VERTEX
  5
549
100
AcDbEntity
  8
LAY-9
  6
CONTINUOUS
 62
     1
100
AcDbVertex
100
AcDb2dVertex
 10
564.92998
 20
252.626869
 30
0.0
  0
VERTEX
  5
54A
100
AcDbEntity
  8
LAY-9
  6
CONTINUOUS
 62
     1
100
AcDbVertex
100
AcDb2dVertex
 10
564.422699
 20
251.812301
 30
0.0
  0
VERTEX
  5
54B
100
AcDbEntity
  8
LAY-9
  6
CONTINUOUS
 62
     1
100
AcDbVertex
100
AcDb2dVertex
 10
563.908184
 20
251.005755
 30
0.0
  0
VERTEX
  5
54C
100
AcDbEntity
  8
LAY-9
  6
CONTINUOUS
 62
     1
100
AcDbVertex
100
AcDb2dVertex
 10
563.4
 20
250.2
 30
0.0
  0
VERTEX
  5
54D
100
AcDbEntity
  8
LAY-9
  6
CONTINUOUS
 62
     1
100
AcDbVertex
100
AcDb2dVertex
 10
562.892899
 20
249.357423
 30
0.0
  0
VERTEX
  5
54E
100
AcDbEntity
  8
LAY-9
  6
CONTINUOUS
 62
     1
100
AcDbVertex
100
AcDb2dVertex
 10
562.416311
 20
248.502229
 30
0.0
  0
VERTEX
  5
54F
100
AcDbEntity
  8
LAY-9
  6
CONTINUOUS
 62
     1
100
AcDbVertex
100
AcDb2dVertex
 10
561.979325
 20
247.628734
 30
0.0
  0
VERTEX
  5
550
100
AcDbEntity
  8
LAY-9
  6
CONTINUOUS
 62
     1
100
AcDbVertex
100
AcDb2dVertex
 10
561.591033
 20
246.731255
 30
0.0
  0
VERTEX
  5
551
100
AcDbEntity
  8
LAY-9
  6
CONTINUOUS
 62
     1
100
AcDbVertex
100
AcDb2dVertex
 10
561.260524
 20
245.80411
 30
0.0
  0
VERTEX
  5
552
100
AcDbEntity
  8
LAY-9
  6
CONTINUOUS
 62
     1
100
AcDbVertex
100
AcDb2dVertex
 10
560.99689
 20
244.841616
 30
0.0
  0
VERTEX
  5
553
100
AcDbEntity
  8
LAY-9
  6
CONTINUOUS
 62
     1
100
AcDbVertex
100
AcDb2dVertex
 10
560.809221
 20
243.838089
 30
0.0
  0
VERTEX
  5
554
100
AcDbEntity
  8
LAY-9
  6
CONTINUOUS
 62
     1
100
AcDbVertex
100
AcDb2dVertex
 10
560.706607
 20
242.787847
 30
0.0
  0
VERTEX
  5
555
100
AcDbEntity
  8
LAY-9
  6
CONTINUOUS
 62
     1
100
AcDbVertex
100
AcDb2dVertex
 10
560.698138
 20
241.685207
 30
0.0
  0
VERTEX
  5
556
100
AcDbEntity
  8
LAY-9
  6
CONTINUOUS
 62
     1
100
AcDbVertex
100
AcDb2dVertex
 10
560.792906
 20
240.524485
 30
0.0
  0
VERTEX
  5
557
100
AcDbEntity
  8
LAY-9
  6
CONTINUOUS
 62
     1
100
AcDbVertex
100
AcDb2dVertex
 10
561.0
 20
239.3
 30
0.0
  0
VERTEX
  5
558
100
AcDbEntity
  8
LAY-9
  6
CONTINUOUS
 62
     1
100
AcDbVertex
100
AcDb2dVertex
 10
561.265206
 20
238.216072
 30
0.0
  0
VERTEX
  5
559
100
AcDbEntity
  8
LAY-9
  6
CONTINUOUS
 62
     1
100
AcDbVertex
100
AcDb2dVertex
 10
561.597667
 20
237.109127
 30
0.0
  0
VERTEX
  5
55A
100
AcDbEntity
  8
LAY-9
  6
CONTINUOUS
 62
     1
100
AcDbVertex
100
AcDb2dVertex
 10
561.97789
 20
236.005767
 30
0.0
  0
VERTEX
  5
55B
100
AcDbEntity
  8
LAY-9
  6
CONTINUOUS
 62
     1
100
AcDbVertex
100
AcDb2dVertex
 10
562.386382
 20
234.932591
 30
0.0
  0
VERTEX
  5
55C
100
AcDbEntity
  8
LAY-9
  6
CONTINUOUS
 62
     1
100
AcDbVertex
100
AcDb2dVertex
 10
562.803652
 20
233.916202
 30
0.0
  0
VERTEX
  5
55D
100
AcDbEntity
  8
LAY-9
  6
CONTINUOUS
 62
     1
100
AcDbVertex
100
AcDb2dVertex
 10
563.210206
 20
232.983198
 30
0.0
  0
VERTEX
  5
55E
100
AcDbEntity
  8
LAY-9
  6
CONTINUOUS
 62
     1
100
AcDbVertex
100
AcDb2dVertex
 10
563.586551
 20
232.160182
 30
0.0
  0
VERTEX
  5
55F
100
AcDbEntity
  8
LAY-9
  6
CONTINUOUS
 62
     1
100
AcDbVertex
100
AcDb2dVertex
 10
563.913196
 20
231.473753
 30
0.0
  0
VERTEX
  5
560
100
AcDbEntity
  8
LAY-9
  6
CONTINUOUS
 62
     1
100
AcDbVertex
100
AcDb2dVertex
 10
564.170648
 20
230.950513
 30
0.0
  0
VERTEX
  5
561
100
AcDbEntity
  8
LAY-9
  6
CONTINUOUS
 62
     1
100
AcDbVertex
100
AcDb2dVertex
 10
564.339413
 20
230.617062
 30
0.0
  0
VERTEX
  5
562
100
AcDbEntity
  8
LAY-9
  6
CONTINUOUS
 62
     1
100
AcDbVertex
100
AcDb2dVertex
 10
564.4
 20
230.5
 30
0.0
  0
SEQEND
  5
563
100
AcDbEntity
  8
LAY-9
  6
CONTINUOUS
 62
     1
  0
POLYLINE
  5
564
100
AcDbEntity
  8
LAY-9
  6
CONTINUOUS
 62
     1
100
AcDb2dPolyline
 66
     1
 10
0.0
 20
0.0
 30
0.0
 70
   128
  0
VERTEX
  5
565
100
AcDbEntity
  8
LAY-9
  6
CONTINUOUS
 62
     1
100
AcDbVertex
100
AcDb2dVertex
 10
803.699672
 20
271.052063
 30
0.0
  0
VERTEX
  5
566
100
AcDbEntity
  8
LAY-9
  6
CONTINUOUS
 62
     1
100
AcDbVertex
100
AcDb2dVertex
 10
803.776995
 20
270.904244
 30
0.0
  0
VERTEX
  5
567
100
AcDbEntity
  8
LAY-9
  6
CONTINUOUS
 62
     1
100
AcDbVertex
100
AcDb2dVertex
 10
803.990265
 20
270.484372
 30
0.0
  0
VERTEX
  5
568
100
AcDbEntity
  8
LAY-9
  6
CONTINUOUS
 62
     1
100
AcDbVertex
100
AcDb2dVertex
 10
804.311437
 20
269.827821
 30
0.0
  0
VERTEX
  5
569
100
AcDbEntity
  8
LAY-9
  6
CONTINUOUS
 62
     1
100
AcDbVertex
100
AcDb2dVertex
 10
804.712464
 20
268.969967
 30
0.0
  0
VERTEX
  5
56A
100
AcDbEntity
  8
LAY-9
  6
CONTINUOUS
 62
     1
100
AcDbVertex
100
AcDb2dVertex
 10
805.165298
 20
267.946184
 30
0.0
  0
VERTEX
  5
56B
100
AcDbEntity
  8
LAY-9
  6
CONTINUOUS
 62
     1
100
AcDbVertex
100
AcDb2dVertex
 10
805.641895
 20
266.791848
 30
0.0
  0
VERTEX
  5
56C
100
AcDbEntity
  8
LAY-9
  6
CONTINUOUS
 62
     1
100
AcDbVertex
100
AcDb2dVertex
 10
806.114206
 20
265.542334
 30
0.0
  0
VERTEX
  5
56D
100
AcDbEntity
  8
LAY-9
  6
CONTINUOUS
 62
     1
100
AcDbVertex
100
AcDb2dVertex
 10
806.554186
 20
264.233017
 30
0.0
  0
VERTEX
  5
56E
100
AcDbEntity
  8
LAY-9
  6
CONTINUOUS
 62
     1
100
AcDbVertex
100
AcDb2dVertex
 10
806.933788
 20
262.899272
 30
0.0
  0
VERTEX
  5
56F
100
AcDbEntity
  8
LAY-9
  6
CONTINUOUS
 62
     1
100
AcDbVertex
100
AcDb2dVertex
 10
807.224966
 20
261.576475
 30
0.0
  0
VERTEX
  5
570
100
AcDbEntity
  8
LAY-9
  6
CONTINUOUS
 62
     1
100
AcDbVertex
100
AcDb2dVertex
 10
807.399672
 20
260.3
 30
0.0
  0
VERTEX
  5
571
100
AcDbEntity
  8
LAY-9
  6
CONTINUOUS
 62
     1
100
AcDbVertex
100
AcDb2dVertex
 10
807.438606
 20
259.160918
 30
0.0
  0
VERTEX
  5
572
100
AcDbEntity
  8
LAY-9
  6
CONTINUOUS
 62
     1
100
AcDbVertex
100
AcDb2dVertex
 10
807.361785
 20
258.087711
 30
0.0
  0
VERTEX
  5
573
100
AcDbEntity
  8
LAY-9
  6
CONTINUOUS
 62
     1
100
AcDbVertex
100
AcDb2dVertex
 10
807.182774
 20
257.073147
 30
0.0
  0
VERTEX
  5
574
100
AcDbEntity
  8
LAY-9
  6
CONTINUOUS
 62
     1
100
AcDbVertex
100
AcDb2dVertex
 10
806.915138
 20
256.109994
 30
0.0
  0
VERTEX
  5
575
100
AcDbEntity
  8
LAY-9
  6
CONTINUOUS
 62
     1
100
AcDbVertex
100
AcDb2dVertex
 10
806.572443
 20
255.191022
 30
0.0
  0
VERTEX
  5
576
100
AcDbEntity
  8
LAY-9
  6
CONTINUOUS
 62
     1
100
AcDbVertex
100
AcDb2dVertex
 10
806.168254
 20
254.308998
 30
0.0
  0
VERTEX
  5
577
100
AcDbEntity
  8
LAY-9
  6
CONTINUOUS
 62
     1
100
AcDbVertex
100
AcDb2dVertex
 10
805.716135
 20
253.456691
 30
0.0
  0
VERTEX
  5
578
100
AcDbEntity
  8
LAY-9
  6
CONTINUOUS
 62
     1
100
AcDbVertex
100
AcDb2dVertex
 10
805.229652
 20
252.626869
 30
0.0
  0
VERTEX
  5
579
100
AcDbEntity
  8
LAY-9
  6
CONTINUOUS
 62
     1
100
AcDbVertex
100
AcDb2dVertex
 10
804.722371
 20
251.812301
 30
0.0
  0
VERTEX
  5
57A
100
AcDbEntity
  8
LAY-9
  6
CONTINUOUS
 62
     1
100
AcDbVertex
100
AcDb2dVertex
 10
804.207856
 20
251.005755
 30
0.0
  0
VERTEX
  5
57B
100
AcDbEntity
  8
LAY-9
  6
CONTINUOUS
 62
     1
100
AcDbVertex
100
AcDb2dVertex
 10
803.699672
 20
250.2
 30
0.0
  0
VERTEX
  5
57C
100
AcDbEntity
  8
LAY-9
  6
CONTINUOUS
 62
     1
100
AcDbVertex
100
AcDb2dVertex
 10
803.192571
 20
249.357423
 30
0.0
  0
VERTEX
  5
57D
100
AcDbEntity
  8
LAY-9
  6
CONTINUOUS
 62
     1
100
AcDbVertex
100
AcDb2dVertex
 10
802.715983
 20
248.502229
 30
0.0
  0
VERTEX
  5
57E
100
AcDbEntity
  8
LAY-9
  6
CONTINUOUS
 62
     1
100
AcDbVertex
100
AcDb2dVertex
 10
802.278997
 20
247.628734
 30
0.0
  0
VERTEX
  5
57F
100
AcDbEntity
  8
LAY-9
  6
CONTINUOUS
 62
     1
100
AcDbVertex
100
AcDb2dVertex
 10
801.890705
 20
246.731255
 30
0.0
  0
VERTEX
  5
580
100
AcDbEntity
  8
LAY-9
  6
CONTINUOUS
 62
     1
100
AcDbVertex
100
AcDb2dVertex
 10
801.560196
 20
245.80411
 30
0.0
  0
VERTEX
  5
581
100
AcDbEntity
  8
LAY-9
  6
CONTINUOUS
 62
     1
100
AcDbVertex
100
AcDb2dVertex
 10
801.296562
 20
244.841616
 30
0.0
  0
VERTEX
  5
582
100
AcDbEntity
  8
LAY-9
  6
CONTINUOUS
 62
     1
100
AcDbVertex
100
AcDb2dVertex
 10
801.108893
 20
243.838089
 30
0.0
  0
VERTEX
  5
583
100
AcDbEntity
  8
LAY-9
  6
CONTINUOUS
 62
     1
100
AcDbVertex
100
AcDb2dVertex
 10
801.006279
 20
242.787847
 30
0.0
  0
VERTEX
  5
584
100
AcDbEntity
  8
LAY-9
  6
CONTINUOUS
 62
     1
100
AcDbVertex
100
AcDb2dVertex
 10
800.99781
 20
241.685207
 30
0.0
  0
VERTEX
  5
585
100
AcDbEntity
  8
LAY-9
  6
CONTINUOUS
 62
     1
100
AcDbVertex
100
AcDb2dVertex
 10
801.092578
 20
240.524485
 30
0.0
  0
VERTEX
  5
586
100
AcDbEntity
  8
LAY-9
  6
CONTINUOUS
 62
     1
100
AcDbVertex
100
AcDb2dVertex
 10
801.299672
 20
239.3
 30
0.0
  0
VERTEX
  5
587
100
AcDbEntity
  8
LAY-9
  6
CONTINUOUS
 62
     1
100
AcDbVertex
100
AcDb2dVertex
 10
801.564878
 20
238.216072
 30
0.0
  0
VERTEX
  5
588
100
AcDbEntity
  8
LAY-9
  6
CONTINUOUS
 62
     1
100
AcDbVertex
100
AcDb2dVertex
 10
801.897339
 20
237.109127
 30
0.0
  0
VERTEX
  5
589
100
AcDbEntity
  8
LAY-9
  6
CONTINUOUS
 62
     1
100
AcDbVertex
100
AcDb2dVertex
 10
802.277562
 20
236.005767
 30
0.0
  0
VERTEX
  5
58A
100
AcDbEntity
  8
LAY-9
  6
CONTINUOUS
 62
     1
100
AcDbVertex
100
AcDb2dVertex
 10
802.686054
 20
234.932591
 30
0.0
  0
VERTEX
  5
58B
100
AcDbEntity
  8
LAY-9
  6
CONTINUOUS
 62
     1
100
AcDbVertex
100
AcDb2dVertex
 10
803.103324
 20
233.916202
 30
0.0
  0
VERTEX
  5
58C
100
AcDbEntity
  8
LAY-9
  6
CONTINUOUS
 62
     1
100
AcDbVertex
100
AcDb2dVertex
 10
803.509878
 20
232.983198
 30
0.0
  0
VERTEX
  5
58D
100
AcDbEntity
  8
LAY-9
  6
CONTINUOUS
 62
     1
100
AcDbVertex
100
AcDb2dVertex
 10
803.886223
 20
232.160182
 30
0.0
  0
VERTEX
  5
58E
100
AcDbEntity
  8
LAY-9
  6
CONTINUOUS
 62
     1
100
AcDbVertex
100
AcDb2dVertex
 10
804.212868
 20
231.473753
 30
0.0
  0
VERTEX
  5
58F
100
AcDbEntity
  8
LAY-9
  6
CONTINUOUS
 62
     1
100
AcDbVertex
100
AcDb2dVertex
 10
804.47032
 20
230.950513
 30
0.0
  0
VERTEX
  5
590
100
AcDbEntity
  8
LAY-9
  6
CONTINUOUS
 62
     1
100
AcDbVertex
100
AcDb2dVertex
 10
804.639085
 20
230.617062
 30
0.0
  0
VERTEX
  5
591
100
AcDbEntity
  8
LAY-9
  6
CONTINUOUS
 62
     1
100
AcDbVertex
100
AcDb2dVertex
 10
804.699672
 20
230.5
 30
0.0
  0
SEQEND
  5
592
100
AcDbEntity
  8
LAY-9
  6
CONTINUOUS
 62
     1
  0
LINE
  5
593
100
AcDbEntity
  8
LAY-9
  6
CONTINUOUS
 62
     1
100
AcDbLine
 10
667.449836
 20
282.852063
 30
0.0
 11
667.449836
 21
305.552063
 31
0.0
  0
LINE
  5
594
100
AcDbEntity
  8
LAY-9
  6
CONTINUOUS
 62
     1
100
AcDbLine
 10
699.649836
 20
282.852063
 30
0.0
 11
699.649836
 21
305.552063
 31
0.0
  0
LINE
  5
595
100
AcDbEntity
  8
LAY-9
  6
CONTINUOUS
 62
     1
100
AcDbLine
 10
667.449836
 20
305.552063
 30
0.0
 11
699.649836
 21
305.552063
 31
0.0
  0
LINE
  5
596
100
AcDbEntity
  8
LAY-9
  6
CONTINUOUS
 62
     1
100
AcDbLine
 10
667.449836
 20
307.852063
 30
0.0
 11
699.649836
 21
307.852063
 31
0.0
  0
LINE
  5
597
100
AcDbEntity
  8
LAY-9
  6
CONTINUOUS
 62
     1
100
AcDbLine
 10
663.549836
 20
281.052063
 30
0.0
 11
665.149836
 21
281.052063
 31
0.0
  0
LINE
  5
598
100
AcDbEntity
  8
LAY-9
  6
CONTINUOUS
 62
     1
100
AcDbLine
 10
703.549836
 20
281.052063
 30
0.0
 11
701.949836
 21
281.052063
 31
0.0
  0
ARC
  5
599
100
AcDbEntity
  8
LAY-9
  6
CONTINUOUS
 62
     1
100
AcDbCircle
 10
667.449836
 20
305.552063
 30
0.0
 40
2.3
100
AcDbArc
 50
90.0
 51
180.0
  0
ARC
  5
59A
100
AcDbEntity
  8
LAY-9
  6
CONTINUOUS
 62
     1
100
AcDbCircle
 10
699.649836
 20
305.552063
 30
0.0
 40
2.3
100
AcDbArc
 50
0.0
 51
90.0
  0
LINE
  5
59B
100
AcDbEntity
  8
LAY-9
  6
CONTINUOUS
 62
     1
100
AcDbLine
 10
667.449836
 20
282.852063
 30
0.0
 11
665.149836
 21
282.852063
 31
0.0
  0
LINE
  5
59C
100
AcDbEntity
  8
LAY-9
  6
CONTINUOUS
 62
     1
100
AcDbLine
 10
701.949836
 20
282.852063
 30
0.0
 11
699.649836
 21
282.852063
 31
0.0
  0
LINE
  5
59D
100
AcDbEntity
  8
LAY-9
  6
DIVIDE
 62
     1
100
AcDbLine
 10
55.3
 20
432.1
 30
0.0
 11
107.6
 21
432.1
 31
0.0
  0
LINE
  5
59E
100
AcDbEntity
  8
LAY-9
  6
DIVIDE
 62
     1
100
AcDbLine
 10
55.3
 20
427.1
 30
0.0
 11
107.6
 21
427.1
 31
0.0
  0
LINE
  5
59F
100
AcDbEntity
  8
LAY-9
  6
CONTINUOUS
 62
     1
100
AcDbLine
 10
73.321344
 20
496.770972
 30
0.0
 11
73.321344
 21
432.1
 31
0.0
  0
LINE
  5
5A0
100
AcDbEntity
  8
LAY-9
  6
CONTINUOUS
 62
     1
100
AcDbLine
 10
73.321344
 20
427.1
 30
0.0
 11
73.321344
 21
331.052063
 31
0.0
  0
LINE
  5
5A1
100
AcDbEntity
  8
LAY-9
  6
CONTINUOUS
 62
     1
100
AcDbLine
 10
71.721344
 20
498.370972
 30
0.0
 11
71.721344
 21
432.1
 31
0.0
  0
LINE
  5
5A2
100
AcDbEntity
  8
LAY-9
  6
CONTINUOUS
 62
     1
100
AcDbLine
 10
71.721344
 20
427.1
 30
0.0
 11
71.721344
 21
331.052063
 31
0.0
  0
LINE
  5
5A3
100
AcDbEntity
  8
LAY-9
  6
CONTINUOUS
 62
     1
100
AcDbLine
 10
68.721344
 20
514.4
 30
0.0
 11
68.721344
 21
432.1
 31
0.0
  0
LINE
  5
5A4
100
AcDbEntity
  8
LAY-9
  6
CONTINUOUS
 62
     1
100
AcDbLine
 10
67.121344
 20
514.4
 30
0.0
 11
67.121344
 21
432.1
 31
0.0
  0
LINE
  5
5A5
100
AcDbEntity
  8
LAY-9
  6
CONTINUOUS
 62
     1
100
AcDbLine
 10
67.121344
 20
427.1
 30
0.0
 11
67.121344
 21
311.052063
 31
0.0
  0
POLYLINE
  5
5A6
100
AcDbEntity
  8
LAY-9
  6
CONTINUOUS
 62
     1
100
AcDb2dPolyline
 66
     1
 10
0.0
 20
0.0
 30
0.0
 70
   128
  0
VERTEX
  5
5A7
100
AcDbEntity
  8
LAY-9
  6
CONTINUOUS
 62
     1
100
AcDbVertex
100
AcDb2dVertex
 10
308.0
 20
501.370972
 30
0.0
  0
VERTEX
  5
5A8
100
AcDbEntity
  8
LAY-9
  6
CONTINUOUS
 62
     1
100
AcDbVertex
100
AcDb2dVertex
 10
308.024918
 20
501.443809
 30
0.0
  0
VERTEX
  5
5A9
100
AcDbEntity
  8
LAY-9
  6
CONTINUOUS
 62
     1
100
AcDbVertex
100
AcDb2dVertex
 10
308.093618
 20
501.649882
 30
0.0
  0
VERTEX
  5
5AA
100
AcDbEntity
  8
LAY-9
  6
CONTINUOUS
 62
     1
100
AcDbVertex
100
AcDb2dVertex
 10
308.197024
 20
501.970529
 30
0.0
  0
VERTEX
  5
5AB
100
AcDbEntity
  8
LAY-9
  6
CONTINUOUS
 62
     1
100
AcDbVertex
100
AcDb2dVertex
 10
308.326056
 20
502.387091
 30
0.0
  0
VERTEX
  5
5AC
100
AcDbEntity
  8
LAY-9
  6
CONTINUOUS
 62
     1
100
AcDbVertex
100
AcDb2dVertex
 10
308.471635
 20
502.880908
 30
0.0
  0
VERTEX
  5
5AD
100
AcDbEntity
  8
LAY-9
  6
CONTINUOUS
 62
     1
100
AcDbVertex
100
AcDb2dVertex
 10
308.624684
 20
503.43332
 30
0.0
  0
VERTEX
  5
5AE
100
AcDbEntity
  8
LAY-9
  6
CONTINUOUS
 62
     1
100
AcDbVertex
100
AcDb2dVertex
 10
308.776125
 20
504.025667
 30
0.0
  0
VERTEX
  5
5AF
100
AcDbEntity
  8
LAY-9
  6
CONTINUOUS
 62
     1
100
AcDbVertex
100
AcDb2dVertex
 10
308.916877
 20
504.639288
 30
0.0
  0
VERTEX
  5
5B0
100
AcDbEntity
  8
LAY-9
  6
CONTINUOUS
 62
     1
100
AcDbVertex
100
AcDb2dVertex
 10
309.037865
 20
505.255525
 30
0.0
  0
VERTEX
  5
5B1
100
AcDbEntity
  8
LAY-9
  6
CONTINUOUS
 62
     1
100
AcDbVertex
100
AcDb2dVertex
 10
309.130008
 20
505.855717
 30
0.0
  0
VERTEX
  5
5B2
100
AcDbEntity
  8
LAY-9
  6
CONTINUOUS
 62
     1
100
AcDbVertex
100
AcDb2dVertex
 10
309.184228
 20
506.421204
 30
0.0
  0
VERTEX
  5
5B3
100
AcDbEntity
  8
LAY-9
  6
CONTINUOUS
 62
     1
100
AcDbVertex
100
AcDb2dVertex
 10
309.194679
 20
506.896832
 30
0.0
  0
VERTEX
  5
5B4
100
AcDbEntity
  8
LAY-9
  6
CONTINUOUS
 62
     1
100
AcDbVertex
100
AcDb2dVertex
 10
309.169545
 20
507.33597
 30
0.0
  0
VERTEX
  5
5B5
100
AcDbEntity
  8
LAY-9
  6
CONTINUOUS
 62
     1
100
AcDbVertex
100
AcDb2dVertex
 10
309.112718
 20
507.746953
 30
0.0
  0
VERTEX
  5
5B6
100
AcDbEntity
  8
LAY-9
  6
CONTINUOUS
 62
     1
100
AcDbVertex
100
AcDb2dVertex
 10
309.02809
 20
508.138113
 30
0.0
  0
VERTEX
  5
5B7
100
AcDbEntity
  8
LAY-9
  6
CONTINUOUS
 62
     1
100
AcDbVertex
100
AcDb2dVertex
 10
308.919555
 20
508.517784
 30
0.0
  0
VERTEX
  5
5B8
100
AcDbEntity
  8
LAY-9
  6
CONTINUOUS
 62
     1
100
AcDbVertex
100
AcDb2dVertex
 10
308.791003
 20
508.894299
 30
0.0
  0
VERTEX
  5
5B9
100
AcDbEntity
  8
LAY-9
  6
CONTINUOUS
 62
     1
100
AcDbVertex
100
AcDb2dVertex
 10
308.646327
 20
509.275992
 30
0.0
  0
VERTEX
  5
5BA
100
AcDbEntity
  8
LAY-9
  6
CONTINUOUS
 62
     1
100
AcDbVertex
100
AcDb2dVertex
 10
308.489419
 20
509.671196
 30
0.0
  0
VERTEX
  5
5BB
100
AcDbEntity
  8
LAY-9
  6
CONTINUOUS
 62
     1
100
AcDbVertex
100
AcDb2dVertex
 10
308.324172
 20
510.088243
 30
0.0
  0
VERTEX
  5
5BC
100
AcDbEntity
  8
LAY-9
  6
CONTINUOUS
 62
     1
100
AcDbVertex
100
AcDb2dVertex
 10
308.154478
 20
510.535468
 30
0.0
  0
VERTEX
  5
5BD
100
AcDbEntity
  8
LAY-9
  6
CONTINUOUS
 62
     1
100
AcDbVertex
100
AcDb2dVertex
 10
307.984228
 20
511.021204
 30
0.0
  0
VERTEX
  5
5BE
100
AcDbEntity
  8
LAY-9
  6
CONTINUOUS
 62
     1
100
AcDbVertex
100
AcDb2dVertex
 10
307.82803
 20
511.51315
 30
0.0
  0
VERTEX
  5
5BF
100
AcDbEntity
  8
LAY-9
  6
CONTINUOUS
 62
     1
100
AcDbVertex
100
AcDb2dVertex
 10
307.676824
 20
512.030669
 30
0.0
  0
VERTEX
  5
5C0
100
AcDbEntity
  8
LAY-9
  6
CONTINUOUS
 62
     1
100
AcDbVertex
100
AcDb2dVertex
 10
307.532692
 20
512.5585
 30
0.0
  0
VERTEX
  5
5C1
100
AcDbEntity
  8
LAY-9
  6
CONTINUOUS
 62
     1
100
AcDbVertex
100
AcDb2dVertex
 10
307.397717
 20
513.081385
 30
0.0
  0
VERTEX
  5
5C2
100
AcDbEntity
  8
LAY-9
  6
CONTINUOUS
 62
     1
100
AcDbVertex
100
AcDb2dVertex
 10
307.273981
 20
513.584062
 30
0.0
  0
VERTEX
  5
5C3
100
AcDbEntity
  8
LAY-9
  6
CONTINUOUS
 62
     1
100
AcDbVertex
100
AcDb2dVertex
 10
307.163568
 20
514.051272
 30
0.0
  0
VERTEX
  5
5C4
100
AcDbEntity
  8
LAY-9
  6
CONTINUOUS
 62
     1
100
AcDbVertex
100
AcDb2dVertex
 10
307.068559
 20
514.467754
 30
0.0
  0
VERTEX
  5
5C5
100
AcDbEntity
  8
LAY-9
  6
CONTINUOUS
 62
     1
100
AcDbVertex
100
AcDb2dVertex
 10
306.991038
 20
514.818248
 30
0.0
  0
VERTEX
  5
5C6
100
AcDbEntity
  8
LAY-9
  6
CONTINUOUS
 62
     1
100
AcDbVertex
100
AcDb2dVertex
 10
306.933088
 20
515.087495
 30
0.0
  0
VERTEX
  5
5C7
100
AcDbEntity
  8
LAY-9
  6
CONTINUOUS
 62
     1
100
AcDbVertex
100
AcDb2dVertex
 10
306.89679
 20
515.260233
 30
0.0
  0
VERTEX
  5
5C8
100
AcDbEntity
  8
LAY-9
  6
CONTINUOUS
 62
     1
100
AcDbVertex
100
AcDb2dVertex
 10
306.884228
 20
515.321204
 30
0.0
  0
SEQEND
  5
5C9
100
AcDbEntity
  8
LAY-9
  6
CONTINUOUS
 62
     1
  0
POLYLINE
  5
5CA
100
AcDbEntity
  8
LAY-9
  6
CONTINUOUS
 62
     1
100
AcDb2dPolyline
 66
     1
 10
0.0
 20
0.0
 30
0.0
 70
   128
  0
VERTEX
  5
5CB
100
AcDbEntity
  8
LAY-9
  6
CONTINUOUS
 62
     1
100
AcDbVertex
100
AcDb2dVertex
 10
307.0
 20
498.370972
 30
0.0
  0
VERTEX
  5
5CC
100
AcDbEntity
  8
LAY-9
  6
CONTINUOUS
 62
     1
100
AcDbVertex
100
AcDb2dVertex
 10
306.980961
 20
498.289281
 30
0.0
  0
VERTEX
  5
5CD
100
AcDbEntity
  8
LAY-9
  6
CONTINUOUS
 62
     1
100
AcDbVertex
100
AcDb2dVertex
 10
306.928103
 20
498.058208
 30
0.0
  0
VERTEX
  5
5CE
100
AcDbEntity
  8
LAY-9
  6
CONTINUOUS
 62
     1
100
AcDbVertex
100
AcDb2dVertex
 10
306.847811
 20
497.698751
 30
0.0
  0
VERTEX
  5
5CF
100
AcDbEntity
  8
LAY-9
  6
CONTINUOUS
 62
     1
100
AcDbVertex
100
AcDb2dVertex
 10
306.746473
 20
497.231911
 30
0.0
  0
VERTEX
  5
5D0
100
AcDbEntity
  8
LAY-9
  6
CONTINUOUS
 62
     1
100
AcDbVertex
100
AcDb2dVertex
 10
306.630473
 20
496.678685
 30
0.0
  0
VERTEX
  5
5D1
100
AcDbEntity
  8
LAY-9
  6
CONTINUOUS
 62
     1
100
AcDbVertex
100
AcDb2dVertex
 10
306.506199
 20
496.060074
 30
0.0
  0
VERTEX
  5
5D2
100
AcDbEntity
  8
LAY-9
  6
CONTINUOUS
 62
     1
100
AcDbVertex
100
AcDb2dVertex
 10
306.380036
 20
495.397077
 30
0.0
  0
VERTEX
  5
5D3
100
AcDbEntity
  8
LAY-9
  6
CONTINUOUS
 62
     1
100
AcDbVertex
100
AcDb2dVertex
 10
306.258372
 20
494.710692
 30
0.0
  0
VERTEX
  5
5D4
100
AcDbEntity
  8
LAY-9
  6
CONTINUOUS
 62
     1
100
AcDbVertex
100
AcDb2dVertex
 10
306.147591
 20
494.021919
 30
0.0
  0
VERTEX
  5
5D5
100
AcDbEntity
  8
LAY-9
  6
CONTINUOUS
 62
     1
100
AcDbVertex
100
AcDb2dVertex
 10
306.054081
 20
493.351756
 30
0.0
  0
VERTEX
  5
5D6
100
AcDbEntity
  8
LAY-9
  6
CONTINUOUS
 62
     1
100
AcDbVertex
100
AcDb2dVertex
 10
305.984228
 20
492.721204
 30
0.0
  0
VERTEX
  5
5D7
100
AcDbEntity
  8
LAY-9
  6
CONTINUOUS
 62
     1
100
AcDbVertex
100
AcDb2dVertex
 10
305.949955
 20
492.269773
 30
0.0
  0
VERTEX
  5
5D8
100
AcDbEntity
  8
LAY-9
  6
CONTINUOUS
 62
     1
100
AcDbVertex
100
AcDb2dVertex
 10
305.934152
 20
491.848296
 30
0.0
  0
VERTEX
  5
5D9
100
AcDbEntity
  8
LAY-9
  6
CONTINUOUS
 62
     1
100
AcDbVertex
100
AcDb2dVertex
 10
305.937188
 20
491.450218
 30
0.0
  0
VERTEX
  5
5DA
100
AcDbEntity
  8
LAY-9
  6
CONTINUOUS
 62
     1
100
AcDbVertex
100
AcDb2dVertex
 10
305.959435
 20
491.068982
 30
0.0
  0
VERTEX
  5
5DB
100
AcDbEntity
  8
LAY-9
  6
CONTINUOUS
 62
     1
100
AcDbVertex
100
AcDb2dVertex
 10
306.001263
 20
490.698033
 30
0.0
  0
VERTEX
  5
5DC
100
AcDbEntity
  8
LAY-9
  6
CONTINUOUS
 62
     1
100
AcDbVertex
100
AcDb2dVertex
 10
306.063045
 20
490.330814
 30
0.0
  0
VERTEX
  5
5DD
100
AcDbEntity
  8
LAY-9
  6
CONTINUOUS
 62
     1
100
AcDbVertex
100
AcDb2dVertex
 10
306.14515
 20
489.960768
 30
0.0
  0
VERTEX
  5
5DE
100
AcDbEntity
  8
LAY-9
  6
CONTINUOUS
 62
     1
100
AcDbVertex
100
AcDb2dVertex
 10
306.24795
 20
489.581341
 30
0.0
  0
VERTEX
  5
5DF
100
AcDbEntity
  8
LAY-9
  6
CONTINUOUS
 62
     1
100
AcDbVertex
100
AcDb2dVertex
 10
306.371816
 20
489.185975
 30
0.0
  0
VERTEX
  5
5E0
100
AcDbEntity
  8
LAY-9
  6
CONTINUOUS
 62
     1
100
AcDbVertex
100
AcDb2dVertex
 10
306.517118
 20
488.768115
 30
0.0
  0
VERTEX
  5
5E1
100
AcDbEntity
  8
LAY-9
  6
CONTINUOUS
 62
     1
100
AcDbVertex
100
AcDb2dVertex
 10
306.684228
 20
488.321204
 30
0.0
  0
VERTEX
  5
5E2
100
AcDbEntity
  8
LAY-9
  6
CONTINUOUS
 62
     1
100
AcDbVertex
100
AcDb2dVertex
 10
306.867439
 20
487.854263
 30
0.0
  0
VERTEX
  5
5E3
100
AcDbEntity
  8
LAY-9
  6
CONTINUOUS
 62
     1
100
AcDbVertex
100
AcDb2dVertex
 10
307.065047
 20
487.367073
 30
0.0
  0
VERTEX
  5
5E4
100
AcDbEntity
  8
LAY-9
  6
CONTINUOUS
 62
     1
100
AcDbVertex
100
AcDb2dVertex
 10
307.270341
 20
486.873272
 30
0.0
  0
VERTEX
  5
5E5
100
AcDbEntity
  8
LAY-9
  6
CONTINUOUS
 62
     1
100
AcDbVertex
100
AcDb2dVertex
 10
307.476611
 20
486.386495
 30
0.0
  0
VERTEX
  5
5E6
100
AcDbEntity
  8
LAY-9
  6
CONTINUOUS
 62
     1
100
AcDbVertex
100
AcDb2dVertex
 10
307.677149
 20
485.920379
 30
0.0
  0
VERTEX
  5
5E7
100
AcDbEntity
  8
LAY-9
  6
CONTINUOUS
 62
     1
100
AcDbVertex
100
AcDb2dVertex
 10
307.865243
 20
485.488561
 30
0.0
  0
VERTEX
  5
5E8
100
AcDbEntity
  8
LAY-9
  6
CONTINUOUS
 62
     1
100
AcDbVertex
100
AcDb2dVertex
 10
308.034185
 20
485.104676
 30
0.0
  0
VERTEX
  5
5E9
100
AcDbEntity
  8
LAY-9
  6
CONTINUOUS
 62
     1
100
AcDbVertex
100
AcDb2dVertex
 10
308.177264
 20
484.782362
 30
0.0
  0
VERTEX
  5
5EA
100
AcDbEntity
  8
LAY-9
  6
CONTINUOUS
 62
     1
100
AcDbVertex
100
AcDb2dVertex
 10
308.287771
 20
484.535254
 30
0.0
  0
VERTEX
  5
5EB
100
AcDbEntity
  8
LAY-9
  6
CONTINUOUS
 62
     1
100
AcDbVertex
100
AcDb2dVertex
 10
308.358995
 20
484.376989
 30
0.0
  0
VERTEX
  5
5EC
100
AcDbEntity
  8
LAY-9
  6
CONTINUOUS
 62
     1
100
AcDbVertex
100
AcDb2dVertex
 10
308.384228
 20
484.321204
 30
0.0
  0
SEQEND
  5
5ED
100
AcDbEntity
  8
LAY-9
  6
CONTINUOUS
 62
     1
  0
LINE
  5
5EE
100
AcDbEntity
  8
LAY-9
  6
CONTINUOUS
 62
     1
100
AcDbLine
 10
97.721313
 20
507.370972
 30
0.0
 11
97.721313
 21
511.870972
 31
0.0
  0
LINE
  5
5EF
100
AcDbEntity
  8
LAY-9
  6
CONTINUOUS
 62
     1
100
AcDbLine
 10
97.721313
 20
511.870972
 30
0.0
 11
117.721313
 21
511.870972
 31
0.0
  0
LINE
  5
5F0
100
AcDbEntity
  8
LAY-9
  6
CONTINUOUS
 62
     1
100
AcDbLine
 10
117.721313
 20
511.870972
 30
0.0
 11
117.721313
 21
507.370972
 31
0.0
  0
LINE
  5
5F1
100
AcDbEntity
  8
LAY-9
  6
CONTINUOUS
 62
     1
100
AcDbLine
 10
266.721344
 20
507.370972
 30
0.0
 11
266.721344
 21
511.870972
 31
0.0
  0
LINE
  5
5F2
100
AcDbEntity
  8
LAY-9
  6
CONTINUOUS
 62
     1
100
AcDbLine
 10
266.721344
 20
511.870972
 30
0.0
 11
247.721344
 21
511.870972
 31
0.0
  0
LINE
  5
5F3
100
AcDbEntity
  8
LAY-9
  6
CONTINUOUS
 62
     1
100
AcDbLine
 10
247.721344
 20
511.870972
 30
0.0
 11
247.721344
 21
507.370972
 31
0.0
  0
LINE
  5
5F4
100
AcDbEntity
  8
LAY-9
  6
CONTINUOUS
 62
     1
100
AcDbLine
 10
266.721344
 20
492.370972
 30
0.0
 11
266.721344
 21
487.870972
 31
0.0
  0
LINE
  5
5F5
100
AcDbEntity
  8
LAY-9
  6
CONTINUOUS
 62
     1
100
AcDbLine
 10
266.721344
 20
487.870972
 30
0.0
 11
151.721344
 21
487.870972
 31
0.0
  0
LINE
  5
5F6
100
AcDbEntity
  8
LAY-9
  6
CONTINUOUS
 62
     1
100
AcDbLine
 10
151.721344
 20
487.870972
 30
0.0
 11
151.721344
 21
492.370972
 31
0.0
  0
POLYLINE
  5
5F7
100
AcDbEntity
  8
LAY-9
  6
CONTINUOUS
 62
     1
100
AcDb2dPolyline
 66
     1
 10
0.0
 20
0.0
 30
0.0
 70
   128
  0
VERTEX
  5
5F8
100
AcDbEntity
  8
LAY-9
  6
CONTINUOUS
 62
     1
100
AcDbVertex
100
AcDb2dVertex
 10
465.7
 20
321.052063
 30
0.0
  0
VERTEX
  5
5F9
100
AcDbEntity
  8
LAY-9
  6
CONTINUOUS
 62
     1
100
AcDbVertex
100
AcDb2dVertex
 10
465.742904
 20
320.947917
 30
0.0
  0
VERTEX
  5
5FA
100
AcDbEntity
  8
LAY-9
  6
CONTINUOUS
 62
     1
100
AcDbVertex
100
AcDb2dVertex
 10
465.861066
 20
320.653165
 30
0.0
  0
VERTEX
  5
5FB
100
AcDbEntity
  8
LAY-9
  6
CONTINUOUS
 62
     1
100
AcDbVertex
100
AcDb2dVertex
 10
466.038662
 20
320.194333
 30
0.0
  0
VERTEX
  5
5FC
100
AcDbEntity
  8
LAY-9
  6
CONTINUOUS
 62
     1
100
AcDbVertex
100
AcDb2dVertex
 10
466.259865
 20
319.597948
 30
0.0
  0
VERTEX
  5
5FD
100
AcDbEntity
  8
LAY-9
  6
CONTINUOUS
 62
     1
100
AcDbVertex
100
AcDb2dVertex
 10
466.508851
 20
318.890536
 30
0.0
  0
VERTEX
  5
5FE
100
AcDbEntity
  8
LAY-9
  6
CONTINUOUS
 62
     1
100
AcDbVertex
100
AcDb2dVertex
 10
466.769795
 20
318.098624
 30
0.0
  0
VERTEX
  5
5FF
100
AcDbEntity
  8
LAY-9
  6
CONTINUOUS
 62
     1
100
AcDbVertex
100
AcDb2dVertex
 10
467.026871
 20
317.248739
 30
0.0
  0
VERTEX
  5
600
100
AcDbEntity
  8
LAY-9
  6
CONTINUOUS
 62
     1
100
AcDbVertex
100
AcDb2dVertex
 10
467.264255
 20
316.367407
 30
0.0
  0
VERTEX
  5
601
100
AcDbEntity
  8
LAY-9
  6
CONTINUOUS
 62
     1
100
AcDbVertex
100
AcDb2dVertex
 10
467.466121
 20
315.481155
 30
0.0
  0
VERTEX
  5
602
100
AcDbEntity
  8
LAY-9
  6
CONTINUOUS
 62
     1
100
AcDbVertex
100
AcDb2dVertex
 10
467.616644
 20
314.616511
 30
0.0
  0
VERTEX
  5
603
100
AcDbEntity
  8
LAY-9
  6
CONTINUOUS
 62
     1
100
AcDbVertex
100
AcDb2dVertex
 10
467.7
 20
313.8
 30
0.0
  0
VERTEX
  5
604
100
AcDbEntity
  8
LAY-9
  6
CONTINUOUS
 62
     1
100
AcDbVertex
100
AcDb2dVertex
 10
467.706927
 20
313.097909
 30
0.0
  0
VERTEX
  5
605
100
AcDbEntity
  8
LAY-9
  6
CONTINUOUS
 62
     1
100
AcDbVertex
100
AcDb2dVertex
 10
467.650905
 20
312.448972
 30
0.0
  0
VERTEX
  5
606
100
AcDbEntity
  8
LAY-9
  6
CONTINUOUS
 62
     1
100
AcDbVertex
100
AcDb2dVertex
 10
467.541545
 20
311.841064
 30
0.0
  0
VERTEX
  5
607
100
AcDbEntity
  8
LAY-9
  6
CONTINUOUS
 62
     1
100
AcDbVertex
100
AcDb2dVertex
 10
467.388459
 20
311.262062
 30
0.0
  0
VERTEX
  5
608
100
AcDbEntity
  8
LAY-9
  6
CONTINUOUS
 62
     1
100
AcDbVertex
100
AcDb2dVertex
 10
467.201261
 20
310.699842
 30
0.0
  0
VERTEX
  5
609
100
AcDbEntity
  8
LAY-9
  6
CONTINUOUS
 62
     1
100
AcDbVertex
100
AcDb2dVertex
 10
466.989562
 20
310.142279
 30
0.0
  0
VERTEX
  5
60A
100
AcDbEntity
  8
LAY-9
  6
CONTINUOUS
 62
     1
100
AcDbVertex
100
AcDb2dVertex
 10
466.762976
 20
309.57725
 30
0.0
  0
VERTEX
  5
60B
100
AcDbEntity
  8
LAY-9
  6
CONTINUOUS
 62
     1
100
AcDbVertex
100
AcDb2dVertex
 10
466.531114
 20
308.992632
 30
0.0
  0
VERTEX
  5
60C
100
AcDbEntity
  8
LAY-9
  6
CONTINUOUS
 62
     1
100
AcDbVertex
100
AcDb2dVertex
 10
466.303589
 20
308.3763
 30
0.0
  0
VERTEX
  5
60D
100
AcDbEntity
  8
LAY-9
  6
CONTINUOUS
 62
     1
100
AcDbVertex
100
AcDb2dVertex
 10
466.090013
 20
307.716131
 30
0.0
  0
VERTEX
  5
60E
100
AcDbEntity
  8
LAY-9
  6
CONTINUOUS
 62
     1
100
AcDbVertex
100
AcDb2dVertex
 10
465.9
 20
307.0
 30
0.0
  0
VERTEX
  5
60F
100
AcDbEntity
  8
LAY-9
  6
CONTINUOUS
 62
     1
100
AcDbVertex
100
AcDb2dVertex
 10
465.725152
 20
306.130685
 30
0.0
  0
VERTEX
  5
610
100
AcDbEntity
  8
LAY-9
  6
CONTINUOUS
 62
     1
100
AcDbVertex
100
AcDb2dVertex
 10
465.587094
 20
305.206222
 30
0.0
  0
VERTEX
  5
611
100
AcDbEntity
  8
LAY-9
  6
CONTINUOUS
 62
     1
100
AcDbVertex
100
AcDb2dVertex
 10
465.481582
 20
304.255675
 30
0.0
  0
VERTEX
  5
612
100
AcDbEntity
  8
LAY-9
  6
CONTINUOUS
 62
     1
100
AcDbVertex
100
AcDb2dVertex
 10
465.404373
 20
303.308109
 30
0.0
  0
VERTEX
  5
613
100
AcDbEntity
  8
LAY-9
  6
CONTINUOUS
 62
     1
100
AcDbVertex
100
AcDb2dVertex
 10
465.351225
 20
302.392588
 30
0.0
  0
VERTEX
  5
614
100
AcDbEntity
  8
LAY-9
  6
CONTINUOUS
 62
     1
100
AcDbVertex
100
AcDb2dVertex
 10
465.317894
 20
301.538176
 30
0.0
  0
VERTEX
  5
615
100
AcDbEntity
  8
LAY-9
  6
CONTINUOUS
 62
     1
100
AcDbVertex
100
AcDb2dVertex
 10
465.300137
 20
300.773937
 30
0.0
  0
VERTEX
  5
616
100
AcDbEntity
  8
LAY-9
  6
CONTINUOUS
 62
     1
100
AcDbVertex
100
AcDb2dVertex
 10
465.293713
 20
300.128936
 30
0.0
  0
VERTEX
  5
617
100
AcDbEntity
  8
LAY-9
  6
CONTINUOUS
 62
     1
100
AcDbVertex
100
AcDb2dVertex
 10
465.294377
 20
299.632237
 30
0.0
  0
VERTEX
  5
618
100
AcDbEntity
  8
LAY-9
  6
CONTINUOUS
 62
     1
100
AcDbVertex
100
AcDb2dVertex
 10
465.297887
 20
299.312903
 30
0.0
  0
VERTEX
  5
619
100
AcDbEntity
  8
LAY-9
  6
CONTINUOUS
 62
     1
100
AcDbVertex
100
AcDb2dVertex
 10
465.3
 20
299.2
 30
0.0
  0
SEQEND
  5
61A
100
AcDbEntity
  8
LAY-9
  6
CONTINUOUS
 62
     1
  0
POLYLINE
  5
61B
100
AcDbEntity
  8
LAY-9
  6
CONTINUOUS
 62
     1
100
AcDb2dPolyline
 66
     1
 10
0.0
 20
0.0
 30
0.0
 70
   128
  0
VERTEX
  5
61C
100
AcDbEntity
  8
LAY-9
  6
CONTINUOUS
 62
     1
100
AcDbVertex
100
AcDb2dVertex
 10
462.7
 20
331.052063
 30
0.0
  0
VERTEX
  5
61D
100
AcDbEntity
  8
LAY-9
  6
CONTINUOUS
 62
     1
100
AcDbVertex
100
AcDb2dVertex
 10
462.664045
 20
331.184222
 30
0.0
  0
VERTEX
  5
61E
100
AcDbEntity
  8
LAY-9
  6
CONTINUOUS
 62
     1
100
AcDbVertex
100
AcDb2dVertex
 10
462.564281
 20
331.560061
 30
0.0
  0
VERTEX
  5
61F
100
AcDbEntity
  8
LAY-9
  6
CONTINUOUS
 62
     1
100
AcDbVertex
100
AcDb2dVertex
 10
462.412859
 20
332.14862
 30
0.0
  0
VERTEX
  5
620
100
AcDbEntity
  8
LAY-9
  6
CONTINUOUS
 62
     1
100
AcDbVertex
100
AcDb2dVertex
 10
462.221931
 20
332.918942
 30
0.0
  0
VERTEX
  5
621
100
AcDbEntity
  8
LAY-9
  6
CONTINUOUS
 62
     1
100
AcDbVertex
100
AcDb2dVertex
 10
462.003649
 20
333.840066
 30
0.0
  0
VERTEX
  5
622
100
AcDbEntity
  8
LAY-9
  6
CONTINUOUS
 62
     1
100
AcDbVertex
100
AcDb2dVertex
 10
461.770164
 20
334.881036
 30
0.0
  0
VERTEX
  5
623
100
AcDbEntity
  8
LAY-9
  6
CONTINUOUS
 62
     1
100
AcDbVertex
100
AcDb2dVertex
 10
461.533627
 20
336.010891
 30
0.0
  0
VERTEX
  5
624
100
AcDbEntity
  8
LAY-9
  6
CONTINUOUS
 62
     1
100
AcDbVertex
100
AcDb2dVertex
 10
461.306191
 20
337.198674
 30
0.0
  0
VERTEX
  5
625
100
AcDbEntity
  8
LAY-9
  6
CONTINUOUS
 62
     1
100
AcDbVertex
100
AcDb2dVertex
 10
461.100007
 20
338.413426
 30
0.0
  0
VERTEX
  5
626
100
AcDbEntity
  8
LAY-9
  6
CONTINUOUS
 62
     1
100
AcDbVertex
100
AcDb2dVertex
 10
460.927226
 20
339.624187
 30
0.0
  0
VERTEX
  5
627
100
AcDbEntity
  8
LAY-9
  6
CONTINUOUS
 62
     1
100
AcDbVertex
100
AcDb2dVertex
 10
460.8
 20
340.8
 30
0.0
  0
VERTEX
  5
628
100
AcDbEntity
  8
LAY-9
  6
CONTINUOUS
 62
     1
100
AcDbVertex
100
AcDb2dVertex
 10
460.728821
 20
341.892433
 30
0.0
  0
VERTEX
  5
629
100
AcDbEntity
  8
LAY-9
  6
CONTINUOUS
 62
     1
100
AcDbVertex
100
AcDb2dVertex
 10
460.709446
 20
342.926566
 30
0.0
  0
VERTEX
  5
62A
100
AcDbEntity
  8
LAY-9
  6
CONTINUOUS
 62
     1
100
AcDbVertex
100
AcDb2dVertex
 10
460.738443
 20
343.907185
 30
0.0
  0
VERTEX
  5
62B
100
AcDbEntity
  8
LAY-9
  6
CONTINUOUS
 62
     1
100
AcDbVertex
100
AcDb2dVertex
 10
460.812381
 20
344.839077
 30
0.0
  0
VERTEX
  5
62C
100
AcDbEntity
  8
LAY-9
  6
CONTINUOUS
 62
     1
100
AcDbVertex
100
AcDb2dVertex
 10
460.927828
 20
345.727028
 30
0.0
  0
VERTEX
  5
62D
100
AcDbEntity
  8
LAY-9
  6
CONTINUOUS
 62
     1
100
AcDbVertex
100
AcDb2dVertex
 10
461.081351
 20
346.575824
 30
0.0
  0
VERTEX
  5
62E
100
AcDbEntity
  8
LAY-9
  6
CONTINUOUS
 62
     1
100
AcDbVertex
100
AcDb2dVertex
 10
461.269519
 20
347.390252
 30
0.0
  0
VERTEX
  5
62F
100
AcDbEntity
  8
LAY-9
  6
CONTINUOUS
 62
     1
100
AcDbVertex
100
AcDb2dVertex
 10
461.4889
 20
348.175097
 30
0.0
  0
VERTEX
  5
630
100
AcDbEntity
  8
LAY-9
  6
CONTINUOUS
 62
     1
100
AcDbVertex
100
AcDb2dVertex
 10
461.736061
 20
348.935146
 30
0.0
  0
VERTEX
  5
631
100
AcDbEntity
  8
LAY-9
  6
CONTINUOUS
 62
     1
100
AcDbVertex
100
AcDb2dVertex
 10
462.007572
 20
349.675185
 30
0.0
  0
VERTEX
  5
632
100
AcDbEntity
  8
LAY-9
  6
CONTINUOUS
 62
     1
100
AcDbVertex
100
AcDb2dVertex
 10
462.3
 20
350.4
 30
0.0
  0
VERTEX
  5
633
100
AcDbEntity
  8
LAY-9
  6
CONTINUOUS
 62
     1
100
AcDbVertex
100
AcDb2dVertex
 10
462.599105
 20
351.092844
 30
0.0
  0
VERTEX
  5
634
100
AcDbEntity
  8
LAY-9
  6
CONTINUOUS
 62
     1
100
AcDbVertex
100
AcDb2dVertex
 10
462.906466
 20
351.785066
 30
0.0
  0
VERTEX
  5
635
100
AcDbEntity
  8
LAY-9
  6
CONTINUOUS
 62
     1
100
AcDbVertex
100
AcDb2dVertex
 10
463.213937
 20
352.485835
 30
0.0
  0
VERTEX
  5
636
100
AcDbEntity
  8
LAY-9
  6
CONTINUOUS
 62
     1
100
AcDbVertex
100
AcDb2dVertex
 10
463.51337
 20
353.20432
 30
0.0
  0
VERTEX
  5
637
100
AcDbEntity
  8
LAY-9
  6
CONTINUOUS
 62
     1
100
AcDbVertex
100
AcDb2dVertex
 10
463.796619
 20
353.94969
 30
0.0
  0
VERTEX
  5
638
100
AcDbEntity
  8
LAY-9
  6
CONTINUOUS
 62
     1
100
AcDbVertex
100
AcDb2dVertex
 10
464.055536
 20
354.731116
 30
0.0
  0
VERTEX
  5
639
100
AcDbEntity
  8
LAY-9
  6
CONTINUOUS
 62
     1
100
AcDbVertex
100
AcDb2dVertex
 10
464.281974
 20
355.557766
 30
0.0
  0
VERTEX
  5
63A
100
AcDbEntity
  8
LAY-9
  6
CONTINUOUS
 62
     1
100
AcDbVertex
100
AcDb2dVertex
 10
464.467787
 20
356.43881
 30
0.0
  0
VERTEX
  5
63B
100
AcDbEntity
  8
LAY-9
  6
CONTINUOUS
 62
     1
100
AcDbVertex
100
AcDb2dVertex
 10
464.604827
 20
357.383418
 30
0.0
  0
VERTEX
  5
63C
100
AcDbEntity
  8
LAY-9
  6
CONTINUOUS
 62
     1
100
AcDbVertex
100
AcDb2dVertex
 10
464.684947
 20
358.400758
 30
0.0
  0
VERTEX
  5
63D
100
AcDbEntity
  8
LAY-9
  6
CONTINUOUS
 62
     1
100
AcDbVertex
100
AcDb2dVertex
 10
464.7
 20
359.5
 30
0.0
  0
VERTEX
  5
63E
100
AcDbEntity
  8
LAY-9
  6
CONTINUOUS
 62
     1
100
AcDbVertex
100
AcDb2dVertex
 10
464.679443
 20
360.120933
 30
0.0
  0
VERTEX
  5
63F
100
AcDbEntity
  8
LAY-9
  6
CONTINUOUS
 62
     1
100
AcDbVertex
100
AcDb2dVertex
 10
464.641987
 20
360.753019
 30
0.0
  0
VERTEX
  5
640
100
AcDbEntity
  8
LAY-9
  6
CONTINUOUS
 62
     1
100
AcDbVertex
100
AcDb2dVertex
 10
464.591605
 20
361.381447
 30
0.0
  0
VERTEX
  5
641
100
AcDbEntity
  8
LAY-9
  6
CONTINUOUS
 62
     1
100
AcDbVertex
100
AcDb2dVertex
 10
464.53227
 20
361.991408
 30
0.0
  0
VERTEX
  5
642
100
AcDbEntity
  8
LAY-9
  6
CONTINUOUS
 62
     1
100
AcDbVertex
100
AcDb2dVertex
 10
464.467956
 20
362.568092
 30
0.0
  0
VERTEX
  5
643
100
AcDbEntity
  8
LAY-9
  6
CONTINUOUS
 62
     1
100
AcDbVertex
100
AcDb2dVertex
 10
464.402635
 20
363.096688
 30
0.0
  0
VERTEX
  5
644
100
AcDbEntity
  8
LAY-9
  6
CONTINUOUS
 62
     1
100
AcDbVertex
100
AcDb2dVertex
 10
464.340282
 20
363.562387
 30
0.0
  0
VERTEX
  5
645
100
AcDbEntity
  8
LAY-9
  6
CONTINUOUS
 62
     1
100
AcDbVertex
100
AcDb2dVertex
 10
464.284868
 20
363.950377
 30
0.0
  0
VERTEX
  5
646
100
AcDbEntity
  8
LAY-9
  6
CONTINUOUS
 62
     1
100
AcDbVertex
100
AcDb2dVertex
 10
464.240368
 20
364.24585
 30
0.0
  0
VERTEX
  5
647
100
AcDbEntity
  8
LAY-9
  6
CONTINUOUS
 62
     1
100
AcDbVertex
100
AcDb2dVertex
 10
464.210754
 20
364.433994
 30
0.0
  0
VERTEX
  5
648
100
AcDbEntity
  8
LAY-9
  6
CONTINUOUS
 62
     1
100
AcDbVertex
100
AcDb2dVertex
 10
464.2
 20
364.5
 30
0.0
  0
SEQEND
  5
649
100
AcDbEntity
  8
LAY-9
  6
CONTINUOUS
 62
     1
  0
LINE
  5
64A
100
AcDbEntity
  8
LAY-9
  6
CONTINUOUS
 62
     1
100
AcDbLine
 10
289.4
 20
501.370972
 30
0.0
 11
308.0
 21
501.370972
 31
0.0
  0
LINE
  5
64B
100
AcDbEntity
  8
LAY-9
  6
CONTINUOUS
 62
     1
100
AcDbLine
 10
289.6
 20
498.370972
 30
0.0
 11
307.0
 21
498.370972
 31
0.0
  0
LINE
  5
64C
100
AcDbEntity
  8
LAY-9
  6
CONTINUOUS
 62
     1
100
AcDbLine
 10
68.721344
 20
501.370972
 30
0.0
 11
90.8
 21
501.370972
 31
0.0
  0
LINE
  5
64D
100
AcDbEntity
  8
LAY-9
  6
CONTINUOUS
 62
     1
100
AcDbLine
 10
71.721344
 20
498.370972
 30
0.0
 11
115.721329
 21
498.370972
 31
0.0
  0
LINE
  5
64E
100
AcDbEntity
  8
LAY-9
  6
CONTINUOUS
 62
     1
100
AcDbLine
 10
667.449836
 20
301.052063
 30
0.0
 11
673.049836
 21
301.052063
 31
0.0
  0
LINE
  5
64F
100
AcDbEntity
  8
LAY-9
  6
CONTINUOUS
 62
     1
100
AcDbLine
 10
698.6
 20
301.052063
 30
0.0
 11
699.649836
 21
301.052063
 31
0.0
  0
LINE
  5
650
100
AcDbEntity
  8
LAY-9
  6
CONTINUOUS
 62
     1
100
AcDbLine
 10
803.699672
 20
271.052063
 30
0.0
 11
780.2
 21
271.052063
 31
0.0
  0
LINE
  5
651
100
AcDbEntity
  8
LAY-9
  6
CONTINUOUS
 62
     1
100
AcDbLine
 10
443.5
 20
321.052063
 30
0.0
 11
465.7
 21
321.052063
 31
0.0
  0
LINE
  5
652
100
AcDbEntity
  8
LAY-9
  6
CONTINUOUS
 62
     1
100
AcDbLine
 10
68.721344
 20
319.552063
 30
0.0
 11
68.721344
 21
311.052063
 31
0.0
  0
LINE
  5
653
100
AcDbEntity
  8
LAY-9
  6
CONTINUOUS
 62
     1
100
AcDbLine
 10
68.721344
 20
427.1
 30
0.0
 11
68.721344
 21
321.052063
 31
0.0
  0
LINE
  5
654
100
AcDbEntity
  8
LAY-9
  6
CONTINUOUS
 62
     1
100
AcDbLine
 10
71.721344
 20
331.052063
 30
0.0
 11
112.7
 21
331.052063
 31
0.0
  0
LINE
  5
655
100
AcDbEntity
  8
LAY-9
  6
CONTINUOUS
 62
     1
100
AcDbLine
 10
152.9
 20
331.052063
 30
0.0
 11
462.7
 21
331.052063
 31
0.0
  0
LINE
  5
656
100
AcDbEntity
  8
LAY-9
  6
CONTINUOUS
 62
     1
100
AcDbLine
 10
73.321344
 20
351.052063
 30
0.0
 11
113.221344
 21
351.052063
 31
0.0
  0
LINE
  5
657
100
AcDbEntity
  8
LAY-9
  6
CONTINUOUS
 62
     1
100
AcDbLine
 10
278.221344
 20
351.052063
 30
0.0
 11
462.540584
 21
351.052063
 31
0.0
  0
ARC
  5
658
100
AcDbEntity
  8
LAY-9
  6
CONTINUOUS
 62
     1
100
AcDbCircle
 10
131.721344
 20
164.052078
 30
0.0
 40
60.0
100
AcDbArc
 50
160.528779
 51
199.471221
  0
LINE
  5
659
100
AcDbEntity
  8
LAY-9
  6
CONTINUOUS
 62
     1
100
AcDbLine
 10
75.152802
 20
184.052078
 30
0.0
 11
317.760229
 21
184.052078
 31
0.0
  0
LINE
  5
65A
100
AcDbEntity
  8
LAY-9
  6
CONTINUOUS
 62
     1
100
AcDbLine
 10
75.152802
 20
144.052078
 30
0.0
 11
317.760229
 21
144.052078
 31
0.0
  0
ARC
  5
65B
100
AcDbEntity
  8
LAY-9
  6
CONTINUOUS
 62
     1
100
AcDbCircle
 10
131.721344
 20
164.052078
 30
0.0
 40
58.4
100
AcDbArc
 50
161.635051
 51
198.364949
  0
LINE
  5
65C
100
AcDbEntity
  8
LAY-9
  6
CONTINUOUS
 62
     1
100
AcDbLine
 10
76.295718
 20
145.652078
 30
0.0
 11
317.099261
 21
145.652078
 31
0.0
  0
LINE
  5
65D
100
AcDbEntity
  8
LAY-9
  6
CONTINUOUS
 62
     1
100
AcDbLine
 10
318.622017
 20
182.452078
 30
0.0
 11
76.295718
 21
182.452078
 31
0.0
  0
POLYLINE
  5
65E
100
AcDbEntity
  8
LAY-9
  6
CONTINUOUS
 62
     1
100
AcDb2dPolyline
 66
     1
 10
0.0
 20
0.0
 30
0.0
 70
   128
  0
VERTEX
  5
65F
100
AcDbEntity
  8
LAY-9
  6
CONTINUOUS
 62
     1
100
AcDbVertex
100
AcDb2dVertex
 10
317.760229
 20
184.052078
 30
0.0
  0
VERTEX
  5
660
100
AcDbEntity
  8
LAY-9
  6
CONTINUOUS
 62
     1
100
AcDbVertex
100
AcDb2dVertex
 10
317.827992
 20
183.896393
 30
0.0
  0
VERTEX
  5
661
100
AcDbEntity
  8
LAY-9
  6
CONTINUOUS
 62
     1
100
AcDbVertex
100
AcDb2dVertex
 10
318.014094
 20
183.454746
 30
0.0
  0
VERTEX
  5
662
100
AcDbEntity
  8
LAY-9
  6
CONTINUOUS
 62
     1
100
AcDbVertex
100
AcDb2dVertex
 10
318.292752
 20
182.765248
 30
0.0
  0
VERTEX
  5
663
100
AcDbEntity
  8
LAY-9
  6
CONTINUOUS
 62
     1
100
AcDbVertex
100
AcDb2dVertex
 10
318.638185
 20
181.86601
 30
0.0
  0
VERTEX
  5
664
100
AcDbEntity
  8
LAY-9
  6
CONTINUOUS
 62
     1
100
AcDbVertex
100
AcDb2dVertex
 10
319.024611
 20
180.795145
 30
0.0
  0
VERTEX
  5
665
100
AcDbEntity
  8
LAY-9
  6
CONTINUOUS
 62
     1
100
AcDbVertex
100
AcDb2dVertex
 10
319.426247
 20
179.590762
 30
0.0
  0
VERTEX
  5
666
100
AcDbEntity
  8
LAY-9
  6
CONTINUOUS
 62
     1
100
AcDbVertex
100
AcDb2dVertex
 10
319.817313
 20
178.290975
 30
0.0
  0
VERTEX
  5
667
100
AcDbEntity
  8
LAY-9
  6
CONTINUOUS
 62
     1
100
AcDbVertex
100
AcDb2dVertex
 10
320.172026
 20
176.933893
 30
0.0
  0
VERTEX
  5
668
100
AcDbEntity
  8
LAY-9
  6
CONTINUOUS
 62
     1
100
AcDbVertex
100
AcDb2dVertex
 10
320.464604
 20
175.557629
 30
0.0
  0
VERTEX
  5
669
100
AcDbEntity
  8
LAY-9
  6
CONTINUOUS
 62
     1
100
AcDbVertex
100
AcDb2dVertex
 10
320.669266
 20
174.200295
 30
0.0
  0
VERTEX
  5
66A
100
AcDbEntity
  8
LAY-9
  6
CONTINUOUS
 62
     1
100
AcDbVertex
100
AcDb2dVertex
 10
320.760229
 20
172.9
 30
0.0
  0
VERTEX
  5
66B
100
AcDbEntity
  8
LAY-9
  6
CONTINUOUS
 62
     1
100
AcDbVertex
100
AcDb2dVertex
 10
320.736357
 20
171.905848
 30
0.0
  0
VERTEX
  5
66C
100
AcDbEntity
  8
LAY-9
  6
CONTINUOUS
 62
     1
100
AcDbVertex
100
AcDb2dVertex
 10
320.629395
 20
170.968668
 30
0.0
  0
VERTEX
  5
66D
100
AcDbEntity
  8
LAY-9
  6
CONTINUOUS
 62
     1
100
AcDbVertex
100
AcDb2dVertex
 10
320.448632
 20
170.082413
 30
0.0
  0
VERTEX
  5
66E
100
AcDbEntity
  8
LAY-9
  6
CONTINUOUS
 62
     1
100
AcDbVertex
100
AcDb2dVertex
 10
320.203355
 20
169.241035
 30
0.0
  0
VERTEX
  5
66F
100
AcDbEntity
  8
LAY-9
  6
CONTINUOUS
 62
     1
100
AcDbVertex
100
AcDb2dVertex
 10
319.902852
 20
168.438487
 30
0.0
  0
VERTEX
  5
670
100
AcDbEntity
  8
LAY-9
  6
CONTINUOUS
 62
     1
100
AcDbVertex
100
AcDb2dVertex
 10
319.556412
 20
167.668723
 30
0.0
  0
VERTEX
  5
671
100
AcDbEntity
  8
LAY-9
  6
CONTINUOUS
 62
     1
100
AcDbVertex
100
AcDb2dVertex
 10
319.173323
 20
166.925695
 30
0.0
  0
VERTEX
  5
672
100
AcDbEntity
  8
LAY-9
  6
CONTINUOUS
 62
     1
100
AcDbVertex
100
AcDb2dVertex
 10
318.762871
 20
166.203355
 30
0.0
  0
VERTEX
  5
673
100
AcDbEntity
  8
LAY-9
  6
CONTINUOUS
 62
     1
100
AcDbVertex
100
AcDb2dVertex
 10
318.334347
 20
165.495658
 30
0.0
  0
VERTEX
  5
674
100
AcDbEntity
  8
LAY-9
  6
CONTINUOUS
 62
     1
100
AcDbVertex
100
AcDb2dVertex
 10
317.897037
 20
164.796555
 30
0.0
  0
VERTEX
  5
675
100
AcDbEntity
  8
LAY-9
  6
CONTINUOUS
 62
     1
100
AcDbVertex
100
AcDb2dVertex
 10
317.460229
 20
164.1
 30
0.0
  0
VERTEX
  5
676
100
AcDbEntity
  8
LAY-9
  6
CONTINUOUS
 62
     1
100
AcDbVertex
100
AcDb2dVertex
 10
317.054279
 20
163.435957
 30
0.0
  0
VERTEX
  5
677
100
AcDbEntity
  8
LAY-9
  6
CONTINUOUS
 62
     1
100
AcDbVertex
100
AcDb2dVertex
 10
316.662967
 20
162.764116
 30
0.0
  0
VERTEX
  5
678
100
AcDbEntity
  8
LAY-9
  6
CONTINUOUS
 62
     1
100
AcDbVertex
100
AcDb2dVertex
 10
316.292112
 20
162.079831
 30
0.0
  0
VERTEX
  5
679
100
AcDbEntity
  8
LAY-9
  6
CONTINUOUS
 62
     1
100
AcDbVertex
100
AcDb2dVertex
 10
315.947535
 20
161.378456
 30
0.0
  0
VERTEX
  5
67A
100
AcDbEntity
  8
LAY-9
  6
CONTINUOUS
 62
     1
100
AcDbVertex
100
AcDb2dVertex
 10
315.635057
 20
160.655344
 30
0.0
  0
VERTEX
  5
67B
100
AcDbEntity
  8
LAY-9
  6
CONTINUOUS
 62
     1
100
AcDbVertex
100
AcDb2dVertex
 10
315.360499
 20
159.905849
 30
0.0
  0
VERTEX
  5
67C
100
AcDbEntity
  8
LAY-9
  6
CONTINUOUS
 62
     1
100
AcDbVertex
100
AcDb2dVertex
 10
315.129682
 20
159.125324
 30
0.0
  0
VERTEX
  5
67D
100
AcDbEntity
  8
LAY-9
  6
CONTINUOUS
 62
     1
100
AcDbVertex
100
AcDb2dVertex
 10
314.948425
 20
158.309123
 30
0.0
  0
VERTEX
  5
67E
100
AcDbEntity
  8
LAY-9
  6
CONTINUOUS
 62
     1
100
AcDbVertex
100
AcDb2dVertex
 10
314.82255
 20
157.452599
 30
0.0
  0
VERTEX
  5
67F
100
AcDbEntity
  8
LAY-9
  6
CONTINUOUS
 62
     1
100
AcDbVertex
100
AcDb2dVertex
 10
314.757878
 20
156.551107
 30
0.0
  0
VERTEX
  5
680
100
AcDbEntity
  8
LAY-9
  6
CONTINUOUS
 62
     1
100
AcDbVertex
100
AcDb2dVertex
 10
314.760229
 20
155.6
 30
0.0
  0
VERTEX
  5
681
100
AcDbEntity
  8
LAY-9
  6
CONTINUOUS
 62
     1
100
AcDbVertex
100
AcDb2dVertex
 10
314.871897
 20
154.250333
 30
0.0
  0
VERTEX
  5
682
100
AcDbEntity
  8
LAY-9
  6
CONTINUOUS
 62
     1
100
AcDbVertex
100
AcDb2dVertex
 10
315.089395
 20
152.842824
 30
0.0
  0
VERTEX
  5
683
100
AcDbEntity
  8
LAY-9
  6
CONTINUOUS
 62
     1
100
AcDbVertex
100
AcDb2dVertex
 10
315.388185
 20
151.416744
 30
0.0
  0
VERTEX
  5
684
100
AcDbEntity
  8
LAY-9
  6
CONTINUOUS
 62
     1
100
AcDbVertex
100
AcDb2dVertex
 10
315.743726
 20
150.011364
 30
0.0
  0
VERTEX
  5
685
100
AcDbEntity
  8
LAY-9
  6
CONTINUOUS
 62
     1
100
AcDbVertex
100
AcDb2dVertex
 10
316.131479
 20
148.665955
 30
0.0
  0
VERTEX
  5
686
100
AcDbEntity
  8
LAY-9
  6
CONTINUOUS
 62
     1
100
AcDbVertex
100
AcDb2dVertex
 10
316.526904
 20
147.419789
 30
0.0
  0
VERTEX
  5
687
100
AcDbEntity
  8
LAY-9
  6
CONTINUOUS
 62
     1
100
AcDbVertex
100
AcDb2dVertex
 10
316.905462
 20
146.312136
 30
0.0
  0
VERTEX
  5
688
100
AcDbEntity
  8
LAY-9
  6
CONTINUOUS
 62
     1
100
AcDbVertex
100
AcDb2dVertex
 10
317.242613
 20
145.382267
 30
0.0
  0
VERTEX
  5
689
100
AcDbEntity
  8
LAY-9
  6
CONTINUOUS
 62
     1
100
AcDbVertex
100
AcDb2dVertex
 10
317.513818
 20
144.669454
 30
0.0
  0
VERTEX
  5
68A
100
AcDbEntity
  8
LAY-9
  6
CONTINUOUS
 62
     1
100
AcDbVertex
100
AcDb2dVertex
 10
317.694536
 20
144.212967
 30
0.0
  0
VERTEX
  5
68B
100
AcDbEntity
  8
LAY-9
  6
CONTINUOUS
 62
     1
100
AcDbVertex
100
AcDb2dVertex
 10
317.760229
 20
144.052078
 30
0.0
  0
SEQEND
  5
68C
100
AcDbEntity
  8
LAY-9
  6
CONTINUOUS
 62
     1
  0
LINE
  5
68D
100
AcDbEntity
  8
LAY-9
  6
CONTINUOUS
 62
     1
100
AcDbLine
 10
663.549836
 20
498.370972
 30
0.0
 11
703.549836
 21
498.370972
 31
0.0
  0
LINE
  5
68E
100
AcDbEntity
  8
LAY-9
  6
CONTINUOUS
 62
     1
100
AcDbLine
 10
731.949836
 20
502.970972
 30
0.0
 11
731.949836
 21
550.4
 31
0.0
  0
LINE
  5
68F
100
AcDbEntity
  8
LAY-9
  6
CONTINUOUS
 62
     1
100
AcDbLine
 10
733.549836
 20
501.370972
 30
0.0
 11
733.549836
 21
550.4
 31
0.0
  0
LINE
  5
690
100
AcDbEntity
  8
LAY-9
  6
CONTINUOUS
 62
     1
100
AcDbLine
 10
635.149836
 20
502.970972
 30
0.0
 11
635.149836
 21
550.4
 31
0.0
  0
LINE
  5
691
100
AcDbEntity
  8
LAY-9
  6
CONTINUOUS
 62
     1
100
AcDbLine
 10
633.549836
 20
501.370972
 30
0.0
 11
733.549836
 21
501.370972
 31
0.0
  0
LINE
  5
692
100
AcDbEntity
  8
LAY-9
  6
CONTINUOUS
 62
     1
100
AcDbLine
 10
633.549836
 20
501.370972
 30
0.0
 11
633.549836
 21
550.4
 31
0.0
  0
LINE
  5
693
100
AcDbEntity
  8
LAY-9
  6
DIVIDE
 62
     1
100
AcDbLine
 10
646.0
 20
432.1
 30
0.0
 11
722.6
 21
432.1
 31
0.0
  0
LINE
  5
694
100
AcDbEntity
  8
LAY-9
  6
DIVIDE
 62
     1
100
AcDbLine
 10
646.0
 20
427.1
 30
0.0
 11
722.6
 21
427.1
 31
0.0
  0
LINE
  5
695
100
AcDbEntity
  8
LAY-9
  6
CONTINUOUS
 62
     1
100
AcDbLine
 10
703.549836
 20
432.1
 30
0.0
 11
703.549836
 21
498.370972
 31
0.0
  0
LINE
  5
696
100
AcDbEntity
  8
LAY-9
  6
CONTINUOUS
 62
     1
100
AcDbLine
 10
701.949836
 20
432.1
 30
0.0
 11
701.949836
 21
498.370972
 31
0.0
  0
LINE
  5
697
100
AcDbEntity
  8
LAY-9
  6
CONTINUOUS
 62
     1
100
AcDbLine
 10
665.149836
 20
432.1
 30
0.0
 11
665.149836
 21
498.370972
 31
0.0
  0
LINE
  5
698
100
AcDbEntity
  8
LAY-9
  6
CONTINUOUS
 62
     1
100
AcDbLine
 10
663.549836
 20
432.1
 30
0.0
 11
663.549836
 21
498.370972
 31
0.0
  0
LINE
  5
699
100
AcDbEntity
  8
LAY-9
  6
CONTINUOUS
 62
     1
100
AcDbLine
 10
663.549836
 20
281.052063
 30
0.0
 11
663.549836
 21
427.1
 31
0.0
  0
LINE
  5
69A
100
AcDbEntity
  8
LAY-9
  6
CONTINUOUS
 62
     1
100
AcDbLine
 10
665.149836
 20
281.052063
 30
0.0
 11
665.149836
 21
427.1
 31
0.0
  0
LINE
  5
69B
100
AcDbEntity
  8
LAY-9
  6
CONTINUOUS
 62
     1
100
AcDbLine
 10
703.549836
 20
281.052063
 30
0.0
 11
703.549836
 21
427.1
 31
0.0
  0
LINE
  5
69C
100
AcDbEntity
  8
LAY-9
  6
CONTINUOUS
 62
     1
100
AcDbLine
 10
701.949836
 20
281.052063
 30
0.0
 11
701.949836
 21
427.1
 31
0.0
  0
LINE
  5
69D
100
AcDbEntity
  8
LAY-9
  6
CONTINUOUS
 62
     1
100
AcDbLine
 10
699.549851
 20
502.970972
 30
0.0
 11
731.949836
 21
502.970972
 31
0.0
  0
LINE
  5
69E
100
AcDbEntity
  8
LAY-9
  6
CONTINUOUS
 62
     1
100
AcDbLine
 10
635.149836
 20
502.970972
 30
0.0
 11
667.549821
 21
502.970972
 31
0.0
  0
LINE
  5
69F
100
AcDbEntity
  8
LAY-10
  6
CONTINUOUS
 62
     5
100
AcDbLine
 10
15.0
 20
15.0
 30
0.0
 11
826.0
 21
15.0
 31
0.0
  0
LINE
  5
6A0
100
AcDbEntity
  8
LAY-10
  6
CONTINUOUS
 62
     5
100
AcDbLine
 10
826.0
 20
15.0
 30
0.0
 11
826.0
 21
579.0
 31
0.0
  0
LINE
  5
6A1
100
AcDbEntity
  8
LAY-10
  6
CONTINUOUS
 62
     5
100
AcDbLine
 10
15.0
 20
15.0
 30
0.0
 11
15.0
 21
579.0
 31
0.0
  0
LINE
  5
6A2
100
AcDbEntity
  8
LAY-10
  6
CONTINUOUS
 62
     5
100
AcDbLine
 10
15.0
 20
579.0
 30
0.0
 11
826.0
 21
579.0
 31
0.0
  0
LINE
  5
6A3
100
AcDbEntity
  8
LAY-10
  6
CONTINUOUS
 62
     5
100
AcDbLine
 10
15.0
 20
40.0
 30
0.0
 11
826.0
 21
40.0
 31
0.0
  0
LINE
  5
6A4
100
AcDbEntity
  8
LAY-10
  6
CONTINUOUS
 62
     1
100
AcDbLine
 10
224.0
 20
40.0
 30
0.0
 11
224.0
 21
15.0
 31
0.0
  0
LINE
  5
6A5
100
AcDbEntity
  8
LAY-10
  6
CONTINUOUS
 62
     1
100
AcDbLine
 10
249.5
 20
40.0
 30
0.0
 11
249.5
 21
15.0
 31
0.0
  0
LINE
  5
6A6
100
AcDbEntity
  8
LAY-10
  6
CONTINUOUS
 62
     1
100
AcDbLine
 10
275.0
 20
40.0
 30
0.0
 11
275.0
 21
15.0
 31
0.0
  0
LINE
  5
6A7
100
AcDbEntity
  8
LAY-10
  6
CONTINUOUS
 62
     1
100
AcDbLine
 10
300.5
 20
40.0
 30
0.0
 11
300.5
 21
15.0
 31
0.0
  0
LINE
  5
6A8
100
AcDbEntity
  8
LAY-10
  6
CONTINUOUS
 62
     1
100
AcDbLine
 10
326.0
 20
40.0
 30
0.0
 11
326.0
 21
15.0
 31
0.0
  0
LINE
  5
6A9
100
AcDbEntity
  8
LAY-10
  6
CONTINUOUS
 62
     1
100
AcDbLine
 10
377.0
 20
40.0
 30
0.0
 11
377.0
 21
15.0
 31
0.0
  0
LINE
  5
6AA
100
AcDbEntity
  8
LAY-10
  6
CONTINUOUS
 62
     1
100
AcDbLine
 10
738.0
 20
40.0
 30
0.0
 11
738.0
 21
15.0
 31
0.0
  0
LINE
  5
6AB
100
AcDbEntity
  8
LAY-10
  6
CONTINUOUS
 62
     1
100
AcDbLine
 10
224.0
 20
32.0
 30
0.0
 11
377.0
 21
32.0
 31
0.0
  0
TEXT
  5
6AC
100
AcDbEntity
  8
LAY-10
  6
CONTINUOUS
 62
     4
100
AcDbText
 10
227.5
 20
33.0
 30
0.0
 40
6.0
  1
検　  図
 41
0.57856
  7
EXCADSTD
 72
     5
 11
246.700001
 21
33.0
 31
0.0
100
AcDbText
  0
TEXT
  5
6AD
100
AcDbEntity
  8
LAY-10
  6
CONTINUOUS
 62
     4
100
AcDbText
 10
253.2
 20
33.0
 30
0.0
 40
6.0
  1
担　　当
 41
0.672
  7
EXCADSTD
 72
     5
 11
272.400001
 21
33.0
 31
0.0
100
AcDbText
  0
TEXT
  5
6AE
100
AcDbEntity
  8
LAY-10
  6
CONTINUOUS
 62
     4
100
AcDbText
 10
278.4
 20
33.0
 30
0.0
 40
6.0
  1
製　　図
 41
0.672
  7
EXCADSTD
 72
     5
 11
297.600001
 21
33.0
 31
0.0
100
AcDbText
  0
TEXT
  5
6AF
100
AcDbEntity
  8
LAY-10
  6
CONTINUOUS
 62
     4
100
AcDbText
 10
303.9
 20
33.0
 30
0.0
 40
6.0
  1
尺　　度
 41
0.672
  7
EXCADSTD
 72
     5
 11
323.100001
 21
33.0
 31
0.0
100
AcDbText
  0
TEXT
  5
6B0
100
AcDbEntity
  8
LAY-10
  6
CONTINUOUS
 62
     4
100
AcDbText
 10
339.5
 20
33.0
 30
0.0
 40
6.0
  1
作成年月日
 41
0.672
  7
EXCADSTD
 72
     5
 11
363.500001
 21
33.0
 31
0.0
100
AcDbText
  0
TEXT
  5
6B1
100
AcDbEntity
  8
LAY-10
  6
CONTINUOUS
 62
   134
100
AcDbText
 10
42.98
 20
20.91
 30
0.0
 40
13.0
  1
日本ドアーチエック製造株式会社
 41
0.653908
  7
EXCADSTD
 72
     5
 11
194.779994
 21
20.91
 31
0.0
100
AcDbText
  0
LINE
  5
6B2
100
AcDbEntity
  8
LAY-10
  6
CONTINUOUS
 62
     1
100
AcDbLine
 10
841.0
 20
0.0
 30
0.0
 11
841.0
 21
2.0
 31
0.0
  0
LINE
  5
6B3
100
AcDbEntity
  8
LAY-10
  6
CONTINUOUS
 62
     1
100
AcDbLine
 10
841.0
 20
592.0
 30
0.0
 11
841.0
 21
594.0
 31
0.0
  0
LINE
  5
6B4
100
AcDbEntity
  8
LAY-10
  6
CONTINUOUS
 62
     1
100
AcDbLine
 10
841.0
 20
594.0
 30
0.0
 11
839.0
 21
594.0
 31
0.0
  0
LINE
  5
6B5
100
AcDbEntity
  8
LAY-10
  6
CONTINUOUS
 62
     1
100
AcDbLine
 10
2.0
 20
594.0
 30
0.0
 11
0.0
 21
594.0
 31
0.0
  0
LINE
  5
6B6
100
AcDbEntity
  8
LAY-10
  6
CONTINUOUS
 62
     1
100
AcDbLine
 10
0.0
 20
594.0
 30
0.0
 11
0.0
 21
592.0
 31
0.0
  0
LINE
  5
6B7
100
AcDbEntity
  8
LAY-10
  6
CONTINUOUS
 62
     1
100
AcDbLine
 10
0.0
 20
2.0
 30
0.0
 11
0.0
 21
0.0
 31
0.0
  0
LINE
  5
6B8
100
AcDbEntity
  8
LAY-10
  6
CONTINUOUS
 62
     1
100
AcDbLine
 10
0.0
 20
0.0
 30
0.0
 11
2.0
 21
0.0
 31
0.0
  0
LINE
  5
6B9
100
AcDbEntity
  8
LAY-10
  6
CONTINUOUS
 62
     1
100
AcDbLine
 10
839.0
 20
0.0
 30
0.0
 11
841.0
 21
0.0
 31
0.0
  0
TEXT
  5
6BA
100
AcDbEntity
  8
LAY-10
  6
CONTINUOUS
 62
     4
100
AcDbText
 10
383.0
 20
33.0
 30
0.0
 40
6.0
  1
図 面 名
 41
0.57856
  7
EXCADSTD
 72
     5
 11
402.200001
 21
33.0
 31
0.0
100
AcDbText
  0
TEXT
  5
6BB
100
AcDbEntity
  8
LAY-10
  6
CONTINUOUS
 62
     4
100
AcDbText
 10
744.0
 20
33.0
 30
0.0
 40
6.0
  1
図面番号
 41
0.672
  7
EXCADSTD
 72
     5
 11
763.200001
 21
33.0
 31
0.0
100
AcDbText
  0
TEXT
  5
6BC
100
AcDbEntity
  8
LAY-10
  6
CONTINUOUS
 62
     2
100
AcDbText
 10
306.5
 20
20.2
 30
0.0
 40
6.0
  1
１／１
 41
0.672
  7
EXCADSTD
 72
     5
 11
320.900001
 21
20.2
 31
0.0
100
AcDbText
  0
TEXT
  5
6BD
100
AcDbEntity
  8
LAY-10
  6
CONTINUOUS
 62
     2
100
AcDbText
 10
332.6
 20
20.2
 30
0.0
 40
6.0
  1
Ｈ１４.　７.　１
 41
0.622617
  7
EXCADSTD
 72
     5
 11
371.000002
 21
20.2
 31
0.0
100
AcDbText
  0
POLYLINE
  5
6BE
100
AcDbEntity
  8
LAY-10
  6
CONTINUOUS
 62
     1
100
AcDb2dPolyline
 66
     1
 10
0.0
 20
0.0
 30
0.0
 70
   128
  0
VERTEX
  5
6BF
100
AcDbEntity
  8
LAY-10
  6
CONTINUOUS
 62
     1
100
AcDbVertex
100
AcDb2dVertex
 10
263.9
 20
487.870972
 30
0.0
  0
VERTEX
  5
6C0
100
AcDbEntity
  8
LAY-10
  6
CONTINUOUS
 62
     1
100
AcDbVertex
100
AcDb2dVertex
 10
273.951755
 20
470.460821
 30
0.0
  0
VERTEX
  5
6C1
100
AcDbEntity
  8
LAY-10
  6
CONTINUOUS
 62
     1
100
AcDbVertex
100
AcDb2dVertex
 10
324.3
 20
470.460821
 30
0.0
  0
SEQEND
  5
6C2
100
AcDbEntity
  8
LAY-10
  6
CONTINUOUS
 62
     1
  0
LINE
  5
6C3
100
AcDbEntity
  8
LAY-10
  6
CONTINUOUS
 62
     1
100
AcDbLine
 10
265.188675
 20
486.305588
 30
0.0
 11
263.9
 21
487.870972
 31
0.0
  0
LINE
  5
6C4
100
AcDbEntity
  8
LAY-10
  6
CONTINUOUS
 62
     1
100
AcDbLine
 10
263.9
 20
487.870972
 30
0.0
 11
264.611325
 21
485.972255
 31
0.0
  0
TEXT
  5
6C5
100
AcDbEntity
  8
LAY-10
  6
CONTINUOUS
 62
     2
100
AcDbText
 10
276.125878
 20
470.960821
 30
0.0
 40
5.0
  1
裏板４.５ｔ以上（別途）
 41
0.654222
  7
EXCADSTD
 72
     5
 11
322.125878
 21
470.960821
 31
0.0
100
AcDbText
  0
TEXT
  5
6C6
100
AcDbEntity
  8
LAY-10
  6
CONTINUOUS
 62
     2
100
AcDbText
 10
278.547256
 20
538.407314
 30
0.0
 40
5.0
  1
裏板４.５ｔ以上（別途）
 41
0.654222
  7
EXCADSTD
 72
     5
 11
324.547256
 21
538.407314
 31
0.0
100
AcDbText
  0
POLYLINE
  5
6C7
100
AcDbEntity
  8
LAY-10
  6
CONTINUOUS
 62
     1
100
AcDb2dPolyline
 66
     1
 10
0.0
 20
0.0
 30
0.0
 70
   128
  0
VERTEX
  5
6C8
100
AcDbEntity
  8
LAY-10
  6
CONTINUOUS
 62
     1
100
AcDbVertex
100
AcDb2dVertex
 10
262.462423
 20
511.870972
 30
0.0
  0
VERTEX
  5
6C9
100
AcDbEntity
  8
LAY-10
  6
CONTINUOUS
 62
     1
100
AcDbVertex
100
AcDb2dVertex
 10
277.494512
 20
537.907314
 30
0.0
  0
VERTEX
  5
6CA
100
AcDbEntity
  8
LAY-10
  6
CONTINUOUS
 62
     1
100
AcDbVertex
100
AcDb2dVertex
 10
325.6
 20
537.907314
 30
0.0
  0
SEQEND
  5
6CB
100
AcDbEntity
  8
LAY-10
  6
CONTINUOUS
 62
     1
  0
LINE
  5
6CC
100
AcDbEntity
  8
LAY-10
  6
CONTINUOUS
 62
     1
100
AcDbLine
 10
263.173748
 20
513.769689
 30
0.0
 11
262.462423
 21
511.870972
 31
0.0
  0
LINE
  5
6CD
100
AcDbEntity
  8
LAY-10
  6
CONTINUOUS
 62
     1
100
AcDbLine
 10
262.462423
 20
511.870972
 30
0.0
 11
263.751098
 21
513.436356
 31
0.0
  0
TEXT
  5
6CE
100
AcDbEntity
  8
LAY-10
  6
CONTINUOUS
 62
     2
100
AcDbText
 10
406.828367
 20
19.274519
 30
0.0
 40
10.0
  1
フロアヒンジ　Ｈ－１３００/ＨＳ－１３００/Ｈ－１４００/ＨＳ－１４００納まり図
 41
0.65604
  7
EXCADSTD
 72
     5
 11
714.828367
 21
19.274519
 31
0.0
100
AcDbText
  0
ENDSEC
  0
SECTION
  2
OBJECTS
  0
DICTIONARY
  5
19
100
AcDbDictionary
  3
ACAD_GROUP
350
1A
  3
ACAD_MLINESTYLE
350
1B
  0
DICTIONARY
  5
1A
102
{ACAD_REACTORS
330
19
102
}
100
AcDbDictionary
  0
DICTIONARY
  5
1B
102
{ACAD_REACTORS
330
19
102
}
100
AcDbDictionary
  3
STANDARD
350
1C
  0
MLINESTYLE
  5
1C
102
{ACAD_REACTORS
330
1B
102
}
100
AcDbMlineStyle
  2
Standard
 70
     0
  3

 62
     0
 51
90.0
 52
90.0
 71
     2
 49
0.5
 62
   256
  6
ByLayer
 49
-0.5
 62
   256
  6
ByLayer
  0
ENDSEC
  0
EOF
