  0
SECTION
  2
HEADER
  9
$ACADVER
  1
AC1015
  9
$ACADMAINTVER
 70
    20
  9
$DWGCODEPAGE
  3
ANSI_932
  9
$INSBASE
 10
0.0
 20
0.0
 30
0.0
  9
$EXTMIN
 10
4.196504073446249
 20
8.254395518748083
 30
-0.000000000000013
  9
$EXTMAX
 10
189.4589547694882
 20
280.0790413423431
 30
0.0000000000000023
  9
$LIMMIN
 10
0.0
 20
0.0
  9
$LIMMAX
 10
594.0
 20
420.0
  9
$ORTHOMODE
 70
     0
  9
$REGENMODE
 70
     1
  9
$FILLMODE
 70
     1
  9
$QTEXTMODE
 70
     0
  9
$MIRRTEXT
 70
     0
  9
$LTSCALE
 40
0.25
  9
$ATTMODE
 70
     1
  9
$TEXTSIZE
 40
0.2
  9
$TRACEWID
 40
0.05
  9
$TEXTSTYLE
  7
STANDARD
  9
$CLAYER
  8
0
  9
$CELTYPE
  6
ByLayer
  9
$CECOLOR
 62
   256
  9
$CELTSCALE
 40
1.0
  9
$DISPSILH
 70
     0
  9
$DIMSCALE
 40
1.0
  9
$DIMASZ
 40
3.0
  9
$DIMEXO
 40
5.0
  9
$DIMDLI
 40
0.5
  9
$DIMRND
 40
0.0
  9
$DIMDLE
 40
0.0
  9
$DIMEXE
 40
0.0
  9
$DIMTP
 40
0.0
  9
$DIMTM
 40
0.0
  9
$DIMTXT
 40
10.0
  9
$DIMCEN
 40
0.0
  9
$DIMTSZ
 40
0.0
  9
$DIMTOL
 70
     0
  9
$DIMLIM
 70
     0
  9
$DIMTIH
 70
     0
  9
$DIMTOH
 70
     0
  9
$DIMSE1
 70
     0
  9
$DIMSE2
 70
     0
  9
$DIMTAD
 70
     0
  9
$DIMZIN
 70
     0
  9
$DIMBLK
  1
Open30
  9
$DIMASO
 70
     0
  9
$DIMSHO
 70
     0
  9
$DIMPOST
  1

  9
$DIMAPOST
  1

  9
$DIMALT
 70
     0
  9
$DIMALTD
 70
     0
  9
$DIMALTF
 40
25.4
  9
$DIMLFAC
 40
1.0
  9
$DIMTOFL
 70
     0
  9
$DIMTVP
 40
0.0
  9
$DIMTIX
 70
     0
  9
$DIMSOXD
 70
     0
  9
$DIMSAH
 70
     0
  9
$DIMBLK1
  1

  9
$DIMBLK2
  1

  9
$DIMSTYLE
  2
Standard
  9
$DIMCLRD
 70
     0
  9
$DIMCLRE
 70
     0
  9
$DIMCLRT
 70
     0
  9
$DIMTFAC
 40
1.0
  9
$DIMGAP
 40
5.0
  9
$DIMJUST
 70
     0
  9
$DIMSD1
 70
     0
  9
$DIMSD2
 70
     0
  9
$DIMTOLJ
 70
     1
  9
$DIMTZIN
 70
     0
  9
$DIMALTZ
 70
     0
  9
$DIMALTTZ
 70
     0
  9
$DIMUPT
 70
     0
  9
$DIMDEC
 70
     0
  9
$DIMTDEC
 70
     0
  9
$DIMALTU
 70
     2
  9
$DIMALTTD
 70
     0
  9
$DIMTXSTY
  7
STANDARD
  9
$DIMAUNIT
 70
     0
  9
$DIMADEC
 70
     0
  9
$DIMALTRND
 40
0.0
  9
$DIMAZIN
 70
     0
  9
$DIMDSEP
 70
    46
  9
$DIMATFIT
 70
     3
  9
$DIMFRAC
 70
     0
  9
$DIMLDRBLK
  1
Open30
  9
$DIMLUNIT
 70
     2
  9
$DIMLWD
 70
    -2
  9
$DIMLWE
 70
    -2
  9
$DIMTMOVE
 70
     0
  9
$LUNITS
 70
     2
  9
$LUPREC
 70
     2
  9
$SKETCHINC
 40
0.0
  9
$FILLETRAD
 40
1.0
  9
$AUNITS
 70
     1
  9
$AUPREC
 70
     2
  9
$MENU
  1
ACAD
  9
$ELEVATION
 40
0.0
  9
$PELEVATION
 40
0.0
  9
$THICKNESS
 40
0.0
  9
$LIMCHECK
 70
     1
  9
$CHAMFERA
 40
0.0
  9
$CHAMFERB
 40
0.0
  9
$CHAMFERC
 40
0.0
  9
$CHAMFERD
 40
0.0
  9
$SKPOLY
 70
     0
  9
$TDCREATE
 40
2311888.137615671
  9
$TDUCREATE
 40
2311887.762615671
  9
$TDUPDATE
 40
2456552.472540023
  9
$TDUUPDATE
 40
2456552.097540023
  9
$TDINDWG
 40
0.2552646644
  9
$TDUSRTIMER
 40
0.2552618750
  9
$USRTIMER
 70
     1
  9
$ANGBASE
 50
0.0
  9
$ANGDIR
 70
     0
  9
$PDMODE
 70
     0
  9
$PDSIZE
 40
0.0
  9
$PLINEWID
 40
0.0
  9
$SPLFRAME
 70
     0
  9
$SPLINETYPE
 70
     6
  9
$SPLINESEGS
 70
     8
  9
$HANDSEED
  5
6F11
  9
$SURFTAB1
 70
     6
  9
$SURFTAB2
 70
     6
  9
$SURFTYPE
 70
     6
  9
$SURFU
 70
     6
  9
$SURFV
 70
     6
  9
$UCSBASE
  2

  9
$UCSNAME
  2

  9
$UCSORG
 10
0.0
 20
0.0
 30
0.0
  9
$UCSXDIR
 10
1.0
 20
0.0
 30
0.0
  9
$UCSYDIR
 10
0.0
 20
1.0
 30
0.0
  9
$UCSORTHOREF
  2

  9
$UCSORTHOVIEW
 70
     0
  9
$UCSORGTOP
 10
0.0
 20
0.0
 30
0.0
  9
$UCSORGBOTTOM
 10
0.0
 20
0.0
 30
0.0
  9
$UCSORGLEFT
 10
0.0
 20
0.0
 30
0.0
  9
$UCSORGRIGHT
 10
0.0
 20
0.0
 30
0.0
  9
$UCSORGFRONT
 10
0.0
 20
0.0
 30
0.0
  9
$UCSORGBACK
 10
0.0
 20
0.0
 30
0.0
  9
$PUCSBASE
  2

  9
$PUCSNAME
  2

  9
$PUCSORG
 10
0.0
 20
0.0
 30
0.0
  9
$PUCSXDIR
 10
1.0
 20
0.0
 30
0.0
  9
$PUCSYDIR
 10
0.0
 20
1.0
 30
0.0
  9
$PUCSORTHOREF
  2

  9
$PUCSORTHOVIEW
 70
     0
  9
$PUCSORGTOP
 10
0.0
 20
0.0
 30
0.0
  9
$PUCSORGBOTTOM
 10
0.0
 20
0.0
 30
0.0
  9
$PUCSORGLEFT
 10
0.0
 20
0.0
 30
0.0
  9
$PUCSORGRIGHT
 10
0.0
 20
0.0
 30
0.0
  9
$PUCSORGFRONT
 10
0.0
 20
0.0
 30
0.0
  9
$PUCSORGBACK
 10
0.0
 20
0.0
 30
0.0
  9
$USERI1
 70
     0
  9
$USERI2
 70
     0
  9
$USERI3
 70
     0
  9
$USERI4
 70
     0
  9
$USERI5
 70
     0
  9
$USERR1
 40
0.0
  9
$USERR2
 40
0.0
  9
$USERR3
 40
0.0
  9
$USERR4
 40
0.0
  9
$USERR5
 40
0.0
  9
$WORLDVIEW
 70
     1
  9
$SHADEDGE
 70
     3
  9
$SHADEDIF
 70
    70
  9
$TILEMODE
 70
     1
  9
$MAXACTVP
 70
    64
  9
$PINSBASE
 10
0.0
 20
0.0
 30
0.0
  9
$PLIMCHECK
 70
     0
  9
$PEXTMIN
 10
0.0
 20
0.0
 30
0.0
  9
$PEXTMAX
 10
594.0
 20
420.0
 30
0.0
  9
$PLIMMIN
 10
0.0
 20
0.0
  9
$PLIMMAX
 10
12.0
 20
9.0
  9
$UNITMODE
 70
     0
  9
$VISRETAIN
 70
     1
  9
$PLINEGEN
 70
     0
  9
$PSLTSCALE
 70
     1
  9
$TREEDEPTH
 70
  3020
  9
$CMLSTYLE
  2
Standard
  9
$CMLJUST
 70
     0
  9
$CMLSCALE
 40
1.0
  9
$PROXYGRAPHICS
 70
     1
  9
$MEASUREMENT
 70
     0
  9
$CELWEIGHT
370
    -1
  9
$ENDCAPS
280
     0
  9
$JOINSTYLE
280
     0
  9
$LWDISPLAY
290
     0
  9
$INSUNITS
 70
     0
  9
$HYPERLINKBASE
  1

  9
$STYLESHEET
  1

  9
$XEDIT
290
     1
  9
$CEPSNTYPE
380
     0
  9
$PSTYLEMODE
290
     1
  9
$FINGERPRINTGUID
  2
{3B5F4D5A-80CC-4958-9C8F-FF33FEF25F9B}
  9
$VERSIONGUID
  2
{D12B4F52-5EE8-465C-852E-35A77BEB9E73}
  9
$EXTNAMES
290
     1
  9
$PSVPSCALE
 40
0.0
  9
$OLESTARTUP
290
     0
  0
ENDSEC
  0
SECTION
  2
CLASSES
  0
CLASS
  1
ACDBDICTIONARYWDFLT
  2
AcDbDictionaryWithDefault
  3
ObjectDBX Classes
 90
        0
280
     0
281
     0
  0
CLASS
  1
MATERIAL
  2
AcDbMaterial
  3
ObjectDBX Classes
 90
     1153
280
     0
281
     0
  0
CLASS
  1
VISUALSTYLE
  2
AcDbVisualStyle
  3
ObjectDBX Classes
 90
     4095
280
     0
281
     0
  0
CLASS
  1
SCALE
  2
AcDbScale
  3
ObjectDBX Classes
 90
     1153
280
     0
281
     0
  0
CLASS
  1
TABLESTYLE
  2
AcDbTableStyle
  3
ObjectDBX Classes
 90
     4095
280
     0
281
     0
  0
CLASS
  1
MLEADERSTYLE
  2
AcDbMLeaderStyle
  3
ACDB_MLEADERSTYLE_CLASS
 90
     4095
280
     0
281
     0
  0
CLASS
  1
SORTENTSTABLE
  2
AcDbSortentsTable
  3
ObjectDBX Classes
 90
        0
280
     0
281
     0
  0
CLASS
  1
CELLSTYLEMAP
  2
AcDbCellStyleMap
  3
ObjectDBX Classes
 90
     1152
280
     0
281
     0
  0
CLASS
  1
DICTIONARYVAR
  2
AcDbDictionaryVar
  3
ObjectDBX Classes
 90
        0
280
     0
281
     0
  0
CLASS
  1
ACDBPLACEHOLDER
  2
AcDbPlaceHolder
  3
ObjectDBX Classes
 90
        0
280
     0
281
     0
  0
CLASS
  1
LAYOUT
  2
AcDbLayout
  3
ObjectDBX Classes
 90
        0
280
     0
281
     0
  0
ENDSEC
  0
SECTION
  2
TABLES
  0
TABLE
  2
VPORT
  5
8
102
{ACAD_XDICTIONARY
360
6AB0
102
}
330
0
100
AcDbSymbolTable
 70
     1
  0
VPORT
  5
6CE7
330
8
100
AcDbSymbolTableRecord
100
AcDbViewportTableRecord
  2
*Active
 70
     0
 10
0.0
 20
0.0
 11
1.0
 21
1.0
 12
96.82772942146721
 22
144.1667184305455
 13
0.0
 23
0.0
 14
1.0
 24
1.0
 15
0.0
 25
0.0
 16
0.0
 26
0.0
 36
1.0
 17
0.0
 27
0.0
 37
0.0
 40
273.8233564546508
 41
1.779141104294478
 42
50.0
 43
0.0
 44
0.0
 50
0.0
 51
0.0
 71
     0
 72
   100
 73
     1
 74
     1
 75
     0
 76
     0
 77
     0
 78
     0
281
     0
 65
     1
110
0.0
120
0.0
130
0.0
111
1.0
121
0.0
131
0.0
112
0.0
122
1.0
132
0.0
 79
     0
146
0.0
  0
ENDTAB
  0
TABLE
  2
LTYPE
  5
5
330
0
100
AcDbSymbolTable
 70
     5
  0
LTYPE
  5
62
330
5
100
AcDbSymbolTableRecord
100
AcDbLinetypeTableRecord
  2
ByBlock
 70
     0
  3

 72
    65
 73
     0
 40
0.0
  0
LTYPE
  5
63
330
5
100
AcDbSymbolTableRecord
100
AcDbLinetypeTableRecord
  2
ByLayer
 70
     0
  3

 72
    65
 73
     0
 40
0.0
  0
LTYPE
  5
64
330
5
100
AcDbSymbolTableRecord
100
AcDbLinetypeTableRecord
  2
CONTINUOUS
 70
     0
  3
Solid line
 72
    65
 73
     0
 40
0.0
  0
LTYPE
  5
78
330
5
100
AcDbSymbolTableRecord
100
AcDbLinetypeTableRecord
  2
HIDDEN
 70
     0
  3
------------------------
 72
    65
 73
     2
 40
12.6
 49
8.4
 74
     0
 49
-4.2
 74
     0
  0
LTYPE
  5
79
330
5
100
AcDbSymbolTableRecord
100
AcDbLinetypeTableRecord
  2
DOT
 70
     0
  3
････････････････････････
 72
    65
 73
     2
 40
8.0
 49
6.0
 74
     0
 49
-2.0
 74
     0
  0
LTYPE
  5
7A
330
5
100
AcDbSymbolTableRecord
100
AcDbLinetypeTableRecord
  2
DASHDOT
 70
     0
  3
--･--･--･--･--･--･--･--
 72
    65
 73
     4
 40
50.5
 49
30.0
 74
     0
 49
-9.0
 74
     0
 49
2.5
 74
     0
 49
-9.0
 74
     0
  0
LTYPE
  5
7B
330
5
100
AcDbSymbolTableRecord
100
AcDbLinetypeTableRecord
  2
DIVIDE
 70
     0
  3
--･･--･･--･･--･･--･･--
 72
    65
 73
     6
 40
58.0
 49
30.0
 74
     0
 49
-9.0
 74
     0
 49
2.5
 74
     0
 49
-5.0
 74
     0
 49
2.5
 74
     0
 49
-9.0
 74
     0
  0
ENDTAB
  0
TABLE
  2
LAYER
  5
2
102
{ACAD_XDICTIONARY
360
6E37
102
}
330
0
100
AcDbSymbolTable
 70
    13
  0
LAYER
  5
5C
102
{ACAD_XDICTIONARY
360
6A94
102
}
330
2
100
AcDbSymbolTableRecord
100
AcDbLayerTableRecord
  2
0
 70
     0
 62
     7
  6
CONTINUOUS
370
    -3
390
F
  0
LAYER
  5
7C
102
{ACAD_XDICTIONARY
360
6A96
102
}
330
2
100
AcDbSymbolTableRecord
100
AcDbLayerTableRecord
  2
1
 70
     0
 62
     7
  6
CONTINUOUS
370
    -3
390
F
  0
LAYER
  5
7D
102
{ACAD_XDICTIONARY
360
6A98
102
}
330
2
100
AcDbSymbolTableRecord
100
AcDbLayerTableRecord
  2
2
 70
     0
 62
     1
  6
CONTINUOUS
370
    -3
390
F
  0
LAYER
  5
7E
102
{ACAD_XDICTIONARY
360
6A9A
102
}
330
2
100
AcDbSymbolTableRecord
100
AcDbLayerTableRecord
  2
3
 70
     0
 62
    30
  6
CONTINUOUS
370
    -3
390
F
  0
LAYER
  5
7F
102
{ACAD_XDICTIONARY
360
6A9C
102
}
330
2
100
AcDbSymbolTableRecord
100
AcDbLayerTableRecord
  2
4
 70
     0
 62
     2
  6
CONTINUOUS
370
    -3
390
F
  0
LAYER
  5
80
102
{ACAD_XDICTIONARY
360
6A9E
102
}
330
2
100
AcDbSymbolTableRecord
100
AcDbLayerTableRecord
  2
5
 70
     0
 62
    70
  6
CONTINUOUS
370
    -3
390
F
  0
LAYER
  5
81
102
{ACAD_XDICTIONARY
360
6AA0
102
}
330
2
100
AcDbSymbolTableRecord
100
AcDbLayerTableRecord
  2
6
 70
     0
 62
   211
  6
CONTINUOUS
370
    -3
390
F
  0
LAYER
  5
82
102
{ACAD_XDICTIONARY
360
6AA2
102
}
330
2
100
AcDbSymbolTableRecord
100
AcDbLayerTableRecord
  2
7
 70
     0
 62
     4
  6
CONTINUOUS
370
    -3
390
F
  0
LAYER
  5
83
102
{ACAD_XDICTIONARY
360
6AA4
102
}
330
2
100
AcDbSymbolTableRecord
100
AcDbLayerTableRecord
  2
8
 70
     0
 62
     5
  6
CONTINUOUS
370
    -3
390
F
  0
LAYER
  5
84
102
{ACAD_XDICTIONARY
360
6AA6
102
}
330
2
100
AcDbSymbolTableRecord
100
AcDbLayerTableRecord
  2
9
 70
     0
 62
     6
  6
CONTINUOUS
370
    -3
390
F
  0
LAYER
  5
85
102
{ACAD_XDICTIONARY
360
6AA8
102
}
330
2
100
AcDbSymbolTableRecord
100
AcDbLayerTableRecord
  2
21
 70
     0
 62
     7
  6
CONTINUOUS
370
    -3
390
F
  0
LAYER
  5
86
102
{ACAD_XDICTIONARY
360
6AAA
102
}
330
2
100
AcDbSymbolTableRecord
100
AcDbLayerTableRecord
  2
22
 70
     0
 62
     7
  6
CONTINUOUS
370
    -3
390
F
  0
LAYER
  5
6ADB
330
2
100
AcDbSymbolTableRecord
100
AcDbLayerTableRecord
  2
Defpoints
 70
     0
 62
     7
  6
CONTINUOUS
290
     0
370
    -3
390
F
  0
ENDTAB
  0
TABLE
  2
STYLE
  5
3
330
0
100
AcDbSymbolTable
 70
     7
  0
STYLE
  5
5D
330
3
100
AcDbSymbolTableRecord
100
AcDbTextStyleTableRecord
  2
STANDARD
 70
     0
 40
0.0
 41
1.0
 50
0.0
 71
     0
 42
0.2
  3
TXT
  4

  0
STYLE
  5
61
330
3
100
AcDbSymbolTableRecord
100
AcDbTextStyleTableRecord
  2
Annotative
 70
     0
 40
0.0
 41
1.0
 50
0.0
 71
     0
 42
0.2
  3

  4

1001
AcadAnnotative
1000
AnnotativeData
1002
{
1070
     1
1070
     1
1002
}
  0
STYLE
  5
87
330
3
100
AcDbSymbolTableRecord
100
AcDbTextStyleTableRecord
  2
KANJI
 70
     0
 40
0.0
 41
1.0
 50
0.0
 71
     0
 42
0.2
  3
TXT
  4
BIGFONT
  0
STYLE
  5
6B72
330
3
100
AcDbSymbolTableRecord
100
AcDbTextStyleTableRecord
  2
HORIZONTALBIGFONT
 70
     0
 40
0.0
 41
1.0
 50
0.0
 71
     0
 42
0.2
  3
txt.shx
  4
bigfont.shx
  0
STYLE
  5
6B73
330
3
100
AcDbSymbolTableRecord
100
AcDbTextStyleTableRecord
  2
_VISDIMTXTSTYLE
 70
     0
 40
0.0
 41
1.0
 50
0.0
 71
     0
 42
0.2
  3
ARIAL.TTF
  4

1001
ACAD
1000
Arial
1071
       34
  0
STYLE
  5
6D2A
330
3
100
AcDbSymbolTableRecord
100
AcDbTextStyleTableRecord
  2
BIGFONT
 70
     0
 40
0.0
 41
1.0
 50
0.0
 71
     0
 42
0.2
  3
MS PMincho.ttf
  4

1001
ACAD
1000
MS PMincho
1071
    32786
  0
STYLE
  5
6E35
330
3
100
AcDbSymbolTableRecord
100
AcDbTextStyleTableRecord
  2
SIMP
 70
     0
 40
0.0
 41
1.0
 50
0.0
 71
     0
 42
2.5
  3
SIMPLEX.SHX
  4
BIGFONT.SHX
  0
ENDTAB
  0
TABLE
  2
VIEW
  5
6
330
0
100
AcDbSymbolTable
 70
     0
  0
ENDTAB
  0
TABLE
  2
UCS
  5
7
330
0
100
AcDbSymbolTable
 70
     0
  0
ENDTAB
  0
TABLE
  2
APPID
  5
9
330
0
100
AcDbSymbolTable
 70
     7
  0
APPID
  5
5E
330
9
100
AcDbSymbolTableRecord
100
AcDbRegAppTableRecord
  2
ACAD
 70
     0
  0
APPID
  5
65
330
9
100
AcDbSymbolTableRecord
100
AcDbRegAppTableRecord
  2
AcadAnnotative
 70
     0
  0
APPID
  5
6F
330
9
100
AcDbSymbolTableRecord
100
AcDbRegAppTableRecord
  2
ACAD_MLEADERVER
 70
     0
  0
APPID
  5
6AD2
330
9
100
AcDbSymbolTableRecord
100
AcDbRegAppTableRecord
  2
ACAD_EXEMPT_FROM_CAD_STANDARDS
 70
     0
  0
APPID
  5
6AFA
330
9
100
AcDbSymbolTableRecord
100
AcDbRegAppTableRecord
  2
ACAD_DSTYLE_DIMJAG
 70
     0
  0
APPID
  5
6AFB
330
9
100
AcDbSymbolTableRecord
100
AcDbRegAppTableRecord
  2
ACAD_DSTYLE_DIMTALN
 70
     0
  0
APPID
  5
6B74
330
9
100
AcDbSymbolTableRecord
100
AcDbRegAppTableRecord
  2
ACAD_PSEXT
 70
     0
  0
ENDTAB
  0
TABLE
  2
DIMSTYLE
  5
A
330
0
100
AcDbSymbolTable
 70
     3
100
AcDbDimStyleTable
 71
     1
340
5F
  0
DIMSTYLE
105
5F
330
A
100
AcDbSymbolTableRecord
100
AcDbDimStyleTableRecord
  2
Standard
 70
     0
340
5D
  0
DIMSTYLE
105
60
330
A
100
AcDbSymbolTableRecord
100
AcDbDimStyleTableRecord
  2
Annotative
 70
     0
340
5D
1001
AcadAnnotative
1000
AnnotativeData
1002
{
1070
     1
1070
     1
1002
}
  0
DIMSTYLE
105
6E36
330
A
100
AcDbSymbolTableRecord
100
AcDbDimStyleTableRecord
  2
ASKSTANDARD
 70
     0
 41
2.0
 42
0.0
 43
6.0
 44
1.0
 73
     0
 74
     0
 77
     2
 78
     8
140
2.5
141
0.0
145
1.0
146
0.6
147
0.5
172
     1
173
     1
176
     4
177
     4
178
     7
271
     2
284
     8
289
     1
340
6E35
341
6E2F
343
6E2F
344
6E2F
  0
ENDTAB
  0
TABLE
  2
BLOCK_RECORD
  5
1
330
0
100
AcDbSymbolTable
 70
     4
  0
BLOCK_RECORD
  5
74
102
{ACAD_XDICTIONARY
360
6A81
102
}
330
1
100
AcDbSymbolTableRecord
100
AcDbBlockTableRecord
  2
*Model_Space
340
77
  0
BLOCK_RECORD
  5
70
330
1
100
AcDbSymbolTableRecord
100
AcDbBlockTableRecord
  2
*Paper_Space
340
73
  0
BLOCK_RECORD
  5
30A
330
1
100
AcDbSymbolTableRecord
100
AcDbBlockTableRecord
  2
*U0
340
0
102
{BLKREFS
331
28B4
102
}
  0
BLOCK_RECORD
  5
6B0A
330
1
100
AcDbSymbolTableRecord
100
AcDbBlockTableRecord
  2
_Open30
340
0
102
{BLKREFS
331
6B14
331
6B15
331
6B1B
331
6B1C
331
6B22
331
6B23
331
6B2B
331
6B2C
102
}
  0
BLOCK_RECORD
  5
6D23
330
1
100
AcDbSymbolTableRecord
100
AcDbBlockTableRecord
  2
waku
340
0
310
2800000020000000200000000100080000000000000400000000000000000000000000000000000000000000000080000080000000808000800000008000800080800000C0C0C000C0DCC000F0CAA6000020400000206000002080000020A0000020C0000020E00000400000004020000040400000406000004080000040A0
310
000040C0000040E00000600000006020000060400000606000006080000060A0000060C0000060E00000800000008020000080400000806000008080000080A0000080C0000080E00000A0000000A0200000A0400000A0600000A0800000A0A00000A0C00000A0E00000C0000000C0200000C0400000C0600000C0800000C0
310
A00000C0C00000C0E00000E0000000E0200000E0400000E0600000E0800000E0A00000E0C00000E0E00040000000400020004000400040006000400080004000A0004000C0004000E00040200000402020004020400040206000402080004020A0004020C0004020E000404000004040200040404000404060004040800040
310
40A0004040C0004040E00040600000406020004060400040606000406080004060A0004060C0004060E00040800000408020004080400040806000408080004080A0004080C0004080E00040A0000040A0200040A0400040A0600040A0800040A0A00040A0C00040A0E00040C0000040C0200040C0400040C0600040C08000
310
40C0A00040C0C00040C0E00040E0000040E0200040E0400040E0600040E0800040E0A00040E0C00040E0E00080000000800020008000400080006000800080008000A0008000C0008000E00080200000802020008020400080206000802080008020A0008020C0008020E00080400000804020008040400080406000804080
310
008040A0008040C0008040E00080600000806020008060400080606000806080008060A0008060C0008060E00080800000808020008080400080806000808080008080A0008080C0008080E00080A0000080A0200080A0400080A0600080A0800080A0A00080A0C00080A0E00080C0000080C0200080C0400080C0600080C0
310
800080C0A00080C0C00080C0E00080E0000080E0200080E0400080E0600080E0800080E0A00080E0C00080E0E000C0000000C0002000C0004000C0006000C0008000C000A000C000C000C000E000C0200000C0202000C0204000C0206000C0208000C020A000C020C000C020E000C0400000C0402000C0404000C0406000C0
310
408000C040A000C040C000C040E000C0600000C0602000C0604000C0606000C0608000C060A000C060C000C060E000C0800000C0802000C0804000C0806000C0808000C080A000C080C000C080E000C0A00000C0A02000C0A04000C0A06000C0A08000C0A0A000C0A0C000C0A0E000C0C00000C0C02000C0C04000C0C06000
310
C0C08000C0C0A000F0FBFF00A4A0A000808080000000FF0000FF000000FFFF00FF000000FF00FF00FFFF0000FFFFFF00FFFFFFFFFFFFFFFFFFFFFFFFFFFFFFFFFFFFFFFFFFFFFFFFFFFFFFFFFFFFFFFFFFFFFFFFFFFF0000000000000000000000000000000000000000FFFFFFFFFFFFFFFFFFFFFFFF00FFFFFFFFFFFFFFFF
310
FFFFFFFFFFFFFFFFFFFF00FFFFFFFFFFFFFFFFFFFFFFFF00FFFFFFFFFFFFFFFFFFFFFFFFFFFFFFFFFFFF00FFFFFFFFFFFFFFFFFFFFFFFF00FFFFFFFFFFFFFFFFFFFFFFFFFFFFFFFFFFFF00FFFFFFFFFFFFFFFFFFFFFFFF00FFFFFFFFFFFFFFFFFFFFFFFFFFFFFFFFFFFF00FFFFFFFFFFFFFFFFFFFFFFFF00FFFFFFFFFFFFFF
310
FFFFFFFFFFFFFFFFFFFFFF00FFFFFFFFFFFFFFFFFFFFFFFF00FFFFFFFFFFFFFFFFFFFFFFFFFFFFFFFFFFFF00FFFFFFFFFFFFFFFFFFFFFFFF00FFFFFFFFFFFFFFFFFFFFFFFFFFFFFFFFFFFF00FFFFFFFFFFFFFFFFFFFFFFFF00FFFFFFFFFFFFFFFFFFFFFFFFFFFFFFFFFFFF00FFFFFFFFFFFFFFFFFFFFFFFF00FFFFFFFFFFFF
310
FFFFFFFFFFFFFFFFFFFFFFFF00FFFFFFFFFFFFFFFFFFFFFFFF00FFFFFFFFFFFFFFFFFFFFFFFFFFFFFFFFFFFF00FFFFFFFFFFFFFFFFFFFFFFFF00FFFFFFFFFFFFFFFFFFFFFFFFFFFFFFFFFFFF00FFFFFFFFFFFFFFFFFFFFFFFF00FFFFFFFFFFFFFFFFFFFFFFFFFFFFFFFFFFFF00FFFFFFFFFFFFFFFFFFFFFFFF00FFFFFFFFFF
310
FFFFFFFFFFFFFFFFFFFFFFFFFF00FFFFFFFFFFFFFFFFFFFFFFFF00FFFFFFFFFFFFFFFFFFFFFFFFFFFFFFFFFFFF00FFFFFFFFFFFFFFFFFFFFFFFF00FFFFFFFFFFFFFFFFFFFFFFFFFFFFFFFFFFFF00FFFFFFFFFFFFFFFFFFFFFFFF00FFFFFFFFFFFFFFFFFFFFFFFFFFFFFFFFFFFF00FFFFFFFFFFFFFFFFFFFFFFFF00FFFFFFFF
310
FFFFFFFFFFFFFFFFFFFFFFFFFFFF00FFFFFFFFFFFFFFFFFFFFFFFF00FFFFFFFFFFFFFFFFFFFFFFFFFFFFFFFFFFFF00FFFFFFFFFFFFFFFFFFFFFFFF00FFFFFFFFFFFFFFFFFFFFFFFFFFFFFFFFFFFF00FFFFFFFFFFFFFFFFFFFFFFFF00FFFFFFFFFFFFFFFFFFFFFFFFFFFFFFFFFFFF00FFFFFFFFFFFFFFFFFFFFFFFF00FFFFFF
310
FFFFFFFFFFFFFFFFFFFFFFFFFFFFFF00FFFFFFFFFFFFFFFFFFFFFFFF00FFFFFFFFFFFFFFFFFFFFFFFFFFFFFFFFFFFF00FFFFFFFFFFFFFFFFFFFFFFFF00FFFFFFFFFFFFFFFFFFFFFFFFFFFFFFFFFFFF00FFFFFFFFFFFFFFFFFFFFFFFF00FFFFFFFFFFFFFFFFFFFFFFFFFFFFFFFFFFFF00FFFFFFFFFFFFFFFFFFFFFFFF00FFFF
310
FFFFFFFFFFFFFFFFFFFFFFFFFFFFFFFF00FFFFFFFFFFFFFFFFFFFFFFFF00FFFFFFFFFFFFFFFFFFFFFFFFFFFFFFFFFFFF00FFFFFFFFFFFFFFFFFFFFFFFF00FFFFFFFFFFFFFFFFFFFFFFFFFFFFFFFFFFFF00FFFFFFFFFFFFFFFFFFFFFFFF00FFFFFFFFFFFFFFFFFFFFFFFFFFFFFFFFFFFF00FFFFFFFFFFFFFFFFFFFFFFFF0000
310
000000000000000000000000000000000000FFFFFFFFFFFFFFFFFFFFFFFFFFFFFFFFFFFFFFFFFFFFFFFFFFFFFFFFFFFFFFFFFFFFFFFFFFFF
102
{BLKREFS
331
6D4C
102
}
  0
BLOCK_RECORD
  5
6E2F
330
1
100
AcDbSymbolTableRecord
100
AcDbBlockTableRecord
  2
ARRI
340
0
  0
ENDTAB
  0
ENDSEC
  0
SECTION
  2
BLOCKS
  0
BLOCK
  5
75
330
74
100
AcDbEntity
  8
0
100
AcDbBlockBegin
  2
*Model_Space
 70
     0
 10
0.0
 20
0.0
 30
0.0
  3
*Model_Space
  1

  0
ENDBLK
  5
76
330
74
100
AcDbEntity
  8
0
100
AcDbBlockEnd
  0
BLOCK
  5
71
330
70
100
AcDbEntity
 67
     1
  8
0
100
AcDbBlockBegin
  2
*Paper_Space
 70
     0
 10
0.0
 20
0.0
 30
0.0
  3
*Paper_Space
  1

  0
ENDBLK
  5
72
330
70
100
AcDbEntity
 67
     1
  8
0
100
AcDbBlockEnd
  0
BLOCK
  5
30B
330
30A
100
AcDbEntity
  8
4
  6
Continuous
 62
     2
100
AcDbBlockBegin
  2
*U0
 70
     1
 10
0.0
 20
0.0
 30
0.0
  3
*U0
  1

  0
ARC
  5
30C
330
30A
100
AcDbEntity
  8
4
  6
Continuous
 62
     2
100
AcDbCircle
 10
192.144283
 20
300.849279
 30
0.0
 40
10.0
100
AcDbArc
 50
0.0
 51
90.0
  0
ARC
  5
30D
330
30A
100
AcDbEntity
  8
4
  6
Continuous
 62
     2
100
AcDbCircle
 10
192.144283
 20
200.849279
 30
0.0
 40
10.0
100
AcDbArc
 50
270.0
 51
0.0
  0
ARC
  5
30E
330
30A
100
AcDbEntity
  8
4
  6
Continuous
 62
     2
100
AcDbCircle
 10
96.144279
 20
200.849279
 30
0.0
 40
10.0
100
AcDbArc
 50
179.999985
 51
270.0
  0
ARC
  5
30F
330
30A
100
AcDbEntity
  8
4
  6
Continuous
 62
     2
100
AcDbCircle
 10
96.144279
 20
300.849279
 30
0.0
 40
10.0
100
AcDbArc
 50
90.0
 51
180.000015
  0
LINE
  5
310
330
30A
100
AcDbEntity
  8
4
  6
Continuous
 62
     2
100
AcDbLine
 10
86.144279
 20
300.849279
 30
0.0
 11
86.144279
 21
200.849279
 31
0.0
  0
LINE
  5
311
330
30A
100
AcDbEntity
  8
4
  6
Continuous
 62
     2
100
AcDbLine
 10
192.144283
 20
190.849279
 30
0.0
 11
96.144279
 21
190.849279
 31
0.0
  0
LINE
  5
312
330
30A
100
AcDbEntity
  8
4
  6
Continuous
 62
     2
100
AcDbLine
 10
202.144283
 20
200.849279
 30
0.0
 11
202.144283
 21
300.849279
 31
0.0
  0
LINE
  5
313
330
30A
100
AcDbEntity
  8
4
  6
Continuous
 62
     2
100
AcDbLine
 10
96.144279
 20
310.849279
 30
0.0
 11
192.144283
 21
310.849279
 31
0.0
  0
ENDBLK
  5
314
330
30A
100
AcDbEntity
  8
0
100
AcDbBlockEnd
  0
BLOCK
  5
6B0E
330
6B0A
100
AcDbEntity
  8
0
100
AcDbBlockBegin
  2
_Open30
 70
     0
 10
0.0
 20
0.0
 30
0.0
  3
_Open30
  1

  0
LINE
  5
6B0B
330
6B0A
100
AcDbEntity
  8
0
  6
ByBlock
 62
     0
370
    -2
100
AcDbLine
 10
-1.0
 20
0.26794919
 30
0.0
 11
0.0
 21
0.0
 31
0.0
  0
LINE
  5
6B0C
330
6B0A
100
AcDbEntity
  8
0
  6
ByBlock
 62
     0
370
    -2
100
AcDbLine
 10
0.0
 20
0.0
 30
0.0
 11
-1.0
 21
-0.26794919
 31
0.0
  0
LINE
  5
6B0D
330
6B0A
100
AcDbEntity
  8
0
  6
ByBlock
 62
     0
370
    -2
100
AcDbLine
 10
0.0
 20
0.0
 30
0.0
 11
-1.0
 21
0.0
 31
0.0
  0
ENDBLK
  5
6B0F
330
6B0A
100
AcDbEntity
  8
0
100
AcDbBlockEnd
  0
BLOCK
  5
6D24
330
6D23
100
AcDbEntity
  8
0
100
AcDbBlockBegin
  2
waku
 70
     0
 10
0.0
 20
0.0
 30
0.0
  3
waku
  1

  0
LINE
  5
6D25
330
6D23
100
AcDbEntity
  8
0
100
AcDbLine
 10
4.15
 20
8.274999999999998
 30
0.0
 11
189.375
 21
8.274999999999998
 31
0.0
  0
LINE
  5
6D26
330
6D23
100
AcDbEntity
  8
0
100
AcDbLine
 10
189.375
 20
8.274999999999998
 30
0.0
 11
189.375
 21
280.0749999999999
 31
0.0
  0
LINE
  5
6D27
330
6D23
100
AcDbEntity
  8
0
100
AcDbLine
 10
189.375
 20
280.0749999999999
 30
0.0
 11
4.15
 21
280.0749999999999
 31
0.0
  0
LINE
  5
6D28
330
6D23
100
AcDbEntity
  8
0
100
AcDbLine
 10
4.15
 20
280.0749999999999
 30
0.0
 11
4.15
 21
8.274999999999998
 31
0.0
  0
ENDBLK
  5
6D29
330
6D23
100
AcDbEntity
  8
0
100
AcDbBlockEnd
  0
BLOCK
  5
6E30
330
6E2F
100
AcDbEntity
  8
0
 62
     7
100
AcDbBlockBegin
  2
ARRI
 70
     0
 10
0.0
 20
0.0
 30
0.0
  3
ARRI
  1

  0
LINE
  5
6E31
330
6E2F
100
AcDbEntity
  8
0
  6
ByBlock
 62
     0
100
AcDbLine
 10
-0.9999999999995168
 20
-0.2125565616699987
 30
0.0
 11
0.0000000000005826
 21
0.0000000000000142
 31
0.0
  0
LINE
  5
6E32
330
6E2F
100
AcDbEntity
  8
0
  6
ByBlock
 62
     0
100
AcDbLine
 10
0.0000000000004832
 20
0.0
 30
0.0
 11
-0.9999999999995168
 21
0.0000000000000284
 31
0.0
  0
LINE
  5
6E33
330
6E2F
100
AcDbEntity
  8
0
  6
ByBlock
 62
     0
100
AcDbLine
 10
0.0000000000005826
 20
0.0000000000000142
 30
0.0
 11
-0.9999999999995168
 21
0.2125565616699276
 31
0.0
  0
ENDBLK
  5
6E34
330
6E2F
100
AcDbEntity
  8
0
 62
     7
100
AcDbBlockEnd
  0
ENDSEC
  0
SECTION
  2
ENTITIES
  0
TEXT
  5
7A7
330
74
100
AcDbEntity
  8
1
  6
Continuous
 62
     7
100
AcDbText
 10
504.434642
 20
576.1512179999999
 30
0.0
 40
2.5
  1

 41
0.5
  7
KANJI
100
AcDbText
  0
TEXT
  5
7A8
330
74
100
AcDbEntity
  8
1
  6
Continuous
 62
     7
100
AcDbText
 10
504.434642
 20
573.651218
 30
0.0
 40
2.5
  1

 41
0.5
  7
KANJI
100
AcDbText
  0
INSERT
  5
28B4
330
74
100
AcDbEntity
  8
4
  6
Continuous
100
AcDbBlockReference
  2
*U0
 10
6.42305885189279
 20
75.62713281747571
 30
0.0
 41
0.5
 42
0.5
 43
0.5
  0
ARC
  5
28BC
330
74
100
AcDbEntity
  8
4
  6
Continuous
 62
     2
100
AcDbCircle
 10
54.49519835189278
 20
226.0517723174757
 30
0.0
 40
3.5
100
AcDbArc
 50
180.0
 51
180.5916699999997
  0
LINE
  5
28E8
330
74
100
AcDbEntity
  8
4
  6
Continuous
 62
     2
100
AcDbLine
 10
70.99519935189277
 20
224.0517723174757
 30
0.0
 11
70.99519935189277
 21
224.5517723174757
 31
0.0
  0
LINE
  5
3BCC
330
74
100
AcDbEntity
  8
1
  6
DASHDOT
 62
     7
100
AcDbLine
 10
78.49519756581162
 20
167.8753763004268
 30
0.0
 11
78.49519922649654
 21
234.1281272826657
 31
0.0
  0
LINE
  5
3BDB
330
74
100
AcDbEntity
  8
0
  6
Continuous
100
AcDbLine
 10
138.3852706089617
 20
230.5016678674592
 30
0.0
 11
138.6352726089617
 21
230.5516683174757
 31
0.0
  0
LINE
  5
3BDC
330
74
100
AcDbEntity
  8
0
  6
Continuous
100
AcDbLine
 10
139.6352686089617
 20
231.0517723174758
 30
0.0
 11
139.6352686089617
 21
201.0517753174757
 31
0.0
  0
LINE
  5
3BDD
330
74
100
AcDbEntity
  8
0
  6
Continuous
100
AcDbLine
 10
138.6352686089617
 20
231.0517723174758
 30
0.0
 11
139.6352686089617
 21
231.0517723174758
 31
0.0
  0
LINE
  5
3BE2
330
74
100
AcDbEntity
  8
0
  6
Continuous
100
AcDbLine
 10
138.3852706089617
 20
171.6016469675887
 30
0.0
 11
138.6352646089617
 21
171.5516473174757
 31
0.0
  0
LINE
  5
3BE3
330
74
100
AcDbEntity
  8
0
  6
Continuous
100
AcDbLine
 10
139.6352686089617
 20
171.0517713174757
 30
0.0
 11
138.6352686089617
 21
171.0517713174757
 31
0.0
  0
LINE
  5
3BE4
330
74
100
AcDbEntity
  8
0
  6
Continuous
100
AcDbLine
 10
139.6352686089617
 20
201.0517753174757
 30
0.0
 11
139.6352686089617
 21
171.0517713174757
 31
0.0
  0
LINE
  5
3BE5
330
74
100
AcDbEntity
  8
0
  6
Continuous
100
AcDbLine
 10
138.6352686089617
 20
231.0517723174758
 30
0.0
 11
138.6352686089617
 21
171.0517713174757
 31
0.0
  0
LINE
  5
3BE8
330
74
100
AcDbEntity
  8
0
  6
Continuous
100
AcDbLine
 10
138.3852686089617
 20
228.8017723174757
 30
0.0
 11
138.3852686089617
 21
173.3017653174757
 31
0.0
  0
TEXT
  5
3D85
330
74
100
AcDbEntity
  8
1
  6
Continuous
 62
     7
100
AcDbText
 10
-581.6455009999999
 20
254.725809
 30
0.0
 40
1.732499999999999
  1

 41
0.5
  7
KANJI
100
AcDbText
  0
TEXT
  5
3D86
330
74
100
AcDbEntity
  8
1
  6
Continuous
 62
     7
100
AcDbText
 10
-581.6455009999999
 20
252.993309
 30
0.0
 40
1.732499999999999
  1

 41
0.5
  7
KANJI
100
AcDbText
  0
TEXT
  5
3D88
330
74
100
AcDbEntity
  8
1
  6
Continuous
 62
     7
100
AcDbText
 10
-581.505501
 20
246.781419
 30
0.0
 40
1.732499999999999
  1

 41
0.5
  7
KANJI
100
AcDbText
  0
TEXT
  5
3D89
330
74
100
AcDbEntity
  8
1
  6
Continuous
 62
     7
100
AcDbText
 10
-581.505501
 20
245.048919
 30
0.0
 40
1.732499999999999
  1

 41
0.5
  7
KANJI
100
AcDbText
  0
TEXT
  5
3DAD
330
74
100
AcDbEntity
  8
1
  6
Continuous
 62
     7
100
AcDbText
 10
-592.8108509999999
 20
250.359909
 30
0.0
 40
1.732499999999999
  1

  7
KANJI
100
AcDbText
  0
TEXT
  5
3DAE
330
74
100
AcDbEntity
  8
1
  6
Continuous
 62
     7
100
AcDbText
 10
-592.8108509999999
 20
248.627409
 30
0.0
 40
1.732499999999999
  1

  7
KANJI
100
AcDbText
  0
ARC
  5
3DEB
330
74
100
AcDbEntity
  8
0
  6
Continuous
100
AcDbCircle
 10
152.6799106089617
 20
223.0261243174757
 30
0.0
 40
17.5
100
AcDbArc
 50
155.1238780000008
 51
175.4414829999997
  0
ARC
  5
3DEC
330
74
100
AcDbEntity
  8
0
  6
Continuous
100
AcDbCircle
 10
137.7107926089616
 20
229.9669783174757
 30
0.0
 40
1.0
100
AcDbArc
 50
90.0
 51
155.1238780000008
  0
LINE
  5
3DED
330
74
100
AcDbEntity
  8
0
  6
Continuous
100
AcDbLine
 10
138.3852706089617
 20
230.9669783174757
 30
0.0
 11
137.7107926089616
 21
230.9669783174757
 31
0.0
  0
ARC
  5
3DEE
330
74
100
AcDbEntity
  8
0
  6
Continuous
100
AcDbCircle
 10
137.7107926089616
 20
171.9669783174757
 30
0.0
 40
1.0
100
AcDbArc
 50
204.8761219999989
 51
270.0000149999983
  0
ARC
  5
3DEF
330
74
100
AcDbEntity
  8
0
  6
Continuous
100
AcDbCircle
 10
152.6799106089617
 20
178.9078303174757
 30
0.0
 40
17.5
100
AcDbArc
 50
184.5585170000002
 51
204.8761219999989
  0
LINE
  5
3DF0
330
74
100
AcDbEntity
  8
0
  6
Continuous
100
AcDbLine
 10
138.3852706089617
 20
170.9669783174757
 30
0.0
 11
137.7107926089616
 21
170.9669783174757
 31
0.0
  0
LINE
  5
3DF1
330
74
100
AcDbEntity
  8
0
  6
Continuous
100
AcDbLine
 10
135.2352686089616
 20
224.4169863174757
 30
0.0
 11
135.2352686089616
 21
177.5169923174757
 31
0.0
  0
LINE
  5
3DF2
330
74
100
AcDbEntity
  8
0
  6
Continuous
100
AcDbLine
 10
138.3852706089617
 20
230.9669703174757
 30
0.0
 11
138.3852706089617
 21
170.9669783174757
 31
0.0
  0
LINE
  5
3DF4
330
74
100
AcDbEntity
  8
1
  6
DASHDOT
 62
     7
100
AcDbLine
 10
45.14973527895381
 20
201.0517723174757
 30
0.0
 11
110.0205768421429
 21
201.0517723174757
 31
0.0
  0
ARC
  5
3DF5
330
74
100
AcDbEntity
  8
0
  6
Continuous
100
AcDbCircle
 10
102.4952023518929
 20
226.0517703174757
 30
0.0
 40
5.0
100
AcDbArc
 50
0.0
 51
90.0
  0
ARC
  5
3DF6
330
74
100
AcDbEntity
  8
0
  6
Continuous
100
AcDbCircle
 10
102.4952023518929
 20
176.0517703174757
 30
0.0
 40
5.0
100
AcDbArc
 50
270.0
 51
0.0
  0
ARC
  5
3DF7
330
74
100
AcDbEntity
  8
0
  6
Continuous
100
AcDbCircle
 10
54.49520035189277
 20
176.0517703174757
 30
0.0
 40
5.0
100
AcDbArc
 50
179.9999850000001
 51
270.0
  0
ARC
  5
3DF8
330
74
100
AcDbEntity
  8
0
  6
Continuous
100
AcDbCircle
 10
54.49520035189277
 20
226.0517703174757
 30
0.0
 40
5.0
100
AcDbArc
 50
90.0
 51
180.0000149999999
  0
LINE
  5
3E09
330
74
100
AcDbEntity
  8
0
  6
Continuous
100
AcDbLine
 10
49.49520035189277
 20
226.0517703174757
 30
0.0
 11
49.49520035189277
 21
176.0517703174757
 31
0.0
  0
LINE
  5
3E0A
330
74
100
AcDbEntity
  8
0
  6
Continuous
100
AcDbLine
 10
102.4952023518929
 20
171.0517703174757
 30
0.0
 11
54.49520035189277
 21
171.0517703174757
 31
0.0
  0
LINE
  5
3E0B
330
74
100
AcDbEntity
  8
0
  6
Continuous
100
AcDbLine
 10
107.4952023518929
 20
176.0517703174757
 30
0.0
 11
107.4952023518929
 21
226.0517703174757
 31
0.0
  0
LINE
  5
3E0C
330
74
100
AcDbEntity
  8
0
  6
Continuous
100
AcDbLine
 10
54.49520035189277
 20
231.0517703174757
 30
0.0
 11
102.4952023518929
 21
231.0517703174757
 31
0.0
  0
TEXT
  5
4AA2
330
74
100
AcDbEntity
  8
21
  6
DIVIDE
 62
     7
100
AcDbText
 10
342.924483
 20
339.895913
 30
0.0
 40
2.5
  1

 41
0.5
  7
KANJI
100
AcDbText
  0
TEXT
  5
4AA3
330
74
100
AcDbEntity
  8
21
  6
DIVIDE
 62
     7
100
AcDbText
 10
342.924483
 20
337.395913
 30
0.0
 40
2.5
  1

 41
0.5
  7
KANJI
100
AcDbText
  0
ARC
  5
68E0
330
74
100
AcDbEntity
  8
0
  6
Continuous
100
AcDbCircle
 10
148.9852691089615
 20
217.9017723174757
 30
0.0
 40
0.85
100
AcDbArc
 50
0.0
 51
90.0
  0
ARC
  5
68E1
330
74
100
AcDbEntity
  8
0
  6
Continuous
100
AcDbCircle
 10
148.9852691089615
 20
184.2017723174757
 30
0.0
 40
0.85
100
AcDbArc
 50
270.0
 51
0.0
  0
LINE
  5
68E2
330
74
100
AcDbEntity
  8
0
  6
Continuous
100
AcDbLine
 10
149.8352691089617
 20
217.9017723174757
 30
0.0
 11
149.8352691089617
 21
184.2017723174757
 31
0.0
  0
LINE
  5
68E4
330
74
100
AcDbEntity
  8
0
  6
Continuous
100
AcDbLine
 10
139.6352686089617
 20
218.7517723174757
 30
0.0
 11
148.9852691089615
 21
218.7517723174757
 31
0.0
  0
LINE
  5
68E5
330
74
100
AcDbEntity
  8
0
  6
Continuous
100
AcDbLine
 10
148.9852691089615
 20
183.3517723174757
 30
0.0
 11
139.6352686089617
 21
183.3517723174757
 31
0.0
  0
LINE
  5
6B10
330
74
100
AcDbEntity
  8
0
100
AcDbLine
 10
51.99520035189277
 20
231.0517703174757
 30
0.0
 11
39.78717795035573
 21
231.0517703174757
 31
0.0
  0
LINE
  5
6B11
330
74
100
AcDbEntity
  8
0
100
AcDbLine
 10
51.99519835189278
 20
171.0517723174757
 30
0.0
 11
39.78717795035573
 21
171.0517723174756
 31
0.0
  0
LINE
  5
6B12
330
74
100
AcDbEntity
  8
0
100
AcDbLine
 10
39.78717795035573
 20
229.5517703174757
 30
0.0
 11
39.78717795035573
 21
208.9684379841423
 31
0.0
  0
LINE
  5
6B13
330
74
100
AcDbEntity
  8
0
100
AcDbLine
 10
39.78717795035573
 20
172.5517723174756
 30
0.0
 11
39.78717795035573
 21
208.9684379841423
 31
0.0
  0
INSERT
  5
6B14
330
74
100
AcDbEntity
  8
0
100
AcDbBlockReference
  2
_Open30
 10
39.78717795035573
 20
231.0517703174757
 30
0.0
 41
1.5
 42
1.5
 43
1.5
 50
90.0
  0
INSERT
  5
6B15
330
74
100
AcDbEntity
  8
0
100
AcDbBlockReference
  2
_Open30
 10
39.78717795035573
 20
171.0517723174756
 30
0.0
 41
1.5
 42
1.5
 43
1.5
 50
270.0
  0
MTEXT
  5
6B16
330
74
100
AcDbEntity
  8
0
100
AcDbMText
 10
37.60122860270552
 20
201.0517713174757
 30
0.0
 40
3.0
 41
0.0
 71
     5
 72
     1
  1
\A1;120
 11
0.0000000000000001
 21
1.0
 31
0.0
 73
     1
 44
1.0
1001
ACAD
1000
MTEXTBEGIN
1070
    73
1070
     1
1070
    44
1040
1.0
1070
    74
1070
     0
1000
MTEXTEND
  0
LINE
  5
6B17
330
74
100
AcDbEntity
  8
0
100
AcDbLine
 10
49.49519835189278
 20
173.5517723174757
 30
0.0
 11
49.49519635189273
 21
161.1329429516094
 31
0.0
  0
LINE
  5
6B18
330
74
100
AcDbEntity
  8
0
100
AcDbLine
 10
107.4952003518927
 20
173.5517723174757
 30
0.0
 11
107.4951983518927
 21
161.1329429516094
 31
0.0
  0
LINE
  5
6B19
330
74
100
AcDbEntity
  8
0
100
AcDbLine
 10
50.99519635189273
 20
161.856527370027
 30
0.0
 11
107.4951983518927
 21
161.856527370027
 31
0.0
  0
INSERT
  5
6B1B
330
74
100
AcDbEntity
  8
0
100
AcDbBlockReference
  2
_Open30
 10
49.49519635189273
 20
161.856527370027
 30
0.0
 41
1.5
 42
1.5
 43
1.5
 50
180.0
  0
INSERT
  5
6B1C
330
74
100
AcDbEntity
  8
0
100
AcDbBlockReference
  2
_Open30
 10
107.4951983518927
 20
161.856527370027
 30
0.0
 41
1.5
 42
1.5
 43
1.5
  0
MTEXT
  5
6B1D
330
74
100
AcDbEntity
  8
0
100
AcDbMText
 10
78.49519745947119
 20
164.1223152283437
 30
0.0
 40
3.0
 41
0.0
 71
     5
 72
     1
  1
\A1;116
 73
     1
 44
1.0
1001
ACAD
1000
MTEXTBEGIN
1070
    73
1070
     1
1070
    44
1040
1.0
1070
    74
1070
     0
1000
MTEXTEND
  0
LINE
  5
6B1E
330
74
100
AcDbEntity
  8
0
100
AcDbLine
 10
135.2445063599607
 20
175.3354423962609
 30
0.0
 11
135.2445063599607
 21
161.2675340702551
 31
0.0
  0
LINE
  5
6B1F
330
74
100
AcDbEntity
  8
0
100
AcDbLine
 10
139.6352686089617
 20
163.7269487531882
 30
0.0
 11
139.6352686089617
 21
161.2675340702551
 31
0.0
  0
LINE
  5
6B20
330
74
100
AcDbEntity
  8
0
100
AcDbLine
 10
133.7445063599607
 20
161.8565274012512
 30
0.0
 11
130.0474765582282
 21
161.8565274012512
 31
0.0
  0
LINE
  5
6B21
330
74
100
AcDbEntity
  8
0
100
AcDbLine
 10
141.1352686089617
 20
161.8565274012512
 30
0.0
 11
142.6352686089617
 21
161.8565274012512
 31
0.0
  0
INSERT
  5
6B22
330
74
100
AcDbEntity
  8
0
100
AcDbBlockReference
  2
_Open30
 10
135.2445063599607
 20
161.8565274012512
 30
0.0
 41
1.5
 42
1.5
 43
1.5
  0
INSERT
  5
6B23
330
74
100
AcDbEntity
  8
0
100
AcDbBlockReference
  2
_Open30
 10
139.6352686089617
 20
161.8565274012512
 30
0.0
 41
1.5
 42
1.5
 43
1.5
 50
180.0
  0
MTEXT
  5
6B24
330
74
100
AcDbEntity
  8
0
100
AcDbMText
 10
132.2120681292726
 20
163.8981550956691
 30
0.0
 40
3.0
 41
0.0
 71
     5
 72
     1
  1
\A1;9
 73
     1
 44
1.0
1001
ACAD
1000
MTEXTBEGIN
1070
    73
1070
     1
1070
    44
1040
1.0
1070
    74
1070
     0
1000
MTEXTEND
  0
LINE
  5
6B25
330
74
100
AcDbEntity
  8
0
100
AcDbLine
 10
139.6352686089617
 20
170.118454959458
 30
0.0
 11
139.6352686089617
 21
161.2675340702551
 31
0.0
  0
LINE
  5
6B26
330
74
100
AcDbEntity
  8
0
100
AcDbLine
 10
149.8352691089617
 20
181.7017723174757
 30
0.0
 11
149.8352691089617
 21
161.2675340702551
 31
0.0
  0
LINE
  5
6B27
330
74
100
AcDbEntity
  8
0
100
AcDbLine
 10
135.2445063599607
 20
161.8565274012512
 30
0.0
 11
148.3352691089617
 21
161.8565274012512
 31
0.0
  0
MTEXT
  5
6B2A
330
74
100
AcDbEntity
  8
0
100
AcDbMText
 10
144.7098810974157
 20
163.8548286832015
 30
0.0
 40
3.0
 41
0.0
 71
     5
 72
     1
  1
\A1;20
 73
     1
 44
1.0
1001
ACAD
1000
MTEXTBEGIN
1070
    73
1070
     1
1070
    44
1040
1.0
1070
    74
1070
     0
1000
MTEXTEND
  0
INSERT
  5
6B2B
330
74
100
AcDbEntity
  8
0
100
AcDbBlockReference
  2
_Open30
 10
139.6352686089617
 20
161.8565274012512
 30
0.0
 41
1.5
 42
1.5
 43
1.5
 50
180.0
  0
INSERT
  5
6B2C
330
74
100
AcDbEntity
  8
0
100
AcDbBlockReference
  2
_Open30
 10
149.8352691089617
 20
161.8565274012512
 30
0.0
 41
1.5
 42
1.5
 43
1.5
  0
LINE
  5
6C44
330
74
100
AcDbEntity
  8
0
370
    50
100
AcDbLine
 10
98.07853312049269
 20
180.1767715488758
 30
0.0
 11
58.82853312049269
 21
180.1767715488758
 31
0.0
  0
LINE
  5
6C45
330
74
100
AcDbEntity
  8
0
370
    50
100
AcDbLine
 10
98.5785331204927
 20
180.6767715488758
 30
0.0
 11
98.5785331204927
 21
221.4684380488759
 31
0.0
  0
LINE
  5
6C46
330
74
100
AcDbEntity
  8
0
370
    50
100
AcDbLine
 10
58.82853312049269
 20
221.9684380488758
 30
0.0
 11
98.07853312049269
 21
221.9684380488759
 31
0.0
  0
LINE
  5
6C47
330
74
100
AcDbEntity
  8
0
370
    50
100
AcDbLine
 10
58.3285331204927
 20
180.6767715488758
 30
0.0
 11
58.3285331204927
 21
221.4684380488758
 31
0.0
  0
LINE
  5
6C48
330
74
100
AcDbEntity
  8
0
100
AcDbLine
 10
56.87020012049265
 20
223.9267715488759
 30
0.0
 11
100.1202001204926
 21
223.9267715488759
 31
0.0
  0
LINE
  5
6C49
330
74
100
AcDbEntity
  8
0
100
AcDbLine
 10
57.57853312049269
 20
223.2351050488759
 30
0.0
 11
99.31186662049265
 21
223.2351050488758
 31
0.0
  0
LINE
  5
6C4A
330
74
100
AcDbEntity
  8
0
100
AcDbLine
 10
56.37020012049266
 20
223.4267715488759
 30
0.0
 11
56.37020012049266
 21
178.6767715488759
 31
0.0
  0
LINE
  5
6C4B
330
74
100
AcDbEntity
  8
0
100
AcDbLine
 10
57.0785331204927
 20
222.7351050488759
 30
0.0
 11
57.0785331204927
 21
179.4767715488759
 31
0.0
  0
LINE
  5
6C4C
330
74
100
AcDbEntity
  8
0
100
AcDbLine
 10
99.81186662049266
 20
222.7351050488759
 30
0.0
 11
99.81186662049253
 21
179.4767715488759
 31
0.0
  0
LINE
  5
6C4D
330
74
100
AcDbEntity
  8
0
100
AcDbLine
 10
100.6202001204926
 20
223.4267715488759
 30
0.0
 11
100.6202001204926
 21
178.6767715488759
 31
0.0
  0
LINE
  5
6C4E
330
74
100
AcDbEntity
  8
0
100
AcDbLine
 10
99.31186662049254
 20
178.9767715488759
 30
0.0
 11
57.57853312049269
 21
178.9767715488759
 31
0.0
  0
LINE
  5
6C4F
330
74
100
AcDbEntity
  8
0
100
AcDbLine
 10
56.87020012049265
 20
178.1767715488759
 30
0.0
 11
100.1202001204926
 21
178.1767715488759
 31
0.0
  0
MTEXT
  5
6C50
330
74
100
AcDbEntity
  8
0
100
AcDbMText
 10
68.70353312049269
 20
212.9684380488759
 30
0.0
 40
1.399999999999999
 41
8.25
 71
     5
 72
     5
  1
{\fMS PGothic|b0|i0|c128|p50;\C256;電源}
  7
HORIZONTALBIGFONT
 73
     1
 44
1.0
1001
ACAD
1000
MTEXTBEGIN
1070
    73
1070
     1
1070
    44
1040
1.0
1070
    74
1070
     0
1000
MTEXTEND
  0
LWPOLYLINE
  5
6C51
330
74
100
AcDbEntity
  8
0
370
    50
100
AcDbPolyline
 90
        2
 70
     1
 43
0.0
 10
67.49520012049265
 20
192.0559380488759
 42
-1.0
 10
70.12020012049271
 20
192.0559380488759
 42
-1.0
  0
MTEXT
  5
6C52
330
74
100
AcDbEntity
  8
0
100
AcDbMText
 10
74.5113468105892
 20
204.3169667006639
 30
0.0
 40
1.5
 41
8.25
 71
     5
 72
     5
  1
{\fMS PGothic|b0|i0|c128|p50;\C256;解錠}
  7
HORIZONTALBIGFONT
 73
     1
 44
1.0
1001
ACAD
1000
MTEXTBEGIN
1070
    73
1070
     1
1070
    44
1040
1.0
1070
    74
1070
     0
1000
MTEXTEND
  0
MTEXT
  5
6C53
330
74
100
AcDbEntity
  8
0
100
AcDbMText
 10
74.58192040563762
 20
198.1055700270914
 30
0.0
 40
1.5
 41
8.25
 71
     5
 72
     5
  1
{\fMS PGothic|b0|i0|c128|p50;\C256;施錠}
  7
HORIZONTALBIGFONT
 73
     1
 44
1.0
1001
ACAD
1000
MTEXTBEGIN
1070
    73
1070
     1
1070
    44
1040
1.0
1070
    74
1070
     0
1000
MTEXTEND
  0
MTEXT
  5
6C54
330
74
100
AcDbEntity
  8
0
100
AcDbMText
 10
74.58192040563762
 20
192.0222370270915
 30
0.0
 40
1.5
 41
8.25
 71
     5
 72
     5
  1
{\fMS PGothic|b0|i0|c128|p50;\C256;開扉}
  7
HORIZONTALBIGFONT
 73
     1
 44
1.0
1001
ACAD
1000
MTEXTBEGIN
1070
    73
1070
     1
1070
    44
1040
1.0
1070
    74
1070
     0
1000
MTEXTEND
  0
LWPOLYLINE
  5
6C55
330
74
100
AcDbEntity
  8
0
  6
Continuous
370
    50
100
AcDbPolyline
 90
        8
 70
     1
 43
0.0
 10
82.1202001204927
 20
198.8017715488759
 10
90.14520012049269
 20
198.8017715488759
 42
0.4142140000000001
 10
91.14520012049274
 20
199.8017715488759
 10
91.14520012049274
 20
202.3017715488759
 42
0.4142140000000001
 10
90.14520012049269
 20
203.3017715488759
 10
82.1202001204927
 20
203.3017715488759
 42
0.4142140000000001
 10
81.12020012049271
 20
202.3017715488759
 10
81.12020012049271
 20
199.8017715488759
 42
0.4142140000000001
  0
MTEXT
  5
6C56
330
74
100
AcDbEntity
  8
0
370
    50
100
AcDbMText
 10
86.13270012049264
 20
201.0517715488759
 30
0.0
 40
1.5
 41
10.025
 71
     5
 72
     5
  1
{\fMS PGothic|b0|i0|c128|p50;\C256;施   錠}
  7
HORIZONTALBIGFONT
 73
     1
 44
1.0
1001
ACAD
1000
MTEXTBEGIN
1070
    73
1070
     1
1070
    44
1040
1.0
1070
    74
1070
     0
1000
MTEXTEND
  0
LWPOLYLINE
  5
6C57
330
74
100
AcDbEntity
  8
0
  6
Continuous
370
    50
100
AcDbPolyline
 90
        8
 70
     1
 43
0.0
 10
82.1202001204927
 20
189.7392715488759
 10
90.14520012049269
 20
189.7392715488759
 42
0.4142140000000001
 10
91.14520012049274
 20
190.7392715488759
 10
91.14520012049274
 20
193.2392715488759
 42
0.4142140000000001
 10
90.14520012049269
 20
194.2392715488758
 10
82.1202001204927
 20
194.2392715488758
 42
0.4142140000000001
 10
81.12020012049271
 20
193.2392715488759
 10
81.12020012049271
 20
190.7392715488759
 42
0.4142140000000001
  0
LWPOLYLINE
  5
6C58
330
74
100
AcDbEntity
  8
0
  6
Continuous
370
    50
100
AcDbPolyline
 90
        8
 70
     1
 43
0.0
 10
82.1202001204927
 20
207.7392715488759
 10
90.14520012049269
 20
207.7392715488759
 42
0.4142140000000001
 10
91.14520012049274
 20
208.7392715488759
 10
91.14520012049274
 20
211.2392715488759
 42
0.4142140000000001
 10
90.14520012049269
 20
212.2392715488759
 10
82.1202001204927
 20
212.2392715488759
 42
0.4142140000000001
 10
81.12020012049271
 20
211.2392715488759
 10
81.12020012049271
 20
208.7392715488759
 42
0.4142140000000001
  0
MTEXT
  5
6C59
330
74
100
AcDbEntity
  8
0
370
    50
100
AcDbMText
 10
86.13270012049264
 20
209.9892715488759
 30
0.0
 40
1.5
 41
10.025
 71
     5
 72
     5
  1
{\fMS PGothic|b0|i0|c128|p50;\C256;解   錠}
  7
HORIZONTALBIGFONT
 73
     1
 44
1.0
1001
ACAD
1000
MTEXTBEGIN
1070
    73
1070
     1
1070
    44
1040
1.0
1070
    74
1070
     0
1000
MTEXTEND
  0
MTEXT
  5
6C5A
330
74
100
AcDbEntity
  8
0
 62
   251
100
AcDbMText
 10
78.97762514470304
 20
219.6745342481898
 30
0.0
 40
1.5
 41
33.35756987406589
 71
     5
 72
     5
  1
{\fMS PGothic|b0|i0|c128|p50;\C256;ＣＯＮＴＲＯＬ　ＢＯＸ　ＣＢ－１Ｃ}
  7
HORIZONTALBIGFONT
 73
     1
 44
1.0
1001
ACAD
1000
MTEXTBEGIN
1070
    73
1070
     1
1070
    44
1040
1.0
1070
    74
1070
     0
1000
MTEXTEND
1000
ACAD_MTEXT_DEFINED_HEIGHT_BEGIN
1070
    46
1040
4.420064768674507
1000
ACAD_MTEXT_DEFINED_HEIGHT_END
  0
MTEXT
  5
6C5B
330
74
100
AcDbEntity
  8
0
100
AcDbMText
 10
74.28686662049267
 20
212.9684380488759
 30
0.0
 40
1.399999999999999
 41
8.25
 71
     5
 72
     5
  1
{\fMS PGothic|b0|i0|c128|p50;\C256;警報}
  7
HORIZONTALBIGFONT
 73
     1
 44
1.0
1001
ACAD
1000
MTEXTBEGIN
1070
    73
1070
     1
1070
    44
1040
1.0
1070
    74
1070
     0
1000
MTEXTEND
  0
LWPOLYLINE
  5
6C5F
330
74
100
AcDbEntity
  8
0
  6
Continuous
370
    50
100
AcDbPolyline
 90
        8
 70
     1
 43
0.0
 10
68.07853312049269
 20
208.8226050488759
 10
69.46186662049268
 20
208.8226050488759
 42
0.4142140000000001
 10
69.96186662049268
 20
209.3226050488758
 10
69.96186662049268
 20
210.7059380488759
 42
0.4142140000000001
 10
69.46186662049268
 20
211.2059380488759
 10
68.07853312049269
 20
211.2059380488759
 42
0.4142140000000001
 10
67.57853312049269
 20
210.7059380488759
 10
67.57853312049269
 20
209.3226050488758
 42
0.4142140000000001
  0
LINE
  5
6C60
330
74
100
AcDbEntity
  8
0
  6
Continuous
370
    50
100
AcDbLine
 10
73.37206562049266
 20
210.0757145488759
 30
0.0
 11
73.37206562049266
 21
211.2837365488759
 31
0.0
  0
LINE
  5
6C61
330
74
100
AcDbEntity
  8
0
  6
Continuous
370
    50
100
AcDbLine
 10
73.37206562049266
 20
211.2837365488759
 30
0.0
 11
75.99520012049271
 21
211.2837365488759
 31
0.0
  0
LINE
  5
6C62
330
74
100
AcDbEntity
  8
0
  6
Continuous
370
    50
100
AcDbLine
 10
75.99520012049271
 20
211.2837365488759
 30
0.0
 11
74.38450381347519
 21
210.0757145488759
 31
0.0
  0
LINE
  5
6C63
330
74
100
AcDbEntity
  8
0
  6
Continuous
370
    50
100
AcDbLine
 10
74.38450381347519
 20
210.0757145488759
 30
0.0
 11
75.30490162049267
 21
210.0757145488759
 31
0.0
  0
LINE
  5
6C64
330
74
100
AcDbEntity
  8
0
  6
Continuous
370
    50
100
AcDbLine
 10
75.30490162049267
 20
210.0757145488759
 30
0.0
 11
72.91186662049267
 21
208.2809380488759
 31
0.0
  0
LINE
  5
6C65
330
74
100
AcDbEntity
  8
0
  6
Continuous
370
    50
100
AcDbLine
 10
72.91186662049267
 20
208.2809380488759
 30
0.0
 11
72.91186662049267
 21
210.0757145488759
 31
0.0
  0
LINE
  5
6C66
330
74
100
AcDbEntity
  8
0
  6
Continuous
370
    50
100
AcDbLine
 10
72.91186662049267
 20
210.0757145488759
 30
0.0
 11
73.37206562049266
 21
210.0757145488759
 31
0.0
  0
LWPOLYLINE
  5
6C67
330
74
100
AcDbEntity
  8
0
  6
Continuous
370
    50
100
AcDbPolyline
 90
        2
 70
     1
 43
0.0
 10
81.84936662049267
 20
191.9892715488759
 42
-1.0
 10
83.84936662049268
 20
191.9892715488759
 42
-1.0
  0
MTEXT
  5
6C68
330
74
100
AcDbEntity
  8
0
370
    50
100
AcDbMText
 10
87.68084764964527
 20
192.143122705341
 30
0.0
 40
1.149999999999999
 41
10.025
 71
     5
 72
     5
  1
{\fMS PGothic|b0|i0|c128|p50;\C7;自動施錠}
  7
HORIZONTALBIGFONT
 73
     1
 44
1.0
1001
ACAD
1000
MTEXTBEGIN
1070
    73
1070
     1
1070
    44
1040
1.0
1070
    74
1070
     0
1000
MTEXTEND
  0
LWPOLYLINE
  5
6C69
330
74
100
AcDbEntity
  8
0
370
    50
100
AcDbPolyline
 90
        2
 70
     1
 43
0.0
 10
67.49520012049265
 20
204.0559380488759
 42
-1.0
 10
70.12020012049271
 20
204.0559380488759
 42
-1.0
  0
LWPOLYLINE
  5
6C6E
330
74
100
AcDbEntity
  8
0
370
    50
100
AcDbPolyline
 90
        2
 70
     1
 43
0.0
 10
67.49520012049265
 20
198.0559380488758
 42
-1.0
 10
70.12020012049271
 20
198.0559380488758
 42
-1.0
  0
ARC
  5
6C72
330
74
100
AcDbEntity
  8
0
100
AcDbCircle
 10
56.87020012049265
 20
223.4267715488759
 30
0.0
 40
0.5
100
AcDbArc
 50
90.0
 51
180.0
  0
ARC
  5
6C73
330
74
100
AcDbEntity
  8
0
100
AcDbCircle
 10
100.1202001204926
 20
223.4267715488759
 30
0.0
 40
0.5
100
AcDbArc
 50
0.0
 51
90.0
  0
ARC
  5
6C74
330
74
100
AcDbEntity
  8
0
100
AcDbCircle
 10
99.31186662049265
 20
222.7351050488759
 30
0.0
 40
0.5
100
AcDbArc
 50
0.0
 51
90.0
  0
ARC
  5
6C75
330
74
100
AcDbEntity
  8
0
100
AcDbCircle
 10
57.57853312049269
 20
222.7351050488759
 30
0.0
 40
0.5
100
AcDbArc
 50
90.0
 51
180.0
  0
ARC
  5
6C76
330
74
100
AcDbEntity
  8
0
100
AcDbCircle
 10
56.87020012049265
 20
178.6767715488759
 30
0.0
 40
0.5
100
AcDbArc
 50
180.0
 51
270.0
  0
ARC
  5
6C77
330
74
100
AcDbEntity
  8
0
100
AcDbCircle
 10
100.1202001204926
 20
178.6767715488759
 30
0.0
 40
0.5
100
AcDbArc
 50
270.0
 51
0.0
  0
ARC
  5
6C78
330
74
100
AcDbEntity
  8
0
100
AcDbCircle
 10
99.31186662049254
 20
179.4767715488759
 30
0.0
 40
0.5
100
AcDbArc
 50
270.0
 51
0.0
  0
ARC
  5
6C79
330
74
100
AcDbEntity
  8
0
100
AcDbCircle
 10
57.57853312049269
 20
179.4767715488759
 30
0.0
 40
0.5
100
AcDbArc
 50
180.0
 51
270.0
  0
ARC
  5
6C7A
330
74
100
AcDbEntity
  8
0
370
    50
100
AcDbCircle
 10
58.82853312049269
 20
180.6767715488758
 30
0.0
 40
0.5
100
AcDbArc
 50
180.0
 51
270.0
  0
ARC
  5
6C7B
330
74
100
AcDbEntity
  8
0
370
    50
100
AcDbCircle
 10
98.07853312049269
 20
180.6767715488758
 30
0.0
 40
0.5
100
AcDbArc
 50
270.0
 51
0.0
  0
ARC
  5
6C7C
330
74
100
AcDbEntity
  8
0
370
    50
100
AcDbCircle
 10
58.82853312049269
 20
221.4684380488758
 30
0.0
 40
0.5
100
AcDbArc
 50
90.0
 51
180.0
  0
ARC
  5
6C7D
330
74
100
AcDbEntity
  8
0
370
    50
100
AcDbCircle
 10
98.07853312049269
 20
221.4684380488759
 30
0.0
 40
0.5
100
AcDbArc
 50
0.0
 51
90.0
  0
LINE
  5
6D47
330
74
100
AcDbEntity
  8
0
100
AcDbLine
 10
4.19999999999996
 20
16.27499999999997
 30
0.0
 11
189.4249999999999
 21
16.27499999999997
 31
0.0
  0
LINE
  5
6D48
330
74
100
AcDbEntity
  8
0
100
AcDbLine
 10
4.974999999999965
 20
24.27499999999998
 30
0.0
 11
189.4249999999999
 21
24.27499999999998
 31
0.0
  0
LINE
  5
6D49
330
74
100
AcDbEntity
  8
0
100
AcDbLine
 10
104.4749999999998
 20
24.27499999999998
 30
0.0
 11
104.4749999999998
 21
8.274999999999977
 31
0.0
  0
LINE
  5
6D4A
330
74
100
AcDbEntity
  8
0
100
AcDbLine
 10
94.44999999999996
 20
24.27499999999998
 30
0.0
 11
94.44999999999996
 21
8.274999999999977
 31
0.0
  0
LINE
  5
6D4B
330
74
100
AcDbEntity
  8
0
100
AcDbLine
 10
14.82499999999996
 20
24.27499999999998
 30
0.0
 11
14.82499999999996
 21
8.274999999999977
 31
0.0
  0
INSERT
  5
6D4C
330
74
100
AcDbEntity
  8
0
  6
Continuous
100
AcDbBlockReference
  2
waku
 10
0.0499999999999545
 20
0.0
 30
0.0
  0
LINE
  5
6D4D
330
74
100
AcDbEntity
  8
0
100
AcDbLine
 10
4.19999999999996
 20
24.27499999999998
 30
0.0
 11
189.4249999999999
 21
24.27499999999998
 31
0.0
  0
TEXT
  5
6D4E
330
74
100
AcDbEntity
  8
0
100
AcDbText
 10
31.82499999999996
 20
18.74999999999997
 30
0.0
 40
3.674999999999998
  1
単位 mm
  7
BIGFONT
100
AcDbText
  0
TEXT
  5
6D4F
330
74
100
AcDbEntity
  8
0
100
AcDbText
 10
121.425
 20
10.47499999999996
 30
0.0
 40
3.674999999999999
  1
　日本電子工業株式会社
  7
BIGFONT
100
AcDbText
  0
LINE
  5
6D50
330
74
100
AcDbEntity
  8
0
100
AcDbLine
 10
4.19999999999996
 20
270.025
 30
0.0
 11
189.4249999999999
 21
270.025
 31
0.0
  0
TEXT
  5
6D51
330
74
100
AcDbEntity
  8
0
100
AcDbText
 10
31.82499999999996
 20
10.47499999999996
 30
0.0
 40
3.674999999999998
  1
尺度　　　１／2
  7
BIGFONT
100
AcDbText
  0
LINE
  5
6D52
330
74
100
AcDbEntity
  8
0
100
AcDbLine
 10
159.4999999999998
 20
24.27499999999998
 30
0.0
 11
159.4999999999998
 21
16.27499999999997
 31
0.0
  0
LINE
  5
6D53
330
74
100
AcDbEntity
  8
0
100
AcDbLine
 10
144.4749999999999
 20
24.27499999999998
 30
0.0
 11
144.4749999999999
 21
16.27499999999997
 31
0.0
  0
TEXT
  5
6D55
330
74
100
AcDbEntity
  8
0
100
AcDbText
 10
147.0324564216774
 20
18.74999999999997
 30
0.0
 40
3.674999999999998
  1
図番
  7
BIGFONT
100
AcDbText
  0
LINE
  5
6DAD
330
74
100
AcDbEntity
  8
0
100
AcDbLine
 10
10.27208050566991
 20
53.42689252031999
 30
0.0
 11
178.6445235416355
 21
53.42689252031981
 31
0.0
  0
TEXT
  5
6DBB
330
74
100
AcDbEntity
  8
0
100
AcDbText
 10
36.63281462494254
 20
122.9268925203197
 30
0.0
 40
2.5
  1
１回線
  7
BIGFONT
100
AcDbText
  0
TEXT
  5
6DBC
330
74
100
AcDbEntity
  8
0
100
AcDbText
 10
14.42831365047787
 20
122.9268925203197
 30
0.0
 40
2.5
  1
回 線 数
  7
BIGFONT
100
AcDbText
  0
LINE
  5
6DC3
330
74
100
AcDbEntity
  8
0
100
AcDbLine
 10
10.27208050566992
 20
126.2840353774627
 30
0.0
 11
178.6445235416355
 21
126.2840353774624
 31
0.0
  0
LINE
  5
6DC4
330
74
100
AcDbEntity
  8
0
100
AcDbLine
 10
10.27208050566992
 20
121.9983210917483
 30
0.0
 11
178.6445235416355
 21
121.9983210917481
 31
0.0
  0
LINE
  5
6DC5
330
74
100
AcDbEntity
  8
0
100
AcDbLine
 10
10.27208050566992
 20
126.2840353774627
 30
0.0
 11
10.27208050566991
 21
27.71260680603453
 31
0.0
  0
LINE
  5
6DC6
330
74
100
AcDbEntity
  8
0
100
AcDbLine
 10
35.27208050566992
 20
126.2840353774626
 30
0.0
 11
35.27208050566991
 21
27.71260680603452
 31
0.0
  0
LINE
  5
6DC7
330
74
100
AcDbEntity
  8
0
100
AcDbLine
 10
178.6445235416355
 20
126.2840353774624
 30
0.0
 11
178.6445235416354
 21
27.71260680603435
 31
0.0
  0
TEXT
  5
6DC8
330
74
100
AcDbEntity
  8
0
100
AcDbText
 10
14.35688507904929
 20
127.4090353774626
 30
0.0
 40
2.5
  1
仕様
  7
BIGFONT
100
AcDbText
  0
TEXT
  5
6DC9
330
74
100
AcDbEntity
  8
0
100
AcDbText
 10
36.63281462494254
 20
118.6411782346055
 30
0.0
 40
2.5
  1
ABS樹脂
  7
BIGFONT
100
AcDbText
  0
TEXT
  5
6DCA
330
74
100
AcDbEntity
  8
0
100
AcDbText
 10
14.42831365047787
 20
118.6411782346055
 30
0.0
 40
2.5
  1
材　　　質
  7
BIGFONT
100
AcDbText
  0
LINE
  5
6DCB
330
74
100
AcDbEntity
  8
0
100
AcDbLine
 10
10.27208050566992
 20
117.712606806034
 30
0.0
 11
178.6445235416355
 21
117.7126068060339
 31
0.0
  0
TEXT
  5
6DCC
330
74
100
AcDbEntity
  8
0
100
AcDbText
 10
36.63281462494254
 20
114.3554639488912
 30
0.0
 40
2.5
  1
光沢仕上げ
  7
BIGFONT
100
AcDbText
  0
TEXT
  5
6DCD
330
74
100
AcDbEntity
  8
0
100
AcDbText
 10
14.42831365047786
 20
114.3554639488912
 30
0.0
 40
2.5
  1
仕 上 げ
  7
BIGFONT
100
AcDbText
  0
LINE
  5
6DCE
330
74
100
AcDbEntity
  8
0
100
AcDbLine
 10
10.27208050566992
 20
113.4268925203198
 30
0.0
 11
178.6445235416355
 21
113.4268925203196
 31
0.0
  0
TEXT
  5
6DCF
330
74
100
AcDbEntity
  8
0
100
AcDbText
 10
36.63281462494254
 20
110.0697496631769
 30
0.0
 40
2.5
  1
オフホワイト
  7
BIGFONT
100
AcDbText
  0
TEXT
  5
6DD0
330
74
100
AcDbEntity
  8
0
100
AcDbText
 10
14.42831365047787
 20
110.0697496631769
 30
0.0
 40
2.5
  1
彩　　　色
  7
BIGFONT
100
AcDbText
  0
LINE
  5
6DD1
330
74
100
AcDbEntity
  8
0
100
AcDbLine
 10
10.27208050566992
 20
109.1411782346055
 30
0.0
 11
178.6445235416355
 21
109.1411782346053
 31
0.0
  0
TEXT
  5
6DD2
330
74
100
AcDbEntity
  8
0
100
AcDbText
 10
36.63281462494254
 20
105.7840353774627
 30
0.0
 40
2.5
  1
ブラック
  7
BIGFONT
100
AcDbText
  0
TEXT
  5
6DD3
330
74
100
AcDbEntity
  8
0
100
AcDbText
 10
14.42831365047786
 20
105.7840353774627
 30
0.0
 40
2.5
  1
文　　　字
  7
BIGFONT
100
AcDbText
  0
LINE
  5
6DD4
330
74
100
AcDbEntity
  8
0
100
AcDbLine
 10
10.27208050566992
 20
104.8554639488912
 30
0.0
 11
178.6445235416355
 21
104.855463948891
 31
0.0
  0
TEXT
  5
6DD5
330
74
100
AcDbEntity
  8
0
100
AcDbText
 10
36.63281462494254
 20
101.4983210917484
 30
0.0
 40
2.5
  1
ライトグレー
  7
BIGFONT
100
AcDbText
  0
TEXT
  5
6DD6
330
74
100
AcDbEntity
  8
0
100
AcDbText
 10
14.42831365047787
 20
101.4983210917484
 30
0.0
 40
2.5
  1
パ ネ ル
  7
BIGFONT
100
AcDbText
  0
LINE
  5
6DD7
330
74
100
AcDbEntity
  8
0
100
AcDbLine
 10
10.27208050566992
 20
100.5697496631769
 30
0.0
 11
178.6445235416355
 21
100.5697496631767
 31
0.0
  0
LINE
  5
6DD8
330
74
100
AcDbEntity
  8
0
100
AcDbLine
 10
10.27208050566992
 20
96.28403537746267
 30
0.0
 11
178.6445235416355
 21
96.28403537746251
 31
0.0
  0
TEXT
  5
6DD9
330
74
100
AcDbEntity
  8
0
100
AcDbText
 10
36.63281462494254
 20
92.92689252031985
 30
0.0
 40
2.5
  1
DC24V500mA (ACアダプタオプション)
  7
BIGFONT
100
AcDbText
  0
TEXT
  5
6DDA
330
74
100
AcDbEntity
  8
0
100
AcDbText
 10
14.42831365047786
 20
92.92689252031985
 30
0.0
 40
2.5
  1
入力電力
  7
BIGFONT
100
AcDbText
  0
LINE
  5
6DDB
330
74
100
AcDbEntity
  8
0
100
AcDbLine
 10
10.2720805056699
 20
91.9983210917484
 30
0.0
 11
178.6445235416355
 21
91.99832109174824
 31
0.0
  0
TEXT
  5
6DDC
330
74
100
AcDbEntity
  8
0
100
AcDbText
 10
36.63281462494254
 20
88.64117823460558
 30
0.0
 40
2.5
  1
CPU制御
  7
BIGFONT
100
AcDbText
  0
TEXT
  5
6DDD
330
74
100
AcDbEntity
  8
0
100
AcDbText
 10
14.42831365047786
 20
88.64117823460558
 30
0.0
 40
2.5
  1
制御方式
  7
BIGFONT
100
AcDbText
  0
LINE
  5
6DDE
330
74
100
AcDbEntity
  8
0
100
AcDbLine
 10
10.27208050566992
 20
87.71260680603411
 30
0.0
 11
178.6445235416355
 21
87.71260680603395
 31
0.0
  0
TEXT
  5
6DDF
330
74
100
AcDbEntity
  8
0
100
AcDbText
 10
36.63281462494254
 20
84.35546394889129
 30
0.0
 40
2.5
  1
ＲＳ485
  7
BIGFONT
100
AcDbText
  0
TEXT
  5
6DE0
330
74
100
AcDbEntity
  8
0
100
AcDbText
 10
14.42831365047786
 20
84.35546394889129
 30
0.0
 40
2.5
  1
通信方式
  7
BIGFONT
100
AcDbText
  0
LINE
  5
6DE1
330
74
100
AcDbEntity
  8
0
100
AcDbLine
 10
10.2720805056699
 20
83.42689252031984
 30
0.0
 11
178.6445235416355
 21
83.42689252031966
 31
0.0
  0
LINE
  5
6DE2
330
74
100
AcDbEntity
  8
0
100
AcDbLine
 10
10.27208050566991
 20
66.28403537746272
 30
0.0
 11
178.6445235416355
 21
66.28403537746255
 31
0.0
  0
TEXT
  5
6DE3
330
74
100
AcDbEntity
  8
0
100
AcDbText
 10
36.63281462494253
 20
62.92689252031988
 30
0.0
 40
2.5
  1
JEM-A 入力
  7
BIGFONT
100
AcDbText
  0
LINE
  5
6DE5
330
74
100
AcDbEntity
  8
0
100
AcDbLine
 10
10.2720805056699
 20
61.99832109174842
 30
0.0
 11
178.6445235416355
 21
61.99832109174825
 31
0.0
  0
TEXT
  5
6DE6
330
74
100
AcDbEntity
  8
0
100
AcDbText
 10
36.63281462494254
 20
58.6411782346056
 30
0.0
 40
2.5
  1
３キー入力
  7
BIGFONT
100
AcDbText
  0
TEXT
  5
6DE8
330
74
100
AcDbEntity
  8
0
100
AcDbText
 10
14.42831365047786
 20
97.21260680603414
 30
0.0
 40
2.5
  1
質　　　量
  7
BIGFONT
100
AcDbText
  0
TEXT
  5
6DE9
330
74
100
AcDbEntity
  8
0
100
AcDbText
 10
14.42831365047786
 20
80.06974966317701
 30
0.0
 40
2.5
  1
LED表示
  7
BIGFONT
100
AcDbText
  0
TEXT
  5
6DEA
330
74
100
AcDbEntity
  8
0
100
AcDbText
 10
36.63281462494254
 20
97.21260680603414
 30
0.0
 40
2.5
  1
約250g
  7
BIGFONT
100
AcDbText
  0
TEXT
  5
6DEB
330
74
100
AcDbEntity
  8
0
100
AcDbText
 10
36.63281462494254
 20
80.06974966317701
 30
0.0
 40
2.5
  1
電源（運用時）：青／警報：赤／開扉：黄／解錠：赤／施錠：緑／自動施錠：黄
  7
BIGFONT
100
AcDbText
  0
LINE
  5
6DEC
330
74
100
AcDbEntity
  8
0
100
AcDbLine
 10
10.27208050566991
 20
57.71260680603413
 30
0.0
 11
178.6445235416355
 21
57.71260680603397
 31
0.0
  0
TEXT
  5
6DED
330
74
100
AcDbEntity
  8
0
100
AcDbText
 10
36.63281462494254
 20
54.35546394889133
 30
0.0
 40
2.5
  1
解錠入力
  7
BIGFONT
100
AcDbText
  0
TEXT
  5
6DF0
330
74
100
AcDbEntity
  8
0
100
AcDbText
 10
14.42831365047785
 20
62.92689252031987
 30
0.0
 40
2.5
  1
外部入力
  7
BIGFONT
100
AcDbText
  0
LINE
  5
6DF1
330
74
100
AcDbEntity
  8
0
100
AcDbLine
 10
10.2720805056699
 20
79.14117823460556
 30
0.0
 11
178.6445235416355
 21
79.14117823460539
 31
0.0
  0
TEXT
  5
6DF2
330
74
100
AcDbEntity
  8
0
100
AcDbText
 10
12.34710033922837
 20
75.78403537746273
 30
0.0
 40
2.5
  1
操作ボタン
  7
BIGFONT
100
AcDbText
  0
TEXT
  5
6DF3
330
74
100
AcDbEntity
  8
0
100
AcDbText
 10
36.63281462494254
 20
75.78403537746273
 30
0.0
 40
2.5
  1
解錠・施錠・自動施錠
  7
BIGFONT
100
AcDbText
  0
LINE
  5
6DF4
330
74
100
AcDbEntity
  8
0
100
AcDbLine
 10
10.2720805056699
 20
74.85546394889128
 30
0.0
 11
178.6445235416355
 21
74.85546394889111
 31
0.0
  0
TEXT
  5
6DF5
330
74
100
AcDbEntity
  8
0
100
AcDbText
 10
12.34710033922837
 20
71.49832109174845
 30
0.0
 40
2.5
  1
警報ブザー
  7
BIGFONT
100
AcDbText
  0
TEXT
  5
6DF6
330
74
100
AcDbEntity
  8
0
100
AcDbText
 10
36.63281462494253
 20
71.49832109174845
 30
0.0
 40
2.5
  1
こじ開け警報・開扉警報（３０秒、６０秒選択）、施錠異常（オプション）
  7
BIGFONT
100
AcDbText
  0
LINE
  5
6DF7
330
74
100
AcDbEntity
  8
0
100
AcDbLine
 10
10.2720805056699
 20
70.56974966317702
 30
0.0
 11
178.6445235416355
 21
70.56974966317685
 31
0.0
  0
TEXT
  5
6DF8
330
74
100
AcDbEntity
  8
0
100
AcDbText
 10
14.42831365047786
 20
67.21260680603418
 30
0.0
 40
2.5
  1
使用環境
  7
BIGFONT
100
AcDbText
  0
TEXT
  5
6DF9
330
74
100
AcDbEntity
  8
0
100
AcDbText
 10
36.63281462494254
 20
67.21260680603418
 30
0.0
 40
2.5
  1
屋内専用、　０℃～４０℃　３０～９０％ＰＨ（結露なきこと）
  7
BIGFONT
100
AcDbText
  0
LINE
  5
6DFA
330
74
100
AcDbEntity
  8
0
100
AcDbLine
 10
10.27208050566991
 20
40.56974966317726
 30
0.0
 11
178.6445235416355
 21
40.56974966317707
 31
0.0
  0
TEXT
  5
6DFB
330
74
100
AcDbEntity
  8
0
100
AcDbText
 10
36.63281462494253
 20
50.06974966317715
 30
0.0
 40
2.5
  1
施錠入力
  7
BIGFONT
100
AcDbText
  0
LINE
  5
6DFC
330
74
100
AcDbEntity
  8
0
100
AcDbLine
 10
10.2720805056699
 20
49.14117823460569
 30
0.0
 11
178.6445235416355
 21
49.14117823460552
 31
0.0
  0
TEXT
  5
6DFD
330
74
100
AcDbEntity
  8
0
100
AcDbText
 10
36.63281462494254
 20
45.78403537746287
 30
0.0
 40
2.5
  1
JEM-A 出力
  7
BIGFONT
100
AcDbText
  0
TEXT
  5
6DFE
330
74
100
AcDbEntity
  8
0
100
AcDbText
 10
14.42831365047785
 20
45.78403537746292
 30
0.0
 40
2.5
  1
外部出力
  7
BIGFONT
100
AcDbText
  0
LINE
  5
6DFF
330
74
100
AcDbEntity
  8
0
100
AcDbLine
 10
10.27208050566991
 20
44.8554639488914
 30
0.0
 11
178.6445235416355
 21
44.85546394889124
 31
0.0
  0
TEXT
  5
6E00
330
74
100
AcDbEntity
  8
0
100
AcDbText
 10
36.63281462494254
 20
41.49832109174859
 30
0.0
 40
2.5
  1
無電圧Ｃ接点
  7
BIGFONT
100
AcDbText
  0
LINE
  5
6E02
330
74
100
AcDbEntity
  8
0
100
AcDbLine
 10
10.27208050566991
 20
27.71260680603453
 30
0.0
 11
178.6445235416355
 21
27.71260680603435
 31
0.0
  0
TEXT
  5
6E03
330
74
100
AcDbEntity
  8
0
100
AcDbText
 10
36.63281462494253
 20
37.21260680603442
 30
0.0
 40
2.5
  1
ブザー設定
  7
BIGFONT
100
AcDbText
  0
LINE
  5
6E04
330
74
100
AcDbEntity
  8
0
100
AcDbLine
 10
10.2720805056699
 20
36.28403537746296
 30
0.0
 11
178.6445235416355
 21
36.28403537746279
 31
0.0
  0
TEXT
  5
6E05
330
74
100
AcDbEntity
  8
0
100
AcDbText
 10
36.63281462494254
 20
32.92689252032014
 30
0.0
 40
2.5
  1
接点制御
  7
BIGFONT
100
AcDbText
  0
TEXT
  5
6E06
330
74
100
AcDbEntity
  8
0
100
AcDbText
 10
11.35565669414458
 20
32.92689252032019
 30
0.0
 40
2.5
  1
自動ドア制御
  7
BIGFONT
100
AcDbText
  0
LINE
  5
6E07
330
74
100
AcDbEntity
  8
0
100
AcDbLine
 10
35.27208050566991
 20
31.99832109174865
 30
0.0
 11
178.6445235416355
 21
31.99832109174851
 31
0.0
  0
TEXT
  5
6E08
330
74
100
AcDbEntity
  8
0
100
AcDbText
 10
36.63281462494254
 20
28.64117823460586
 30
0.0
 40
2.5
  1
センサー制御
  7
BIGFONT
100
AcDbText
  0
TEXT
  5
6E09
330
74
100
AcDbEntity
  8
0
100
AcDbText
 10
14.42831365047785
 20
37.2126068060344
 30
0.0
 40
2.5
  1
設定詳細
  7
BIGFONT
100
AcDbText
  0
LINE
  5
6E0A
330
74
100
AcDbEntity
  8
0
100
AcDbLine
 10
63.86441861012849
 20
66.28403537746269
 30
0.0
 11
63.86441861012849
 21
27.7126068060345
 31
0.0
  0
LINE
  5
6E0B
330
74
100
AcDbEntity
  8
0
100
AcDbLine
 10
169.7701688001111
 20
66.28403537746255
 30
0.0
 11
169.7701688001112
 21
40.56974966317708
 31
0.0
  0
TEXT
  5
6E0D
330
74
100
AcDbEntity
  8
0
100
AcDbText
 10
65.2251527294011
 20
62.92689252031987
 30
0.0
 40
2.5
  1
１回線解錠入力
  7
BIGFONT
100
AcDbText
  0
TEXT
  5
6E0E
330
74
100
AcDbEntity
  8
0
100
AcDbText
 10
65.22515272940111
 20
58.64117823460559
 30
0.0
 40
2.5
  1
１，２，３ボタン入力
  7
BIGFONT
100
AcDbText
  0
TEXT
  5
6E0F
330
74
100
AcDbEntity
  8
0
100
AcDbText
 10
65.22515272940111
 20
54.35546394889131
 30
0.0
 40
2.5
  1
解錠ボタン及びタイマー設定入力
  7
BIGFONT
100
AcDbText
  0
TEXT
  5
6E10
330
74
100
AcDbEntity
  8
0
100
AcDbText
 10
65.2251527294011
 20
50.06974966317713
 30
0.0
 40
2.5
  1
施錠ボタン及びタイマー設定入力
  7
BIGFONT
100
AcDbText
  0
TEXT
  5
6E11
330
74
100
AcDbEntity
  8
0
100
AcDbText
 10
65.22515272940111
 20
41.49832109174858
 30
0.0
 40
2.5
  1
接点容量ＤＣ30Ｖ　１A以下
  7
BIGFONT
100
AcDbText
  0
TEXT
  5
6E12
330
74
100
AcDbEntity
  8
0
100
AcDbText
 10
65.2251527294011
 20
37.2126068060344
 30
0.0
 40
2.5
  1
ON／OFF設定可能
  7
BIGFONT
100
AcDbText
  0
LINE
  5
6E14
330
74
100
AcDbEntity
  8
0
100
AcDbLine
 10
119.4490499317116
 20
66.28403537746265
 30
0.0
 11
119.4490499317116
 21
57.71260680603408
 31
0.0
  0
TEXT
  5
6E15
330
74
100
AcDbEntity
  8
0
100
AcDbText
 10
120.8097840509843
 20
62.92689252031983
 30
0.0
 40
2.5
  1
オープンコレクタ３０Ｖ以下
  7
BIGFONT
100
AcDbText
  0
TEXT
  5
6E16
330
74
100
AcDbEntity
  8
0
100
AcDbText
 10
120.8097840509843
 20
58.64117823460555
 30
0.0
 40
2.5
  1
１～８桁暗証番号照合方式
  7
BIGFONT
100
AcDbText
  0
TEXT
  5
6E19
330
74
100
AcDbEntity
  8
0
100
AcDbText
 10
65.22515272940111
 20
45.78403537746288
 30
0.0
 40
2.5
  1
開扉施錠出力
  7
BIGFONT
100
AcDbText
  0
TEXT
  5
6E1A
330
74
100
AcDbEntity
  8
0
100
AcDbText
 10
120.8097840509843
 20
45.78403537746285
 30
0.0
 40
2.5
  1
２０mAカレント　連続出力
  7
BIGFONT
100
AcDbText
  0
LINE
  5
6E21
330
74
100
AcDbEntity
  8
0
100
AcDbLine
 10
119.4490499317117
 20
49.14117823460562
 30
0.0
 11
119.4490499317117
 21
44.85546394889134
 31
0.0
  0
TEXT
  5
6E23
330
74
100
AcDbEntity
  8
0
100
AcDbText
 10
76.29803412240566
 20
32.92689252032014
 30
0.0
 40
2.5
  1
○
  7
BIGFONT
100
AcDbText
  0
TEXT
  5
6E24
330
74
100
AcDbEntity
  8
0
100
AcDbText
 10
76.29803412240566
 20
28.64117823460586
 30
0.0
 40
2.5
  1
○
  7
BIGFONT
100
AcDbText
  0
TEXT
  5
6E25
330
74
100
AcDbEntity
  8
0
100
AcDbText
 10
171.1309029193838
 20
62.9268925203199
 30
0.0
 40
2.5
  1
１点
  7
BIGFONT
100
AcDbText
  0
TEXT
  5
6E26
330
74
100
AcDbEntity
  8
0
100
AcDbText
 10
171.1309029193838
 20
58.64117823460562
 30
0.0
 40
2.5
  1
１点
  7
BIGFONT
100
AcDbText
  0
TEXT
  5
6E27
330
74
100
AcDbEntity
  8
0
100
AcDbText
 10
171.1309029193838
 20
54.35546394889145
 30
0.0
 40
2.5
  1
１点
  7
BIGFONT
100
AcDbText
  0
TEXT
  5
6E28
330
74
100
AcDbEntity
  8
0
100
AcDbText
 10
171.1309029193838
 20
50.06974966317716
 30
0.0
 40
2.5
  1
１点
  7
BIGFONT
100
AcDbText
  0
TEXT
  5
6E29
330
74
100
AcDbEntity
  8
0
100
AcDbText
 10
171.1309029193838
 20
45.78403537746289
 30
0.0
 40
2.5
  1
１点
  7
BIGFONT
100
AcDbText
  0
TEXT
  5
6E2A
330
74
100
AcDbEntity
  8
0
100
AcDbText
 10
171.1309029193838
 20
41.49832109174872
 30
0.0
 40
2.5
  1
１点
  7
BIGFONT
100
AcDbText
  0
LINE
  5
6E2C
330
74
100
AcDbEntity
  8
1
  6
DASHDOT
 62
     7
100
AcDbLine
 10
132.8873294330823
 20
201.0517723174757
 30
0.0
 11
154.135593207113
 21
201.0517723174757
 31
0.0
  0
HATCH
  5
6E47
330
74
100
AcDbEntity
  8
0
  6
Continuous
100
AcDbHatch
 10
0.0
 20
0.0
 30
0.0
210
0.0
220
0.0
230
1.0
  2
SOLID
 70
     1
 71
     0
 91
        1
 92
        7
 72
     0
 73
     1
 93
        8
 10
117.6253710061619
 20
9.981736790489129
 10
121.253496006162
 20
10.88173679048922
 10
122.5753710061618
 20
13.21611179048913
 10
119.8191210061617
 20
13.58173679048904
 10
119.847246006162
 20
13.24423679048917
 10
122.097246006162
 20
12.96298679048917
 10
120.9159960061618
 20
11.10673679048913
 10
117.6253710061619
 20
10.37548679048908
 97
        1
330
6E48
 75
     0
 76
     1
 47
0.651316
 98
        1
 10
75.04412100616187
 20
-161.1026382095108
  0
LWPOLYLINE
  5
6E48
330
74
100
AcDbEntity
  8
0
  6
Continuous
100
AcDbPolyline
 90
        8
 70
     0
 43
0.1
 10
117.6253710061619
 20
9.981736790489129
 10
121.253496006162
 20
10.88173679048922
 10
122.5753710061618
 20
13.21611179048913
 10
119.8191210061617
 20
13.58173679048904
 10
119.847246006162
 20
13.24423679048917
 10
122.097246006162
 20
12.96298679048917
 10
120.9159960061618
 20
11.10673679048913
 10
117.6253710061619
 20
10.37548679048908
  0
HATCH
  5
6E49
330
74
100
AcDbEntity
  8
0
  6
Continuous
100
AcDbHatch
 10
0.0
 20
0.0
 30
0.0
210
0.0
220
0.0
230
1.0
  2
SOLID
 70
     1
 71
     0
 91
        1
 92
        7
 72
     0
 73
     1
 93
       13
 10
117.175371006162
 20
13.89111179048908
 10
117.175371006162
 20
11.24736179048913
 10
118.6659960061618
 20
11.24736179048913
 10
118.6659960061618
 20
11.72548679048922
 10
117.6816210061618
 20
11.72548679048922
 10
117.6816210061618
 20
12.28798679048922
 10
118.6659960061618
 20
12.28798679048922
 10
118.6659960061618
 20
12.85048679048922
 10
117.6816210061618
 20
12.85048679048922
 10
117.6816210061618
 20
13.38486179048917
 10
118.6659960061618
 20
13.38486179048917
 10
118.6659960061618
 20
13.89111179048908
 10
117.1472460061617
 20
13.89111179048908
 97
        1
330
6E4A
 75
     0
 76
     1
 47
0.651316
 98
        1
 10
75.04412100616187
 20
-161.1026382095108
  0
LWPOLYLINE
  5
6E4A
330
74
100
AcDbEntity
  8
0
  6
Continuous
100
AcDbPolyline
 90
       13
 70
     0
 43
0.1
 10
117.175371006162
 20
13.89111179048908
 10
117.175371006162
 20
11.24736179048913
 10
118.6659960061618
 20
11.24736179048913
 10
118.6659960061618
 20
11.72548679048922
 10
117.6816210061618
 20
11.72548679048922
 10
117.6816210061618
 20
12.28798679048922
 10
118.6659960061618
 20
12.28798679048922
 10
118.6659960061618
 20
12.85048679048922
 10
117.6816210061618
 20
12.85048679048922
 10
117.6816210061618
 20
13.38486179048917
 10
118.6659960061618
 20
13.38486179048917
 10
118.6659960061618
 20
13.89111179048908
 10
117.1472460061617
 20
13.89111179048908
  0
HATCH
  5
6E4B
330
74
100
AcDbEntity
  8
0
  6
Continuous
100
AcDbHatch
 10
0.0
 20
0.0
 30
0.0
210
0.0
220
0.0
230
1.0
  2
SOLID
 70
     1
 71
     0
 91
        1
 92
        7
 72
     0
 73
     1
 93
        8
 10
117.6253710061619
 20
9.981736790489129
 10
113.9972460061619
 20
10.88173679048922
 10
112.6472460061617
 20
13.21611179048913
 10
115.4034960061618
 20
13.58173679048904
 10
115.4034960061618
 20
13.24423679048917
 10
113.1534960061618
 20
12.96298679048917
 10
114.3347460061617
 20
11.10673679048913
 10
117.6253710061619
 20
10.37548679048908
 97
        1
330
6E4C
 75
     0
 76
     1
 47
0.651316
 98
        1
 10
75.04412100616187
 20
-161.1026382095108
  0
LWPOLYLINE
  5
6E4C
330
74
100
AcDbEntity
  8
0
  6
Continuous
100
AcDbPolyline
 90
        8
 70
     0
 43
0.1
 10
117.6253710061619
 20
9.981736790489129
 10
113.9972460061619
 20
10.88173679048922
 10
112.6472460061617
 20
13.21611179048913
 10
115.4034960061618
 20
13.58173679048904
 10
115.4034960061618
 20
13.24423679048917
 10
113.1534960061618
 20
12.96298679048917
 10
114.3347460061617
 20
11.10673679048913
 10
117.6253710061619
 20
10.37548679048908
  0
HATCH
  5
6E4D
330
74
100
AcDbEntity
  8
0
  6
Continuous
100
AcDbHatch
 10
0.0
 20
0.0
 30
0.0
210
0.0
220
0.0
230
1.0
  2
SOLID
 70
     1
 71
     0
 91
        1
 92
        7
 72
     0
 73
     1
 93
       47
 10
115.5441210061618
 20
13.89111179048908
 10
116.753496006162
 20
13.89111179048908
 10
116.753496006162
 20
11.86611179048922
 10
116.753496006162
 20
11.75361179048904
 10
116.7253710061617
 20
11.66923679048913
 10
116.6691210061618
 20
11.58486179048922
 10
116.6409960061619
 20
11.47236179048904
 10
116.5847460061617
 20
11.41611179048917
 10
116.5003710061619
 20
11.33173679048904
 10
116.4159960061618
 20
11.27548679048917
 10
116.3034960061617
 20
11.24736179048913
 10
116.2191210061619
 20
11.21923679048908
 10
116.1066210061618
 20
11.21923679048908
 10
115.9941210061618
 20
11.21923679048908
 10
115.8816210061617
 20
11.24736179048913
 10
115.7972460061619
 20
11.27548679048917
 10
115.7128710061618
 20
11.33173679048904
 10
115.628496006162
 20
11.41611179048917
 10
115.5722460061618
 20
11.47236179048904
 10
115.5159960061619
 20
11.58486179048922
 10
115.487871006162
 20
11.66923679048913
 10
115.4597460061617
 20
11.75361179048904
 10
115.4316210061618
 20
11.86611179048922
 10
115.4316210061618
 20
12.09111179048913
 10
115.6847460061618
 20
11.92236179048908
 10
115.7128710061618
 20
11.89423679048904
 10
115.7128710061618
 20
11.86611179048922
 10
115.7128710061618
 20
11.83798679048917
 10
115.7409960061617
 20
11.80986179048913
 10
115.769121006162
 20
11.78173679048908
 10
115.7972460061619
 20
11.75361179048904
 10
115.8253710061619
 20
11.72548679048922
 10
115.8816210061617
 20
11.69736179048917
 10
115.9378710061619
 20
11.69736179048917
 10
115.9941210061618
 20
11.69736179048917
 10
116.050371006162
 20
11.69736179048917
 10
116.0784960061619
 20
11.69736179048917
 10
116.1347460061618
 20
11.72548679048922
 10
116.1628710061617
 20
11.75361179048904
 10
116.2191210061619
 20
11.78173679048908
 10
116.2472460061618
 20
11.78173679048908
 10
116.2472460061618
 20
11.80986179048913
 10
116.2753710061618
 20
11.83798679048917
 10
116.3034960061617
 20
11.89423679048904
 10
116.3034960061617
 20
11.92236179048908
 10
116.3034960061617
 20
13.60986179048908
 10
115.5441210061618
 20
13.60986179048908
 97
        1
330
6E4E
 75
     0
 76
     1
 47
0.651316
 98
        1
 10
75.04412100616187
 20
-161.1026382095108
  0
LWPOLYLINE
  5
6E4E
330
74
100
AcDbEntity
  8
0
  6
Continuous
100
AcDbPolyline
 90
       47
 70
     1
 43
0.1
 10
115.5441210061618
 20
13.89111179048908
 10
116.753496006162
 20
13.89111179048908
 10
116.753496006162
 20
11.86611179048922
 10
116.753496006162
 20
11.75361179048904
 10
116.7253710061617
 20
11.66923679048913
 10
116.6691210061618
 20
11.58486179048922
 10
116.6409960061619
 20
11.47236179048904
 10
116.5847460061617
 20
11.41611179048917
 10
116.5003710061619
 20
11.33173679048904
 10
116.4159960061618
 20
11.27548679048917
 10
116.3034960061617
 20
11.24736179048913
 10
116.2191210061619
 20
11.21923679048908
 10
116.1066210061618
 20
11.21923679048908
 10
115.9941210061618
 20
11.21923679048908
 10
115.8816210061617
 20
11.24736179048913
 10
115.7972460061619
 20
11.27548679048917
 10
115.7128710061618
 20
11.33173679048904
 10
115.628496006162
 20
11.41611179048917
 10
115.5722460061618
 20
11.47236179048904
 10
115.5159960061619
 20
11.58486179048922
 10
115.487871006162
 20
11.66923679048913
 10
115.4597460061617
 20
11.75361179048904
 10
115.4316210061618
 20
11.86611179048922
 10
115.4316210061618
 20
12.09111179048913
 10
115.6847460061618
 20
11.92236179048908
 10
115.7128710061618
 20
11.89423679048904
 10
115.7128710061618
 20
11.86611179048922
 10
115.7128710061618
 20
11.83798679048917
 10
115.7409960061617
 20
11.80986179048913
 10
115.769121006162
 20
11.78173679048908
 10
115.7972460061619
 20
11.75361179048904
 10
115.8253710061619
 20
11.72548679048922
 10
115.8816210061617
 20
11.69736179048917
 10
115.9378710061619
 20
11.69736179048917
 10
115.9941210061618
 20
11.69736179048917
 10
116.050371006162
 20
11.69736179048917
 10
116.0784960061619
 20
11.69736179048917
 10
116.1347460061618
 20
11.72548679048922
 10
116.1628710061617
 20
11.75361179048904
 10
116.2191210061619
 20
11.78173679048908
 10
116.2472460061618
 20
11.78173679048908
 10
116.2472460061618
 20
11.80986179048913
 10
116.2753710061618
 20
11.83798679048917
 10
116.3034960061617
 20
11.89423679048904
 10
116.3034960061617
 20
11.92236179048908
 10
116.3034960061617
 20
13.60986179048908
 10
115.5441210061618
 20
13.60986179048908
  0
HATCH
  5
6E4F
330
74
100
AcDbEntity
  8
0
  6
Continuous
100
AcDbHatch
 10
0.0
 20
0.0
 30
0.0
210
0.0
220
0.0
230
1.0
  2
SOLID
 70
     1
 71
     0
 91
        1
 92
        7
 72
     0
 73
     1
 93
        5
 10
119.1159960061617
 20
13.89111179048908
 10
119.1159960061617
 20
11.24736179048913
 10
119.6222460061618
 20
11.24736179048913
 10
119.6222460061618
 20
13.86298679048904
 10
119.1159960061617
 20
13.86298679048904
 97
        1
330
6E50
 75
     0
 76
     1
 47
0.651316
 98
        1
 10
75.04412100616187
 20
-161.1026382095108
  0
LWPOLYLINE
  5
6E50
330
74
100
AcDbEntity
  8
0
  6
Continuous
100
AcDbPolyline
 90
        5
 70
     0
 43
0.1
 10
119.1159960061617
 20
13.89111179048908
 10
119.1159960061617
 20
11.24736179048913
 10
119.6222460061618
 20
11.24736179048913
 10
119.6222460061618
 20
13.86298679048904
 10
119.1159960061617
 20
13.86298679048904
  0
MTEXT
  5
6EF7
330
74
100
AcDbEntity
  8
0
100
AcDbMText
 10
96.81249999999998
 20
275.05
 30
0.0
 40
3.5
 41
50.0
 71
     5
 72
     5
  1
{\fMS PMincho|b0|i0|c128|p18;１回線用電気錠制御器}
 73
     1
 44
1.0
1001
ACAD
1000
MTEXTBEGIN
1070
    73
1070
     1
1070
    44
1040
1.0
1070
    74
1070
     0
1000
MTEXTEND
  0
MTEXT
  5
6EFA
330
74
100
AcDbEntity
  8
0
100
AcDbMText
 10
184.4249999999999
 20
275.05
 30
0.0
 40
3.5
 41
50.0
 71
     6
 72
     5
  1
{\fMS PMincho|b0|i0|c128|p18;WP0010-01}
 73
     1
 44
1.0
1001
ACAD
1000
MTEXTBEGIN
1070
    73
1070
     1
1070
    44
1040
1.0
1070
    74
1070
     0
1000
MTEXTEND
  0
ENDSEC
  0
SECTION
  2
OBJECTS
  0
DICTIONARY
  5
C
330
0
100
AcDbDictionary
281
     1
  3
ACAD_COLOR
350
6A
  3
ACAD_GROUP
350
D
  3
ACAD_LAYOUT
350
69
  3
ACAD_MATERIAL
350
10
  3
ACAD_MLEADERSTYLE
350
6D
  3
ACAD_MLINESTYLE
350
66
  3
ACAD_PLOTSETTINGS
350
68
  3
ACAD_PLOTSTYLENAME
350
E
  3
ACAD_SCALELIST
350
3A
  3
ACAD_TABLESTYLE
350
6B
  3
ACAD_VISUALSTYLE
350
29
  3
ACDB_RECOMPOSE_DATA
350
6AAE
  3
AcDbVariableDictionary
350
6AC6
  3
DWGPROPS
350
6F08
  0
DICTIONARY
  5
6AB0
330
8
100
AcDbDictionary
280
     1
281
     1
  0
DICTIONARY
  5
6E37
330
2
100
AcDbDictionary
280
     1
281
     1
  3
ACAD_LAYERSTATES
360
6E38
  0
DICTIONARY
  5
6A94
330
5C
100
AcDbDictionary
280
     1
281
     1
  3
ADSK_XREC_LAYER_RECONCILED
360
6A95
  0
DICTIONARY
  5
6A96
330
7C
100
AcDbDictionary
280
     1
281
     1
  3
ADSK_XREC_LAYER_RECONCILED
360
6A97
  0
DICTIONARY
  5
6A98
330
7D
100
AcDbDictionary
280
     1
281
     1
  3
ADSK_XREC_LAYER_RECONCILED
360
6A99
  0
DICTIONARY
  5
6A9A
330
7E
100
AcDbDictionary
280
     1
281
     1
  3
ADSK_XREC_LAYER_RECONCILED
360
6A9B
  0
DICTIONARY
  5
6A9C
330
7F
100
AcDbDictionary
280
     1
281
     1
  3
ADSK_XREC_LAYER_RECONCILED
360
6A9D
  0
DICTIONARY
  5
6A9E
330
80
100
AcDbDictionary
280
     1
281
     1
  3
ADSK_XREC_LAYER_RECONCILED
360
6A9F
  0
DICTIONARY
  5
6AA0
330
81
100
AcDbDictionary
280
     1
281
     1
  3
ADSK_XREC_LAYER_RECONCILED
360
6AA1
  0
DICTIONARY
  5
6AA2
330
82
100
AcDbDictionary
280
     1
281
     1
  3
ADSK_XREC_LAYER_RECONCILED
360
6AA3
  0
DICTIONARY
  5
6AA4
330
83
100
AcDbDictionary
280
     1
281
     1
  3
ADSK_XREC_LAYER_RECONCILED
360
6AA5
  0
DICTIONARY
  5
6AA6
330
84
100
AcDbDictionary
280
     1
281
     1
  3
ADSK_XREC_LAYER_RECONCILED
360
6AA7
  0
DICTIONARY
  5
6AA8
330
85
100
AcDbDictionary
280
     1
281
     1
  3
ADSK_XREC_LAYER_RECONCILED
360
6AA9
  0
DICTIONARY
  5
6AAA
330
86
100
AcDbDictionary
280
     1
281
     1
  3
ADSK_XREC_LAYER_RECONCILED
360
6AAB
  0
DICTIONARY
  5
6A81
330
74
100
AcDbDictionary
280
     1
281
     1
  3
ACAD_SORTENTS
360
6A82
  0
DICTIONARY
  5
6A
102
{ACAD_REACTORS
330
C
102
}
330
C
100
AcDbDictionary
281
     1
  0
DICTIONARY
  5
D
102
{ACAD_REACTORS
330
C
102
}
330
C
100
AcDbDictionary
281
     1
  0
DICTIONARY
  5
69
102
{ACAD_REACTORS
330
C
102
}
330
C
100
AcDbDictionary
281
     1
  3
Model
350
77
  3
レイアウト1
350
73
  0
DICTIONARY
  5
10
102
{ACAD_REACTORS
330
C
102
}
330
C
100
AcDbDictionary
281
     1
  3
ByBlock
350
19
  3
ByLayer
350
11
  3
Global
350
21
  0
DICTIONARY
  5
6D
102
{ACAD_REACTORS
330
C
102
}
330
C
100
AcDbDictionary
281
     1
  3
Standard
350
6E
  0
DICTIONARY
  5
66
102
{ACAD_REACTORS
330
C
102
}
330
C
100
AcDbDictionary
281
     1
  3
Standard
350
67
  0
DICTIONARY
  5
68
102
{ACAD_REACTORS
330
C
102
}
330
C
100
AcDbDictionary
281
     1
  0
ACDBDICTIONARYWDFLT
  5
E
102
{ACAD_REACTORS
330
C
102
}
330
C
100
AcDbDictionary
281
     1
  3
Normal
350
F
100
AcDbDictionaryWithDefault
340
F
  0
DICTIONARY
  5
3A
102
{ACAD_REACTORS
330
C
102
}
330
C
100
AcDbDictionary
281
     1
  3
A0
350
3B
  3
A1
350
3C
  3
A2
350
3D
  3
A3
350
3E
  3
A4
350
3F
  3
A5
350
40
  3
A6
350
41
  3
A7
350
42
  3
A8
350
43
  3
A9
350
44
  3
B0
350
45
  3
B1
350
46
  3
B2
350
47
  3
B3
350
48
  3
B4
350
49
  3
B5
350
4A
  3
B6
350
4B
  3
B7
350
4C
  3
B8
350
4D
  3
B9
350
4E
  3
C0
350
4F
  3
C1
350
50
  3
C2
350
51
  3
C3
350
52
  3
C4
350
53
  3
C5
350
54
  3
C6
350
55
  3
C7
350
56
  3
C8
350
57
  3
C9
350
58
  3
D0
350
59
  3
D1
350
5A
  3
D2
350
5B
  0
DICTIONARY
  5
6B
102
{ACAD_REACTORS
330
C
102
}
330
C
100
AcDbDictionary
281
     1
  3
Standard
350
6C
  0
DICTIONARY
  5
29
102
{ACAD_REACTORS
330
C
102
}
330
C
100
AcDbDictionary
281
     1
  3
2dWireframe
350
2F
  3
3D Hidden
350
31
  3
3dWireframe
350
30
  3
Basic
350
2E
  3
Brighten
350
35
  3
ColorChange
350
39
  3
Conceptual
350
32
  3
Dim
350
34
  3
Facepattern
350
38
  3
Flat
350
2A
  3
FlatWithEdges
350
2B
  3
Gouraud
350
2C
  3
GouraudWithEdges
350
2D
  3
Linepattern
350
37
  3
Realistic
350
33
  3
Thicken
350
36
  0
XRECORD
  5
6AAE
102
{ACAD_REACTORS
330
C
102
}
330
C
100
AcDbXrecord
280
     1
 90
        1
330
6C
  0
DICTIONARY
  5
6AC6
102
{ACAD_REACTORS
330
C
102
}
330
C
100
AcDbDictionary
281
     1
  3
CANNOSCALE
350
6AC9
  3
CMLEADERSTYLE
350
6AC8
  3
CTABLESTYLE
350
6AC7
  3
DIMASSOC
350
6ACC
  3
INDEXCTL
350
6ACB
  3
LIGHTINGUNITS
350
6B32
  3
MSLTSCALE
350
6B31
  3
SORTENTS
350
6ACA
  0
XRECORD
  5
6F08
102
{ACAD_REACTORS
330
C
102
}
330
C
100
AcDbXrecord
280
     1
  1
DWGPROPS COOKIE
  2

  3

  4

  6

  7

  8
Takeshi_Nakagawa
  9

300
=
301
=
302
=
303
=
304
=
305
=
306
=
307
=
308
=
309
=
 40
0.2552641203703704
 41
2311888.137615671
 42
2456552.472540023
  1

 90
        0
  0
DICTIONARY
  5
6E38
102
{ACAD_REACTORS
330
6E37
102
}
330
6E37
100
AcDbDictionary
281
     1
  0
XRECORD
  5
6A95
102
{ACAD_REACTORS
330
6A94
102
}
330
6A94
100
AcDbXrecord
280
     1
290
     1
  0
XRECORD
  5
6A97
102
{ACAD_REACTORS
330
6A96
102
}
330
6A96
100
AcDbXrecord
280
     1
290
     1
  0
XRECORD
  5
6A99
102
{ACAD_REACTORS
330
6A98
102
}
330
6A98
100
AcDbXrecord
280
     1
290
     1
  0
XRECORD
  5
6A9B
102
{ACAD_REACTORS
330
6A9A
102
}
330
6A9A
100
AcDbXrecord
280
     1
290
     1
  0
XRECORD
  5
6A9D
102
{ACAD_REACTORS
330
6A9C
102
}
330
6A9C
100
AcDbXrecord
280
     1
290
     1
  0
XRECORD
  5
6A9F
102
{ACAD_REACTORS
330
6A9E
102
}
330
6A9E
100
AcDbXrecord
280
     1
290
     1
  0
XRECORD
  5
6AA1
102
{ACAD_REACTORS
330
6AA0
102
}
330
6AA0
100
AcDbXrecord
280
     1
290
     1
  0
XRECORD
  5
6AA3
102
{ACAD_REACTORS
330
6AA2
102
}
330
6AA2
100
AcDbXrecord
280
     1
290
     1
  0
XRECORD
  5
6AA5
102
{ACAD_REACTORS
330
6AA4
102
}
330
6AA4
100
AcDbXrecord
280
     1
290
     1
  0
XRECORD
  5
6AA7
102
{ACAD_REACTORS
330
6AA6
102
}
330
6AA6
100
AcDbXrecord
280
     1
290
     1
  0
XRECORD
  5
6AA9
102
{ACAD_REACTORS
330
6AA8
102
}
330
6AA8
100
AcDbXrecord
280
     1
290
     1
  0
XRECORD
  5
6AAB
102
{ACAD_REACTORS
330
6AAA
102
}
330
6AAA
100
AcDbXrecord
280
     1
290
     1
  0
SORTENTSTABLE
  5
6A82
102
{ACAD_REACTORS
330
6A81
102
}
330
6A81
100
AcDbSortentsTable
330
74
331
6B13
  5
6B13
331
7A7
  5
7A7
331
6C52
  5
6C52
331
6DC8
  5
6DC8
331
6E07
  5
6E07
331
6C5A
  5
6C5A
331
6B1B
  5
6B1B
331
3D86
  5
3D86
331
6DD0
  5
6DD0
331
6E0F
  5
6E0F
331
6DD8
  5
6DD8
331
6C62
  5
6C62
331
6B23
  5
6B23
331
68E5
  5
68F1
331
6B2B
  5
6B2B
331
6D49
  5
6D49
331
6DE0
  5
6DE0
331
3DAE
  5
3DAE
331
6D51
  5
6D51
331
6DE8
  5
6DE8
331
6C72
  5
6C72
331
3DEE
  5
3DEE
331
6DF0
  5
6DF0
331
6C7A
  5
6C7A
331
3DF6
  5
3DF6
331
6DF8
  5
6DF8
331
6C4B
  5
6C4B
331
6E00
  5
6E00
331
6B14
  5
6B14
331
7A8
  5
7A8
331
6C53
  5
6C53
331
6DC9
  5
6DC9
331
6E08
  5
6E08
331
6C5B
  5
6C5B
331
6B1C
  5
6B1C
331
6DD1
  5
6DD1
331
6E10
  5
6E10
331
6DD9
  5
6DD9
331
6C63
  5
6C63
331
6B24
  5
6B24
331
6B2C
  5
6B2C
331
6D4A
  5
6D4A
331
28E8
  5
28E8
331
6DE1
  5
6DE1
331
6D52
  5
6D52
331
6DE9
  5
6DE9
331
6C73
  5
6C73
331
3DEF
  5
3DEF
331
6DF1
  5
6DF1
331
6C7B
  5
6C7B
331
3DF7
  5
3DF7
331
6C44
  5
6C44
331
6DF9
  5
6DF9
331
6C4C
  5
6C4C
331
3BE8
  5
3BE8
331
6B15
  5
6B15
331
6C54
  5
6C54
331
6DCA
  5
6DCA
331
6E09
  5
6E09
331
6DD2
  5
6DD2
331
6B1D
  5
6B1D
331
3D88
  5
3D88
331
6E11
  5
6E11
331
6DDA
  5
6DDA
331
6C64
  5
6C64
331
6B25
  5
6B25
331
6E19
  5
6E1A
331
6D4B
  5
6D4B
331
6DE2
  5
6DE2
331
6E21
  5
6E15
331
6D53
  5
6D53
331
6DEA
  5
6DEA
331
6C74
  5
6C74
331
3DF0
  5
3DF0
331
6DF2
  5
6DF2
331
6C7C
  5
6C7C
331
3DF8
  5
3DF8
331
6C45
  5
6C45
331
6DBB
  5
6DBB
331
6DFA
  5
6DFA
331
6DC3
  5
6DC3
331
6C4D
  5
6C4D
331
6E02
  5
6E02
331
6B16
  5
6B16
331
6C55
  5
6C55
331
6DCB
  5
6DCB
331
6E0A
  5
6E0A
331
6DD3
  5
6DD3
331
6B1E
  5
6B1E
331
68E0
  5
68EC
331
3D89
  5
3D89
331
6E12
  5
6E12
331
6DDB
  5
6DDB
331
6C65
  5
6C65
331
6B26
  5
6B26
331
6E1A
  5
6E21
331
6D4C
  5
6D4C
331
6DE3
  5
6DE3
331
6DEB
  5
6DEB
331
6C75
  5
6C75
331
3DF1
  5
3DF1
331
6DF3
  5
6DF3
331
6C7D
  5
6C7D
331
6C46
  5
6C46
331
3BE2
  5
3BE2
331
6DBC
  5
6DBC
331
6DFB
  5
6DFB
331
6DC4
  5
6DC4
331
6C4E
  5
6C4E
331
3E09
  5
3E09
331
6E03
  5
6E03
331
6B17
  5
6B17
331
6C56
  5
6C56
331
6DCC
  5
6DCC
331
6E0B
  5
6E0B
331
6DD4
  5
6DD4
331
6B1F
  5
6B1F
331
68E1
  5
68ED
331
6DDC
  5
6DDC
331
6C66
  5
6C66
331
6B27
  5
6B27
331
6D4D
  5
6D4D
331
6C6E
  5
6C6E
331
6D55
  5
6D55
331
6DEC
  5
6DEC
331
6C76
  5
6C76
331
3DF2
  5
3DF2
331
3BDB
  5
3BDB
331
6DAD
  5
6DAD
331
6DF4
  5
6DF4
331
6C47
  5
6C47
331
3BE3
  5
3BE3
331
6DFC
  5
6DFC
331
6DC5
  5
6DC5
331
6C4F
  5
6C4F
331
6B10
  5
6B10
331
3E0A
  5
3E0A
331
6E04
  5
6E04
331
6DCD
  5
6DCD
331
6C57
  5
6C57
331
6B18
  5
6B18
331
4AA2
  5
4AA2
331
6C5F
  5
6C5F
331
6B20
  5
6B20
331
68E2
  5
68EE
331
28B4
  5
28B4
331
6DD5
  5
6DD5
331
6E14
  5
6E14
331
6DDD
  5
6DDD
331
6C67
  5
6C67
331
28BC
  5
28BC
331
6D4E
  5
6D4E
331
6DE5
  5
6DE5
331
3DEB
  5
3DEB
331
3BCC
  5
3BCC
331
6DED
  5
6DED
331
6C77
  5
6C77
331
3BDC
  5
3BDC
331
6DF5
  5
6DF5
331
6C48
  5
6C48
331
3BE4
  5
3BE4
331
6DFD
  5
6DFD
331
6DC6
  5
6DC6
331
6B11
  5
6B11
331
3E0B
  5
3E0B
331
6C50
  5
6C50
331
6E05
  5
6E05
331
6DCE
  5
6DCE
331
6C58
  5
6C58
331
6B19
  5
6B19
331
4AA3
  5
4AA3
331
6E0D
  5
6E0D
331
6DD6
  5
6DD6
331
6C60
  5
6C60
331
6B21
  5
6B21
331
6E15
  5
6E16
331
6DDE
  5
6DDE
331
6D47
  5
6D47
331
6D4F
  5
6D4F
331
6C68
  5
6C68
331
6DE6
  5
6DE6
331
3DEC
  5
3DEC
331
3DF4
  5
3DF4
331
3BDD
  5
3BDD
331
6C78
  5
6C78
331
6DF6
  5
6DF6
331
3BE5
  5
3BE5
331
6C49
  5
6C49
331
6DFE
  5
6DFE
331
6DC7
  5
6DC7
331
3E0C
  5
3E0C
331
6B12
  5
6B12
331
6C51
  5
6C51
331
6E06
  5
6E06
331
6DCF
  5
6DCF
331
3D85
  5
3D85
331
6C59
  5
6C59
331
6E0E
  5
6E0E
331
6DD7
  5
6DD7
331
6C61
  5
6C61
331
6B22
  5
6B22
331
68E4
  5
68F0
331
6E16
  5
6E19
331
6DDF
  5
6DDF
331
6B2A
  5
6B2A
331
6D48
  5
6D48
331
6C69
  5
6C69
331
3DAD
  5
3DAD
331
6D50
  5
6D50
331
3DED
  5
3DED
331
6C79
  5
6C79
331
3DF5
  5
3DF5
331
6DF7
  5
6DF7
331
6C4A
  5
6C4A
331
6DFF
  5
6DFF
  0
LAYOUT
  5
77
102
{ACAD_XDICTIONARY
360
6F0F
102
}
102
{ACAD_REACTORS
330
69
102
}
330
69
100
AcDbPlotSettings
  1

  2
SHARP MX-3610FN SPDL2-c
  4
A4
  6

 40
5.027082920074462
 41
5.027085781097412
 42
5.027069091796875
 43
5.027069091796875
 44
209.9733276367187
 45
296.9259948730469
 46
7.347087812423708
 47
7.535920000076345
 48
4.19999999999996
 49
8.274999999999998
140
189.4249999999999
141
280.0749999999999
142
1.0
143
1.0
 70
  3748
 72
     1
 73
     0
 74
     4
  7

 75
     0
147
1.05545194996377
148
-4.19999999999996
149
-8.274999999999998
100
AcDbLayout
  1
Model
 70
     1
 71
     0
 10
0.0
 20
0.0
 11
12.0
 21
9.0
 12
0.0
 22
0.0
 32
0.0
 14
0.0
 24
0.0
 34
0.0
 15
0.0
 25
0.0
 35
0.0
146
0.0
 13
0.0
 23
0.0
 33
0.0
 16
1.0
 26
0.0
 36
0.0
 17
0.0
 27
1.0
 37
0.0
 76
     0
330
74
331
6CE7
1001
ACAD_PSEXT
1000
SHARP MX-3610FN SPDL2-c
1000
SHARP MX-3610FN SPDL2-c
1000
IP_192.168.5.100
1000

1070
     0
  0
LAYOUT
  5
73
102
{ACAD_XDICTIONARY
360
6F0D
102
}
102
{ACAD_REACTORS
330
69
102
}
330
69
100
AcDbPlotSettings
  1

  2
RICOH imagio Color 5100 F51
  4

  6

 40
0.0
 41
0.0
 42
0.0
 43
0.0
 44
0.0
 45
0.0
 46
0.0
 47
0.0
 48
0.0
 49
0.0
140
0.0
141
0.0
142
1.0
143
1.0
 70
   688
 72
     0
 73
     0
 74
     5
  7
monochrome.ctb
 75
    16
147
1.0
148
0.0
149
0.0
100
AcDbLayout
  1
レイアウト1
 70
     1
 71
     1
 10
0.0
 20
0.0
 11
12.0
 21
9.0
 12
0.0
 22
0.0
 32
0.0
 14
0.0
 24
0.0
 34
0.0
 15
594.0
 25
420.0
 35
0.0
146
0.0
 13
0.0
 23
0.0
 33
0.0
 16
1.0
 26
0.0
 36
0.0
 17
0.0
 27
1.0
 37
0.0
 76
     0
330
70
  0
MATERIAL
  5
19
102
{ACAD_XDICTIONARY
360
1A
102
}
102
{ACAD_REACTORS
330
10
102
}
330
10
100
AcDbMaterial
  1
ByBlock
 72
     0
 43
0.0208333333333333
 43
0.0
 43
0.0
 43
0.0
 43
0.0
 43
0.0208333333333333
 43
0.0
 43
0.0
 43
0.0
 43
0.0
 43
1.0
 43
0.0
 43
0.0
 43
0.0
 43
0.0
 43
1.0
 77
     0
 47
0.0208333333333333
 47
0.0
 47
0.0
 47
0.0
 47
0.0
 47
0.0208333333333333
 47
0.0
 47
0.0
 47
0.0
 47
0.0
 47
1.0
 47
0.0
 47
0.0
 47
0.0
 47
0.0
 47
1.0
171
     0
 49
0.0208333333333333
 49
0.0
 49
0.0
 49
0.0
 49
0.0
 49
0.0208333333333333
 49
0.0
 49
0.0
 49
0.0
 49
0.0
 49
1.0
 49
0.0
 49
0.0
 49
0.0
 49
0.0
 49
1.0
175
     0
142
0.0208333333333333
142
0.0
142
0.0
142
0.0
142
0.0
142
0.0208333333333333
142
0.0
142
0.0
142
0.0
142
0.0
142
1.0
142
0.0
142
0.0
142
0.0
142
0.0
142
1.0
179
     0
144
0.0208333333333333
144
0.0
144
0.0
144
0.0
144
0.0
144
0.0208333333333333
144
0.0
144
0.0
144
0.0
144
0.0
144
1.0
144
0.0
144
0.0
144
0.0
144
0.0
144
1.0
147
0.0208333333333333
147
0.0
147
0.0
147
0.0
147
0.0
147
0.0208333333333333
147
0.0
147
0.0
147
0.0
147
0.0
147
1.0
147
0.0
147
0.0
147
0.0
147
0.0
147
1.0
  0
MATERIAL
  5
11
102
{ACAD_XDICTIONARY
360
12
102
}
102
{ACAD_REACTORS
330
10
102
}
330
10
100
AcDbMaterial
  1
ByLayer
 72
     0
 43
0.0208333333333333
 43
0.0
 43
0.0
 43
0.0
 43
0.0
 43
0.0208333333333333
 43
0.0
 43
0.0
 43
0.0
 43
0.0
 43
1.0
 43
0.0
 43
0.0
 43
0.0
 43
0.0
 43
1.0
 77
     0
 47
0.0208333333333333
 47
0.0
 47
0.0
 47
0.0
 47
0.0
 47
0.0208333333333333
 47
0.0
 47
0.0
 47
0.0
 47
0.0
 47
1.0
 47
0.0
 47
0.0
 47
0.0
 47
0.0
 47
1.0
171
     0
 49
0.0208333333333333
 49
0.0
 49
0.0
 49
0.0
 49
0.0
 49
0.0208333333333333
 49
0.0
 49
0.0
 49
0.0
 49
0.0
 49
1.0
 49
0.0
 49
0.0
 49
0.0
 49
0.0
 49
1.0
175
     0
142
0.0208333333333333
142
0.0
142
0.0
142
0.0
142
0.0
142
0.0208333333333333
142
0.0
142
0.0
142
0.0
142
0.0
142
1.0
142
0.0
142
0.0
142
0.0
142
0.0
142
1.0
179
     0
144
0.0208333333333333
144
0.0
144
0.0
144
0.0
144
0.0
144
0.0208333333333333
144
0.0
144
0.0
144
0.0
144
0.0
144
1.0
144
0.0
144
0.0
144
0.0
144
0.0
144
1.0
147
0.0208333333333333
147
0.0
147
0.0
147
0.0
147
0.0
147
0.0208333333333333
147
0.0
147
0.0
147
0.0
147
0.0
147
1.0
147
0.0
147
0.0
147
0.0
147
0.0
147
1.0
  0
MATERIAL
  5
21
102
{ACAD_XDICTIONARY
360
22
102
}
102
{ACAD_REACTORS
330
10
102
}
330
10
100
AcDbMaterial
  1
Global
 72
     0
 43
0.0208333333333333
 43
0.0
 43
0.0
 43
0.0
 43
0.0
 43
0.0208333333333333
 43
0.0
 43
0.0
 43
0.0
 43
0.0
 43
1.0
 43
0.0
 43
0.0
 43
0.0
 43
0.0
 43
1.0
 77
     0
 47
0.0208333333333333
 47
0.0
 47
0.0
 47
0.0
 47
0.0
 47
0.0208333333333333
 47
0.0
 47
0.0
 47
0.0
 47
0.0
 47
1.0
 47
0.0
 47
0.0
 47
0.0
 47
0.0
 47
1.0
171
     0
 49
0.0208333333333333
 49
0.0
 49
0.0
 49
0.0
 49
0.0
 49
0.0208333333333333
 49
0.0
 49
0.0
 49
0.0
 49
0.0
 49
1.0
 49
0.0
 49
0.0
 49
0.0
 49
0.0
 49
1.0
175
     0
142
0.0208333333333333
142
0.0
142
0.0
142
0.0
142
0.0
142
0.0208333333333333
142
0.0
142
0.0
142
0.0
142
0.0
142
1.0
142
0.0
142
0.0
142
0.0
142
0.0
142
1.0
179
     0
144
0.0208333333333333
144
0.0
144
0.0
144
0.0
144
0.0
144
0.0208333333333333
144
0.0
144
0.0
144
0.0
144
0.0
144
1.0
144
0.0
144
0.0
144
0.0
144
0.0
144
1.0
147
0.0208333333333333
147
0.0
147
0.0
147
0.0
147
0.0
147
0.0208333333333333
147
0.0
147
0.0
147
0.0
147
0.0
147
1.0
147
0.0
147
0.0
147
0.0
147
0.0
147
1.0
  0
MLEADERSTYLE
  5
6E
102
{ACAD_REACTORS
330
6D
102
}
330
6D
100
AcDbMLeaderStyle
170
     2
171
     1
172
     0
 90
        2
 40
0.0
 41
0.0
173
     1
 91
-1056964608
340
62
 92
       -2
290
     1
 42
0.09
291
     1
 43
0.36
  3
Standard
 44
0.18
300

342
5D
174
     1
178
     6
175
     1
176
     0
 93
-1056964608
 45
0.18
292
     0
297
     0
 46
0.18
 94
-1056964608
 47
1.0
 49
1.0
140
1.0
293
     1
141
0.0
294
     1
177
     0
142
1.0
295
     0
296
     0
143
0.125
1001
ACAD_MLEADERVER
1070
     2
  0
MLINESTYLE
  5
67
102
{ACAD_REACTORS
330
66
102
}
330
66
100
AcDbMlineStyle
  2
STANDARD
 70
     0
  3

 62
   256
 51
90.0
 52
90.0
 71
     2
 49
0.5
 62
   256
  6
BYLAYER
 49
-0.5
 62
   256
  6
BYLAYER
  0
ACDBPLACEHOLDER
  5
F
102
{ACAD_REACTORS
330
E
102
}
330
E
  0
SCALE
  5
3B
102
{ACAD_REACTORS
330
3A
102
}
330
3A
100
AcDbScale
 70
     0
300
1:1
140
1.0
141
1.0
290
     1
  0
SCALE
  5
3C
102
{ACAD_REACTORS
330
3A
102
}
330
3A
100
AcDbScale
 70
     0
300
1:2
140
1.0
141
2.0
290
     0
  0
SCALE
  5
3D
102
{ACAD_REACTORS
330
3A
102
}
330
3A
100
AcDbScale
 70
     0
300
1:4
140
1.0
141
4.0
290
     0
  0
SCALE
  5
3E
102
{ACAD_REACTORS
330
3A
102
}
330
3A
100
AcDbScale
 70
     0
300
1:5
140
1.0
141
5.0
290
     0
  0
SCALE
  5
3F
102
{ACAD_REACTORS
330
3A
102
}
330
3A
100
AcDbScale
 70
     0
300
1:8
140
1.0
141
8.0
290
     0
  0
SCALE
  5
40
102
{ACAD_REACTORS
330
3A
102
}
330
3A
100
AcDbScale
 70
     0
300
1:10
140
1.0
141
10.0
290
     0
  0
SCALE
  5
41
102
{ACAD_REACTORS
330
3A
102
}
330
3A
100
AcDbScale
 70
     0
300
1:16
140
1.0
141
16.0
290
     0
  0
SCALE
  5
42
102
{ACAD_REACTORS
330
3A
102
}
330
3A
100
AcDbScale
 70
     0
300
1:20
140
1.0
141
20.0
290
     0
  0
SCALE
  5
43
102
{ACAD_REACTORS
330
3A
102
}
330
3A
100
AcDbScale
 70
     0
300
1:30
140
1.0
141
30.0
290
     0
  0
SCALE
  5
44
102
{ACAD_REACTORS
330
3A
102
}
330
3A
100
AcDbScale
 70
     0
300
1:40
140
1.0
141
40.0
290
     0
  0
SCALE
  5
45
102
{ACAD_REACTORS
330
3A
102
}
330
3A
100
AcDbScale
 70
     0
300
1:50
140
1.0
141
50.0
290
     0
  0
SCALE
  5
46
102
{ACAD_REACTORS
330
3A
102
}
330
3A
100
AcDbScale
 70
     0
300
1:100
140
1.0
141
100.0
290
     0
  0
SCALE
  5
47
102
{ACAD_REACTORS
330
3A
102
}
330
3A
100
AcDbScale
 70
     0
300
2:1
140
2.0
141
1.0
290
     0
  0
SCALE
  5
48
102
{ACAD_REACTORS
330
3A
102
}
330
3A
100
AcDbScale
 70
     0
300
4:1
140
4.0
141
1.0
290
     0
  0
SCALE
  5
49
102
{ACAD_REACTORS
330
3A
102
}
330
3A
100
AcDbScale
 70
     0
300
8:1
140
8.0
141
1.0
290
     0
  0
SCALE
  5
4A
102
{ACAD_REACTORS
330
3A
102
}
330
3A
100
AcDbScale
 70
     0
300
10:1
140
10.0
141
1.0
290
     0
  0
SCALE
  5
4B
102
{ACAD_REACTORS
330
3A
102
}
330
3A
100
AcDbScale
 70
     0
300
100:1
140
100.0
141
1.0
290
     0
  0
SCALE
  5
4C
102
{ACAD_REACTORS
330
3A
102
}
330
3A
100
AcDbScale
 70
     0
300
1/128" = 1'-0"
140
0.0078125
141
12.0
290
     0
  0
SCALE
  5
4D
102
{ACAD_REACTORS
330
3A
102
}
330
3A
100
AcDbScale
 70
     0
300
1/64" = 1'-0"
140
0.015625
141
12.0
290
     0
  0
SCALE
  5
4E
102
{ACAD_REACTORS
330
3A
102
}
330
3A
100
AcDbScale
 70
     0
300
1/32" = 1'-0"
140
0.03125
141
12.0
290
     0
  0
SCALE
  5
4F
102
{ACAD_REACTORS
330
3A
102
}
330
3A
100
AcDbScale
 70
     0
300
1/16" = 1'-0"
140
0.0625
141
12.0
290
     0
  0
SCALE
  5
50
102
{ACAD_REACTORS
330
3A
102
}
330
3A
100
AcDbScale
 70
     0
300
3/32" = 1'-0"
140
0.09375
141
12.0
290
     0
  0
SCALE
  5
51
102
{ACAD_REACTORS
330
3A
102
}
330
3A
100
AcDbScale
 70
     0
300
1/8" = 1'-0"
140
0.125
141
12.0
290
     0
  0
SCALE
  5
52
102
{ACAD_REACTORS
330
3A
102
}
330
3A
100
AcDbScale
 70
     0
300
3/16" = 1'-0"
140
0.1875
141
12.0
290
     0
  0
SCALE
  5
53
102
{ACAD_REACTORS
330
3A
102
}
330
3A
100
AcDbScale
 70
     0
300
1/4" = 1'-0"
140
0.25
141
12.0
290
     0
  0
SCALE
  5
54
102
{ACAD_REACTORS
330
3A
102
}
330
3A
100
AcDbScale
 70
     0
300
3/8" = 1'-0"
140
0.375
141
12.0
290
     0
  0
SCALE
  5
55
102
{ACAD_REACTORS
330
3A
102
}
330
3A
100
AcDbScale
 70
     0
300
1/2" = 1'-0"
140
0.5
141
12.0
290
     0
  0
SCALE
  5
56
102
{ACAD_REACTORS
330
3A
102
}
330
3A
100
AcDbScale
 70
     0
300
3/4" = 1'-0"
140
0.75
141
12.0
290
     0
  0
SCALE
  5
57
102
{ACAD_REACTORS
330
3A
102
}
330
3A
100
AcDbScale
 70
     0
300
1" = 1'-0"
140
1.0
141
12.0
290
     0
  0
SCALE
  5
58
102
{ACAD_REACTORS
330
3A
102
}
330
3A
100
AcDbScale
 70
     0
300
1-1/2" = 1'-0"
140
1.5
141
12.0
290
     0
  0
SCALE
  5
59
102
{ACAD_REACTORS
330
3A
102
}
330
3A
100
AcDbScale
 70
     0
300
3" = 1'-0"
140
3.0
141
12.0
290
     0
  0
SCALE
  5
5A
102
{ACAD_REACTORS
330
3A
102
}
330
3A
100
AcDbScale
 70
     0
300
6" = 1'-0"
140
6.0
141
12.0
290
     0
  0
SCALE
  5
5B
102
{ACAD_REACTORS
330
3A
102
}
330
3A
100
AcDbScale
 70
     0
300
1'-0" = 1'-0"
140
12.0
141
12.0
290
     0
  0
TABLESTYLE
  5
6C
102
{ACAD_XDICTIONARY
360
6AAC
102
}
102
{ACAD_REACTORS
330
6B
102
}
330
6B
100
AcDbTableStyle
  3
Standard
 70
     0
 71
     0
 40
0.06
 41
0.06
280
     0
281
     0
  7
STANDARD
140
0.18
170
     2
 62
     0
 63
     7
283
     0
274
    -2
284
     1
 64
     0
275
    -2
285
     1
 65
     0
276
    -2
286
     1
 66
     0
277
    -2
287
     1
 67
     0
278
    -2
288
     1
 68
     0
279
    -2
289
     1
 69
     0
  7
STANDARD
140
0.25
170
     5
 62
     0
 63
     7
283
     0
274
    -2
284
     1
 64
     0
275
    -2
285
     1
 65
     0
276
    -2
286
     1
 66
     0
277
    -2
287
     1
 67
     0
278
    -2
288
     1
 68
     0
279
    -2
289
     1
 69
     0
  7
STANDARD
140
0.18
170
     5
 62
     0
 63
     7
283
     0
274
    -2
284
     1
 64
     0
275
    -2
285
     1
 65
     0
276
    -2
286
     1
 66
     0
277
    -2
287
     1
 67
     0
278
    -2
288
     1
 68
     0
279
    -2
289
     1
 69
     0
  0
VISUALSTYLE
  5
2F
102
{ACAD_REACTORS
330
29
102
}
330
29
100
AcDbVisualStyle
  2
2dWireframe
 70
     4
 71
     0
 72
     2
 73
     0
 90
        0
 40
-0.6
 41
-30.0
 62
     5
 63
     7
 74
     1
 91
        4
 64
     7
 65
   257
 75
     1
175
     1
 42
1.0
 92
        0
 66
   257
 43
1.0
 76
     1
 77
     6
 78
     2
 67
     7
 79
     5
170
     0
171
     0
290
     0
174
     0
 93
        1
 44
0.0
173
     0
291
     0
 45
0.0
1001
ACAD
1000
AcDbSavedByObjectVersion
1070
     0
  0
VISUALSTYLE
  5
31
102
{ACAD_REACTORS
330
29
102
}
330
29
100
AcDbVisualStyle
  2
3D Hidden
 70
     6
 71
     1
 72
     2
 73
     2
 90
        0
 40
-0.6
 41
-30.0
 62
     5
 63
     7
 74
     2
 91
        2
 64
     7
 65
   257
 75
     2
175
     1
 42
40.0
 92
        0
 66
   257
 43
1.0
 76
     1
 77
     6
 78
     2
 67
     7
 79
     3
170
     0
171
     0
290
     0
174
     0
 93
        1
 44
0.0
173
     0
291
     0
 45
0.0
1001
ACAD
1000
AcDbSavedByObjectVersion
1070
     0
  0
VISUALSTYLE
  5
30
102
{ACAD_REACTORS
330
29
102
}
330
29
100
AcDbVisualStyle
  2
3dWireframe
 70
     5
 71
     0
 72
     2
 73
     0
 90
        0
 40
-0.6
 41
-30.0
 62
     5
 63
     7
 74
     1
 91
        4
 64
     7
 65
   257
 75
     1
175
     1
 42
1.0
 92
        0
 66
   257
 43
1.0
 76
     1
 77
     6
 78
     2
 67
     7
 79
     5
170
     0
171
     0
290
     0
174
     0
 93
        1
 44
0.0
173
     0
291
     0
 45
0.0
1001
ACAD
1000
AcDbSavedByObjectVersion
1070
     0
  0
VISUALSTYLE
  5
2E
102
{ACAD_REACTORS
330
29
102
}
330
29
100
AcDbVisualStyle
  2
Basic
 70
     7
 71
     1
 72
     0
 73
     1
 90
        0
 40
-0.6
 41
-30.0
 62
     5
 63
     7
 74
     0
 91
        4
 64
     7
 65
   257
 75
     1
175
     1
 42
1.0
 92
        8
 66
     7
 43
1.0
 76
     1
 77
     6
 78
     2
 67
     7
 79
     5
170
     0
171
     0
290
     0
174
     0
 93
        1
 44
0.0
173
     0
291
     1
 45
0.0
1001
ACAD
1000
AcDbSavedByObjectVersion
1070
     0
  0
VISUALSTYLE
  5
35
102
{ACAD_REACTORS
330
29
102
}
330
29
100
AcDbVisualStyle
  2
Brighten
 70
    12
 71
     2
 72
     2
 73
     0
 90
        0
 40
-0.6
 41
-30.0
 62
     5
 63
     7
 74
     1
 91
        4
 64
     7
 65
   257
 75
     1
175
     1
 42
1.0
 92
        8
 66
     7
 43
1.0
 76
     1
 77
     6
 78
     2
 67
     7
 79
     5
170
     0
171
     0
290
     0
174
     0
 93
        1
 44
50.0
173
     0
291
     1
 45
0.0
1001
ACAD
1000
AcDbSavedByObjectVersion
1070
     0
  0
VISUALSTYLE
  5
39
102
{ACAD_REACTORS
330
29
102
}
330
29
100
AcDbVisualStyle
  2
ColorChange
 70
    16
 71
     2
 72
     2
 73
     3
 90
        0
 40
-0.6
 41
-30.0
 62
     5
 63
     8
 74
     1
 91
        4
 64
     7
 65
   257
 75
     1
175
     1
 42
1.0
 92
        8
 66
     8
 43
1.0
 76
     1
 77
     6
 78
     2
 67
     7
 79
     5
170
     0
171
     0
290
     0
174
     0
 93
        1
 44
0.0
173
     0
291
     1
 45
0.0
1001
ACAD
1000
AcDbSavedByObjectVersion
1070
     0
  0
VISUALSTYLE
  5
32
102
{ACAD_REACTORS
330
29
102
}
330
29
100
AcDbVisualStyle
  2
Conceptual
 70
     9
 71
     3
 72
     2
 73
     0
 90
        0
 40
-0.6
 41
-30.0
 62
     5
 63
     7
 74
     2
 91
        2
 64
     7
 65
   257
 75
     1
175
     1
 42
40.0
 92
        8
 66
     7
 43
1.0
 76
     1
 77
     6
 78
     2
 67
     7
 79
     3
170
     0
171
     0
290
     0
174
     0
 93
        1
 44
0.0
173
     0
291
     0
 45
0.0
1001
ACAD
1000
AcDbSavedByObjectVersion
1070
     0
  0
VISUALSTYLE
  5
34
102
{ACAD_REACTORS
330
29
102
}
330
29
100
AcDbVisualStyle
  2
Dim
 70
    11
 71
     2
 72
     2
 73
     0
 90
        0
 40
-0.6
 41
-30.0
 62
     5
 63
     7
 74
     1
 91
        4
 64
     7
 65
   257
 75
     1
175
     1
 42
1.0
 92
        8
 66
     7
 43
1.0
 76
     1
 77
     6
 78
     2
 67
     7
 79
     5
170
     0
171
     0
290
     0
174
     0
 93
        1
 44
-50.0
173
     0
291
     1
 45
0.0
1001
ACAD
1000
AcDbSavedByObjectVersion
1070
     0
  0
VISUALSTYLE
  5
38
102
{ACAD_REACTORS
330
29
102
}
330
29
100
AcDbVisualStyle
  2
Facepattern
 70
    15
 71
     2
 72
     2
 73
     0
 90
        0
 40
-0.6
 41
-30.0
 62
     5
 63
     7
 74
     1
 91
        4
 64
     7
 65
   257
 75
     1
175
     1
 42
1.0
 92
        8
 66
     7
 43
1.0
 76
     1
 77
     6
 78
     2
 67
     7
 79
     5
170
     0
171
     0
290
     0
174
     0
 93
        1
 44
0.0
173
     0
291
     1
 45
0.0
1001
ACAD
1000
AcDbSavedByObjectVersion
1070
     0
  0
VISUALSTYLE
  5
2A
102
{ACAD_REACTORS
330
29
102
}
330
29
100
AcDbVisualStyle
  2
Flat
 70
     0
 71
     2
 72
     1
 73
     1
 90
        2
 40
-0.6
 41
30.0
 62
     5
 63
     7
 74
     0
 91
        4
 64
     7
 65
   257
 75
     1
175
     1
 42
1.0
 92
        8
 66
     7
 43
1.0
 76
     1
 77
     6
 78
     2
 67
     7
 79
     5
170
     0
171
     0
290
     0
174
     0
 93
       13
 44
0.0
173
     0
291
     1
 45
0.0
1001
ACAD
1000
AcDbSavedByObjectVersion
1070
     0
  0
VISUALSTYLE
  5
2B
102
{ACAD_REACTORS
330
29
102
}
330
29
100
AcDbVisualStyle
  2
FlatWithEdges
 70
     1
 71
     2
 72
     1
 73
     1
 90
        2
 40
-0.6
 41
30.0
 62
     5
 63
     7
 74
     1
 91
        4
 64
     7
 65
   257
 75
     1
175
     1
 42
1.0
 92
        0
 66
   257
 43
1.0
 76
     1
 77
     6
 78
     2
 67
     7
 79
     5
170
     0
171
     0
290
     0
174
     0
 93
       13
 44
0.0
173
     0
291
     1
 45
0.0
1001
ACAD
1000
AcDbSavedByObjectVersion
1070
     0
  0
VISUALSTYLE
  5
2C
102
{ACAD_REACTORS
330
29
102
}
330
29
100
AcDbVisualStyle
  2
Gouraud
 70
     2
 71
     2
 72
     2
 73
     1
 90
        2
 40
-0.6
 41
30.0
 62
     5
 63
     7
 74
     0
 91
        4
 64
     7
 65
   257
 75
     1
175
     1
 42
1.0
 92
        0
 66
     7
 43
1.0
 76
     1
 77
     6
 78
     2
 67
     7
 79
     5
170
     0
171
     0
290
     0
174
     0
 93
       13
 44
0.0
173
     0
291
     1
 45
0.0
1001
ACAD
1000
AcDbSavedByObjectVersion
1070
     0
  0
VISUALSTYLE
  5
2D
102
{ACAD_REACTORS
330
29
102
}
330
29
100
AcDbVisualStyle
  2
GouraudWithEdges
 70
     3
 71
     2
 72
     2
 73
     1
 90
        2
 40
-0.6
 41
30.0
 62
     5
 63
     7
 74
     1
 91
        4
 64
     7
 65
   257
 75
     1
175
     1
 42
1.0
 92
        0
 66
   257
 43
1.0
 76
     1
 77
     6
 78
     2
 67
     7
 79
     5
170
     0
171
     0
290
     0
174
     0
 93
       13
 44
0.0
173
     0
291
     1
 45
0.0
1001
ACAD
1000
AcDbSavedByObjectVersion
1070
     0
  0
VISUALSTYLE
  5
37
102
{ACAD_REACTORS
330
29
102
}
330
29
100
AcDbVisualStyle
  2
Linepattern
 70
    14
 71
     2
 72
     2
 73
     0
 90
        0
 40
-0.6
 41
-30.0
 62
     5
 63
     7
 74
     1
 91
        4
 64
     7
 65
   257
 75
     7
175
     7
 42
1.0
 92
        8
 66
     7
 43
1.0
 76
     1
 77
     6
 78
     2
 67
     7
 79
     5
170
     0
171
     0
290
     0
174
     0
 93
        1
 44
0.0
173
     0
291
     1
 45
0.0
1001
ACAD
1000
AcDbSavedByObjectVersion
1070
     0
  0
VISUALSTYLE
  5
33
102
{ACAD_REACTORS
330
29
102
}
330
29
100
AcDbVisualStyle
  2
Realistic
 70
     8
 71
     2
 72
     2
 73
     0
 90
        0
 40
-0.6
 41
-30.0
 62
     5
 63
     7
 74
     1
 91
        0
 64
     7
 65
   257
 75
     1
175
     1
 42
1.0
 92
        8
 66
     8
 43
1.0
 76
     1
 77
     6
 78
     2
 67
     7
 79
     5
170
     0
171
     0
290
     0
174
     0
 93
       13
 44
0.0
173
     0
291
     0
 45
0.0
1001
ACAD
1000
AcDbSavedByObjectVersion
1070
     0
  0
VISUALSTYLE
  5
36
102
{ACAD_REACTORS
330
29
102
}
330
29
100
AcDbVisualStyle
  2
Thicken
 70
    13
 71
     2
 72
     2
 73
     0
 90
        0
 40
-0.6
 41
-30.0
 62
     5
 63
     7
 74
     1
 91
        4
 64
     7
 65
   257
 75
     1
175
     1
 42
1.0
 92
       12
 66
     7
 43
1.0
 76
     1
 77
     6
 78
     2
 67
     7
 79
     5
170
     0
171
     0
290
     0
174
     0
 93
        1
 44
0.0
173
     0
291
     1
 45
0.0
1001
ACAD
1000
AcDbSavedByObjectVersion
1070
     0
  0
DICTIONARYVAR
  5
6AC9
102
{ACAD_REACTORS
330
6AC6
102
}
330
6AC6
100
DictionaryVariables
280
     0
  1
1:1
  0
DICTIONARYVAR
  5
6AC8
102
{ACAD_REACTORS
330
6AC6
102
}
330
6AC6
100
DictionaryVariables
280
     0
  1
STANDARD
  0
DICTIONARYVAR
  5
6AC7
102
{ACAD_REACTORS
330
6AC6
102
}
330
6AC6
100
DictionaryVariables
280
     0
  1
STANDARD
  0
DICTIONARYVAR
  5
6ACC
102
{ACAD_REACTORS
330
6AC6
102
}
330
6AC6
100
DictionaryVariables
280
     0
  1
0
  0
DICTIONARYVAR
  5
6ACB
102
{ACAD_REACTORS
330
6AC6
102
}
330
6AC6
100
DictionaryVariables
280
     0
  1
0
  0
DICTIONARYVAR
  5
6B32
102
{ACAD_REACTORS
330
6AC6
102
}
330
6AC6
100
DictionaryVariables
280
     0
  1
0
  0
DICTIONARYVAR
  5
6B31
102
{ACAD_REACTORS
330
6AC6
102
}
330
6AC6
100
DictionaryVariables
280
     0
  1
0
  0
DICTIONARYVAR
  5
6ACA
102
{ACAD_REACTORS
330
6AC6
102
}
330
6AC6
100
DictionaryVariables
280
     0
  1
127
  0
DICTIONARY
  5
6F0F
330
77
100
AcDbDictionary
280
     1
281
     1
  3
ACAD_XREC_ROUNDTRIP
360
6F10
  0
DICTIONARY
  5
6F0D
330
73
100
AcDbDictionary
280
     1
281
     1
  3
ACAD_XREC_ROUNDTRIP
360
6F0E
  0
DICTIONARY
  5
1A
330
19
100
AcDbDictionary
280
     1
281
     1
  3
ACAD_XREC_ROUNDTRIP
360
6F0A
  3
BUMPTILE
360
1C
  3
DIFFUSETILE
360
1B
  3
OPACITYTILE
360
1F
  3
REFLECTIONTILE
360
1E
  3
REFRACTIONTILE
360
20
  3
SPECULARTILE
360
1D
  0
DICTIONARY
  5
12
330
11
100
AcDbDictionary
280
     1
281
     1
  3
ACAD_XREC_ROUNDTRIP
360
6F09
  3
BUMPTILE
360
14
  3
DIFFUSETILE
360
13
  3
OPACITYTILE
360
17
  3
REFLECTIONTILE
360
16
  3
REFRACTIONTILE
360
18
  3
SPECULARTILE
360
15
  0
DICTIONARY
  5
22
330
21
100
AcDbDictionary
280
     1
281
     1
  3
ACAD_XREC_ROUNDTRIP
360
6F0B
  3
BUMPTILE
360
24
  3
DIFFUSETILE
360
23
  3
OPACITYTILE
360
27
  3
REFLECTIONTILE
360
26
  3
REFRACTIONTILE
360
28
  3
SPECULARTILE
360
25
  0
DICTIONARY
  5
6AAC
330
6C
100
AcDbDictionary
280
     1
281
     1
  3
ACAD_ROUNDTRIP_2008_TABLESTYLE_CELLSTYLEMAP
360
6F07
  3
ACAD_XREC_ROUNDTRIP
360
6F0C
  0
XRECORD
  5
6F10
102
{ACAD_REACTORS
330
6F0F
102
}
330
6F0F
100
AcDbXrecord
280
     1
102
SHADEPLOT
 70
     1
102
SHADEPLOTRESLEVEL
 70
     2
102
SHADEPLOTCUSTOMDPI
 70
   300
  0
XRECORD
  5
6F0E
102
{ACAD_REACTORS
330
6F0D
102
}
330
6F0D
100
AcDbXrecord
280
     1
102
SHADEPLOT
 70
     0
102
SHADEPLOTRESLEVEL
 70
     2
102
SHADEPLOTCUSTOMDPI
 70
   300
  0
XRECORD
  5
6F0A
102
{ACAD_REACTORS
330
1A
102
}
330
1A
100
AcDbXrecord
280
     1
102
MATERIAL
148
0.0
149
0.0
149
0.0
 93
        0
 94
      127
282
     0
 72
     0
 77
     0
171
     0
175
     0
179
     0
273
     0
  0
XRECORD
  5
1C
102
{ACAD_REACTORS
330
1A
102
}
330
1A
100
AcDbXrecord
280
     1
270
     1
271
     1
  0
XRECORD
  5
1B
102
{ACAD_REACTORS
330
1A
102
}
330
1A
100
AcDbXrecord
280
     1
270
     1
271
     1
  0
XRECORD
  5
1F
102
{ACAD_REACTORS
330
1A
102
}
330
1A
100
AcDbXrecord
280
     1
270
     1
271
     1
  0
XRECORD
  5
1E
102
{ACAD_REACTORS
330
1A
102
}
330
1A
100
AcDbXrecord
280
     1
270
     1
271
     1
  0
XRECORD
  5
20
102
{ACAD_REACTORS
330
1A
102
}
330
1A
100
AcDbXrecord
280
     1
270
     1
271
     1
  0
XRECORD
  5
1D
102
{ACAD_REACTORS
330
1A
102
}
330
1A
100
AcDbXrecord
280
     1
270
     1
271
     1
  0
XRECORD
  5
6F09
102
{ACAD_REACTORS
330
12
102
}
330
12
100
AcDbXrecord
280
     1
102
MATERIAL
148
0.0
149
0.0
149
0.0
 93
        0
 94
      127
282
     0
 72
     0
 77
     0
171
     0
175
     0
179
     0
273
     0
  0
XRECORD
  5
14
102
{ACAD_REACTORS
330
12
102
}
330
12
100
AcDbXrecord
280
     1
270
     1
271
     1
  0
XRECORD
  5
13
102
{ACAD_REACTORS
330
12
102
}
330
12
100
AcDbXrecord
280
     1
270
     1
271
     1
  0
XRECORD
  5
17
102
{ACAD_REACTORS
330
12
102
}
330
12
100
AcDbXrecord
280
     1
270
     1
271
     1
  0
XRECORD
  5
16
102
{ACAD_REACTORS
330
12
102
}
330
12
100
AcDbXrecord
280
     1
270
     1
271
     1
  0
XRECORD
  5
18
102
{ACAD_REACTORS
330
12
102
}
330
12
100
AcDbXrecord
280
     1
270
     1
271
     1
  0
XRECORD
  5
15
102
{ACAD_REACTORS
330
12
102
}
330
12
100
AcDbXrecord
280
     1
270
     1
271
     1
  0
XRECORD
  5
6F0B
102
{ACAD_REACTORS
330
22
102
}
330
22
100
AcDbXrecord
280
     1
102
MATERIAL
148
0.0
149
0.0
149
0.0
 93
        0
 94
      127
282
     0
 72
     0
 77
     0
171
     0
175
     0
179
     0
273
     0
  0
XRECORD
  5
24
102
{ACAD_REACTORS
330
22
102
}
330
22
100
AcDbXrecord
280
     1
270
     1
271
     1
  0
XRECORD
  5
23
102
{ACAD_REACTORS
330
22
102
}
330
22
100
AcDbXrecord
280
     1
270
     1
271
     1
  0
XRECORD
  5
27
102
{ACAD_REACTORS
330
22
102
}
330
22
100
AcDbXrecord
280
     1
270
     1
271
     1
  0
XRECORD
  5
26
102
{ACAD_REACTORS
330
22
102
}
330
22
100
AcDbXrecord
280
     1
270
     1
271
     1
  0
XRECORD
  5
28
102
{ACAD_REACTORS
330
22
102
}
330
22
100
AcDbXrecord
280
     1
270
     1
271
     1
  0
XRECORD
  5
25
102
{ACAD_REACTORS
330
22
102
}
330
22
100
AcDbXrecord
280
     1
270
     1
271
     1
  0
CELLSTYLEMAP
  5
6F07
102
{ACAD_REACTORS
330
6AAC
102
}
330
6AAC
100
AcDbCellStyleMap
 90
        3
300
CELLSTYLE
  1
TABLEFORMAT_BEGIN
 90
        5
170
     1
 91
        0
 92
    32768
 62
   257
 93
        1
300
CONTENTFORMAT
  1
CONTENTFORMAT_BEGIN
 90
        0
 91
        0
 92
      512
 93
        0
300

 40
0.0
140
1.0
 94
        5
 62
     0
340
5D
144
0.25
309
CONTENTFORMAT_END
171
     1
301
MARGIN
  1
CELLMARGIN_BEGIN
 40
0.06
 40
0.06
 40
0.06
 40
0.06
 40
0.18
 40
0.18
309
CELLMARGIN_END
 94
        6
 95
        1
302
GRIDFORMAT
  1
GRIDFORMAT_BEGIN
 90
        0
 91
        1
 62
     0
 92
       -2
340
0
 93
        0
 40
0.045
309
GRIDFORMAT_END
 95
        2
302
GRIDFORMAT
  1
GRIDFORMAT_BEGIN
 90
        0
 91
        1
 62
     0
 92
       -2
340
0
 93
        0
 40
0.045
309
GRIDFORMAT_END
 95
        4
302
GRIDFORMAT
  1
GRIDFORMAT_BEGIN
 90
        0
 91
        1
 62
     0
 92
       -2
340
0
 93
        0
 40
0.045
309
GRIDFORMAT_END
 95
        8
302
GRIDFORMAT
  1
GRIDFORMAT_BEGIN
 90
        0
 91
        1
 62
     0
 92
       -2
340
0
 93
        0
 40
0.045
309
GRIDFORMAT_END
 95
       16
302
GRIDFORMAT
  1
GRIDFORMAT_BEGIN
 90
        0
 91
        1
 62
     0
 92
       -2
340
0
 93
        0
 40
0.045
309
GRIDFORMAT_END
 95
       32
302
GRIDFORMAT
  1
GRIDFORMAT_BEGIN
 90
        0
 91
        1
 62
     0
 92
       -2
340
0
 93
        0
 40
0.045
309
GRIDFORMAT_END
309
TABLEFORMAT_END
  1
CELLSTYLE_BEGIN
 90
        1
 91
        1
300
_TITLE
309
CELLSTYLE_END
300
CELLSTYLE
  1
TABLEFORMAT_BEGIN
 90
        5
170
     1
 91
        0
 92
        0
 62
   257
 93
        1
300
CONTENTFORMAT
  1
CONTENTFORMAT_BEGIN
 90
        0
 91
        0
 92
      512
 93
        0
300

 40
0.0
140
1.0
 94
        5
 62
     0
340
5D
144
0.18
309
CONTENTFORMAT_END
171
     1
301
MARGIN
  1
CELLMARGIN_BEGIN
 40
0.06
 40
0.06
 40
0.06
 40
0.06
 40
0.18
 40
0.18
309
CELLMARGIN_END
 94
        6
 95
        1
302
GRIDFORMAT
  1
GRIDFORMAT_BEGIN
 90
        0
 91
        1
 62
     0
 92
       -2
340
0
 93
        0
 40
0.045
309
GRIDFORMAT_END
 95
        2
302
GRIDFORMAT
  1
GRIDFORMAT_BEGIN
 90
        0
 91
        1
 62
     0
 92
       -2
340
0
 93
        0
 40
0.045
309
GRIDFORMAT_END
 95
        4
302
GRIDFORMAT
  1
GRIDFORMAT_BEGIN
 90
        0
 91
        1
 62
     0
 92
       -2
340
0
 93
        0
 40
0.045
309
GRIDFORMAT_END
 95
        8
302
GRIDFORMAT
  1
GRIDFORMAT_BEGIN
 90
        0
 91
        1
 62
     0
 92
       -2
340
0
 93
        0
 40
0.045
309
GRIDFORMAT_END
 95
       16
302
GRIDFORMAT
  1
GRIDFORMAT_BEGIN
 90
        0
 91
        1
 62
     0
 92
       -2
340
0
 93
        0
 40
0.045
309
GRIDFORMAT_END
 95
       32
302
GRIDFORMAT
  1
GRIDFORMAT_BEGIN
 90
        0
 91
        1
 62
     0
 92
       -2
340
0
 93
        0
 40
0.045
309
GRIDFORMAT_END
309
TABLEFORMAT_END
  1
CELLSTYLE_BEGIN
 90
        2
 91
        1
300
_HEADER
309
CELLSTYLE_END
300
CELLSTYLE
  1
TABLEFORMAT_BEGIN
 90
        5
170
     1
 91
        0
 92
        0
 62
   257
 93
        1
300
CONTENTFORMAT
  1
CONTENTFORMAT_BEGIN
 90
        0
 91
        0
 92
      512
 93
        0
300

 40
0.0
140
1.0
 94
        2
 62
     0
340
5D
144
0.18
309
CONTENTFORMAT_END
171
     1
301
MARGIN
  1
CELLMARGIN_BEGIN
 40
0.06
 40
0.06
 40
0.06
 40
0.06
 40
0.18
 40
0.18
309
CELLMARGIN_END
 94
        6
 95
        1
302
GRIDFORMAT
  1
GRIDFORMAT_BEGIN
 90
        0
 91
        1
 62
     0
 92
       -2
340
0
 93
        0
 40
0.045
309
GRIDFORMAT_END
 95
        2
302
GRIDFORMAT
  1
GRIDFORMAT_BEGIN
 90
        0
 91
        1
 62
     0
 92
       -2
340
0
 93
        0
 40
0.045
309
GRIDFORMAT_END
 95
        4
302
GRIDFORMAT
  1
GRIDFORMAT_BEGIN
 90
        0
 91
        1
 62
     0
 92
       -2
340
0
 93
        0
 40
0.045
309
GRIDFORMAT_END
 95
        8
302
GRIDFORMAT
  1
GRIDFORMAT_BEGIN
 90
        0
 91
        1
 62
     0
 92
       -2
340
0
 93
        0
 40
0.045
309
GRIDFORMAT_END
 95
       16
302
GRIDFORMAT
  1
GRIDFORMAT_BEGIN
 90
        0
 91
        1
 62
     0
 92
       -2
340
0
 93
        0
 40
0.045
309
GRIDFORMAT_END
 95
       32
302
GRIDFORMAT
  1
GRIDFORMAT_BEGIN
 90
        0
 91
        1
 62
     0
 92
       -2
340
0
 93
        0
 40
0.045
309
GRIDFORMAT_END
309
TABLEFORMAT_END
  1
CELLSTYLE_BEGIN
 90
        3
 91
        2
300
_DATA
309
CELLSTYLE_END
  0
XRECORD
  5
6F0C
102
{ACAD_REACTORS
330
6AAC
102
}
330
6AAC
100
AcDbXrecord
280
     1
102
ACAD_ROUNDTRIP_PRE2007_TABLESTYLE
 90
      512
 91
        0
  1

 92
      512
 93
        0
  2

 94
      512
 95
        0
  3

  0
ENDSEC
  0
EOF
